999
DXF file: _cgs_temp_output.dxf
999
Pro/ENGINEER 2016360 by Parametric Technology Corporation
  0
SECTION
  2
HEADER
  9
$ACADVER
  1
AC1021
  9
$DWGCODEPAGE
  3
ANSI_1252
  9
$EXTMAX
 10
22.0
 20
17.0
 30
0.0
  9
$EXTMIN
 10
0.0
 20
0.0
 30
0.0
  9
$LIMMIN
 10
0.0
 20
0.0
  9
$LIMMAX
 10
22.0
 20
17.0
  9
$VIEWCTR
 10
11.0
 20
8.5
  9
$VIEWSIZE
 40
17.0
  9
$CLAYER
  8
0
  9
$LTSCALE
 40
1.21
  9
$CELTYPE
  6
BYLAYER
  9
$DIMSCALE
 40
1.0
  9
$DIMASZ
 40
0.1875
  9
$DIMEXO
 40
0.0625
  9
$DIMDLI
 40
0.836
  9
$DIMEXE
 40
0.125
  9
$DIMCEN
 40
0.198
  9
$DIMLFAC
 40
1.0
  9
$DIMBLK
  1
_CLOSED
  9
$DIMALT
 70
0
  9
$DIMALTF
 40
25.4
  9
$DIMTXT
 40
0.15625
  9
$DIMTOL
 70
0
  9
$DIMLIM
 70
0
  9
$DIMTFAC
 40
1.0
  9
$DIMGAP
 40
0.09
  9
$DIMDSEP
 70
46
  9
$AUNITS
 70
0
  9
$PDMODE
 70
3
  9
$PDSIZE
 40
0.3125
  9
$HANDSEED
  5
2DD
  9
$TILEMODE
 70
1
  9
$MEASUREMENT
 70
0
  9
$INSUNITS
 70
1
  0
ENDSEC
  0
SECTION
  2
CLASSES
  0
CLASS
  1
ACDBDICTIONARYWDFLT
  2
AcDbDictionaryWithDefault
  3
AutoCAD 2000
 90
0
 91
1
280
0
281
0
  0
CLASS
  1
ACDBPLACEHOLDER
  2
AcDbPlaceHolder
  3
AutoCAD 2000
 90
0
 91
1
280
0
281
0
  0
CLASS
  1
LAYOUT
  2
AcDbLayout
  3
AutoCAD 2000
 90
0
 91
0
280
0
281
0
  0
ENDSEC
  0
SECTION
  2
TABLES
  0
TABLE
  2
VPORT
  5
8
100
AcDbSymbolTable
 70
2
  0
VPORT
  5
1F4
100
AcDbSymbolTableRecord
100
AcDbViewportTableRecord
  2
*ACTIVE
 70
0
 10
0.0
 20
0.0
 11
1.0
 21
1.0
 12
11.0
 22
8.5
 13
0.0
 23
0.0
 14
1.0
 24
1.0
 15
0.0
 25
0.0
 16
0.0
 26
0.0
 36
1.0
 17
0.0
 27
0.0
 37
0.0
 40
17.0
 41
1.2941176471
 42
50.0
 43
0.0
 44
0.0
 50
0.0
 51
0.0
 71
0
 72
100
 73
1
 74
1
 75
0
 76
0
 77
0
 78
0
  0
ENDTAB
  0
TABLE
  2
LTYPE
  5
5
100
AcDbSymbolTable
 70
6
  0
LTYPE
  5
14
100
AcDbSymbolTableRecord
100
AcDbLinetypeTableRecord
  2
BYBLOCK
 70
0
  3

 72
65
 73
0
 40
0.0
  0
LTYPE
  5
15
100
AcDbSymbolTableRecord
100
AcDbLinetypeTableRecord
  2
BYLAYER
 70
0
  3

 72
65
 73
0
 40
0.0
  0
LTYPE
  5
16
100
AcDbSymbolTableRecord
100
AcDbLinetypeTableRecord
  2
CONTINUOUS
 70
64
  3
Solid line
 72
65
 73
0
 40
0.0
  0
LTYPE
  5
1F5
100
AcDbSymbolTableRecord
100
AcDbLinetypeTableRecord
  2
CENTER
 70
64
  3
____ _ ____ _ ____ _ ____ _ ____ _ ____ _ ____
 72
65
 73
4
 40
0.6
 49
0.375
 74
0
 49
-0.075
 74
0
 49
0.075
 74
0
 49
-0.075
 74
0
  0
LTYPE
  5
1F6
100
AcDbSymbolTableRecord
100
AcDbLinetypeTableRecord
  2
HIDDEN
 70
64
  3
- - - - - - - - - - - - - - - - - - - -
 72
65
 73
2
 40
0.2
 49
0.1
 74
0
 49
-0.1
 74
0
  0
LTYPE
  5
1F7
100
AcDbSymbolTableRecord
100
AcDbLinetypeTableRecord
  2
PHANTOM
 70
64
  3
_____ _ _ _____ _ _ _____ _ _ _____
 72
65
 73
6
 40
0.8
 49
0.45
 74
0
 49
-0.05
 74
0
 49
0.1
 74
0
 49
-0.05
 74
0
 49
0.1
 74
0
 49
-0.05
 74
0
  0
LTYPE
  5
1F8
100
AcDbSymbolTableRecord
100
AcDbLinetypeTableRecord
  2
DOT
 70
64
  3
. . . . . . . . . . . . . . . . . . . .
 72
65
 73
2
 40
0.2
 49
0.1
 74
0
 49
-0.1
 74
0
  0
LTYPE
  5
1F9
100
AcDbSymbolTableRecord
100
AcDbLinetypeTableRecord
  2
DASHED
 70
64
  3
- - - - - - - - - - - - - - - - - - - -
 72
65
 73
2
 40
0.2
 49
0.1
 74
0
 49
-0.1
 74
0
  0
ENDTAB
  0
TABLE
  2
LAYER
  5
2
100
AcDbSymbolTable
 70
36
  0
LAYER
  5
10
100
AcDbSymbolTableRecord
100
AcDbLayerTableRecord
  2
0
 70
0
 62
7
  6
CONTINUOUS
370
-3
390
F
  0
LAYER
  5
1FA
100
AcDbSymbolTableRecord
100
AcDbLayerTableRecord
  2
DEFAULT_1
 70
0
 62
7
  6
CENTER
370
-3
390
F
  0
LAYER
  5
1FB
100
AcDbSymbolTableRecord
100
AcDbLayerTableRecord
  2
DEFAULT_2
 70
0
 62
8
  6
HIDDEN
370
-3
390
F
  0
LAYER
  5
1FC
100
AcDbSymbolTableRecord
100
AcDbLayerTableRecord
  2
DEFAULT_3
 70
0
 62
7
  6
PHANTOM
370
-3
390
F
  0
LAYER
  5
1FD
100
AcDbSymbolTableRecord
100
AcDbLayerTableRecord
  2
01_ALL_DTM_PLN
 70
0
 62
7
  6
CONTINUOUS
370
-3
390
F
  0
LAYER
  5
1FE
100
AcDbSymbolTableRecord
100
AcDbLayerTableRecord
  2
01__ASM_ALL_DTM_PLN
 70
0
 62
7
  6
CONTINUOUS
370
-3
390
F
  0
LAYER
  5
1FF
100
AcDbSymbolTableRecord
100
AcDbLayerTableRecord
  2
01__ASM_DEF_DTM_PLN
 70
0
 62
7
  6
CONTINUOUS
370
-3
390
F
  0
LAYER
  5
200
100
AcDbSymbolTableRecord
100
AcDbLayerTableRecord
  2
01___PRT_ALL_DTM_PLN
 70
0
 62
7
  6
CONTINUOUS
370
-3
390
F
  0
LAYER
  5
201
100
AcDbSymbolTableRecord
100
AcDbLayerTableRecord
  2
01___PRT_DEF_DTM_PLN
 70
0
 62
7
  6
CONTINUOUS
370
-3
390
F
  0
LAYER
  5
202
100
AcDbSymbolTableRecord
100
AcDbLayerTableRecord
  2
02_ALL_AXES
 70
0
 62
7
  6
CONTINUOUS
370
-3
390
F
  0
LAYER
  5
203
100
AcDbSymbolTableRecord
100
AcDbLayerTableRecord
  2
02__ASM_ALL_AXES
 70
0
 62
7
  6
CONTINUOUS
370
-3
390
F
  0
LAYER
  5
204
100
AcDbSymbolTableRecord
100
AcDbLayerTableRecord
  2
02___PRT_ALL_AXES
 70
0
 62
7
  6
CONTINUOUS
370
-3
390
F
  0
LAYER
  5
205
100
AcDbSymbolTableRecord
100
AcDbLayerTableRecord
  2
03_ALL_CURVES
 70
0
 62
7
  6
CONTINUOUS
370
-3
390
F
  0
LAYER
  5
206
100
AcDbSymbolTableRecord
100
AcDbLayerTableRecord
  2
03__ASM_ALL_CURVES
 70
0
 62
7
  6
CONTINUOUS
370
-3
390
F
  0
LAYER
  5
207
100
AcDbSymbolTableRecord
100
AcDbLayerTableRecord
  2
03___PRT_ALL_CURVES
 70
0
 62
7
  6
CONTINUOUS
370
-3
390
F
  0
LAYER
  5
208
100
AcDbSymbolTableRecord
100
AcDbLayerTableRecord
  2
04_ALL_DTM_PNT
 70
0
 62
7
  6
CONTINUOUS
370
-3
390
F
  0
LAYER
  5
209
100
AcDbSymbolTableRecord
100
AcDbLayerTableRecord
  2
04__ASM_ALL_DTM_PNT
 70
0
 62
7
  6
CONTINUOUS
370
-3
390
F
  0
LAYER
  5
20A
100
AcDbSymbolTableRecord
100
AcDbLayerTableRecord
  2
04___PRT_ALL_DTM_PNT
 70
0
 62
7
  6
CONTINUOUS
370
-3
390
F
  0
LAYER
  5
20B
100
AcDbSymbolTableRecord
100
AcDbLayerTableRecord
  2
05_ALL_DTM_CSYS
 70
0
 62
7
  6
CONTINUOUS
370
-3
390
F
  0
LAYER
  5
20C
100
AcDbSymbolTableRecord
100
AcDbLayerTableRecord
  2
05__ASM_ALL_DTM_CSYS
 70
0
 62
7
  6
CONTINUOUS
370
-3
390
F
  0
LAYER
  5
20D
100
AcDbSymbolTableRecord
100
AcDbLayerTableRecord
  2
05__ASM_DEF_DTM_CSYS
 70
0
 62
7
  6
CONTINUOUS
370
-3
390
F
  0
LAYER
  5
20E
100
AcDbSymbolTableRecord
100
AcDbLayerTableRecord
  2
05___PRT_ALL_DTM_CSYS
 70
0
 62
7
  6
CONTINUOUS
370
-3
390
F
  0
LAYER
  5
20F
100
AcDbSymbolTableRecord
100
AcDbLayerTableRecord
  2
05___PRT_DEF_DTM_CSYS
 70
0
 62
7
  6
CONTINUOUS
370
-3
390
F
  0
LAYER
  5
210
100
AcDbSymbolTableRecord
100
AcDbLayerTableRecord
  2
06_ALL_SURFS
 70
0
 62
7
  6
CONTINUOUS
370
-3
390
F
  0
LAYER
  5
211
100
AcDbSymbolTableRecord
100
AcDbLayerTableRecord
  2
06__ASM_ALL_SURFS
 70
0
 62
7
  6
CONTINUOUS
370
-3
390
F
  0
LAYER
  5
212
100
AcDbSymbolTableRecord
100
AcDbLayerTableRecord
  2
06___PRT_ALL_SURFS
 70
0
 62
7
  6
CONTINUOUS
370
-3
390
F
  0
LAYER
  5
213
100
AcDbSymbolTableRecord
100
AcDbLayerTableRecord
  2
07__ASM_ALL_SKELETONS
 70
0
 62
7
  6
CONTINUOUS
370
-3
390
F
  0
LAYER
  5
214
100
AcDbSymbolTableRecord
100
AcDbLayerTableRecord
  2
LAYER_AXIS
 70
0
 62
7
  6
CONTINUOUS
370
-3
390
F
  0
LAYER
  5
215
100
AcDbSymbolTableRecord
100
AcDbLayerTableRecord
  2
LAYER_CHAMFER_FEAT
 70
0
 62
7
  6
CONTINUOUS
370
-3
390
F
  0
LAYER
  5
216
100
AcDbSymbolTableRecord
100
AcDbLayerTableRecord
  2
LAYER_CUT_FEAT
 70
0
 62
7
  6
CONTINUOUS
370
-3
390
F
  0
LAYER
  5
217
100
AcDbSymbolTableRecord
100
AcDbLayerTableRecord
  2
LAYER_DATUM
 70
0
 62
7
  6
CONTINUOUS
370
-3
390
F
  0
LAYER
  5
218
100
AcDbSymbolTableRecord
100
AcDbLayerTableRecord
  2
LAYER_DIM
 70
0
 62
7
  6
CONTINUOUS
370
-3
390
F
  0
LAYER
  5
219
100
AcDbSymbolTableRecord
100
AcDbLayerTableRecord
  2
LAYER_FEATURE
 70
0
 62
7
  6
CONTINUOUS
370
-3
390
F
  0
LAYER
  5
21A
100
AcDbSymbolTableRecord
100
AcDbLayerTableRecord
  2
LAYER_GEOM_FEAT
 70
0
 62
7
  6
CONTINUOUS
370
-3
390
F
  0
LAYER
  5
21B
100
AcDbSymbolTableRecord
100
AcDbLayerTableRecord
  2
LAYER_NOGEOM_FEAT
 70
0
 62
7
  6
CONTINUOUS
370
-3
390
F
  0
LAYER
  5
21C
100
AcDbSymbolTableRecord
100
AcDbLayerTableRecord
  2
LAYER_PARAMETER_DIM
 70
0
 62
7
  6
CONTINUOUS
370
-3
390
F
  0
LAYER
  5
21D
100
AcDbSymbolTableRecord
100
AcDbLayerTableRecord
  2
LAYER_PROTRUSION_FEAT
 70
0
 62
7
  6
CONTINUOUS
370
-3
390
F
  0
LAYER
  5
21E
100
AcDbSymbolTableRecord
100
AcDbLayerTableRecord
  2
LAYER_QUILT
 70
0
 62
7
  6
CONTINUOUS
370
-3
390
F
  0
LAYER
  5
21F
100
AcDbSymbolTableRecord
100
AcDbLayerTableRecord
  2
LAYER_ROUND_FEAT
 70
0
 62
7
  6
CONTINUOUS
370
-3
390
F
  0
ENDTAB
  0
TABLE
  2
STYLE
  5
3
100
AcDbSymbolTable
 70
1
  0
STYLE
  5
11
100
AcDbSymbolTableRecord
100
AcDbTextStyleTableRecord
  2
STANDARD
 70
0
 40
0.0
 41
0.8
 50
0.0
 71
0
 42
0.2
  3
txt
  4

  0
STYLE
  5
220
100
AcDbSymbolTableRecord
100
AcDbTextStyleTableRecord
  2
TEXTSTYLE_1
 70
0
 40
0.0
 41
0.8
 50
0.0
 71
0
 42
0.2
  3
gdt
  4

  0
ENDTAB
  0
TABLE
  2
VIEW
  5
6
100
AcDbSymbolTable
 70
0
  0
ENDTAB
  0
TABLE
  2
UCS
  5
7
100
AcDbSymbolTable
 70
0
  0
ENDTAB
  0
TABLE
  2
APPID
  5
9
100
AcDbSymbolTable
 70
1
  0
APPID
  5
221
100
AcDbSymbolTableRecord
100
AcDbRegAppTableRecord
  2
ACAD
 70
0
  0
ENDTAB
  0
TABLE
  2
BLOCK_RECORD
  5
1
100
AcDbSymbolTable
 70
0
  0
BLOCK_RECORD
  5
222
100
AcDbSymbolTableRecord
100
AcDbBlockTableRecord
  2
*Model_Space
  0
BLOCK_RECORD
  5
223
100
AcDbSymbolTableRecord
100
AcDbBlockTableRecord
  2
*Paper_Space
  0
ENDTAB
  0
TABLE
  2
DIMSTYLE
  5
A
100
AcDbSymbolTable
 70
1
100
AcDbDimStyleTable
 71
0
  0
DIMSTYLE
105
224
100
AcDbSymbolTableRecord
100
AcDbDimStyleTableRecord
  2
STANDARD
 70
0
  3

  4

 40
1.0
 41
0.1875
 42
0.0625
 43
0.38
 44
0.125
 45
0.0
 46
0.0
 47
0.0001
 48
0.0001
140
0.15625
141
0.09
142
0.0
143
25.4
144
1.0
145
0.0
146
1.0
147
0.09
 71
0.0
 72
0.0
 73
1
 74
1
 75
0
 76
0
 77
0
 78
4
 79
1
170
0
171
3
172
0
173
0
174
0
175
0
176
0
177
0
178
0
270
2
179
4
271
4
272
4
273
2
274
2
275
0
280
0
281
0
282
0
283
1
284
4
285
0
286
0
287
3
288
0
340
11
278
46
  0
ENDTAB
  0
ENDSEC
  0
SECTION
  2
BLOCKS
  0
BLOCK
  5
20
100
AcDbEntity
  8
0
100
AcDbBlockBegin
  2
*Model_Space
 70
0
 10
0.0
 20
0.0
 30
0.0
  3
*Model_Space
  1

  0
ENDBLK
  5
21
100
AcDbEntity
  8
0
100
AcDbBlockEnd
  0
BLOCK
  5
1C
100
AcDbEntity
  8
0
100
AcDbBlockBegin
  2
*Paper_Space
 70
0
 10
0.0
 20
0.0
 30
0.0
  3
*Paper_Space
  1

  0
ENDBLK
  5
1D
100
AcDbEntity
  8
0
100
AcDbBlockEnd
  0
ENDSEC
  0
SECTION
  2
ENTITIES
  0
MTEXT
  5
225
100
AcDbEntity
  8
0
100
AcDbMText
 62
7
  6
CONTINUOUS
  7
STANDARD
 71
1
 72
1
 10
15.9560215477
 20
0.9479130325
 30
0.0
 11
1.0
 21
0.0
 31
0.0
 44
0.9
  1
SCALE: 1:1.000
 40
0.3
 41
3.36
  0
LINE
  5
226
100
AcDbEntity
  8
0
100
AcDbLine
 62
7
  6
CONTINUOUS
 10
0.0
 20
0.0
 11
0.0
 21
17.0
  0
LINE
  5
227
100
AcDbEntity
  8
0
100
AcDbLine
 62
7
  6
CONTINUOUS
 10
0.0
 20
0.0
 11
22.0
 21
0.0
  0
LINE
  5
228
100
AcDbEntity
  8
0
100
AcDbLine
 62
7
  6
CONTINUOUS
 10
0.0
 20
17.0
 11
22.0
 21
17.0
  0
LINE
  5
229
100
AcDbEntity
  8
0
100
AcDbLine
 62
7
  6
CONTINUOUS
 10
22.0
 20
0.0
 11
22.0
 21
17.0
  0
LINE
  5
22A
100
AcDbEntity
  8
LAYER_FEATURE
100
AcDbLine
 62
7
  6
CONTINUOUS
 10
4.8208720839
 20
12.3500477814
 11
4.8208720839
 21
12.3900477814
  0
LINE
  5
22B
100
AcDbEntity
  8
LAYER_FEATURE
100
AcDbLine
 62
7
  6
CONTINUOUS
 10
4.8208720839
 20
13.3100477814
 11
4.8208720839
 21
13.3500477814
  0
LINE
  5
22C
100
AcDbEntity
  8
LAYER_CUT_FEAT
100
AcDbLine
 62
7
  6
CONTINUOUS
 10
4.9519468432
 20
13.2600477814
 11
4.9519468432
 21
12.4400477814
  0
LINE
  5
22D
100
AcDbEntity
  8
LAYER_CUT_FEAT
100
AcDbLine
 62
7
  6
CONTINUOUS
 10
5.0156518241
 20
13.2600477814
 11
5.0156518241
 21
12.4400477814
  0
LINE
  5
22E
100
AcDbEntity
  8
LAYER_CUT_FEAT
100
AcDbLine
 62
7
  6
CONTINUOUS
 10
5.1915389833
 20
13.2600477814
 11
5.1915389833
 21
12.4400477814
  0
LINE
  5
22F
100
AcDbEntity
  8
02___PRT_ALL_AXES
100
AcDbLine
 62
7
  6
CONTINUOUS
 10
5.2273720839
 20
11.8500477814
 11
5.2273720839
 21
12.3500477814
  0
LINE
  5
230
100
AcDbEntity
  8
02___PRT_ALL_AXES
100
AcDbLine
 62
7
  6
CONTINUOUS
 10
5.2273720839
 20
11.8500477814
 11
6.9143720839
 21
11.8500477814
  0
LINE
  5
231
100
AcDbEntity
  8
LAYER_CUT_FEAT
100
AcDbLine
 62
7
  6
CONTINUOUS
 10
5.4605482178
 20
13.2600477814
 11
5.4605482178
 21
12.4400477814
  0
LINE
  5
232
100
AcDbEntity
  8
LAYER_FEATURE
100
AcDbLine
 62
7
  6
CONTINUOUS
 10
4.8208720839
 20
12.3900477814
 11
4.9037165024
 21
12.4314699906
  0
LINE
  5
233
100
AcDbEntity
  8
LAYER_FEATURE
100
AcDbLine
 62
7
  6
CONTINUOUS
 10
4.8208720839
 20
12.3500477814
 11
7.3208720839
 21
12.3500477814
  0
LINE
  5
234
100
AcDbEntity
  8
LAYER_FEATURE
100
AcDbLine
 62
7
  6
CONTINUOUS
 10
4.8208720839
 20
12.3900477814
 11
7.3208720839
 21
12.3900477814
  0
LINE
  5
235
100
AcDbEntity
  8
LAYER_FEATURE
100
AcDbLine
 62
7
  6
CONTINUOUS
 10
7.2016915607
 20
12.4400477814
 11
4.940052607
 21
12.4400477814
  0
LINE
  5
236
100
AcDbEntity
  8
LAYER_FEATURE
100
AcDbLine
 62
7
  6
CONTINUOUS
 10
7.2380276653
 20
13.2686255721
 11
7.3208720839
 21
13.3100477814
  0
LINE
  5
237
100
AcDbEntity
  8
LAYER_FEATURE
100
AcDbLine
 62
7
  6
CONTINUOUS
 10
4.9037165024
 20
13.2686255721
 11
4.8208720839
 21
13.3100477814
  0
LINE
  5
238
100
AcDbEntity
  8
LAYER_FEATURE
100
AcDbLine
 62
7
  6
CONTINUOUS
 10
7.3208720839
 20
12.3900477814
 11
7.2380276653
 21
12.4314699906
  0
LINE
  5
239
100
AcDbEntity
  8
LAYER_CUT_FEAT
100
AcDbLine
 62
7
  6
CONTINUOUS
 10
6.68119595
 20
13.2600477814
 11
6.68119595
 21
12.4400477814
  0
LINE
  5
23A
100
AcDbEntity
  8
LAYER_FEATURE
100
AcDbLine
 62
7
  6
CONTINUOUS
 10
7.2016915607
 20
13.2600477814
 11
4.940052607
 21
13.2600477814
  0
LINE
  5
23B
100
AcDbEntity
  8
LAYER_FEATURE
100
AcDbLine
 62
7
  6
CONTINUOUS
 10
4.8208720839
 20
13.3100477814
 11
7.3208720839
 21
13.3100477814
  0
LINE
  5
23C
100
AcDbEntity
  8
LAYER_FEATURE
100
AcDbLine
 62
7
  6
CONTINUOUS
 10
4.8208720839
 20
13.3500477814
 11
7.3208720839
 21
13.3500477814
  0
LINE
  5
23D
100
AcDbEntity
  8
02___PRT_ALL_AXES
100
AcDbLine
 62
7
  6
CONTINUOUS
 10
6.9143720839
 20
11.8500477814
 11
6.9143720839
 21
12.3500477814
  0
LINE
  5
23E
100
AcDbEntity
  8
LAYER_CUT_FEAT
100
AcDbLine
 62
7
  6
CONTINUOUS
 10
6.9502051845
 20
13.2600477814
 11
6.9502051845
 21
12.4400477814
  0
LINE
  5
23F
100
AcDbEntity
  8
LAYER_CUT_FEAT
100
AcDbLine
 62
7
  6
CONTINUOUS
 10
7.1260923436
 20
13.2600477814
 11
7.1260923436
 21
12.4400477814
  0
LINE
  5
240
100
AcDbEntity
  8
LAYER_CUT_FEAT
100
AcDbLine
 62
7
  6
CONTINUOUS
 10
7.1897973245
 20
13.2600477814
 11
7.1897973245
 21
12.4400477814
  0
LINE
  5
241
100
AcDbEntity
  8
LAYER_FEATURE
100
AcDbLine
 62
7
  6
CONTINUOUS
 10
7.3208720839
 20
12.3500477814
 11
7.3208720839
 21
12.3900477814
  0
LINE
  5
242
100
AcDbEntity
  8
LAYER_FEATURE
100
AcDbLine
 62
7
  6
CONTINUOUS
 10
7.3208720839
 20
13.3100477814
 11
7.3208720839
 21
13.3500477814
  0
LINE
  5
243
100
AcDbEntity
  8
LAYER_FEATURE
100
AcDbLine
 62
7
  6
CONTINUOUS
 10
16.3103552569
 20
4.2106247044
 11
16.2703552569
 21
4.2106247044
  0
LINE
  5
244
100
AcDbEntity
  8
LAYER_FEATURE
100
AcDbLine
 62
7
  6
CONTINUOUS
 10
15.3503552569
 20
4.2106247044
 11
15.3103552569
 21
4.2106247044
  0
LINE
  5
245
100
AcDbEntity
  8
02___PRT_ALL_AXES
100
AcDbLine
 62
7
  6
CONTINUOUS
 10
15.4003552569
 20
4.3416247044
 11
16.2203552569
 21
4.3416247044
  0
LINE
  5
246
100
AcDbEntity
  8
LAYER_CUT_FEAT
100
AcDbLine
 62
7
  6
CONTINUOUS
 10
16.2203552569
 20
4.3784730548
 11
15.4003552569
 21
4.3784730548
  0
LINE
  5
247
100
AcDbEntity
  8
LAYER_CUT_FEAT
100
AcDbLine
 62
7
  6
CONTINUOUS
 10
16.2203552569
 20
4.5276524196
 11
15.4003552569
 21
4.5276524196
  0
LINE
  5
248
100
AcDbEntity
  8
02___PRT_ALL_AXES
100
AcDbLine
 62
7
  6
CONTINUOUS
 10
15.3103552569
 20
4.6171247044
 11
14.8103552569
 21
4.6171247044
  0
LINE
  5
249
100
AcDbEntity
  8
02___PRT_ALL_AXES
100
AcDbLine
 62
7
  6
CONTINUOUS
 10
14.8103552569
 20
6.3041247044
 11
14.8103552569
 21
4.6171247044
  0
LINE
  5
24A
100
AcDbEntity
  8
LAYER_CUT_FEAT
100
AcDbLine
 62
7
  6
CONTINUOUS
 10
16.2203552569
 20
4.7757664977
 11
15.4003552569
 21
4.7757664977
  0
LINE
  5
24B
100
AcDbEntity
  8
LAYER_CUT_FEAT
100
AcDbLine
 62
7
  6
CONTINUOUS
 10
16.2203552569
 20
5.0959282788
 11
15.4003552569
 21
5.0959282788
  0
LINE
  5
24C
100
AcDbEntity
  8
LAYER_FEATURE
100
AcDbLine
 62
7
  6
CONTINUOUS
 10
15.3103552569
 20
6.7106247044
 11
15.3103552569
 21
4.2106247044
  0
LINE
  5
24D
100
AcDbEntity
  8
LAYER_FEATURE
100
AcDbLine
 62
7
  6
CONTINUOUS
 10
15.3503552569
 20
6.7106247044
 11
15.3503552569
 21
4.2106247044
  0
LINE
  5
24E
100
AcDbEntity
  8
LAYER_FEATURE
100
AcDbLine
 62
7
  6
CONTINUOUS
 10
15.4003552569
 20
4.3298052276
 11
15.4003552569
 21
6.5914441813
  0
LINE
  5
24F
100
AcDbEntity
  8
LAYER_FEATURE
100
AcDbLine
 62
7
  6
CONTINUOUS
 10
16.2703552569
 20
6.7106247044
 11
16.2289330477
 21
6.6277802859
  0
LINE
  5
250
100
AcDbEntity
  8
LAYER_FEATURE
100
AcDbLine
 62
7
  6
CONTINUOUS
 10
16.2703552569
 20
4.2106247044
 11
16.2289330477
 21
4.293469123
  0
LINE
  5
251
100
AcDbEntity
  8
LAYER_FEATURE
100
AcDbLine
 62
7
  6
CONTINUOUS
 10
15.3917774662
 20
4.293469123
 11
15.3503552569
 21
4.2106247044
  0
LINE
  5
252
100
AcDbEntity
  8
LAYER_FEATURE
100
AcDbLine
 62
7
  6
CONTINUOUS
 10
15.3917774662
 20
6.6277802859
 11
15.3503552569
 21
6.7106247044
  0
LINE
  5
253
100
AcDbEntity
  8
LAYER_CUT_FEAT
100
AcDbLine
 62
7
  6
CONTINUOUS
 10
16.2203552569
 20
5.9923817193
 11
15.4003552569
 21
5.9923817193
  0
LINE
  5
254
100
AcDbEntity
  8
LAYER_FEATURE
100
AcDbLine
 62
7
  6
CONTINUOUS
 10
16.2203552569
 20
4.3298052276
 11
16.2203552569
 21
6.5914441813
  0
LINE
  5
255
100
AcDbEntity
  8
LAYER_FEATURE
100
AcDbLine
 62
7
  6
CONTINUOUS
 10
16.2703552569
 20
6.7106247044
 11
16.2703552569
 21
4.2106247044
  0
LINE
  5
256
100
AcDbEntity
  8
LAYER_FEATURE
100
AcDbLine
 62
7
  6
CONTINUOUS
 10
16.3103552569
 20
6.7106247044
 11
16.3103552569
 21
4.2106247044
  0
LINE
  5
257
100
AcDbEntity
  8
LAYER_CUT_FEAT
100
AcDbLine
 62
7
  6
CONTINUOUS
 10
16.2203552569
 20
6.2804485044
 11
15.4003552569
 21
6.2804485044
  0
LINE
  5
258
100
AcDbEntity
  8
02___PRT_ALL_AXES
100
AcDbLine
 62
7
  6
CONTINUOUS
 10
15.3103552569
 20
6.3041247044
 11
14.8103552569
 21
6.3041247044
  0
LINE
  5
259
100
AcDbEntity
  8
LAYER_CUT_FEAT
100
AcDbLine
 62
7
  6
CONTINUOUS
 10
16.2203552569
 20
6.4818419702
 11
15.4003552569
 21
6.4818419702
  0
LINE
  5
25A
100
AcDbEntity
  8
LAYER_CUT_FEAT
100
AcDbLine
 62
7
  6
CONTINUOUS
 10
16.2203552569
 20
6.5747380098
 11
15.4003552569
 21
6.5747380098
  0
LINE
  5
25B
100
AcDbEntity
  8
LAYER_FEATURE
100
AcDbLine
 62
7
  6
CONTINUOUS
 10
16.3103552569
 20
6.7106247044
 11
16.2703552569
 21
6.7106247044
  0
LINE
  5
25C
100
AcDbEntity
  8
LAYER_FEATURE
100
AcDbLine
 62
7
  6
CONTINUOUS
 10
15.3503552569
 20
6.7106247044
 11
15.3103552569
 21
6.7106247044
  0
LINE
  5
25D
100
AcDbEntity
  8
LAYER_FEATURE
100
AcDbLine
 62
7
  6
CONTINUOUS
 10
14.1558032515
 20
12.5576902538
 11
14.1654859044
 21
12.5890233302
  0
LINE
  5
25E
100
AcDbEntity
  8
LAYER_FEATURE
100
AcDbLine
 62
7
  6
CONTINUOUS
 10
14.3881869219
 20
13.309684087
 11
14.3978695749
 21
13.3410171634
  0
LINE
  5
25F
100
AcDbEntity
  8
LAYER_CUT_FEAT
100
AcDbLine
 62
7
  6
CONTINUOUS
 10
14.4993413154
 20
13.2254767364
 11
14.3848022502
 21
12.8548281857
  0
LINE
  5
260
100
AcDbEntity
  8
LAYER_CUT_FEAT
100
AcDbLine
 62
7
  6
CONTINUOUS
 10
14.5507720647
 20
13.3332219366
 11
14.4070383425
 21
12.8680994414
  0
LINE
  5
261
100
AcDbEntity
  8
LAYER_CUT_FEAT
100
AcDbLine
 62
7
  6
CONTINUOUS
 10
14.3110591386
 20
12.5097125559
 11
14.3231624548
 21
12.5488789014
  0
LINE
  5
262
100
AcDbEntity
  8
LAYER_CUT_FEAT
100
AcDbLine
 62
7
  6
CONTINUOUS
 10
14.7247548362
 20
13.4835924729
 11
14.554827292
 21
12.9337067385
  0
LINE
  5
263
100
AcDbEntity
  8
02___PRT_ALL_AXES
100
AcDbLine
 62
7
  6
CONTINUOUS
 10
14.4231486629
 20
12.0460087425
 11
14.5441818246
 21
12.4376721973
  0
LINE
  5
264
100
AcDbEntity
  8
LAYER_CUT_FEAT
100
AcDbLine
 62
7
  6
CONTINUOUS
 10
14.9883013179
 20
13.5715196561
 11
14.8079381707
 21
12.987864298
  0
LINE
  5
265
100
AcDbEntity
  8
LAYER_CUT_FEAT
100
AcDbLine
 62
7
  6
CONTINUOUS
 10
15.3128521592
 20
13.5874752117
 11
15.128383196
 21
12.9905334279
  0
LINE
  5
266
100
AcDbEntity
  8
LAYER_FEATURE
100
AcDbLine
 62
7
  6
CONTINUOUS
 10
16.0056370197
 20
13.4091679558
 11
15.9768314141
 21
13.3937711069
  0
LINE
  5
267
100
AcDbEntity
  8
LAYER_FEATURE
100
AcDbLine
 62
7
  6
CONTINUOUS
 10
15.6641840132
 20
13.5316401182
 11
15.6482570183
 21
13.5091094943
  0
LINE
  5
268
100
AcDbEntity
  8
LAYER_FEATURE
100
AcDbLine
 62
7
  6
CONTINUOUS
 10
15.851055342
 20
13.4462990255
 11
15.850716476
 21
13.4738674935
  0
LINE
  5
269
100
AcDbEntity
  8
LAYER_CUT_FEAT
100
AcDbLine
 62
7
  6
CONTINUOUS
 10
16.1719852981
 20
13.3214120418
 11
15.9875257149
 21
12.724500612
  0
LINE
  5
26A
100
AcDbEntity
  8
LAYER_FEATURE
100
AcDbLine
 62
7
  6
CONTINUOUS
 10
16.2999209702
 20
13.231677599
 11
16.2613582883
 21
13.2250830124
  0
LINE
  5
26B
100
AcDbEntity
  8
LAYER_FEATURE
100
AcDbLine
 62
7
  6
CONTINUOUS
 10
16.5151456327
 20
13.0184028818
 11
16.4710047394
 21
13.0213251834
  0
LINE
  5
26C
100
AcDbEntity
  8
LAYER_FEATURE
100
AcDbLine
 62
7
  6
CONTINUOUS
 10
14.5192760307
 20
13.2313007335
 11
14.5167023844
 21
13.231677599
  0
LINE
  5
26D
100
AcDbEntity
  8
LAYER_FEATURE
100
AcDbLine
 62
7
  6
CONTINUOUS
 10
16.6279880752
 20
12.7924554293
 11
16.5830523212
 21
12.8045779423
  0
LINE
  5
26E
100
AcDbEntity
  8
LAYER_FEATURE
100
AcDbLine
 62
7
  6
CONTINUOUS
 10
14.6807040599
 20
13.3937711069
 11
14.6367871022
 21
13.4091679558
  0
LINE
  5
26F
100
AcDbEntity
  8
LAYER_FEATURE
100
AcDbLine
 62
7
  6
CONTINUOUS
 10
16.6262200683
 20
12.5783201537
 11
16.624260569
 21
12.5792796902
  0
LINE
  5
270
100
AcDbEntity
  8
LAYER_FEATURE
100
AcDbLine
 62
7
  6
CONTINUOUS
 10
14.8960787362
 20
13.5091094943
 11
14.8580388927
 21
13.5316401182
  0
LINE
  5
271
100
AcDbEntity
  8
LAYER_FEATURE
100
AcDbLine
 62
7
  6
CONTINUOUS
 10
15.1845222133
 20
13.5585994708
 11
15.1564816912
 21
13.5858223268
  0
LINE
  5
272
100
AcDbEntity
  8
LAYER_FEATURE
100
AcDbLine
 62
7
  6
CONTINUOUS
 10
15.5147771647
 20
13.5368780295
 11
15.4997745898
 21
13.5658430988
  0
LINE
  5
273
100
AcDbEntity
  8
LAYER_CUT_FEAT
100
AcDbLine
 62
7
  6
CONTINUOUS
 10
16.4304255729
 20
13.1248931332
 11
16.2500977876
 21
12.5413522061
  0
LINE
  5
274
100
AcDbEntity
  8
02___PRT_ALL_AXES
100
AcDbLine
 62
7
  6
CONTINUOUS
 10
16.0349436272
 20
11.5479264268
 11
16.1559767889
 21
11.9395898816
  0
LINE
  5
275
100
AcDbEntity
  8
LAYER_CUT_FEAT
100
AcDbLine
 62
7
  6
CONTINUOUS
 10
16.5977350544
 20
12.9035217255
 11
16.4279266789
 21
12.3540216211
  0
LINE
  5
276
100
AcDbEntity
  8
LAYER_CUT_FEAT
100
AcDbLine
 62
7
  6
CONTINUOUS
 10
16.3890994749
 20
11.867549523
 11
16.4012027911
 21
11.9067158684
  0
LINE
  5
277
100
AcDbEntity
  8
LAYER_CUT_FEAT
100
AcDbLine
 62
7
  6
CONTINUOUS
 10
16.6557831641
 20
12.6812868456
 11
16.5123105825
 21
12.2170094014
  0
LINE
  5
278
100
AcDbEntity
  8
LAYER_CUT_FEAT
100
AcDbLine
 62
7
  6
CONTINUOUS
 10
16.6370171253
 20
12.563424768
 11
16.5229087071
 21
12.1941697914
  0
LINE
  5
279
100
AcDbEntity
  8
LAYER_CUT_FEAT
100
AcDbLine
 62
7
  6
CONTINUOUS
 10
14.9183219689
 20
13.505165864
 11
14.9721443006
 21
13.5192355291
  0
LINE
  5
27A
100
AcDbEntity
  8
LAYER_CUT_FEAT
100
AcDbLine
 62
7
  6
CONTINUOUS
 10
15.2058467257
 20
13.5504193341
 11
15.2979451789
 21
13.5504193341
  0
LINE
  5
27B
100
AcDbEntity
  8
LAYER_CUT_FEAT
100
AcDbLine
 62
7
  6
CONTINUOUS
 10
15.5328721151
 20
13.5253478311
 11
15.629884291
 21
13.505165864
  0
LINE
  5
27C
100
AcDbEntity
  8
LAYER_CUT_FEAT
100
AcDbLine
 62
7
  6
CONTINUOUS
 10
15.8639598617
 20
13.4326682414
 11
15.9553729858
 21
13.3944913364
  0
LINE
  5
27D
100
AcDbEntity
  8
LAYER_CUT_FEAT
100
AcDbLine
 62
7
  6
CONTINUOUS
 10
16.1632314709
 20
13.2824238366
 11
16.2391395128
 21
13.2303890538
  0
LINE
  5
27E
100
AcDbEntity
  8
LAYER_CUT_FEAT
100
AcDbLine
 62
7
  6
CONTINUOUS
 10
16.4142220868
 20
13.0724586331
 11
16.4504333657
 21
13.0306420448
  0
LINE
  5
27F
100
AcDbEntity
  8
LAYER_FEATURE
100
AcDbLine
 62
7
  6
CONTINUOUS
 10
16.5443553621
 20
11.8195718251
 11
16.554038015
 21
11.8509049015
  0
LINE
  5
280
100
AcDbEntity
  8
LAYER_FEATURE
100
AcDbLine
 62
7
  6
CONTINUOUS
 10
16.7767390326
 20
12.5715656583
 11
16.7864216855
 21
12.6028987347
  0
CIRCLE
  5
281
100
AcDbEntity
  8
LAYER_FEATURE
100
AcDbCircle
 62
7
  6
CONTINUOUS
 10
6.1303672762
 20
5.5201198968
 40
1.25
  0
CIRCLE
  5
282
100
AcDbEntity
  8
LAYER_FEATURE
100
AcDbCircle
 62
7
  6
CONTINUOUS
 10
6.1303672762
 20
5.5201198968
 40
1.15
  0
CIRCLE
  5
283
100
AcDbEntity
  8
LAYER_CUT_FEAT
100
AcDbCircle
 62
7
  6
CONTINUOUS
 10
6.1303672762
 20
5.5201198968
 40
1.0875
  0
CIRCLE
  5
284
100
AcDbEntity
  8
02___PRT_ALL_AXES
100
AcDbCircle
 62
7
  6
CONTINUOUS
 10
6.1303672762
 20
5.5201198968
 40
0.8435
  0
CIRCLE
  5
285
100
AcDbEntity
  8
LAYER_CHAMFER_FEAT
100
AcDbCircle
 62
7
  6
CONTINUOUS
 10
6.1303672762
 20
5.5201198968
 40
0.2875
  0
CIRCLE
  5
286
100
AcDbEntity
  8
LAYER_CHAMFER_FEAT
100
AcDbCircle
 62
7
  6
CONTINUOUS
 10
6.1303672762
 20
5.5201198968
 40
0.25
  0
ARC
  5
287
100
AcDbEntity
  8
LAYER_FEATURE
100
AcDbCircle
 62
7
  6
CONTINUOUS
 10
7.2016915607
 20
12.3587977814
 40
0.08125
100
AcDbArc
 50
63.4349488229
 51
90.0
  0
ARC
  5
288
100
AcDbEntity
  8
LAYER_FEATURE
100
AcDbCircle
 62
7
  6
CONTINUOUS
 10
4.940052607
 20
12.3587977814
 40
0.08125
100
AcDbArc
 50
90.0
 51
116.5650511771
  0
ARC
  5
289
100
AcDbEntity
  8
LAYER_FEATURE
100
AcDbCircle
 62
7
  6
CONTINUOUS
 10
7.2016915607
 20
13.3412977814
 40
0.08125
100
AcDbArc
 50
270.0
 51
296.5650511771
  0
ARC
  5
28A
100
AcDbEntity
  8
LAYER_FEATURE
100
AcDbCircle
 62
7
  6
CONTINUOUS
 10
4.940052607
 20
13.3412977814
 40
0.08125
100
AcDbArc
 50
243.4349488229
 51
270.0
  0
ARC
  5
28B
100
AcDbEntity
  8
LAYER_FEATURE
100
AcDbCircle
 62
7
  6
CONTINUOUS
 10
15.3191052569
 20
4.3298052276
 40
0.08125
100
AcDbArc
 50
333.4349488229
 51
360.0
  0
ARC
  5
28C
100
AcDbEntity
  8
LAYER_FEATURE
100
AcDbCircle
 62
7
  6
CONTINUOUS
 10
15.3191052569
 20
6.5914441813
 40
0.08125
100
AcDbArc
 50
0.0
 51
26.5650511771
  0
ARC
  5
28D
100
AcDbEntity
  8
LAYER_FEATURE
100
AcDbCircle
 62
7
  6
CONTINUOUS
 10
16.3016052569
 20
4.3298052276
 40
0.08125
100
AcDbArc
 50
180.0
 51
206.5650511771
  0
ARC
  5
28E
100
AcDbEntity
  8
LAYER_FEATURE
100
AcDbCircle
 62
7
  6
CONTINUOUS
 10
16.3016052569
 20
6.5914441813
 40
0.08125
100
AcDbArc
 50
153.4349488229
 51
180.0
  0
ARC
  5
28F
100
AcDbEntity
  8
LAYER_FEATURE
100
AcDbCircle
 62
7
  6
CONTINUOUS
 10
15.1829600528
 20
11.6478364909
 40
1.9527883793
100
AcDbArc
 50
70.4611963662
 51
75.1213236768
  0
SPLINE
  5
290
100
AcDbEntity
  8
LAYER_CUT_FEAT
100
AcDbSpline
 62
7
  6
CONTINUOUS
 70
0
 71
3
 72
22
 73
18
 74
0
 42
0.0000001
 43
0.0000001
 44
0.0000000001
 40
0.0
 40
0.0
 40
0.0
 40
0.0
 40
0.1381197292
 40
0.2053664275
 40
0.271454927
 40
0.3364371357
 40
0.4003725812
 40
0.4633278416
 40
0.5253764095
 40
0.5865986164
 40
0.6470813105
 40
0.706917441
 40
0.7662055024
 40
0.82504886
 40
0.8835549603
 40
0.9418344159
 40
1.0
 40
1.0
 40
1.0
 40
1.0
 10
14.3484254758
 20
12.1886310394
 30
0.0
 10
14.3417079864
 20
12.2023198436
 30
0.0
 10
14.3324518096
 20
12.2230488444
 30
0.0
 10
14.3218948541
 20
12.2511024323
 30
0.0
 10
14.3150301969
 20
12.2718995313
 30
0.0
 10
14.309156196
 20
12.2926179353
 30
0.0
 10
14.3042783996
 20
12.3132384311
 30
0.0
 10
14.3004017485
 20
12.3337411493
 30
0.0
 10
14.2975301725
 20
12.3541064958
 30
0.0
 10
14.2956666786
 20
12.3743149072
 30
0.0
 10
14.2948132808
 20
12.3943469387
 30
0.0
 10
14.2949710113
 20
12.4141832582
 30
0.0
 10
14.296139927
 20
12.4338046916
 30
0.0
 10
14.2983190767
 20
12.4531921577
 30
0.0
 10
14.3015065483
 20
12.4723270065
 30
0.0
 10
14.3056991283
 20
12.4911899076
 30
0.0
 10
14.3091632353
 20
12.5035774229
 30
0.0
 10
14.3110591402
 20
12.5097125555
 30
0.0
  0
SPLINE
  5
291
100
AcDbEntity
  8
LAYER_CHAMFER_FEAT
100
AcDbSpline
 62
7
  6
CONTINUOUS
 70
0
 71
3
 72
22
 73
18
 74
0
 42
0.0000001
 43
0.0000001
 44
0.0000000001
 40
0.0
 40
0.0
 40
0.0
 40
0.0
 40
0.0739073479
 40
0.1460232373
 40
0.2163526038
 40
0.2849148516
 40
0.4168482891
 40
0.4803859999
 40
0.5423987945
 40
0.6029921349
 40
0.6622901373
 40
0.7204355012
 40
0.7775885201
 40
0.8339256152
 40
0.8896373552
 40
0.9449255795
 40
1.0
 40
1.0
 40
1.0
 40
1.0
 10
15.0822384176
 20
11.9707660686
 30
0.0
 10
15.0795694997
 20
11.9699421226
 30
0.0
 10
15.0743287532
 20
11.9682065387
 30
0.0
 10
15.0666827539
 20
11.9653018035
 30
0.0
 10
15.0593613756
 20
11.9621324639
 30
0.0
 10
15.0501711361
 20
11.9576207795
 30
0.0
 10
15.0415462842
 20
11.9525575743
 30
0.0
 10
15.0335969977
 20
11.9469370029
 30
0.0
 10
15.0280970007
 20
11.9425434765
 30
0.0
 10
15.0229959396
 20
11.9379279231
 30
0.0
 10
15.0183035422
 20
11.9330987611
 30
0.0
 10
15.0140290379
 20
11.9280651112
 30
0.0
 10
15.0101808512
 20
11.922836461
 30
0.0
 10
15.0067667115
 20
11.9174227778
 30
0.0
 10
15.0037934133
 20
11.9118343657
 30
0.0
 10
15.0012670564
 20
11.9060825346
 30
0.0
 10
14.9998829755
 20
11.9021428416
 30
0.0
 10
14.9992684261
 20
11.9001541851
 30
0.0
  0
SPLINE
  5
292
100
AcDbEntity
  8
LAYER_CHAMFER_FEAT
100
AcDbSpline
 62
7
  6
CONTINUOUS
 70
0
 71
3
 72
22
 73
18
 74
0
 42
0.0000001
 43
0.0000001
 44
0.0000000001
 40
0.0
 40
0.0
 40
0.0
 40
0.0
 40
0.0739471057
 40
0.1460984172
 40
0.216458412
 40
0.2850460704
 40
0.4170124966
 40
0.4805576167
 40
0.5425714702
 40
0.6031596462
 40
0.6624466269
 40
0.7205754122
 40
0.7777068793
 40
0.8340182862
 40
0.8897010437
 40
0.9449579968
 40
1.0
 40
1.0
 40
1.0
 40
1.0
 10
15.4480564966
 20
11.8579605644
 30
0.0
 10
15.4498068102
 20
11.8557689479
 30
0.0
 10
15.4531772039
 20
11.8513678397
 30
0.0
 10
15.4578835705
 20
11.8446374774
 30
0.0
 10
15.4621704927
 20
11.8378710408
 30
0.0
 10
15.4672495068
 20
11.8289354112
 30
0.0
 10
15.4715466109
 20
11.819861691
 30
0.0
 10
15.4749668422
 20
11.8107075035
 30
0.0
 10
15.4770471131
 20
11.8039558232
 30
0.0
 10
15.4786700694
 20
11.7972458261
 30
0.0
 10
15.4798324482
 20
11.7905900765
 30
0.0
 10
15.4805316539
 20
11.7840014112
 30
0.0
 10
15.4807660494
 20
11.7774925409
 30
0.0
 10
15.4805349381
 20
11.7710761715
 30
0.0
 10
15.4798384497
 20
11.7647647536
 30
0.0
 10
15.4786778865
 20
11.7585712045
 30
0.0
 10
15.4775952385
 20
11.7545251482
 30
0.0
 10
15.4769788383
 20
11.7525305024
 30
0.0
  0
SPLINE
  5
293
100
AcDbEntity
  8
LAYER_FEATURE
100
AcDbSpline
 62
7
  6
CONTINUOUS
 70
0
 71
3
 72
36
 73
32
 74
0
 42
0.0000001
 43
0.0000001
 44
0.0000000001
 40
0.0
 40
0.0
 40
0.0
 40
0.0
 40
0.0262477008
 40
0.0525347596
 40
0.0789002427
 40
0.105382644
 40
0.1320196071
 40
0.1588476759
 40
0.1859020731
 40
0.2132164871
 40
0.2408229006
 40
0.2687514618
 40
0.297030358
 40
0.3256857283
 40
0.3547416273
 40
0.3842199792
 40
0.4445113468
 40
0.4753672399
 40
0.5067120349
 40
0.5709042087
 40
0.6037766895
 40
0.6371723867
 40
0.67109531
 40
0.7055477562
 40
0.7405304091
 40
0.7760424166
 40
0.8120814297
 40
0.8486436928
 40
0.8857241241
 40
0.9233163501
 40
1.0
 40
1.0
 40
1.0
 40
1.0
 10
14.1558032518
 20
12.5576902537
 30
0.0
 10
14.1538966701
 20
12.5515205439
 30
0.0
 10
14.1503721649
 20
12.5390796115
 30
0.0
 10
14.1459673252
 20
12.5201675615
 30
0.0
 10
14.1424456659
 20
12.5010122249
 30
0.0
 10
14.1398099482
 20
12.4816283584
 30
0.0
 10
14.1380619841
 20
12.4620301967
 30
0.0
 10
14.1372029624
 20
12.442232297
 30
0.0
 10
14.1372334359
 20
12.4222492899
 30
0.0
 10
14.1381532537
 20
12.4020959363
 30
0.0
 10
14.1399615819
 20
12.3817870865
 30
0.0
 10
14.1426569797
 20
12.3613376926
 30
0.0
 10
14.1462373444
 20
12.3407627522
 30
0.0
 10
14.1506998476
 20
12.320077454
 30
0.0
 10
14.1560412496
 20
12.2992965609
 30
0.0
 10
14.1643911496
 20
12.2712746115
 30
0.0
 10
14.1744485633
 20
12.24332162
 30
0.0
 10
14.1861041304
 20
12.2155261655
 30
0.0
 10
14.1990892928
 20
12.1872658295
 30
0.0
 10
14.2136892388
 20
12.1592216981
 30
0.0
 10
14.2297923601
 20
12.1314532721
 30
0.0
 10
14.2427866112
 20
12.1105025027
 30
0.0
 10
14.2565912901
 20
12.0896098042
 30
0.0
 10
14.2711965046
 20
12.0687899592
 30
0.0
 10
14.2865914716
 20
12.0480582795
 30
0.0
 10
14.3027649473
 20
12.0274298836
 30
0.0
 10
14.3197050776
 20
12.0069198158
 30
0.0
 10
14.3373993992
 20
11.9865430998
 30
0.0
 10
14.3558351704
 20
11.9663144179
 30
0.0
 10
14.3815553178
 20
11.9393835304
 30
0.0
 10
14.4016675294
 20
11.9197208143
 30
0.0
 10
14.4154353972
 20
11.9068221914
 30
0.0
  0
SPLINE
  5
294
100
AcDbEntity
  8
LAYER_FEATURE
100
AcDbSpline
 62
7
  6
CONTINUOUS
 70
0
 71
3
 72
22
 73
18
 74
0
 42
0.0000001
 43
0.0000001
 44
0.0000000001
 40
0.0
 40
0.0
 40
0.0
 40
0.0
 40
0.0586461987
 40
0.1173923269
 40
0.1763374731
 40
0.2355790723
 40
0.2952121302
 40
0.3553284984
 40
0.416016251
 40
0.4773591373
 40
0.5394361033
 40
0.6023209229
 40
0.6660819425
 40
0.7307818862
 40
0.7964777114
 40
0.8632205889
 40
1.0
 40
1.0
 40
1.0
 40
1.0
 10
14.3881869223
 20
13.3096840869
 30
0.0
 10
14.3861542304
 20
13.3031062841
 30
0.0
 10
14.3824167607
 20
13.2898344307
 30
0.0
 10
14.3778135748
 20
13.2696432435
 30
0.0
 10
14.3742148727
 20
13.2491776278
 30
0.0
 10
14.3716238264
 20
13.2284555357
 30
0.0
 10
14.3700424683
 20
13.2074942822
 30
0.0
 10
14.3694719808
 20
13.1863115851
 30
0.0
 10
14.369912677
 20
13.1649252492
 30
0.0
 10
14.3713640343
 20
13.1433532318
 30
0.0
 10
14.3738246534
 20
13.121613601
 30
0.0
 10
14.3772922665
 20
13.0997245403
 30
0.0
 10
14.3817638147
 20
13.0777042689
 30
0.0
 10
14.3872353467
 20
13.0555712959
 30
0.0
 10
14.3937023628
 20
13.0333434054
 30
0.0
 10
14.403725091
 20
13.0033640134
 30
0.0
 10
14.4126091879
 20
12.9811534787
 30
0.0
 10
14.4190935542
 20
12.9664639158
 30
0.0
  0
SPLINE
  5
295
100
AcDbEntity
  8
LAYER_FEATURE
100
AcDbSpline
 62
7
  6
CONTINUOUS
 70
0
 71
3
 72
36
 73
32
 74
0
 42
0.0000001
 43
0.0000001
 44
0.0000000001
 40
0.0
 40
0.0
 40
0.0
 40
0.0
 40
0.0262484723
 40
0.052536294
 40
0.078902524
 40
0.1053856477
 40
0.1320232998
 40
0.1588520191
 40
0.185907022
 40
0.2132219876
 40
0.2408288965
 40
0.2687578939
 40
0.2970371581
 40
0.3256928286
 40
0.3547489609
 40
0.3842274709
 40
0.4445189419
 40
0.4753747768
 40
0.506719442
 40
0.5709111587
 40
0.6037833102
 40
0.6371786219
 40
0.6711011014
 40
0.7055530482
 40
0.7405351568
 40
0.7760465764
 40
0.8120849592
 40
0.8486465612
 40
0.8857263048
 40
0.9233178168
 40
1.0
 40
1.0
 40
1.0
 40
1.0
 10
16.5443553618
 20
11.8195718252
 30
0.0
 10
16.5424490114
 20
11.8134028642
 30
0.0
 10
16.5383407571
 20
11.8011439691
 30
0.0
 10
16.531309042
 20
11.7830461439
 30
0.0
 10
16.5234110626
 20
11.7652456409
 30
0.0
 10
16.5146528723
 20
11.7477561947
 30
0.0
 10
16.5050410177
 20
11.7305905675
 30
0.0
 10
16.4945827098
 20
11.7137614536
 30
0.0
 10
16.4832857413
 20
11.6972812432
 30
0.0
 10
16.47115858
 20
11.6811620207
 30
0.0
 10
16.4582102736
 20
11.6654155829
 30
0.0
 10
16.4444504377
 20
11.6500534647
 30
0.0
 10
16.4298892844
 20
11.6350868414
 30
0.0
 10
16.4145377016
 20
11.6205266644
 30
0.0
 10
16.3984066802
 20
11.6063833013
 30
0.0
 10
16.3757078129
 20
11.5879588281
 30
0.0
 10
16.3516382895
 20
11.5705543448
 30
0.0
 10
16.3263383434
 20
11.5541812846
 30
0.0
 10
16.2996786653
 20
11.5381743767
 30
0.0
 10
16.2718079055
 20
11.5232567126
 30
0.0
 10
16.2428517625
 20
11.5094144363
 30
0.0
 10
16.2203075563
 20
11.499447151
 30
0.0
 10
16.1971270872
 20
11.4899848878
 30
0.0
 10
16.1733268562
 20
11.481034266
 30
0.0
 10
16.1489243915
 20
11.4726018574
 30
0.0
 10
16.1239375014
 20
11.4646937938
 30
0.0
 10
16.0983844557
 20
11.4573157982
 30
0.0
 10
16.0722840082
 20
11.4504732572
 30
0.0
 10
16.045654955
 20
11.4441711033
 30
0.0
 10
16.0092321054
 20
11.4364442623
 30
0.0
 10
15.9815382741
 20
11.4315548389
 30
0.0
 10
15.9628971041
 20
11.4286713474
 30
0.0
  0
SPLINE
  5
296
100
AcDbEntity
  8
LAYER_FEATURE
100
AcDbSpline
 62
7
  6
CONTINUOUS
 70
0
 71
3
 72
22
 73
18
 74
0
 42
0.0000001
 43
0.0000001
 44
0.0000000001
 40
0.0
 40
0.0
 40
0.0
 40
0.0
 40
0.0586460074
 40
0.1173919492
 40
0.1763369203
 40
0.2355783622
 40
0.2952112818
 40
0.3553275359
 40
0.4160152062
 40
0.4773580461
 40
0.5394349977
 40
0.6023198419
 40
0.6660809329
 40
0.73078099
 40
0.7964769683
 40
0.863220046
 40
1.0
 40
1.0
 40
1.0
 40
1.0
 10
16.7767390322
 20
12.5715656584
 30
0.0
 10
16.7747062813
 20
12.5649876643
 30
0.0
 10
16.7703044082
 20
12.5519207071
 30
0.0
 10
16.7627135278
 20
12.5326521591
 30
0.0
 10
16.7541383994
 20
12.5137237497
 30
0.0
 10
16.7445865303
 20
12.4951520957
 30
0.0
 10
16.7340660287
 20
12.4769526327
 30
0.0
 10
16.7225859103
 20
12.4591406597
 30
0.0
 10
16.7101559553
 20
12.4417310593
 30
0.0
 10
16.6967867256
 20
12.4247383671
 30
0.0
 10
16.682489586
 20
12.4081767014
 30
0.0
 10
16.6672766597
 20
12.3920598035
 30
0.0
 10
16.651160746
 20
12.376400998
 30
0.0
 10
16.634155559
 20
12.3612133319
 30
0.0
 10
16.6162748525
 20
12.3465089464
 30
0.0
 10
16.5910848141
 20
12.3274104576
 30
0.0
 10
16.5712181183
 20
12.314084143
 30
0.0
 10
16.5575761855
 20
12.3056138032
 30
0.0
  0
SPLINE
  5
297
100
AcDbEntity
  8
LAYER_CUT_FEAT
100
AcDbSpline
 62
7
  6
CONTINUOUS
 70
0
 71
3
 72
30
 73
26
 74
0
 42
0.0000001
 43
0.0000001
 44
0.0000000001
 40
0.0
 40
0.0
 40
0.0
 40
0.0
 40
0.0276402039
 40
0.055306197
 40
0.0830236525
 40
0.1108180034
 40
0.1387143374
 40
0.1667372798
 40
0.1949108974
 40
0.2232586014
 40
0.251803057
 40
0.2805661176
 40
0.3095687365
 40
0.3388309391
 40
0.3982013787
 40
0.4588252581
 40
0.5208248988
 40
0.5843049937
 40
0.6166311158
 40
0.6493585794
 40
0.7160438749
 40
0.7844202524
 40
0.8545254605
 40
0.9263823908
 40
1.0
 40
1.0
 40
1.0
 40
1.0
 10
16.3890994733
 20
11.8675495234
 30
0.0
 10
16.3877915199
 20
11.8633169971
 30
0.0
 10
16.3850161957
 20
11.8548959534
 30
0.0
 10
16.380382252
 20
11.8424192258
 30
0.0
 10
16.3752785437
 20
11.8301002479
 30
0.0
 10
16.369707525
 20
11.8179448925
 30
0.0
 10
16.3636717311
 20
11.8059586779
 30
0.0
 10
16.3571739636
 20
11.7941471078
 30
0.0
 10
16.3502172254
 20
11.7825155791
 30
0.0
 10
16.3428047183
 20
11.7710694206
 30
0.0
 10
16.3349398777
 20
11.7598138333
 30
0.0
 10
16.3266263323
 20
11.7487540044
 30
0.0
 10
16.3178678241
 20
11.7378948261
 30
0.0
 10
16.3055437016
 20
11.7236225957
 30
0.0
 10
16.2890169704
 20
11.7063019486
 30
0.0
 10
16.2675719706
 20
11.6865029047
 30
0.0
 10
16.2444575139
 20
11.6676232933
 30
0.0
 10
16.2239645688
 20
11.652775159
 30
0.0
 10
16.2067980696
 20
11.641382894
 30
0.0
 10
16.1888955737
 20
11.63018415
 30
0.0
 10
16.1655383781
 20
11.6168301069
 30
0.0
 10
16.1362015374
 20
11.6019483529
 30
0.0
 10
16.105435523
 20
11.5881364368
 30
0.0
 10
16.0732975233
 20
11.5754195141
 30
0.0
 10
16.0512608054
 20
11.5677783777
 30
0.0
 10
16.0400369271
 20
11.5641395357
 30
0.0
  0
SPLINE
  5
298
100
AcDbEntity
  8
LAYER_CUT_FEAT
100
AcDbSpline
 62
7
  6
CONTINUOUS
 70
0
 71
3
 72
11
 73
7
 74
0
 42
0.0000001
 43
0.0000001
 44
0.0000000001
 40
0.0
 40
0.0
 40
0.0
 40
0.0
 40
0.2602202486
 40
0.5135845343
 40
0.7601391633
 40
1.0
 40
1.0
 40
1.0
 40
1.0
 10
14.4280242485
 20
12.0623542261
 30
0.0
 10
14.4200964605
 20
12.0726170633
 30
0.0
 10
14.404898299
 20
12.0932243292
 30
0.0
 10
14.3838806364
 20
12.124758804
 30
0.0
 10
14.3649913198
 20
12.1564376475
 30
0.0
 10
14.3536915604
 20
12.1778998873
 30
0.0
 10
14.3484254758
 20
12.1886310394
 30
0.0
  0
SPLINE
  5
299
100
AcDbEntity
  8
02___PRT_ALL_AXES
100
AcDbSpline
 62
7
  6
CONTINUOUS
 70
0
 71
3
 72
55
 73
51
 74
0
 42
0.0000001
 43
0.0000001
 44
0.0000000001
 40
0.0
 40
0.0
 40
0.0
 40
0.0
 40
0.0106256888
 40
0.0212740218
 40
0.0319674054
 40
0.0427277785
 40
0.0535763979
 40
0.0645336442
 40
0.0756188536
 40
0.0868501787
 40
0.0982444774
 40
0.1098172322
 40
0.1215824954
 40
0.1335528598
 40
0.1457394502
 40
0.1581519336
 40
0.1836812549
 40
0.196815278
 40
0.2101999343
 40
0.2238381625
 40
0.2377317126
 40
0.2518812053
 40
0.2662861907
 40
0.2809452058
 40
0.295855831
 40
0.3110147451
 40
0.3264177777
 40
0.3420599601
 40
0.3579355742
 40
0.374038199
 40
0.390360755
 40
0.4068955472
 40
0.4236343052
 40
0.4405682228
 40
0.4576879951
 40
0.4924436822
 40
0.5278203314
 40
0.5637290751
 40
0.6000762627
 40
0.6367644152
 40
0.6736931413
 40
0.7107600276
 40
0.7478615117
 40
0.7848937446
 40
0.8217534512
 40
0.8583387957
 40
0.894550259
 40
0.9302915367
 40
0.9654704728
 40
1.0
 40
1.0
 40
1.0
 40
1.0
 10
14.423148664
 20
12.0460087421
 30
0.0
 10
14.4216142368
 20
12.0410433299
 30
0.0
 10
14.418821992
 20
12.0310129459
 30
0.0
 10
14.4154815562
 20
12.0157304805
 30
0.0
 10
14.4129903235
 20
12.0002197054
 30
0.0
 10
14.4113510168
 20
11.9844977022
 30
0.0
 10
14.4105651708
 20
11.9685809546
 30
0.0
 10
14.4106334502
 20
11.9524863251
 30
0.0
 10
14.411555578
 20
11.936230758
 30
0.0
 10
14.4133303722
 20
11.9198313324
 30
0.0
 10
14.4159557533
 20
11.9033052224
 30
0.0
 10
14.4194287551
 20
11.8866696972
 30
0.0
 10
14.4237455527
 20
11.8699420677
 30
0.0
 10
14.4289014086
 20
11.8531398282
 30
0.0
 10
14.4348909256
 20
11.8362800574
 30
0.0
 10
14.4440647335
 20
11.8135367612
 30
0.0
 10
14.4548250952
 20
11.7909576568
 30
0.0
 10
14.4670433413
 20
11.768620058
 30
0.0
 10
14.4770880676
 20
11.7517366164
 30
0.0
 10
14.4879152999
 20
11.7349014575
 30
0.0
 10
14.4995140302
 20
11.7181314315
 30
0.0
 10
14.5118720712
 20
11.7014440776
 30
0.0
 10
14.5249765623
 20
11.6848566479
 30
0.0
 10
14.5388138452
 20
11.6683863544
 30
0.0
 10
14.5533695134
 20
11.6520502778
 30
0.0
 10
14.5686284155
 20
11.6358653704
 30
0.0
 10
14.5845746716
 20
11.6198484317
 30
0.0
 10
14.6011916887
 20
11.6040160924
 30
0.0
 10
14.6184621776
 20
11.5883847968
 30
0.0
 10
14.6363681707
 20
11.5729707843
 30
0.0
 10
14.6548910375
 20
11.5577900747
 30
0.0
 10
14.6740115139
 20
11.5428584418
 30
0.0
 10
14.6937096811
 20
11.5281914321
 30
0.0
 10
14.7139651412
 20
11.5138042102
 30
0.0
 10
14.7418258884
 20
11.4949204705
 30
0.0
 10
14.7779194052
 20
11.4721246945
 30
0.0
 10
14.8228889919
 20
11.4462560132
 30
0.0
 10
14.8695460123
 20
11.4218441445
 30
0.0
 10
14.917696179
 20
11.3989907381
 30
0.0
 10
14.9671397177
 20
11.3777905835
 30
0.0
 10
15.0176712334
 20
11.3583317549
 30
0.0
 10
15.0690808369
 20
11.3406950722
 30
0.0
 10
15.1211549586
 20
11.3249538033
 30
0.0
 10
15.1736772712
 20
11.3111733442
 30
0.0
 10
15.226429583
 20
11.299410939
 30
0.0
 10
15.2791928046
 20
11.2897154433
 30
0.0
 10
15.3317477163
 20
11.2821271298
 30
0.0
 10
15.3838764805
 20
11.27667752
 30
0.0
 10
15.435361419
 20
11.2733892725
 30
0.0
 10
15.4694603419
 20
11.2726395764
 30
0.0
 10
15.4863489596
 20
11.2726395764
 30
0.0
  0
SPLINE
  5
29A
100
AcDbEntity
  8
02___PRT_ALL_AXES
100
AcDbSpline
 62
7
  6
CONTINUOUS
 70
0
 71
3
 72
38
 73
34
 74
0
 42
0.0000001
 43
0.0000001
 44
0.0000000001
 40
0.0
 40
0.0
 40
0.0
 40
0.0
 40
0.0248036289
 40
0.049664597
 40
0.074639591
 40
0.0997840155
 40
0.1251514086
 40
0.150792919
 40
0.1767568594
 40
0.2030883395
 40
0.2298289843
 40
0.2570167347
 40
0.2846857238
 40
0.3128662196
 40
0.3415846252
 40
0.370863525
 40
0.4007217721
 40
0.4311746014
 40
0.4622337646
 40
0.4939076776
 40
0.5262015759
 40
0.5591176768
 40
0.5926553407
 40
0.6268112308
 40
0.661579468
 40
0.6969517814
 40
0.7329176545
 40
0.7694644655
 40
0.806577621
 40
0.844240683
 40
0.8824354852
 40
0.9211422822
 40
1.0
 40
1.0
 40
1.0
 40
1.0
 10
16.0349436261
 20
11.5479264271
 30
0.0
 10
16.0333452879
 20
11.542754199
 30
0.0
 10
16.0298396202
 20
11.5324893177
 30
0.0
 10
16.023676727
 20
11.517399919
 30
0.0
 10
16.0166137951
 20
11.5026272686
 30
0.0
 10
16.0086593073
 20
11.4881890195
 30
0.0
 10
15.9998225125
 20
11.4741014831
 30
0.0
 10
15.9901137491
 20
11.4603807432
 30
0.0
 10
15.9795443191
 20
11.4470423327
 30
0.0
 10
15.9681264863
 20
11.4341013058
 30
0.0
 10
15.9558734451
 20
11.421572206
 30
0.0
 10
15.9427992961
 20
11.4094690707
 30
0.0
 10
15.9289190253
 20
11.3978054248
 30
0.0
 10
15.9142484864
 20
11.3865942779
 30
0.0
 10
15.8988043851
 20
11.3758481193
 30
0.0
 10
15.8826042654
 20
11.3655789096
 30
0.0
 10
15.8656664917
 20
11.3557980762
 30
0.0
 10
15.848010233
 20
11.3465165053
 30
0.0
 10
15.8296554467
 20
11.3377445319
 30
0.0
 10
15.8106228614
 20
11.3294919298
 30
0.0
 10
15.7909339585
 20
11.321767899
 30
0.0
 10
15.7706109503
 20
11.3145810579
 30
0.0
 10
15.7496767579
 20
11.3079394323
 30
0.0
 10
15.7281549882
 20
11.3018504463
 30
0.0
 10
15.7060699093
 20
11.2963209117
 30
0.0
 10
15.6834464259
 20
11.291357017
 30
0.0
 10
15.6603100496
 20
11.2869643219
 30
0.0
 10
15.636686879
 20
11.2831477502
 30
0.0
 10
15.6126035383
 20
11.2799115798
 30
0.0
 10
15.5880872725
 20
11.2772594504
 30
0.0
 10
15.5631654426
 20
11.2751943038
 30
0.0
 10
15.5292252728
 20
11.2732144605
 30
0.0
 10
15.5035601898
 20
11.2726395764
 30
0.0
 10
15.4863489596
 20
11.2726395764
 30
0.0
  0
SPLINE
  5
29B
100
AcDbEntity
  8
LAYER_CHAMFER_FEAT
100
AcDbSpline
 62
7
  6
CONTINUOUS
 70
0
 71
3
 72
11
 73
7
 74
0
 42
0.0000001
 43
0.0000001
 44
0.0000000001
 40
0.0
 40
0.0
 40
0.0
 40
0.0
 40
0.261777436
 40
0.5161275625
 40
0.7623843031
 40
1.0
 40
1.0
 40
1.0
 40
1.0
 10
15.1413466084
 20
11.9756804505
 30
0.0
 10
15.1347523753
 20
11.9756804505
 30
0.0
 10
15.1217481865
 20
11.9753531001
 30
0.0
 10
15.1025938318
 20
11.9738372465
 30
0.0
 10
15.0841597697
 20
11.9713118479
 30
0.0
 10
15.0721979464
 20
11.9689198041
 30
0.0
 10
15.0663713147
 20
11.9675495151
 30
0.0
  0
SPLINE
  5
29C
100
AcDbEntity
  8
LAYER_CHAMFER_FEAT
100
AcDbSpline
 62
7
  6
CONTINUOUS
 70
0
 71
3
 72
25
 73
21
 74
0
 42
0.0000001
 43
0.0000001
 44
0.0000000001
 40
0.0
 40
0.0
 40
0.0
 40
0.0
 40
0.0614582097
 40
0.1243109054
 40
0.1883116192
 40
0.2531961093
 40
0.3186887344
 40
0.3845057429
 40
0.4503591488
 40
0.5159604937
 40
0.581024606
 40
0.645273383
 40
0.7084396979
 40
0.7702714722
 40
0.8305359194
 40
0.8600171186
 40
0.8890304493
 40
0.9175543888
 40
0.9455695227
 40
1.0
 40
1.0
 40
1.0
 40
1.0
 10
15.1413466084
 20
11.9756804505
 30
0.0
 10
15.1485682432
 20
11.9756804505
 30
0.0
 10
15.163177998
 20
11.9752776865
 30
0.0
 10
15.1852447854
 20
11.9735228379
 30
0.0
 10
15.2075964957
 20
11.9706212616
 30
0.0
 10
15.2300872861
 20
11.9665917322
 30
0.0
 10
15.2525713413
 20
11.9614604556
 30
0.0
 10
15.2749025874
 20
11.9552607633
 30
0.0
 10
15.2969359858
 20
11.9480329016
 30
0.0
 10
15.3185284106
 20
11.9398238263
 30
0.0
 10
15.3395396437
 20
11.9306868651
 30
0.0
 10
15.359833222
 20
11.9206813422
 30
0.0
 10
15.3792775586
 20
11.9098720893
 30
0.0
 10
15.3977460984
 20
11.8983294624
 30
0.0
 10
15.4123298727
 20
11.888087198
 30
0.0
 10
15.4233964766
 20
11.8795835465
 30
0.0
 10
15.4313193795
 20
11.8731174044
 30
0.0
 10
15.4389128461
 20
11.8665269467
 30
0.0
 10
15.4484884098
 20
11.8576743079
 30
0.0
 10
15.4552828267
 20
11.8507549567
 30
0.0
 10
15.4595972935
 20
11.8460334974
 30
0.0
  0
SPLINE
  5
29D
100
AcDbEntity
  8
LAYER_FEATURE
100
AcDbSpline
 62
7
  6
CONTINUOUS
 70
0
 71
3
 72
39
 73
35
 74
0
 42
0.0000001
 43
0.0000001
 44
0.0000000001
 40
0.0
 40
0.0
 40
0.0
 40
0.0
 40
0.0396651873
 40
0.0788627135
 40
0.1175691664
 40
0.1557638124
 40
0.1934266623
 40
0.2305396249
 40
0.2670862421
 40
0.3030519225
 40
0.3384240463
 40
0.3731920979
 40
0.4073478077
 40
0.4408852955
 40
0.4738012226
 40
0.506094948
 40
0.5377686906
 40
0.5688276881
 40
0.5992803563
 40
0.6291384461
 40
0.6584171915
 40
0.687135444
 40
0.715315789
 40
0.7429846304
 40
0.7701722362
 40
0.7969127392
 40
0.8232440802
 40
0.8492078832
 40
0.8748492573
 40
0.9002165149
 40
0.9253608053
 40
0.9503356665
 40
0.9751965027
 40
1.0
 40
1.0
 40
1.0
 40
1.0
 10
14.9784596264
 20
12.9969765762
 30
0.0
 10
14.9656302824
 20
12.9969765762
 30
0.0
 10
14.9401218383
 20
12.9966888959
 30
0.0
 10
14.9021144347
 20
12.9953776785
 30
0.0
 10
14.8646234536
 20
12.9931906366
 30
0.0
 10
14.8276915982
 20
12.9901302963
 30
0.0
 10
14.7913603528
 20
12.9862000386
 30
0.0
 10
14.7556707762
 20
12.9814042989
 30
0.0
 10
14.7206631075
 20
12.9757484423
 30
0.0
 10
14.6863768385
 20
12.9692388146
 30
0.0
 10
14.6528506349
 20
12.9618827141
 30
0.0
 10
14.6201223031
 20
12.9536883817
 30
0.0
 10
14.5882287486
 20
12.9446649903
 30
0.0
 10
14.5572059358
 20
12.9348226324
 30
0.0
 10
14.5270888507
 20
12.9241723066
 30
0.0
 10
14.4979114624
 20
12.9127259037
 30
0.0
 10
14.4697066857
 20
12.9004961995
 30
0.0
 10
14.4425063516
 20
12.887496831
 30
0.0
 10
14.4163411774
 20
12.8737422817
 30
0.0
 10
14.3912407396
 20
12.8592478659
 30
0.0
 10
14.3672334471
 20
12.8440297146
 30
0.0
 10
14.3443465168
 20
12.8281047599
 30
0.0
 10
14.3226059459
 20
12.8114907288
 30
0.0
 10
14.3020364888
 20
12.7942061311
 30
0.0
 10
14.2826616389
 20
12.776270246
 30
0.0
 10
14.264503604
 20
12.7577031162
 30
0.0
 10
14.2475832803
 20
12.7385255435
 30
0.0
 10
14.2319202218
 20
12.7187590803
 30
0.0
 10
14.2175326073
 20
12.6984260326
 30
0.0
 10
14.2044371827
 20
12.6775494211
 30
0.0
 10
14.1926492666
 20
12.6561530817
 30
0.0
 10
14.1821825625
 20
12.6342611875
 30
0.0
 10
14.1730496415
 20
12.6118998985
 30
0.0
 10
14.1678545134
 20
12.5966881619
 30
0.0
 10
14.1654859047
 20
12.5890233301
 30
0.0
  0
SPLINE
  5
29E
100
AcDbEntity
  8
LAYER_FEATURE
100
AcDbSpline
 62
7
  6
CONTINUOUS
 70
0
 71
3
 72
39
 73
35
 74
0
 42
0.0000001
 43
0.0000001
 44
0.0000000001
 40
0.0
 40
0.0
 40
0.0
 40
0.0
 40
0.0396651873
 40
0.0788627135
 40
0.1175691664
 40
0.1557638124
 40
0.1934266623
 40
0.2305396249
 40
0.2670862421
 40
0.3030519225
 40
0.3384240463
 40
0.3731920979
 40
0.4073478077
 40
0.4408852955
 40
0.4738012226
 40
0.506094948
 40
0.5377686906
 40
0.5688276881
 40
0.5992803563
 40
0.6291384461
 40
0.6584171915
 40
0.687135444
 40
0.715315789
 40
0.7429846304
 40
0.7701722362
 40
0.7969127392
 40
0.8232440802
 40
0.8492078832
 40
0.8748492573
 40
0.9002165149
 40
0.9253608053
 40
0.9503356665
 40
0.9751965027
 40
1.0
 40
1.0
 40
1.0
 40
1.0
 10
15.2108432969
 20
13.7489704094
 30
0.0
 10
15.1980139529
 20
13.7489704094
 30
0.0
 10
15.1725055087
 20
13.7486827291
 30
0.0
 10
15.1344981051
 20
13.7473715117
 30
0.0
 10
15.0970071241
 20
13.7451844699
 30
0.0
 10
15.0600752687
 20
13.7421241295
 30
0.0
 10
15.0237440233
 20
13.7381938718
 30
0.0
 10
14.9880544467
 20
13.7333981321
 30
0.0
 10
14.953046778
 20
13.7277422756
 30
0.0
 10
14.918760509
 20
13.7212326478
 30
0.0
 10
14.8852343054
 20
13.7138765473
 30
0.0
 10
14.8525059736
 20
13.7056822149
 30
0.0
 10
14.820612419
 20
13.6966588236
 30
0.0
 10
14.7895896063
 20
13.6868164656
 30
0.0
 10
14.7594725212
 20
13.6761661398
 30
0.0
 10
14.7302951329
 20
13.6647197369
 30
0.0
 10
14.7020903562
 20
13.6524900327
 30
0.0
 10
14.6748900221
 20
13.6394906642
 30
0.0
 10
14.6487248479
 20
13.6257361149
 30
0.0
 10
14.6236244101
 20
13.6112416991
 30
0.0
 10
14.5996171175
 20
13.5960235479
 30
0.0
 10
14.5767301873
 20
13.5800985931
 30
0.0
 10
14.5549896164
 20
13.563484562
 30
0.0
 10
14.5344201593
 20
13.5461999644
 30
0.0
 10
14.5150453093
 20
13.5282640792
 30
0.0
 10
14.4968872744
 20
13.5096969494
 30
0.0
 10
14.4799669508
 20
13.4905193768
 30
0.0
 10
14.4643038923
 20
13.4707529136
 30
0.0
 10
14.4499162777
 20
13.4504198658
 30
0.0
 10
14.4368208532
 20
13.4295432543
 30
0.0
 10
14.4250329371
 20
13.408146915
 30
0.0
 10
14.414566233
 20
13.3862550207
 30
0.0
 10
14.405433312
 20
13.3638937317
 30
0.0
 10
14.4002381839
 20
13.3486819952
 30
0.0
 10
14.3978695752
 20
13.3410171633
 30
0.0
  0
SPLINE
  5
29F
100
AcDbEntity
  8
LAYER_FEATURE
100
AcDbSpline
 62
7
  6
CONTINUOUS
 70
0
 71
3
 72
63
 73
59
 74
0
 42
0.0000001
 43
0.0000001
 44
0.0000000001
 40
0.0
 40
0.0
 40
0.0
 40
0.0
 40
0.0171789864
 40
0.0345309365
 40
0.0520451041
 40
0.0697110604
 40
0.087517634
 40
0.1054534742
 40
0.123506907
 40
0.1416660024
 40
0.1782507002
 40
0.2151097559
 40
0.2521413346
 40
0.2892421633
 40
0.3263083947
 40
0.3632364684
 40
0.3999239731
 40
0.4362705181
 40
0.454286196
 40
0.4721803754
 40
0.4899414785
 40
0.5075582269
 40
0.5250196722
 40
0.542315227
 40
0.5594346975
 40
0.5763683161
 40
0.5931067779
 40
0.6096412774
 40
0.6259635451
 40
0.6420658862
 40
0.6579412206
 40
0.6735831262
 40
0.6889858857
 40
0.7041445316
 40
0.719054894
 40
0.7337136512
 40
0.7481183823
 40
0.7622676242
 40
0.7761609281
 40
0.7897989154
 40
0.8031833362
 40
0.8163171278
 40
0.8292044737
 40
0.8418508598
 40
0.8542631238
 40
0.8664494994
 40
0.8784196529
 40
0.890184708
 40
0.9017572578
 40
0.9131513551
 40
0.9243824821
 40
0.9354674961
 40
0.9464245487
 40
0.9572729761
 40
0.9680331591
 40
0.9787263538
 40
0.9893744988
 40
1.0
 40
1.0
 40
1.0
 40
1.0
 10
14.9784596264
 20
12.9969765762
 30
0.0
 10
14.9909114686
 20
12.9969765762
 30
0.0
 10
15.0159413214
 20
12.9967025883
 30
0.0
 10
15.0536481768
 20
12.9954851941
 30
0.0
 10
15.0916738924
 20
12.9934604468
 30
0.0
 10
15.1299784838
 20
12.9906305363
 30
0.0
 10
15.1685223096
 20
12.986998355
 30
0.0
 10
15.207265132
 20
12.9825677066
 30
0.0
 10
15.2461668269
 20
12.9773431881
 30
0.0
 10
15.2983195444
 20
12.9693064336
 30
0.0
 10
15.3636398801
 20
12.9573034621
 30
0.0
 10
15.4418141295
 20
12.9398726129
 30
0.0
 10
15.5196481524
 20
12.919451036
 30
0.0
 10
15.5968178417
 20
12.8961237399
 30
0.0
 10
15.6730027609
 20
12.8699875808
 30
0.0
 10
15.7478865839
 20
12.8411510882
 30
0.0
 10
15.8211574945
 20
12.8097343605
 30
0.0
 10
15.8807945665
 20
12.7814289995
 30
0.0
 10
15.9274341312
 20
12.7575954726
 30
0.0
 10
15.96172192
 20
12.7392121856
 30
0.0
 10
15.9953829809
 20
12.7202884265
 30
0.0
 10
16.0283824307
 20
12.7008437903
 30
0.0
 10
16.0606858903
 20
12.6808985397
 30
0.0
 10
16.0922597548
 20
12.6604734201
 30
0.0
 10
16.1230711652
 20
12.6395896812
 30
0.0
 10
16.1530880585
 20
12.6182690428
 30
0.0
 10
16.1822791987
 20
12.5965336757
 30
0.0
 10
16.2106142174
 20
12.5744061858
 30
0.0
 10
16.2380636366
 20
12.5519095791
 30
0.0
 10
16.2645988986
 20
12.5290672392
 30
0.0
 10
16.2901923944
 20
12.5059029028
 30
0.0
 10
16.3148174916
 20
12.4824406321
 30
0.0
 10
16.3384485724
 20
12.458704799
 30
0.0
 10
16.3610610517
 20
12.4347200513
 30
0.0
 10
16.3826313983
 20
12.4105112848
 30
0.0
 10
16.4031371575
 20
12.3861036194
 30
0.0
 10
16.4225569712
 20
12.3615223693
 30
0.0
 10
16.4408706077
 20
12.3367930233
 30
0.0
 10
16.4580589806
 20
12.3119412169
 30
0.0
 10
16.4741041559
 20
12.286992701
 30
0.0
 10
16.4889893688
 20
12.2619733195
 30
0.0
 10
16.502699036
 20
12.2369089827
 30
0.0
 10
16.5152187731
 20
12.2118256449
 30
0.0
 10
16.5265354171
 20
12.1867492857
 30
0.0
 10
16.5366370223
 20
12.1617058807
 30
0.0
 10
16.5455128703
 20
12.1367213842
 30
0.0
 10
16.5531534804
 20
12.1118217106
 30
0.0
 10
16.559550619
 20
12.0870327153
 30
0.0
 10
16.5646973305
 20
12.0623801822
 30
0.0
 10
16.5685879355
 20
12.0378898016
 30
0.0
 10
16.5712180428
 20
12.0135871552
 30
0.0
 10
16.5725845679
 20
11.9894976958
 30
0.0
 10
16.5726857506
 20
11.9656467332
 30
0.0
 10
16.5715211832
 20
11.9420593784
 30
0.0
 10
16.5690918594
 20
11.9187606191
 30
0.0
 10
16.565400053
 20
11.8957748821
 30
0.0
 10
16.5604497998
 20
11.8731274804
 30
0.0
 10
16.5563119125
 20
11.8582632486
 30
0.0
 10
16.5540380147
 20
11.8509049016
 30
0.0
  0
SPLINE
  5
2A0
100
AcDbEntity
  8
LAYER_FEATURE
100
AcDbSpline
 62
7
  6
CONTINUOUS
 70
0
 71
3
 72
63
 73
59
 74
0
 42
0.0000001
 43
0.0000001
 44
0.0000000001
 40
0.0
 40
0.0
 40
0.0
 40
0.0
 40
0.0171789864
 40
0.0345309365
 40
0.0520451041
 40
0.0697110604
 40
0.087517634
 40
0.1054534742
 40
0.123506907
 40
0.1416660024
 40
0.1782507002
 40
0.2151097559
 40
0.2521413346
 40
0.2892421633
 40
0.3263083947
 40
0.3632364684
 40
0.3999239731
 40
0.4362705181
 40
0.454286196
 40
0.4721803754
 40
0.4899414785
 40
0.5075582269
 40
0.5250196722
 40
0.542315227
 40
0.5594346975
 40
0.5763683161
 40
0.5931067779
 40
0.6096412774
 40
0.6259635451
 40
0.6420658862
 40
0.6579412206
 40
0.6735831262
 40
0.6889858857
 40
0.7041445316
 40
0.719054894
 40
0.7337136512
 40
0.7481183823
 40
0.7622676242
 40
0.7761609281
 40
0.7897989154
 40
0.8031833362
 40
0.8163171278
 40
0.8292044737
 40
0.8418508598
 40
0.8542631238
 40
0.8664494994
 40
0.8784196529
 40
0.890184708
 40
0.9017572578
 40
0.9131513551
 40
0.9243824821
 40
0.9354674961
 40
0.9464245487
 40
0.9572729761
 40
0.9680331591
 40
0.9787263538
 40
0.9893744988
 40
1.0
 40
1.0
 40
1.0
 40
1.0
 10
15.2108432969
 20
13.7489704094
 30
0.0
 10
15.223295139
 20
13.7489704094
 30
0.0
 10
15.2483249918
 20
13.7486964215
 30
0.0
 10
15.2860318473
 20
13.7474790273
 30
0.0
 10
15.3240575629
 20
13.74545428
 30
0.0
 10
15.3623621542
 20
13.7426243695
 30
0.0
 10
15.4009059801
 20
13.7389921882
 30
0.0
 10
15.4396488024
 20
13.7345615399
 30
0.0
 10
15.4785504974
 20
13.7293370214
 30
0.0
 10
15.5307032148
 20
13.7213002669
 30
0.0
 10
15.5960235506
 20
13.7092972953
 30
0.0
 10
15.6741978
 20
13.6918664462
 30
0.0
 10
15.7520318228
 20
13.6714448693
 30
0.0
 10
15.8292015121
 20
13.6481175731
 30
0.0
 10
15.9053864313
 20
13.6219814141
 30
0.0
 10
15.9802702544
 20
13.5931449215
 30
0.0
 10
16.0535411649
 20
13.5617281937
 30
0.0
 10
16.1131782369
 20
13.5334228328
 30
0.0
 10
16.1598178017
 20
13.5095893059
 30
0.0
 10
16.1941055905
 20
13.4912060188
 30
0.0
 10
16.2277666514
 20
13.4722822597
 30
0.0
 10
16.2607661012
 20
13.4528376235
 30
0.0
 10
16.2930695607
 20
13.4328923729
 30
0.0
 10
16.3246434252
 20
13.4124672533
 30
0.0
 10
16.3554548357
 20
13.3915835144
 30
0.0
 10
16.385471729
 20
13.370262876
 30
0.0
 10
16.4146628692
 20
13.3485275089
 30
0.0
 10
16.4429978878
 20
13.3264000191
 30
0.0
 10
16.4704473071
 20
13.3039034123
 30
0.0
 10
16.4969825691
 20
13.2810610724
 30
0.0
 10
16.5225760649
 20
13.257896736
 30
0.0
 10
16.5472011621
 20
13.2344344653
 30
0.0
 10
16.5708322428
 20
13.2106986322
 30
0.0
 10
16.5934447222
 20
13.1867138845
 30
0.0
 10
16.6150150688
 20
13.1625051181
 30
0.0
 10
16.635520828
 20
13.1380974527
 30
0.0
 10
16.6549406417
 20
13.1135162026
 30
0.0
 10
16.6732542782
 20
13.0887868565
 30
0.0
 10
16.690442651
 20
13.0639350501
 30
0.0
 10
16.7064878263
 20
13.0389865342
 30
0.0
 10
16.7213730393
 20
13.0139671527
 30
0.0
 10
16.7350827065
 20
12.988902816
 30
0.0
 10
16.7476024435
 20
12.9638194782
 30
0.0
 10
16.7589190876
 20
12.9387431189
 30
0.0
 10
16.7690206928
 20
12.9136997139
 30
0.0
 10
16.7778965408
 20
12.8887152174
 30
0.0
 10
16.7855371509
 20
12.8638155439
 30
0.0
 10
16.7919342895
 20
12.8390265486
 30
0.0
 10
16.797081001
 20
12.8143740155
 30
0.0
 10
16.800971606
 20
12.7898836349
 30
0.0
 10
16.8036017133
 20
12.7655809885
 30
0.0
 10
16.8049682384
 20
12.7414915291
 30
0.0
 10
16.8050694211
 20
12.7176405665
 30
0.0
 10
16.8039048537
 20
12.6940532117
 30
0.0
 10
16.8014755298
 20
12.6707544524
 30
0.0
 10
16.7977837234
 20
12.6477687154
 30
0.0
 10
16.7928334703
 20
12.6251213137
 30
0.0
 10
16.788695583
 20
12.6102570818
 30
0.0
 10
16.7864216852
 20
12.6028987348
 30
0.0
  0
SPLINE
  5
2A1
100
AcDbEntity
  8
LAYER_CUT_FEAT
100
AcDbSpline
 62
7
  6
CONTINUOUS
 70
0
 71
3
 72
77
 73
73
 74
0
 42
0.0000001
 43
0.0000001
 44
0.0000000001
 40
0.0
 40
0.0
 40
0.0
 40
0.0
 40
0.005354118
 40
0.0107129251
 40
0.0160810908
 40
0.0214632432
 40
0.026863952
 40
0.0322877068
 40
0.037738903
 40
0.0432218215
 40
0.0487406178
 40
0.0542993039
 40
0.0655501202
 40
0.07700472
 40
0.0886891121
 40
0.1006262812
 40
0.112836113
 40
0.1190492007
 40
0.1253364888
 40
0.1381389509
 40
0.1512553813
 40
0.1646937396
 40
0.178459304
 40
0.1925548268
 40
0.2069806933
 40
0.2217350801
 40
0.23681411
 40
0.2522120009
 40
0.2679212084
 40
0.2839325606
 40
0.300235386
 40
0.3168176344
 40
0.3336659908
 40
0.3507659833
 40
0.368102086
 40
0.3856578162
 40
0.4034158276
 40
0.4213579998
 40
0.4394655239
 40
0.4577189859
 40
0.4760984476
 40
0.4945835246
 40
0.5131534638
 40
0.5317872187
 40
0.550463524
 40
0.5691609693
 40
0.5878580726
 40
0.6065333526
 40
0.6251654027
 40
0.6437329633
 40
0.6622149961
 40
0.6805907586
 40
0.6988398794
 40
0.7169424357
 40
0.7348790315
 40
0.7526308787
 40
0.77017988
 40
0.7875087153
 40
0.8046009309
 40
0.8214410328
 40
0.8380145845
 40
0.8543083096
 40
0.8703101998
 40
0.8860096295
 40
0.9013974767
 40
0.9164662509
 40
0.9312102283
 40
0.9456255953
 40
0.9597105949
 40
0.9734656894
 40
0.986893699
 40
1.0
 40
1.0
 40
1.0
 40
1.0
 10
14.3110591402
 20
12.5097125555
 30
0.0
 10
14.312326295
 20
12.5138130579
 30
0.0
 10
14.3150101812
 20
12.5219726186
 30
0.0
 10
14.3194781048
 20
12.5340668878
 30
0.0
 10
14.3243870632
 20
12.5460134313
 30
0.0
 10
14.3297348199
 20
12.5578069154
 30
0.0
 10
14.3355191223
 20
12.5694423028
 30
0.0
 10
14.3417374153
 20
12.5809145966
 30
0.0
 10
14.3483870529
 20
12.5922188617
 30
0.0
 10
14.3554650885
 20
12.6033502356
 30
0.0
 10
14.3629686076
 20
12.6143040514
 30
0.0
 10
14.3735776547
 20
12.628722636
 30
0.0
 10
14.3879129525
 20
12.6462900712
 30
0.0
 10
14.4066904888
 20
12.6664966363
 30
0.0
 10
14.4270807274
 20
12.6858816115
 30
0.0
 10
14.4490471301
 20
12.7044113921
 30
0.0
 10
14.4685210177
 20
12.7190294585
 30
0.0
 10
14.484831647
 20
12.7302713252
 30
0.0
 10
14.5018326515
 20
12.7413363704
 30
0.0
 10
14.5240131561
 20
12.7545699505
 30
0.0
 10
14.5518798997
 20
12.7693854869
 30
0.0
 10
14.5811087647
 20
12.7832068185
 30
0.0
 10
14.6116493469
 20
12.796010509
 30
0.0
 10
14.6434496871
 20
12.8077751916
 30
0.0
 10
14.676455538
 20
12.8184810998
 30
0.0
 10
14.7106106646
 20
12.8281102465
 30
0.0
 10
14.7458568664
 20
12.836646422
 30
0.0
 10
14.7821340856
 20
12.844075239
 30
0.0
 10
14.8193804984
 20
12.8503841615
 30
0.0
 10
14.8575326183
 20
12.8555625328
 30
0.0
 10
14.8965254011
 20
12.8596015996
 30
0.0
 10
14.9362923549
 20
12.8624945323
 30
0.0
 10
14.9767656532
 20
12.8642364407
 30
0.0
 10
15.0178762507
 20
12.8648243865
 30
0.0
 10
15.0595540016
 20
12.8642573909
 30
0.0
 10
15.1017277802
 20
12.8625364397
 30
0.0
 10
15.1443256033
 20
12.8596644828
 30
0.0
 10
15.1872747541
 20
12.8556464319
 30
0.0
 10
15.2305019074
 20
12.8504891526
 30
0.0
 10
15.2739332559
 20
12.8442014544
 30
0.0
 10
15.3174946373
 20
12.8367940761
 30
0.0
 10
15.361111662
 20
12.8282796686
 30
0.0
 10
15.4047098412
 20
12.818672773
 30
0.0
 10
15.4482147146
 20
12.8079897969
 30
0.0
 10
15.4915519793
 20
12.7962489858
 30
0.0
 10
15.5346476168
 20
12.7834703924
 30
0.0
 10
15.5774280205
 20
12.7696758424
 30
0.0
 10
15.6198201226
 20
12.7548888966
 30
0.0
 10
15.6617515189
 20
12.7391348105
 30
0.0
 10
15.7031505938
 20
12.7224404912
 30
0.0
 10
15.743946643
 20
12.7048344502
 30
0.0
 10
15.7840699953
 20
12.6863467545
 30
0.0
 10
15.8234521315
 20
12.6670089746
 30
0.0
 10
15.8620258025
 20
12.6468541292
 30
0.0
 10
15.8997251448
 20
12.625916628
 30
0.0
 10
15.9364857925
 20
12.6042322116
 30
0.0
 10
15.9722449886
 20
12.581837889
 30
0.0
 10
16.0069416913
 20
12.5587718724
 30
0.0
 10
16.0405166787
 20
12.5350735103
 30
0.0
 10
16.0729126489
 20
12.5107832177
 30
0.0
 10
16.1040743177
 20
12.4859424047
 30
0.0
 10
16.1339485109
 20
12.4605934028
 30
0.0
 10
16.1624842536
 20
12.4347793896
 30
0.0
 10
16.1896328537
 20
12.4085443114
 30
0.0
 10
16.2153479813
 20
12.3819328055
 30
0.0
 10
16.2395857431
 20
12.354990118
 30
0.0
 10
16.2623047467
 20
12.327762033
 30
0.0
 10
16.2834661759
 20
12.3002947587
 30
0.0
 10
16.3030337945
 20
12.2726349674
 30
0.0
 10
16.3209741903
 20
12.2448292883
 30
0.0
 10
16.3372560843
 20
12.2169257842
 30
0.0
 10
16.3471048251
 20
12.198062549
 30
0.0
 10
16.3517331377
 20
12.1886310394
 30
0.0
  0
SPLINE
  5
2A2
100
AcDbEntity
  8
LAYER_CHAMFER_FEAT
100
AcDbSpline
 62
7
  6
CONTINUOUS
 70
0
 71
3
 72
61
 73
57
 74
0
 42
0.0000001
 43
0.0000001
 44
0.0000000001
 40
0.0
 40
0.0
 40
0.0
 40
0.0
 40
0.0157587574
 40
0.0311490128
 40
0.0461670874
 40
0.0608120419
 40
0.0750859335
 40
0.0889940228
 40
0.1025449713
 40
0.1157510617
 40
0.1286284032
 40
0.1411970423
 40
0.1534810399
 40
0.1655084905
 40
0.177311405
 40
0.1889254528
 40
0.2003895815
 40
0.2117454893
 40
0.2230369298
 40
0.2343089147
 40
0.2456068428
 40
0.2569755976
 40
0.2684586842
 40
0.2800974477
 40
0.2919303965
 40
0.3039926939
 40
0.3163158019
 40
0.3289272457
 40
0.3418505073
 40
0.3551050601
 40
0.3687064592
 40
0.3826664591
 40
0.3969932173
 40
0.4116915212
 40
0.4267629911
 40
0.4422062809
 40
0.4580173294
 40
0.4741895709
 40
0.490714106
 40
0.5075799015
 40
0.5247739901
 40
0.5422816257
 40
0.5600864193
 40
0.5781705164
 40
0.5965147401
 40
0.6150987042
 40
0.6528954712
 40
0.691382258
 40
0.7303651264
 40
0.7696421437
 40
0.8090067159
 40
0.8482508778
 40
0.88716856
 40
0.9255588642
 40
0.9632292418
 40
1.0
 40
1.0
 40
1.0
 40
1.0
 10
15.0663713147
 20
11.9675495151
 30
0.0
 10
15.0630594226
 20
11.9667706347
 30
0.0
 10
15.0565417335
 20
11.9651056087
 30
0.0
 10
15.0469898995
 20
11.9622484001
 30
0.0
 10
15.0377951125
 20
11.9590660671
 30
0.0
 10
15.0289755888
 20
11.9555647648
 30
0.0
 10
15.0205485712
 20
11.9517512263
 30
0.0
 10
15.0125306061
 20
11.9476327898
 30
0.0
 10
15.004937464
 20
11.9432173374
 30
0.0
 10
14.9977841332
 20
11.9385133064
 30
0.0
 10
14.9910847601
 20
11.9335297274
 30
0.0
 10
14.9848526729
 20
11.9282761555
 30
0.0
 10
14.9791003793
 20
11.9227626688
 30
0.0
 10
14.973839499
 20
11.9169999214
 30
0.0
 10
14.9690807385
 20
11.9109991345
 30
0.0
 10
14.9648338961
 20
11.9047720692
 30
0.0
 10
14.961107811
 20
11.8983310423
 30
0.0
 10
14.9579102301
 20
11.8916889547
 30
0.0
 10
14.9552478162
 20
11.8848592127
 30
0.0
 10
14.9531261121
 20
11.8778556843
 30
0.0
 10
14.9515494429
 20
11.8706926566
 30
0.0
 10
14.9505208773
 20
11.8633847504
 30
0.0
 10
14.9500422995
 20
11.8559468253
 30
0.0
 10
14.9501144244
 20
11.8483939253
 30
0.0
 10
14.9507367436
 20
11.8407412214
 30
0.0
 10
14.9519076395
 20
11.8330039627
 30
0.0
 10
14.9536244462
 20
11.8251974604
 30
0.0
 10
14.9558834404
 20
11.8173370741
 30
0.0
 10
14.9586798333
 20
11.8094381848
 30
0.0
 10
14.962007865
 20
11.8015162037
 30
0.0
 10
14.965860809
 20
11.7935865688
 30
0.0
 10
14.9702309168
 20
11.7856647032
 30
0.0
 10
14.9751094696
 20
11.7777660095
 30
0.0
 10
14.9804868143
 20
11.7699058625
 30
0.0
 10
14.9863523498
 20
11.7620995789
 30
0.0
 10
14.9926945024
 20
11.7543623582
 30
0.0
 10
14.9995008008
 20
11.7467092917
 30
0.0
 10
15.0067578924
 20
11.7391553362
 30
0.0
 10
15.0144515251
 20
11.7317152513
 30
0.0
 10
15.0225665858
 20
11.7244035774
 30
0.0
 10
15.031087156
 20
11.7172346294
 30
0.0
 10
15.0399965269
 20
11.7102224645
 30
0.0
 10
15.049277205
 20
11.7033808038
 30
0.0
 10
15.0589109512
 20
11.6967230748
 30
0.0
 10
15.068878946
 20
11.6902622797
 30
0.0
 10
15.0826658425
 20
11.6818808697
 30
0.0
 10
15.1006123349
 20
11.6719873662
 30
0.0
 10
15.1230314346
 20
11.6611598246
 30
0.0
 10
15.14628024
 20
11.651394541
 30
0.0
 10
15.1701764409
 20
11.6427681899
 30
0.0
 10
15.1945332158
 20
11.63534814
 30
0.0
 10
15.2191600018
 20
11.6291924906
 30
0.0
 10
15.2438640702
 20
11.6243493827
 30
0.0
 10
15.2684525206
 20
11.6208566903
 30
0.0
 10
15.2927320968
 20
11.6187417438
 30
0.0
 10
15.3088070354
 20
11.6182547188
 30
0.0
 10
15.3167456817
 20
11.6182547188
 30
0.0
  0
SPLINE
  5
2A3
100
AcDbEntity
  8
LAYER_FEATURE
100
AcDbSpline
 62
7
  6
CONTINUOUS
 70
0
 71
3
 72
22
 73
18
 74
0
 42
0.0000001
 43
0.0000001
 44
0.0000000001
 40
0.0
 40
0.0
 40
0.0
 40
0.0
 40
0.047069421
 40
0.0947703161
 40
0.1436877151
 40
0.1943438679
 40
0.2471590612
 40
0.3024529811
 40
0.3604429066
 40
0.4212508479
 40
0.4849133168
 40
0.5513910447
 40
0.6205791782
 40
0.6923178571
 40
0.7663992663
 40
0.8425711288
 40
1.0
 40
1.0
 40
1.0
 40
1.0
 10
16.6370171228
 20
12.5634247687
 30
0.0
 10
16.6371090428
 20
12.5637222548
 30
0.0
 10
16.6372514414
 20
12.5643353383
 30
0.0
 10
16.637334316
 20
12.5652851221
 30
0.0
 10
16.6372869601
 20
12.5662610462
 30
0.0
 10
16.6371102246
 20
12.5672560329
 30
0.0
 10
16.6368057755
 20
12.5682634865
 30
0.0
 10
16.6363760974
 20
12.5692768195
 30
0.0
 10
16.6358243459
 20
12.5702895506
 30
0.0
 10
16.6351543382
 20
12.5712952121
 30
0.0
 10
16.634370574
 20
12.5722873605
 30
0.0
 10
16.6334782633
 20
12.5732596118
 30
0.0
 10
16.6324832938
 20
12.5742056839
 30
0.0
 10
16.6313922187
 20
12.5751194056
 30
0.0
 10
16.6302121617
 20
12.5759948297
 30
0.0
 10
16.6285122125
 20
12.5771153863
 30
0.0
 10
16.6271553426
 20
12.5778621644
 30
0.0
 10
16.6262200683
 20
12.5783201537
 30
0.0
  0
LINE
  5
2A4
100
AcDbEntity
  8
LAYER_FEATURE
100
AcDbLine
 62
7
  6
CONTINUOUS
 10
16.6557831641
 20
12.6812868456
 11
16.6560799354
 21
12.6832924894
  0
SPLINE
  5
2A5
100
AcDbEntity
  8
LAYER_FEATURE
100
AcDbSpline
 62
7
  6
CONTINUOUS
 70
0
 71
3
 72
13
 73
9
 74
0
 42
0.0000001
 43
0.0000001
 44
0.0000000001
 40
0.0
 40
0.0
 40
0.0
 40
0.0
 40
0.1161504281
 40
0.2332468097
 40
0.3521985979
 40
0.4738443372
 40
0.7277960001
 40
1.0
 40
1.0
 40
1.0
 40
1.0
 10
16.5977350477
 20
12.9035217276
 30
0.0
 10
16.5978064694
 20
12.9037528577
 30
0.0
 10
16.5979242444
 20
12.9042253713
 30
0.0
 10
16.5980225199
 20
12.9049536894
 30
0.0
 10
16.5980424977
 20
12.9056998403
 30
0.0
 10
16.5979636627
 20
12.9067284426
 30
0.0
 10
16.5976596781
 20
12.9080515216
 30
0.0
 10
16.5972322213
 20
12.9090662278
 30
0.0
 10
16.5969754451
 20
12.9095716802
 30
0.0
  0
SPLINE
  5
2A6
100
AcDbEntity
  8
LAYER_FEATURE
100
AcDbSpline
 62
7
  6
CONTINUOUS
 70
0
 71
3
 72
17
 73
13
 74
0
 42
0.0000001
 43
0.0000001
 44
0.0000000001
 40
0.0
 40
0.0
 40
0.0
 40
0.0
 40
0.0529707882
 40
0.1062371129
 40
0.1600864251
 40
0.2147908222
 40
0.3276493179
 40
0.446589035
 40
0.5727996358
 40
0.7069862715
 40
0.8494229092
 40
1.0
 40
1.0
 40
1.0
 40
1.0
 10
16.4304255663
 20
13.1248931353
 30
0.0
 10
16.4304845722
 20
13.1250840867
 30
0.0
 10
16.4305854383
 20
13.1254727071
 30
0.0
 10
16.4306834557
 20
13.1260694998
 30
0.0
 10
16.4307281835
 20
13.1266792432
 30
0.0
 10
16.4307165492
 20
13.127515453
 30
0.0
 10
16.4305633543
 20
13.1285907676
 30
0.0
 10
16.4301695174
 20
13.1298876025
 30
0.0
 10
16.4295697668
 20
13.1311914798
 30
0.0
 10
16.4287715086
 20
13.1324887019
 30
0.0
 10
16.4277839545
 20
13.1337658811
 30
0.0
 10
16.4270266597
 20
13.1345737151
 30
0.0
 10
16.4266212051
 20
13.1349716849
 30
0.0
  0
LINE
  5
2A7
100
AcDbEntity
  8
LAYER_CUT_FEAT
100
AcDbLine
 62
7
  6
CONTINUOUS
 10
16.1605630953
 20
13.2845286248
 11
16.1632314709
 21
13.2824238366
  0
SPLINE
  5
2A8
100
AcDbEntity
  8
LAYER_FEATURE
100
AcDbSpline
 62
7
  6
CONTINUOUS
 70
0
 71
3
 72
19
 73
15
 74
0
 42
0.0000001
 43
0.0000001
 44
0.0000000001
 40
0.0
 40
0.0
 40
0.0
 40
0.0
 40
0.0485455215
 40
0.0976163851
 40
0.1477082107
 40
0.1992662229
 40
0.252671054
 40
0.3082271997
 40
0.4265227113
 40
0.4896085185
 40
0.5553336406
 40
0.6944545763
 40
0.8431444265
 40
1.0
 40
1.0
 40
1.0
 40
1.0
 10
16.1719852991
 20
13.3214120415
 30
0.0
 10
16.1720676541
 20
13.321678549
 30
0.0
 10
16.172199064
 20
13.3222256896
 30
0.0
 10
16.1722915928
 20
13.323071472
 30
0.0
 10
16.1722797888
 20
13.3239395327
 30
0.0
 10
16.1721639318
 20
13.3248248001
 30
0.0
 10
16.1719449392
 20
13.3257225611
 30
0.0
 10
16.1715084339
 20
13.3269551701
 30
0.0
 10
16.1708730633
 20
13.3281683004
 30
0.0
 10
16.1700741838
 20
13.3293429963
 30
0.0
 10
16.1691181838
 20
13.3305513688
 30
0.0
 10
16.1676990962
 20
13.3320129533
 30
0.0
 10
16.1657183239
 20
13.3336339891
 30
0.0
 10
16.1642512449
 20
13.3346042984
 30
0.0
 10
16.1634777405
 20
13.3350669157
 30
0.0
  0
SPLINE
  5
2A9
100
AcDbEntity
  8
02___PRT_ALL_AXES
100
AcDbSpline
 62
7
  6
CONTINUOUS
 70
0
 71
3
 72
39
 73
35
 74
0
 42
0.0000001
 43
0.0000001
 44
0.0000000001
 40
0.0
 40
0.0
 40
0.0
 40
0.0
 40
0.0248034973
 40
0.0496643335
 40
0.0746391947
 40
0.0997834851
 40
0.1251507427
 40
0.1507921168
 40
0.1767559198
 40
0.2030872608
 40
0.2298277638
 40
0.2570153696
 40
0.284684211
 40
0.312864556
 40
0.3415828085
 40
0.3708615539
 40
0.4007196437
 40
0.4311723119
 40
0.4622313094
 40
0.493905052
 40
0.5261987774
 40
0.5591147045
 40
0.5926521923
 40
0.6268079021
 40
0.6615759537
 40
0.6969480775
 40
0.7329137579
 40
0.7694603751
 40
0.8065733377
 40
0.8442361876
 40
0.8824308336
 40
0.9211372865
 40
0.9603348127
 40
1.0
 40
1.0
 40
1.0
 40
1.0
 10
14.5441818249
 20
12.4376721972
 30
0.0
 10
14.545780162
 20
12.4428444257
 30
0.0
 10
14.5492858345
 20
12.4531093056
 30
0.0
 10
14.5554487295
 20
12.4681987034
 30
0.0
 10
14.5625116615
 20
12.4829713536
 30
0.0
 10
14.5704661473
 20
12.4974096034
 30
0.0
 10
14.5793029397
 20
12.5114971409
 30
0.0
 10
14.589011702
 20
12.5252178815
 30
0.0
 10
14.5995811339
 20
12.5385562909
 30
0.0
 10
14.6109989683
 20
12.5514973169
 30
0.0
 10
14.6232520103
 20
12.5640264161
 30
0.0
 10
14.636326159
 20
12.5761295514
 30
0.0
 10
14.6502064287
 20
12.5877931979
 30
0.0
 10
14.6648769659
 20
12.599004346
 30
0.0
 10
14.6803210664
 20
12.6097505055
 30
0.0
 10
14.6965211875
 20
12.620019714
 30
0.0
 10
14.7134589629
 20
12.6298005458
 30
0.0
 10
14.7311152224
 20
12.6390821156
 30
0.0
 10
14.7494700079
 20
12.6478540895
 30
0.0
 10
14.7685025912
 20
12.6561066939
 30
0.0
 10
14.7881914928
 20
12.6638307266
 30
0.0
 10
14.8085145019
 20
12.6710175664
 30
0.0
 10
14.8294486959
 20
12.6776591896
 30
0.0
 10
14.8509704665
 20
12.683748174
 30
0.0
 10
14.8730555448
 20
12.6892777095
 30
0.0
 10
14.895679027
 20
12.6942416062
 30
0.0
 10
14.9188154013
 20
12.698634303
 30
0.0
 10
14.9424385762
 20
12.702450875
 30
0.0
 10
14.9665219024
 20
12.7056870401
 30
0.0
 10
14.9910382268
 20
12.708339178
 30
0.0
 10
15.0159598429
 20
12.7104042957
 30
0.0
 10
15.0412587569
 20
12.7118801115
 30
0.0
 10
15.0669061528
 20
12.712764921
 30
0.0
 10
15.0841192509
 20
12.7129590477
 30
0.0
 10
15.0927764923
 20
12.7129590477
 30
0.0
  0
SPLINE
  5
2AA
100
AcDbEntity
  8
LAYER_CHAMFER_FEAT
100
AcDbSpline
 62
7
  6
CONTINUOUS
 70
0
 71
3
 72
39
 73
35
 74
0
 42
0.0000001
 43
0.0000001
 44
0.0000000001
 40
0.0
 40
0.0
 40
0.0
 40
0.0
 40
0.0357360524
 40
0.0703758208
 40
0.1039098639
 40
0.1363432785
 40
0.1676971466
 40
0.1980099581
 40
0.2273389059
 40
0.2557608985
 40
0.2833730813
 40
0.3102926162
 40
0.3366554621
 40
0.3626139512
 40
0.3883330897
 40
0.4139857195
 40
0.4397469064
 40
0.4657880976
 40
0.492271651
 40
0.5193462463
 40
0.5471434893
 40
0.5757757908
 40
0.60533541
 40
0.6358944368
 40
0.6675054533
 40
0.7002026311
 40
0.7340030705
 40
0.768908233
 40
0.8049053966
 40
0.8419690006
 40
0.8800620904
 40
0.9191371589
 40
0.9591381937
 40
1.0
 40
1.0
 40
1.0
 40
1.0
 10
15.4595972935
 20
11.8460334974
 30
0.0
 10
15.4625761956
 20
11.8427735895
 30
0.0
 10
15.4682845108
 20
11.8362067154
 30
0.0
 10
15.4761814649
 20
11.8260739086
 30
0.0
 10
15.4832560821
 20
11.8158420375
 30
0.0
 10
15.4894843374
 20
11.8055449804
 30
0.0
 10
15.4948452305
 20
11.7952163906
 30
0.0
 10
15.499320362
 20
11.7848901101
 30
0.0
 10
15.5028940664
 20
11.7745999986
 30
0.0
 10
15.505553412
 20
11.7643799501
 30
0.0
 10
15.5072882702
 20
11.7542638973
 30
0.0
 10
15.5080914312
 20
11.7442858367
 30
0.0
 10
15.5079587921
 20
11.7344798203
 30
0.0
 10
15.5068896006
 20
11.7248798688
 30
0.0
 10
15.5048867073
 20
11.7155197606
 30
0.0
 10
15.5019567454
 20
11.7064326898
 30
0.0
 10
15.4981101608
 20
11.6976508454
 30
0.0
 10
15.4933610632
 20
11.6892050045
 30
0.0
 10
15.4877269369
 20
11.6811242342
 30
0.0
 10
15.481228295
 20
11.6734357487
 30
0.0
 10
15.4738883664
 20
11.666164907
 30
0.0
 10
15.4657328668
 20
11.6593352924
 30
0.0
 10
15.4567898611
 20
11.6529688124
 30
0.0
 10
15.4470896909
 20
11.6470857753
 30
0.0
 10
15.4366649367
 20
11.6417049252
 30
0.0
 10
15.4255503838
 20
11.6368434372
 30
0.0
 10
15.4137829768
 20
11.6325168841
 30
0.0
 10
15.4014017526
 20
11.6287391812
 30
0.0
 10
15.3884477564
 20
11.6255225361
 30
0.0
 10
15.3749639171
 20
11.6228773711
 30
0.0
 10
15.3609949812
 20
11.6208123103
 30
0.0
 10
15.3465871819
 20
11.6193340573
 30
0.0
 10
15.3317886826
 20
11.6184474795
 30
0.0
 10
15.3217950592
 20
11.6182547188
 30
0.0
 10
15.3167456817
 20
11.6182547188
 30
0.0
  0
SPLINE
  5
2AB
100
AcDbEntity
  8
LAYER_CHAMFER_FEAT
100
AcDbSpline
 62
7
  6
CONTINUOUS
 70
0
 71
3
 72
43
 73
39
 74
0
 42
0.0000001
 43
0.0000001
 44
0.0000000001
 40
0.0
 40
0.0
 40
0.0
 40
0.0
 40
0.0106261669
 40
0.0212749797
 40
0.0319688449
 40
0.0427297024
 40
0.0535788109
 40
0.0645365496
 40
0.0756222594
 40
0.0868540887
 40
0.1098154923
 40
0.1335461335
 40
0.1581408754
 40
0.1836713467
 40
0.2101868795
 40
0.2377160184
 40
0.266268306
 40
0.2958361476
 40
0.3263966353
 40
0.3579132663
 40
0.390337534
 40
0.423610386
 40
0.4576635604
 40
0.4924208134
 40
0.5277990565
 40
0.5637094178
 40
0.600058243
 40
0.6367480486
 40
0.6736784385
 40
0.7107469949
 40
0.7478501507
 40
0.7848840523
 40
0.8217454194
 40
0.8583324135
 40
0.8945455053
 40
0.9302884012
 40
0.9654689008
 40
1.0
 40
1.0
 40
1.0
 40
1.0
 10
14.9992684261
 20
11.9001541851
 30
0.0
 10
14.9988136405
 20
11.8986825177
 30
0.0
 10
14.9979860761
 20
11.8957096676
 30
0.0
 10
14.9969960138
 20
11.8911801904
 30
0.0
 10
14.9962576607
 20
11.8865830413
 30
0.0
 10
14.9957717877
 20
11.8819232916
 30
0.0
 10
14.9955388856
 20
11.877205815
 30
0.0
 10
14.9955591074
 20
11.8724356422
 30
0.0
 10
14.9958324421
 20
11.8676176763
 30
0.0
 10
14.9965388176
 20
11.8610898984
 30
0.0
 10
14.9980692788
 20
11.8528194228
 30
0.0
 10
15.0008942236
 20
11.8428654088
 30
0.0
 10
15.0047075077
 20
11.8328480182
 30
0.0
 10
15.009491844
 20
11.8228089574
 30
0.0
 10
15.0152263938
 20
11.8127888726
 30
0.0
 10
15.0218867226
 20
11.8028285905
 30
0.0
 10
15.0294448318
 20
11.7929686827
 30
0.0
 10
15.0378691854
 20
11.7832494409
 30
0.0
 10
15.0471247731
 20
11.7737106907
 30
0.0
 10
15.0571732028
 20
11.7643916274
 30
0.0
 10
15.0679728246
 20
11.7553306364
 30
0.0
 10
15.079478879
 20
11.7465651163
 30
0.0
 10
15.0916436687
 20
11.7381313064
 30
0.0
 10
15.104416748
 20
11.7300641213
 30
0.0
 10
15.1177451284
 20
11.7223969925
 30
0.0
 10
15.1315734978
 20
11.7151617193
 30
0.0
 10
15.1458444504
 20
11.708388328
 30
0.0
 10
15.1604987276
 20
11.7021049404
 30
0.0
 10
15.1754754665
 20
11.6963376521
 30
0.0
 10
15.1907124561
 20
11.6911104195
 30
0.0
 10
15.2061463986
 20
11.6864449577
 30
0.0
 10
15.2217131776
 20
11.6823606484
 30
0.0
 10
15.2373481248
 20
11.6788744579
 30
0.0
 10
15.2529863053
 20
11.6760008676
 30
0.0
 10
15.2685627469
 20
11.6737518114
 30
0.0
 10
15.2840128821
 20
11.6721366345
 30
0.0
 10
15.2992722002
 20
11.6711620489
 30
0.0
 10
15.3093785785
 20
11.6709398517
 30
0.0
 10
15.3143840989
 20
11.6709398517
 30
0.0
  0
SPLINE
  5
2AC
100
AcDbEntity
  8
LAYER_CHAMFER_FEAT
100
AcDbSpline
 62
7
  6
CONTINUOUS
 70
0
 71
3
 72
28
 73
24
 74
0
 42
0.0000001
 43
0.0000001
 44
0.0000000001
 40
0.0
 40
0.0
 40
0.0
 40
0.0
 40
0.0248059863
 40
0.0496693145
 40
0.0746466809
 40
0.0997934947
 40
0.1251632939
 40
0.1508072457
 40
0.1767736438
 40
0.2031076358
 40
0.229850806
 40
0.2570411554
 40
0.312880971
 40
0.3708704127
 40
0.4311753271
 40
0.4939037951
 40
0.5591105811
 40
0.6268021524
 40
0.6969418162
 40
0.7694545107
 40
0.8442316962
 40
0.9211346213
 40
1.0
 40
1.0
 40
1.0
 40
1.0
 10
15.4769788383
 20
11.7525305024
 30
0.0
 10
15.4765051103
 20
11.7509975379
 30
0.0
 10
15.4754660933
 20
11.747955188
 30
0.0
 10
15.4736395047
 20
11.7434829319
 30
0.0
 10
15.4715461704
 20
11.7391045499
 30
0.0
 10
15.4691885778
 20
11.7348252877
 30
0.0
 10
15.4665695041
 20
11.7306499575
 30
0.0
 10
15.4636919672
 20
11.7265833602
 30
0.0
 10
15.4605593685
 20
11.7226300504
 30
0.0
 10
15.4571753027
 20
11.7187945634
 30
0.0
 10
15.453543654
 20
11.7150810753
 30
0.0
 10
15.4483314206
 20
11.7102559354
 30
0.0
 10
15.4411944683
 20
11.7045526407
 30
0.0
 10
15.4317928342
 20
11.6983259479
 30
0.0
 10
15.4215203138
 20
11.6926811951
 30
0.0
 10
15.410424025
 20
11.6876429229
 30
0.0
 10
15.3985537331
 20
11.683232476
 30
0.0
 10
15.3859627058
 20
11.6794688482
 30
0.0
 10
15.3727073114
 20
11.6763683109
 30
0.0
 10
15.3588469363
 20
11.6739443502
 30
0.0
 10
15.3444436139
 20
11.6722075824
 30
0.0
 10
15.3295623229
 20
11.6711655942
 30
0.0
 10
15.319485245
 20
11.6709398517
 30
0.0
 10
15.3143840989
 20
11.6709398517
 30
0.0
  0
SPLINE
  5
2AD
100
AcDbEntity
  8
02___PRT_ALL_AXES
100
AcDbSpline
 62
7
  6
CONTINUOUS
 70
0
 71
3
 72
55
 73
51
 74
0
 42
0.0000001
 43
0.0000001
 44
0.0000000001
 40
0.0
 40
0.0
 40
0.0
 40
0.0
 40
0.0345295812
 40
0.069708468
 40
0.1054497411
 40
0.141661205
 40
0.178246549
 40
0.2151062559
 40
0.2521384887
 40
0.2892399728
 40
0.326306859
 40
0.3632355851
 40
0.3999237378
 40
0.4362709249
 40
0.4721796691
 40
0.507556318
 40
0.5423120049
 40
0.5594317778
 40
0.5763656956
 40
0.593104453
 40
0.6096392446
 40
0.6259618007
 40
0.6420644262
 40
0.657940041
 40
0.673582223
 40
0.6889852546
 40
0.7041441682
 40
0.719054794
 40
0.7337138101
 40
0.7481187957
 40
0.7622682875
 40
0.7761618369
 40
0.7898000651
 40
0.8031847223
 40
0.8163187459
 40
0.841848066
 40
0.8542605493
 40
0.8664471402
 40
0.8784175051
 40
0.8901827681
 40
0.9017555224
 40
0.913149821
 40
0.9243811463
 40
0.9354663561
 40
0.9464236023
 40
0.9572722214
 40
0.9680325944
 40
0.978725978
 40
0.9893743111
 40
1.0
 40
1.0
 40
1.0
 40
1.0
 10
15.0927764923
 20
12.7129590477
 30
0.0
 10
15.1096651363
 20
12.7129590477
 30
0.0
 10
15.1437640615
 20
12.7122093524
 30
0.0
 10
15.1952489996
 20
12.7089210997
 30
0.0
 10
15.247377738
 20
12.7034714946
 30
0.0
 10
15.2999326465
 20
12.6958831758
 30
0.0
 10
15.3526958695
 20
12.6861876871
 30
0.0
 10
15.4054481803
 20
12.6744252781
 30
0.0
 10
15.4579704922
 20
12.6606448167
 30
0.0
 10
15.5100446158
 20
12.6449035549
 30
0.0
 10
15.561454217
 20
12.6272668656
 30
0.0
 10
15.6119857332
 20
12.607808039
 30
0.0
 10
15.661429273
 20
12.5866078873
 30
0.0
 10
15.7095794373
 20
12.5637544758
 30
0.0
 10
15.7562364599
 20
12.539342612
 30
0.0
 10
15.8012060451
 20
12.5134739282
 30
0.0
 10
15.8372995613
 20
12.4906781515
 30
0.0
 10
15.8651603102
 20
12.4717944139
 30
0.0
 10
15.885415771
 20
12.4574071928
 30
0.0
 10
15.9051139363
 20
12.4427401814
 30
0.0
 10
15.9242344111
 20
12.4278085475
 30
0.0
 10
15.9427572781
 20
12.4126278383
 30
0.0
 10
15.9606632732
 20
12.397213827
 30
0.0
 10
15.9779337641
 20
12.3815825329
 30
0.0
 10
15.9945507797
 20
12.3657501926
 30
0.0
 10
16.010497033
 20
12.3497332524
 30
0.0
 10
16.025755934
 20
12.3335483447
 30
0.0
 10
16.040311604
 20
12.317212269
 30
0.0
 10
16.05414889
 20
12.3007419769
 30
0.0
 10
16.0672533814
 20
12.2841545473
 30
0.0
 10
16.0796114194
 20
12.2674671921
 30
0.0
 10
16.0912101476
 20
12.2506971657
 30
0.0
 10
16.1020373802
 20
12.2338620069
 30
0.0
 10
16.1120821094
 20
12.2169785663
 30
0.0
 10
16.1243003579
 20
12.1946409687
 30
0.0
 10
16.1350607146
 20
12.1720618623
 30
0.0
 10
16.1442345222
 20
12.1493185665
 30
0.0
 10
16.1502240413
 20
12.1324587961
 30
0.0
 10
16.1553798997
 20
12.115656557
 30
0.0
 10
16.1596966955
 20
12.0989289271
 30
0.0
 10
16.1631696946
 20
12.0822934019
 30
0.0
 10
16.1657950753
 20
12.065767292
 30
0.0
 10
16.1675698716
 20
12.0493678665
 30
0.0
 10
16.1684920028
 20
12.0331122992
 30
0.0
 10
16.1685602809
 20
12.0170176697
 30
0.0
 10
16.1677744308
 20
12.0011009227
 30
0.0
 10
16.1661351231
 20
11.9853789199
 30
0.0
 10
16.1636438921
 20
11.9698681445
 30
0.0
 10
16.1603034613
 20
11.9545856779
 30
0.0
 10
16.1575112149
 20
11.9445552942
 30
0.0
 10
16.1559767887
 20
11.9395898817
 30
0.0
  0
SPLINE
  5
2AE
100
AcDbEntity
  8
LAYER_FEATURE
100
AcDbSpline
 62
7
  6
CONTINUOUS
 70
0
 71
3
 72
39
 73
35
 74
0
 42
0.0000001
 43
0.0000001
 44
0.0000000001
 40
0.0
 40
0.0
 40
0.0
 40
0.0
 40
0.0396651873
 40
0.0788627135
 40
0.1175691664
 40
0.1557638124
 40
0.1934266623
 40
0.2305396249
 40
0.2670862421
 40
0.3030519225
 40
0.3384240463
 40
0.3731920979
 40
0.4073478077
 40
0.4408852955
 40
0.4738012226
 40
0.506094948
 40
0.5377686906
 40
0.5688276881
 40
0.5992803563
 40
0.6291384461
 40
0.6584171915
 40
0.687135444
 40
0.715315789
 40
0.7429846304
 40
0.7701722362
 40
0.7969127392
 40
0.8232440802
 40
0.8492078832
 40
0.8748492573
 40
0.9002165149
 40
0.9253608053
 40
0.9503356665
 40
0.9751965027
 40
1.0
 40
1.0
 40
1.0
 40
1.0
 10
14.9687769735
 20
12.9656434998
 30
0.0
 10
14.9559476295
 20
12.9656434998
 30
0.0
 10
14.9304391853
 20
12.9653558195
 30
0.0
 10
14.8924317817
 20
12.9640446021
 30
0.0
 10
14.8549408007
 20
12.9618575603
 30
0.0
 10
14.8180089453
 20
12.9587972199
 30
0.0
 10
14.7816776999
 20
12.9548669622
 30
0.0
 10
14.7459881233
 20
12.9500712225
 30
0.0
 10
14.7109804546
 20
12.944415366
 30
0.0
 10
14.6766941856
 20
12.9379057382
 30
0.0
 10
14.643167982
 20
12.9305496377
 30
0.0
 10
14.6104396502
 20
12.9223553053
 30
0.0
 10
14.5785460956
 20
12.9133319139
 30
0.0
 10
14.5475232829
 20
12.903489556
 30
0.0
 10
14.5174061977
 20
12.8928392302
 30
0.0
 10
14.4882288094
 20
12.8813928273
 30
0.0
 10
14.4600240328
 20
12.8691631231
 30
0.0
 10
14.4328236986
 20
12.8561637546
 30
0.0
 10
14.4066585245
 20
12.8424092053
 30
0.0
 10
14.3815580867
 20
12.8279147895
 30
0.0
 10
14.3575507941
 20
12.8126966382
 30
0.0
 10
14.3346638639
 20
12.7967716835
 30
0.0
 10
14.312923293
 20
12.7801576524
 30
0.0
 10
14.2923538359
 20
12.7628730548
 30
0.0
 10
14.2729789859
 20
12.7449371696
 30
0.0
 10
14.254820951
 20
12.7263700398
 30
0.0
 10
14.2379006274
 20
12.7071924672
 30
0.0
 10
14.2222375689
 20
12.687426004
 30
0.0
 10
14.2078499543
 20
12.6670929562
 30
0.0
 10
14.1947545298
 20
12.6462163447
 30
0.0
 10
14.1829666137
 20
12.6248200053
 30
0.0
 10
14.1724999096
 20
12.6029281111
 30
0.0
 10
14.1633669886
 20
12.5805668221
 30
0.0
 10
14.1581718604
 20
12.5653550855
 30
0.0
 10
14.1558032518
 20
12.5576902537
 30
0.0
  0
SPLINE
  5
2AF
100
AcDbEntity
  8
02___PRT_ALL_AXES
100
AcDbSpline
 62
7
  6
CONTINUOUS
 70
0
 71
3
 72
38
 73
34
 74
0
 42
0.0000001
 43
0.0000001
 44
0.0000000001
 40
0.0
 40
0.0
 40
0.0
 40
0.0
 40
0.0788577178
 40
0.1175645148
 40
0.155759317
 40
0.193422379
 40
0.2305355345
 40
0.2670823455
 40
0.3030482186
 40
0.338420532
 40
0.3731887692
 40
0.4073446593
 40
0.4408823232
 40
0.4737984241
 40
0.5060923224
 40
0.5377662354
 40
0.5688253986
 40
0.5992782279
 40
0.629136475
 40
0.6584153748
 40
0.6871337804
 40
0.7153142762
 40
0.7429832653
 40
0.7701710157
 40
0.7969116605
 40
0.8232431406
 40
0.849207081
 40
0.8748485914
 40
0.9002159845
 40
0.925360409
 40
0.950335403
 40
0.9751963711
 40
1.0
 40
1.0
 40
1.0
 40
1.0
 10
14.9717433306
 20
12.3212955929
 30
0.0
 10
14.9545321004
 20
12.3212955929
 30
0.0
 10
14.9288670173
 20
12.3207207088
 30
0.0
 10
14.8949268475
 20
12.3187408655
 30
0.0
 10
14.8700050177
 20
12.3166757189
 30
0.0
 10
14.8454887518
 20
12.3140235895
 30
0.0
 10
14.8214054111
 20
12.3107874191
 30
0.0
 10
14.7977822405
 20
12.3069708474
 30
0.0
 10
14.7746458642
 20
12.3025781522
 30
0.0
 10
14.7520223809
 20
12.2976142576
 30
0.0
 10
14.7299373019
 20
12.2920847229
 30
0.0
 10
14.7084155322
 20
12.2859957369
 30
0.0
 10
14.6874813399
 20
12.2793541114
 30
0.0
 10
14.6671583317
 20
12.2721672703
 30
0.0
 10
14.6474694288
 20
12.2644432395
 30
0.0
 10
14.6284368434
 20
12.2561906374
 30
0.0
 10
14.6100820572
 20
12.2474186639
 30
0.0
 10
14.5924257985
 20
12.238137093
 30
0.0
 10
14.5754880247
 20
12.2283562597
 30
0.0
 10
14.559287905
 20
12.2180870499
 30
0.0
 10
14.5438438037
 20
12.2073408913
 30
0.0
 10
14.5291732648
 20
12.1961297445
 30
0.0
 10
14.515292994
 20
12.1844660986
 30
0.0
 10
14.502218845
 20
12.1723629633
 30
0.0
 10
14.4899658039
 20
12.1598338635
 30
0.0
 10
14.4785479711
 20
12.1468928365
 30
0.0
 10
14.467978541
 20
12.133554426
 30
0.0
 10
14.4582697776
 20
12.1198336862
 30
0.0
 10
14.4494329828
 20
12.1057461498
 30
0.0
 10
14.4414784951
 20
12.0913079007
 30
0.0
 10
14.4344155632
 20
12.0765352503
 30
0.0
 10
14.42825267
 20
12.0614458516
 30
0.0
 10
14.4247470022
 20
12.0511809703
 30
0.0
 10
14.423148664
 20
12.0460087421
 30
0.0
  0
SPLINE
  5
2B0
100
AcDbEntity
  8
LAYER_FEATURE
100
AcDbSpline
 62
7
  6
CONTINUOUS
 70
0
 71
3
 72
39
 73
35
 74
0
 42
0.0000001
 43
0.0000001
 44
0.0000000001
 40
0.0
 40
0.0
 40
0.0
 40
0.0
 40
0.0396651873
 40
0.0788627135
 40
0.1175691664
 40
0.1557638124
 40
0.1934266623
 40
0.2305396249
 40
0.2670862421
 40
0.3030519225
 40
0.3384240463
 40
0.3731920979
 40
0.4073478077
 40
0.4408852955
 40
0.4738012226
 40
0.506094948
 40
0.5377686906
 40
0.5688276881
 40
0.5992803563
 40
0.6291384461
 40
0.6584171915
 40
0.687135444
 40
0.715315789
 40
0.7429846304
 40
0.7701722362
 40
0.7969127392
 40
0.8232440802
 40
0.8492078832
 40
0.8748492573
 40
0.9002165149
 40
0.9253608053
 40
0.9503356665
 40
0.9751965027
 40
1.0
 40
1.0
 40
1.0
 40
1.0
 10
15.201160644
 20
13.717637333
 30
0.0
 10
15.1883312999
 20
13.717637333
 30
0.0
 10
15.1628228558
 20
13.7173496527
 30
0.0
 10
15.1248154522
 20
13.7160384353
 30
0.0
 10
15.0873244711
 20
13.7138513935
 30
0.0
 10
15.0503926157
 20
13.7107910531
 30
0.0
 10
15.0140613704
 20
13.7068607954
 30
0.0
 10
14.9783717938
 20
13.7020650557
 30
0.0
 10
14.9433641251
 20
13.6964091992
 30
0.0
 10
14.9090778561
 20
13.6898995714
 30
0.0
 10
14.8755516524
 20
13.6825434709
 30
0.0
 10
14.8428233206
 20
13.6743491385
 30
0.0
 10
14.8109297661
 20
13.6653257472
 30
0.0
 10
14.7799069534
 20
13.6554833893
 30
0.0
 10
14.7497898682
 20
13.6448330634
 30
0.0
 10
14.7206124799
 20
13.6333866605
 30
0.0
 10
14.6924077033
 20
13.6211569563
 30
0.0
 10
14.6652073691
 20
13.6081575878
 30
0.0
 10
14.639042195
 20
13.5944030385
 30
0.0
 10
14.6139417572
 20
13.5799086228
 30
0.0
 10
14.5899344646
 20
13.5646904715
 30
0.0
 10
14.5670475343
 20
13.5487655167
 30
0.0
 10
14.5453069634
 20
13.5321514857
 30
0.0
 10
14.5247375063
 20
13.514866888
 30
0.0
 10
14.5053626564
 20
13.4969310028
 30
0.0
 10
14.4872046215
 20
13.478363873
 30
0.0
 10
14.4702842979
 20
13.4591863004
 30
0.0
 10
14.4546212393
 20
13.4394198372
 30
0.0
 10
14.4402336248
 20
13.4190867894
 30
0.0
 10
14.4271382003
 20
13.3982101779
 30
0.0
 10
14.4153502842
 20
13.3768138386
 30
0.0
 10
14.40488358
 20
13.3549219443
 30
0.0
 10
14.395750659
 20
13.3325606553
 30
0.0
 10
14.3905555309
 20
13.3173489188
 30
0.0
 10
14.3881869223
 20
13.3096840869
 30
0.0
  0
SPLINE
  5
2B1
100
AcDbEntity
  8
LAYER_CUT_FEAT
100
AcDbSpline
 62
7
  6
CONTINUOUS
 70
0
 71
3
 72
22
 73
18
 74
0
 42
0.0000001
 43
0.0000001
 44
0.0000000001
 40
0.0
 40
0.0
 40
0.0
 40
0.0
 40
0.1381197292
 40
0.2053664275
 40
0.271454927
 40
0.3364371357
 40
0.4003725812
 40
0.4633278416
 40
0.5253764095
 40
0.5865986164
 40
0.6470813105
 40
0.706917441
 40
0.7662055024
 40
0.82504886
 40
0.8835549603
 40
0.9418344159
 40
1.0
 40
1.0
 40
1.0
 40
1.0
 10
16.3517331377
 20
12.1886310394
 30
0.0
 10
16.3584506272
 20
12.1749422353
 30
0.0
 10
16.3677068039
 20
12.1542132345
 30
0.0
 10
16.3782637594
 20
12.1261596466
 30
0.0
 10
16.3851284166
 20
12.1053625476
 30
0.0
 10
16.3910024176
 20
12.0846441436
 30
0.0
 10
16.3958802139
 20
12.0640236478
 30
0.0
 10
16.3997568651
 20
12.0435209296
 30
0.0
 10
16.4026284411
 20
12.0231555831
 30
0.0
 10
16.404491935
 20
12.0029471717
 30
0.0
 10
16.4053453327
 20
11.9829151402
 30
0.0
 10
16.4051876022
 20
11.9630788207
 30
0.0
 10
16.4040186866
 20
11.9434573873
 30
0.0
 10
16.4018395368
 20
11.9240699212
 30
0.0
 10
16.3986520653
 20
11.9049350724
 30
0.0
 10
16.3944594852
 20
11.8860721713
 30
0.0
 10
16.3909953783
 20
11.873684656
 30
0.0
 10
16.3890994733
 20
11.8675495234
 30
0.0
  0
SPLINE
  5
2B2
100
AcDbEntity
  8
LAYER_FEATURE
100
AcDbSpline
 62
7
  6
CONTINUOUS
 70
0
 71
3
 72
87
 73
83
 74
0
 42
0.0000001
 43
0.0000001
 44
0.0000000001
 40
0.0
 40
0.0
 40
0.0
 40
0.0
 40
0.0182640268
 40
0.036772278
 40
0.0555041118
 40
0.0744377664
 40
0.0935507154
 40
0.1128196651
 40
0.132220701
 40
0.1517293808
 40
0.1713208401
 40
0.1909698928
 40
0.2106511302
 40
0.2303390203
 40
0.2500080052
 40
0.2696325998
 40
0.2891874897
 40
0.3086476304
 40
0.3279883477
 40
0.3471854386
 40
0.3662152754
 40
0.3850549115
 40
0.4036821908
 40
0.4220758598
 40
0.440215685
 40
0.4580825748
 40
0.4756587071
 40
0.4929276643
 40
0.5098745747
 40
0.5264862634
 40
0.5427514116
 40
0.5586607264
 40
0.5742071207
 40
0.589385903
 40
0.604194978
 40
0.6186350545
 40
0.6327098581
 40
0.6464263449
 40
0.6597949069
 40
0.6663536079
 40
0.6728309033
 40
0.6855494458
 40
0.6979735643
 40
0.7040838808
 40
0.7101305296
 40
0.7161173152
 40
0.7220482779
 40
0.7279276808
 40
0.7337600007
 40
0.7395499172
 40
0.7453022936
 40
0.7510221652
 40
0.7567147137
 40
0.7623852516
 40
0.7680391939
 40
0.7736820372
 40
0.779319331
 40
0.7849566524
 40
0.7905995784
 40
0.7962536582
 40
0.8019243873
 40
0.8076171808
 40
0.8133373484
 40
0.8190900728
 40
0.8248803846
 40
0.8307131488
 40
0.8365930395
 40
0.842524535
 40
0.8485118933
 40
0.8545591543
 40
0.8606701194
 40
0.8730956355
 40
0.8858156925
 40
0.8922937808
 40
0.8988533003
 40
0.9122235525
 40
0.9259417896
 40
0.9400183863
 40
0.954460282
 40
0.9692711871
 40
0.984451796
 40
1.0
 40
1.0
 40
1.0
 40
1.0
 10
15.0113844763
 20
12.9426488484
 30
0.0
 10
15.0270131112
 20
12.9426488484
 30
0.0
 10
15.0584811825
 20
12.9421790241
 30
0.0
 10
15.1059369708
 20
12.9401010466
 30
0.0
 10
15.1538873445
 20
12.9366489438
 30
0.0
 10
15.2022393431
 20
12.9318293573
 30
0.0
 10
15.2508998438
 20
12.9256516066
 30
0.0
 10
15.2997749765
 20
12.9181276014
 30
0.0
 10
15.3487704819
 20
12.9092718596
 30
0.0
 10
15.3977918525
 20
12.8991014627
 30
0.0
 10
15.4467445272
 20
12.8876360299
 30
0.0
 10
15.4955340726
 20
12.8748976785
 30
0.0
 10
15.5440663671
 20
12.8609109822
 30
0.0
 10
15.5922477837
 20
12.8457029232
 30
0.0
 10
15.6399853718
 20
12.8293028404
 30
0.0
 10
15.6871870382
 20
12.8117423719
 30
0.0
 10
15.7337617257
 20
12.7930553943
 30
0.0
 10
15.7796195901
 20
12.7732779556
 30
0.0
 10
15.8246721746
 20
12.7524482049
 30
0.0
 10
15.8688325807
 20
12.7306063172
 30
0.0
 10
15.9120156378
 20
12.7077944148
 30
0.0
 10
15.9541380673
 20
12.6840564837
 30
0.0
 10
15.9951186441
 20
12.6594382871
 30
0.0
 10
16.0348783538
 20
12.6339872743
 30
0.0
 10
16.0733405448
 20
12.6077524863
 30
0.0
 10
16.110431076
 20
12.5807844579
 30
0.0
 10
16.1460784584
 20
12.5531351161
 30
0.0
 10
16.1802139915
 20
12.5248576759
 30
0.0
 10
16.212771893
 20
12.4960065322
 30
0.0
 10
16.2436894219
 20
12.4666371509
 30
0.0
 10
16.2729069932
 20
12.4368059546
 30
0.0
 10
16.3003682843
 20
12.4065702095
 30
0.0
 10
16.3260203332
 20
12.3759879081
 30
0.0
 10
16.3498136244
 20
12.3451176604
 30
0.0
 10
16.371702176
 20
12.3140185545
 30
0.0
 10
16.3916435711
 20
12.2827501358
 30
0.0
 10
16.4095991464
 20
12.2513719765
 30
0.0
 10
16.4255335629
 20
12.2199447407
 30
0.0
 10
16.4371756245
 20
12.1935974117
 30
0.0
 10
16.4454276262
 20
12.1725607526
 30
0.0
 10
16.452884256
 20
12.1518194768
 30
0.0
 10
16.4609177263
 20
12.1259642596
 30
0.0
 10
16.4672657997
 20
12.0999654004
 30
0.0
 10
16.4712541788
 20
12.0793095351
 30
0.0
 10
16.4736933467
 20
12.0639736009
 30
0.0
 10
16.4755953997
 20
12.0487165251
 30
0.0
 10
16.4769594466
 20
12.0335455377
 30
0.0
 10
16.4777847604
 20
12.0184680278
 30
0.0
 10
16.4780708916
 20
12.0034912951
 30
0.0
 10
16.4778176899
 20
11.9886226113
 30
0.0
 10
16.4770251901
 20
11.9738691995
 30
0.0
 10
16.4756938091
 20
11.9592382296
 30
0.0
 10
16.4738240826
 20
11.944736828
 30
0.0
 10
16.4714169832
 20
11.9303720448
 30
0.0
 10
16.4684735696
 20
11.916150893
 30
0.0
 10
16.4649953493
 20
11.9020802859
 30
0.0
 10
16.4609839273
 20
11.8881671008
 30
0.0
 10
16.4564413226
 20
11.8744181005
 30
0.0
 10
16.4513697018
 20
11.8608399999
 30
0.0
 10
16.4457715764
 20
11.8474394011
 30
0.0
 10
16.439649677
 20
11.8342228294
 30
0.0
 10
16.4330069952
 20
11.8211967167
 30
0.0
 10
16.4258468153
 20
11.8083673748
 30
0.0
 10
16.4181726037
 20
11.7957410549
 30
0.0
 10
16.4099881778
 20
11.7833238393
 30
0.0
 10
16.4012974788
 20
11.7711217837
 30
0.0
 10
16.3921048309
 20
11.759140736
 30
0.0
 10
16.3824146476
 20
11.7473865305
 30
0.0
 10
16.372231758
 20
11.735864808
 30
0.0
 10
16.3615609436
 20
11.7245810655
 30
0.0
 10
16.3466080635
 20
11.7097797485
 30
0.0
 10
16.326691068
 20
11.6918991786
 30
0.0
 10
16.3054639003
 20
11.6750882428
 30
0.0
 10
16.2875997815
 20
11.6621734064
 30
0.0
 10
16.268912261
 20
11.6494635367
 30
0.0
 10
16.2444283178
 20
11.634282447
 30
0.0
 10
16.2135333371
 20
11.6173298062
 30
0.0
 10
16.1809975544
 20
11.60155811
 30
0.0
 10
16.1468844332
 20
11.586997517
 30
0.0
 10
16.1112593249
 20
11.5736753384
 30
0.0
 10
16.0741916159
 20
11.5616169902
 30
0.0
 10
16.0488640628
 20
11.5545195478
 30
0.0
 10
16.0359854236
 20
11.5511795758
 30
0.0
  0
SPLINE
  5
2B3
100
AcDbEntity
  8
LAYER_FEATURE
100
AcDbSpline
 62
7
  6
CONTINUOUS
 70
0
 71
3
 72
67
 73
63
 74
0
 42
0.0000001
 43
0.0000001
 44
0.0000000001
 40
0.0
 40
0.0
 40
0.0
 40
0.0
 40
0.0409508799
 40
0.0611126253
 40
0.0810538278
 40
0.1007667379
 40
0.1202441462
 40
0.1394794231
 40
0.1584664452
 40
0.1771996818
 40
0.1956742123
 40
0.2138857576
 40
0.2318307331
 40
0.2495062727
 40
0.2669102655
 40
0.2840414104
 40
0.3008992505
 40
0.3174842076
 40
0.3337976355
 40
0.349841866
 40
0.3656202388
 40
0.3811371481
 40
0.3963980927
 40
0.4261746386
 40
0.4550216194
 40
0.4691257757
 40
0.483031602
 40
0.496752938
 40
0.5103047938
 40
0.5237033087
 40
0.536965692
 40
0.5501101329
 40
0.5631556994
 40
0.5761222228
 40
0.5890301567
 40
0.6019004235
 40
0.6147542533
 40
0.6276130107
 40
0.6404980201
 40
0.6534303913
 40
0.6664308495
 40
0.6795195789
 40
0.6927160769
 40
0.7060390195
 40
0.7195061537
 40
0.7331342068
 40
0.7469388053
 40
0.7609344211
 40
0.7751343407
 40
0.7895506364
 40
0.8041941539
 40
0.8190745272
 40
0.8342001908
 40
0.8495783909
 40
0.8652152265
 40
0.8811156866
 40
0.8972836749
 40
0.9137220567
 40
0.9304327094
 40
0.9474165553
 40
0.9646736016
 40
1.0
 40
1.0
 40
1.0
 40
1.0
 10
15.0113844763
 20
12.9426488484
 30
0.0
 10
14.9914666687
 20
12.9426488484
 30
0.0
 10
14.9617377899
 20
12.9420834153
 30
0.0
 10
14.9223603261
 20
12.940146164
 30
0.0
 10
14.893335117
 20
12.9381229783
 30
0.0
 10
14.8646901373
 20
12.9355237723
 30
0.0
 10
14.8364483972
 20
12.9323506299
 30
0.0
 10
14.8086328536
 20
12.9286061148
 30
0.0
 10
14.7812660166
 20
12.9242932345
 30
0.0
 10
14.7543700619
 20
12.9194154899
 30
0.0
 10
14.7279667772
 20
12.9139768103
 30
0.0
 10
14.7020775552
 20
12.907981561
 30
0.0
 10
14.6767233616
 20
12.9014345953
 30
0.0
 10
14.6519247313
 20
12.8943411912
 30
0.0
 10
14.6277017582
 20
12.8867070383
 30
0.0
 10
14.6040740601
 20
12.8785382933
 30
0.0
 10
14.5810607718
 20
12.8698415407
 30
0.0
 10
14.5586805437
 20
12.860623755
 30
0.0
 10
14.5369515219
 20
12.8508923454
 30
0.0
 10
14.5158912826
 20
12.8406551324
 30
0.0
 10
14.495517008
 20
12.8299203901
 30
0.0
 10
14.4758448773
 20
12.8186964913
 30
0.0
 10
14.4507808238
 20
12.8032195558
 30
0.0
 10
14.4212264238
 20
12.7827157312
 30
0.0
 10
14.3937589727
 20
12.7603627466
 30
0.0
 10
14.3734186564
 20
12.7416168733
 30
0.0
 10
14.3590782242
 20
12.7272435391
 30
0.0
 10
14.3455516937
 20
12.7124639086
 30
0.0
 10
14.3328499599
 20
12.6972897078
 30
0.0
 10
14.3209835929
 20
12.681733255
 30
0.0
 10
14.309962372
 20
12.6658071739
 30
0.0
 10
14.2997954423
 20
12.6495244184
 30
0.0
 10
14.2904912783
 20
12.6328982494
 30
0.0
 10
14.2820575996
 20
12.6159422737
 30
0.0
 10
14.27450141
 20
12.5986703917
 30
0.0
 10
14.267829015
 20
12.5810967768
 30
0.0
 10
14.2620459417
 20
12.5632358892
 30
0.0
 10
14.2571569369
 20
12.5451024444
 30
0.0
 10
14.253166022
 20
12.5267113763
 30
0.0
 10
14.2500764491
 20
12.5080778334
 30
0.0
 10
14.2478906492
 20
12.4892171608
 30
0.0
 10
14.2466103185
 20
12.4701448629
 30
0.0
 10
14.2462364142
 20
12.4508765949
 30
0.0
 10
14.2467690753
 20
12.4314281463
 30
0.0
 10
14.2482077062
 20
12.4118154182
 30
0.0
 10
14.2505510032
 20
12.3920544166
 30
0.0
 10
14.2537968872
 20
12.3721612359
 30
0.0
 10
14.2579425375
 20
12.3521520443
 30
0.0
 10
14.2629844496
 20
12.3320430837
 30
0.0
 10
14.2689183956
 20
12.3118506568
 30
0.0
 10
14.2757393981
 20
12.2915911039
 30
0.0
 10
14.2834418092
 20
12.2712808127
 30
0.0
 10
14.2920192981
 20
12.2509362101
 30
0.0
 10
14.3014647919
 20
12.2305737249
 30
0.0
 10
14.3117705481
 20
12.2102098023
 30
0.0
 10
14.3229281687
 20
12.1898608981
 30
0.0
 10
14.3349285387
 20
12.1695434472
 30
0.0
 10
14.347761886
 20
12.1492738313
 30
0.0
 10
14.3614177317
 20
12.1290685094
 30
0.0
 10
14.3758851982
 20
12.1089435141
 30
0.0
 10
14.3963998413
 20
12.0820314747
 30
0.0
 10
14.4127360922
 20
12.0623325091
 30
0.0
 10
14.4240331679
 20
12.0493863681
 30
0.0
  0
SPLINE
  5
2B4
100
AcDbEntity
  8
LAYER_FEATURE
100
AcDbSpline
 62
7
  6
CONTINUOUS
 70
0
 71
3
 72
63
 73
59
 74
0
 42
0.0000001
 43
0.0000001
 44
0.0000000001
 40
0.0
 40
0.0
 40
0.0
 40
0.0
 40
0.0171789864
 40
0.0345309365
 40
0.0520451041
 40
0.0697110604
 40
0.087517634
 40
0.1054534742
 40
0.123506907
 40
0.1416660024
 40
0.1782507002
 40
0.2151097559
 40
0.2521413346
 40
0.2892421633
 40
0.3263083947
 40
0.3632364684
 40
0.3999239731
 40
0.4362705181
 40
0.454286196
 40
0.4721803754
 40
0.4899414785
 40
0.5075582269
 40
0.5250196722
 40
0.542315227
 40
0.5594346975
 40
0.5763683161
 40
0.5931067779
 40
0.6096412774
 40
0.6259635451
 40
0.6420658862
 40
0.6579412206
 40
0.6735831262
 40
0.6889858857
 40
0.7041445316
 40
0.719054894
 40
0.7337136512
 40
0.7481183823
 40
0.7622676242
 40
0.7761609281
 40
0.7897989154
 40
0.8031833362
 40
0.8163171278
 40
0.8292044737
 40
0.8418508598
 40
0.8542631238
 40
0.8664494994
 40
0.8784196529
 40
0.890184708
 40
0.9017572578
 40
0.9131513551
 40
0.9243824821
 40
0.9354674961
 40
0.9464245487
 40
0.9572729761
 40
0.9680331591
 40
0.9787263538
 40
0.9893744988
 40
1.0
 40
1.0
 40
1.0
 40
1.0
 10
14.9687769735
 20
12.9656434998
 30
0.0
 10
14.9812288156
 20
12.9656434998
 30
0.0
 10
15.0062586684
 20
12.9653695119
 30
0.0
 10
15.0439655239
 20
12.9641521177
 30
0.0
 10
15.0819912395
 20
12.9621273704
 30
0.0
 10
15.1202958308
 20
12.9592974599
 30
0.0
 10
15.1588396567
 20
12.9556652786
 30
0.0
 10
15.197582479
 20
12.9512346302
 30
0.0
 10
15.236484174
 20
12.9460101117
 30
0.0
 10
15.2886368914
 20
12.9379733572
 30
0.0
 10
15.3539572272
 20
12.9259703857
 30
0.0
 10
15.4321314766
 20
12.9085395365
 30
0.0
 10
15.5099654994
 20
12.8881179596
 30
0.0
 10
15.5871351887
 20
12.8647906635
 30
0.0
 10
15.6633201079
 20
12.8386545044
 30
0.0
 10
15.738203931
 20
12.8098180118
 30
0.0
 10
15.8114748415
 20
12.7784012841
 30
0.0
 10
15.8711119135
 20
12.7500959231
 30
0.0
 10
15.9177514783
 20
12.7262623963
 30
0.0
 10
15.9520392671
 20
12.7078791092
 30
0.0
 10
15.985700328
 20
12.6889553501
 30
0.0
 10
16.0186997778
 20
12.6695107139
 30
0.0
 10
16.0510032373
 20
12.6495654633
 30
0.0
 10
16.0825771018
 20
12.6291403437
 30
0.0
 10
16.1133885122
 20
12.6082566048
 30
0.0
 10
16.1434054056
 20
12.5869359664
 30
0.0
 10
16.1725965458
 20
12.5652005993
 30
0.0
 10
16.2009315644
 20
12.5430731094
 30
0.0
 10
16.2283809837
 20
12.5205765027
 30
0.0
 10
16.2549162457
 20
12.4977341628
 30
0.0
 10
16.2805097415
 20
12.4745698264
 30
0.0
 10
16.3051348387
 20
12.4511075557
 30
0.0
 10
16.3287659194
 20
12.4273717226
 30
0.0
 10
16.3513783988
 20
12.4033869749
 30
0.0
 10
16.3729487454
 20
12.3791782085
 30
0.0
 10
16.3934545046
 20
12.354770543
 30
0.0
 10
16.4128743183
 20
12.330189293
 30
0.0
 10
16.4311879548
 20
12.3054599469
 30
0.0
 10
16.4483763276
 20
12.2806081405
 30
0.0
 10
16.4644215029
 20
12.2556596246
 30
0.0
 10
16.4793067159
 20
12.2306402431
 30
0.0
 10
16.4930163831
 20
12.2055759063
 30
0.0
 10
16.5055361201
 20
12.1804925685
 30
0.0
 10
16.5168527642
 20
12.1554162093
 30
0.0
 10
16.5269543694
 20
12.1303728043
 30
0.0
 10
16.5358302173
 20
12.1053883078
 30
0.0
 10
16.5434708275
 20
12.0804886342
 30
0.0
 10
16.5498679661
 20
12.055699639
 30
0.0
 10
16.5550146776
 20
12.0310471058
 30
0.0
 10
16.5589052825
 20
12.0065567252
 30
0.0
 10
16.5615353899
 20
11.9822540788
 30
0.0
 10
16.562901915
 20
11.9581646195
 30
0.0
 10
16.5630030977
 20
11.9343136569
 30
0.0
 10
16.5618385303
 20
11.9107263021
 30
0.0
 10
16.5594092064
 20
11.8874275428
 30
0.0
 10
16.5557174
 20
11.8644418057
 30
0.0
 10
16.5507671469
 20
11.841794404
 30
0.0
 10
16.5466292596
 20
11.8269301722
 30
0.0
 10
16.5443553618
 20
11.8195718252
 30
0.0
  0
SPLINE
  5
2B5
100
AcDbEntity
  8
02___PRT_ALL_AXES
100
AcDbSpline
 62
7
  6
CONTINUOUS
 70
0
 71
3
 72
55
 73
51
 74
0
 42
0.0000001
 43
0.0000001
 44
0.0000000001
 40
0.0
 40
0.0
 40
0.0
 40
0.0
 40
0.0345295272
 40
0.0697084633
 40
0.105449741
 40
0.1416612043
 40
0.1782465488
 40
0.2151062554
 40
0.2521384883
 40
0.2892399724
 40
0.3263068587
 40
0.3632355848
 40
0.3999237373
 40
0.4362709249
 40
0.4721796686
 40
0.5075563178
 40
0.5423120049
 40
0.5594317772
 40
0.5763656948
 40
0.5931044528
 40
0.609639245
 40
0.625961801
 40
0.6420644258
 40
0.6579400399
 40
0.6735822223
 40
0.6889852549
 40
0.704144169
 40
0.7190547942
 40
0.7337138093
 40
0.7481187947
 40
0.7622682874
 40
0.7761618375
 40
0.7898000657
 40
0.803184722
 40
0.8163187451
 40
0.8418480664
 40
0.8542605498
 40
0.8664471402
 40
0.8784175046
 40
0.8901827678
 40
0.9017555226
 40
0.9131498213
 40
0.9243811464
 40
0.9354663558
 40
0.9464236021
 40
0.9572722215
 40
0.9680325946
 40
0.9787259782
 40
0.9893743112
 40
1.0
 40
1.0
 40
1.0
 40
1.0
 10
14.9717433306
 20
12.3212955929
 30
0.0
 10
14.9886319483
 20
12.3212955929
 30
0.0
 10
15.0227308711
 20
12.3205458967
 30
0.0
 10
15.0742158096
 20
12.3172576493
 30
0.0
 10
15.1263445738
 20
12.3118080395
 30
0.0
 10
15.1788994855
 20
12.304219726
 30
0.0
 10
15.2316627072
 20
12.2945242303
 30
0.0
 10
15.2844150189
 20
12.2827618251
 30
0.0
 10
15.3369373315
 20
12.268981366
 30
0.0
 10
15.3890114532
 20
12.2532400971
 30
0.0
 10
15.4404210568
 20
12.2356034144
 30
0.0
 10
15.4909525724
 20
12.2161445858
 30
0.0
 10
15.5403961111
 20
12.1949444312
 30
0.0
 10
15.5885462779
 20
12.1720910247
 30
0.0
 10
15.6352032982
 20
12.147679156
 30
0.0
 10
15.680172885
 20
12.1218104748
 30
0.0
 10
15.7162664018
 20
12.0990146988
 30
0.0
 10
15.7441271489
 20
12.080130959
 30
0.0
 10
15.764382609
 20
12.0657437371
 30
0.0
 10
15.7840807763
 20
12.0510767275
 30
0.0
 10
15.8032012527
 20
12.0361450945
 30
0.0
 10
15.8217241194
 20
12.020964385
 30
0.0
 10
15.8396301125
 20
12.0055503725
 30
0.0
 10
15.8569006014
 20
11.9899190769
 30
0.0
 10
15.8735176185
 20
11.9740867376
 30
0.0
 10
15.8894638746
 20
11.9580697989
 30
0.0
 10
15.9047227767
 20
11.9418848915
 30
0.0
 10
15.9192784449
 20
11.9255488149
 30
0.0
 10
15.9331157278
 20
11.9090785213
 30
0.0
 10
15.946220219
 20
11.8924910917
 30
0.0
 10
15.9585782599
 20
11.8758037378
 30
0.0
 10
15.9701769902
 20
11.8590337118
 30
0.0
 10
15.9810042226
 20
11.8421985529
 30
0.0
 10
15.9910489488
 20
11.8253151112
 30
0.0
 10
16.0032671949
 20
11.8029775125
 30
0.0
 10
16.0140275566
 20
11.7803984081
 30
0.0
 10
16.0232013645
 20
11.7576551119
 30
0.0
 10
16.0291908815
 20
11.7407953411
 30
0.0
 10
16.0343467374
 20
11.7239931015
 30
0.0
 10
16.038663535
 20
11.7072654721
 30
0.0
 10
16.0421365369
 20
11.6906299469
 30
0.0
 10
16.044761918
 20
11.6741038368
 30
0.0
 10
16.0465367121
 20
11.6577044113
 30
0.0
 10
16.04745884
 20
11.6414488442
 30
0.0
 10
16.0475271193
 20
11.6253542147
 30
0.0
 10
16.0467412733
 20
11.6094374671
 30
0.0
 10
16.0451019667
 20
11.5937154639
 30
0.0
 10
16.0426107339
 20
11.5782046887
 30
0.0
 10
16.0392702982
 20
11.5629222233
 30
0.0
 10
16.0364780534
 20
11.5528918393
 30
0.0
 10
16.0349436261
 20
11.5479264271
 30
0.0
  0
SPLINE
  5
2B6
100
AcDbEntity
  8
LAYER_FEATURE
100
AcDbSpline
 62
7
  6
CONTINUOUS
 70
0
 71
3
 72
63
 73
59
 74
0
 42
0.0000001
 43
0.0000001
 44
0.0000000001
 40
0.0
 40
0.0
 40
0.0
 40
0.0
 40
0.0171789864
 40
0.0345309365
 40
0.0520451041
 40
0.0697110604
 40
0.087517634
 40
0.1054534742
 40
0.123506907
 40
0.1416660024
 40
0.1782507002
 40
0.2151097559
 40
0.2521413346
 40
0.2892421633
 40
0.3263083947
 40
0.3632364684
 40
0.3999239731
 40
0.4362705181
 40
0.454286196
 40
0.4721803754
 40
0.4899414785
 40
0.5075582269
 40
0.5250196722
 40
0.542315227
 40
0.5594346975
 40
0.5763683161
 40
0.5931067779
 40
0.6096412774
 40
0.6259635451
 40
0.6420658862
 40
0.6579412206
 40
0.6735831262
 40
0.6889858857
 40
0.7041445316
 40
0.719054894
 40
0.7337136512
 40
0.7481183823
 40
0.7622676242
 40
0.7761609281
 40
0.7897989154
 40
0.8031833362
 40
0.8163171278
 40
0.8292044737
 40
0.8418508598
 40
0.8542631238
 40
0.8664494994
 40
0.8784196529
 40
0.890184708
 40
0.9017572578
 40
0.9131513551
 40
0.9243824821
 40
0.9354674961
 40
0.9464245487
 40
0.9572729761
 40
0.9680331591
 40
0.9787263538
 40
0.9893744988
 40
1.0
 40
1.0
 40
1.0
 40
1.0
 10
15.201160644
 20
13.717637333
 30
0.0
 10
15.2136124861
 20
13.717637333
 30
0.0
 10
15.2386423389
 20
13.7173633452
 30
0.0
 10
15.2763491943
 20
13.7161459509
 30
0.0
 10
15.31437491
 20
13.7141212036
 30
0.0
 10
15.3526795013
 20
13.7112912932
 30
0.0
 10
15.3912233271
 20
13.7076591118
 30
0.0
 10
15.4299661495
 20
13.7032284635
 30
0.0
 10
15.4688678445
 20
13.698003945
 30
0.0
 10
15.5210205619
 20
13.6899671905
 30
0.0
 10
15.5863408977
 20
13.6779642189
 30
0.0
 10
15.6645151471
 20
13.6605333698
 30
0.0
 10
15.7423491699
 20
13.6401117929
 30
0.0
 10
15.8195188592
 20
13.6167844967
 30
0.0
 10
15.8957037784
 20
13.5906483377
 30
0.0
 10
15.9705876015
 20
13.5618118451
 30
0.0
 10
16.043858512
 20
13.5303951173
 30
0.0
 10
16.103495584
 20
13.5020897564
 30
0.0
 10
16.1501351487
 20
13.4782562295
 30
0.0
 10
16.1844229376
 20
13.4598729425
 30
0.0
 10
16.2180839985
 20
13.4409491833
 30
0.0
 10
16.2510834483
 20
13.4215045471
 30
0.0
 10
16.2833869078
 20
13.4015592965
 30
0.0
 10
16.3149607723
 20
13.3811341769
 30
0.0
 10
16.3457721827
 20
13.360250438
 30
0.0
 10
16.375789076
 20
13.3389297996
 30
0.0
 10
16.4049802162
 20
13.3171944326
 30
0.0
 10
16.4333152349
 20
13.2950669427
 30
0.0
 10
16.4607646542
 20
13.272570336
 30
0.0
 10
16.4872999162
 20
13.249727996
 30
0.0
 10
16.5128934119
 20
13.2265636596
 30
0.0
 10
16.5375185092
 20
13.2031013889
 30
0.0
 10
16.5611495899
 20
13.1793655559
 30
0.0
 10
16.5837620692
 20
13.1553808081
 30
0.0
 10
16.6053324158
 20
13.1311720417
 30
0.0
 10
16.625838175
 20
13.1067643763
 30
0.0
 10
16.6452579888
 20
13.0821831262
 30
0.0
 10
16.6635716253
 20
13.0574537801
 30
0.0
 10
16.6807599981
 20
13.0326019737
 30
0.0
 10
16.6968051734
 20
13.0076534578
 30
0.0
 10
16.7116903863
 20
12.9826340763
 30
0.0
 10
16.7254000536
 20
12.9575697396
 30
0.0
 10
16.7379197906
 20
12.9324864018
 30
0.0
 10
16.7492364347
 20
12.9074100425
 30
0.0
 10
16.7593380398
 20
12.8823666375
 30
0.0
 10
16.7682138878
 20
12.857382141
 30
0.0
 10
16.775854498
 20
12.8324824675
 30
0.0
 10
16.7822516366
 20
12.8076934722
 30
0.0
 10
16.7873983481
 20
12.7830409391
 30
0.0
 10
16.791288953
 20
12.7585505585
 30
0.0
 10
16.7939190603
 20
12.7342479121
 30
0.0
 10
16.7952855854
 20
12.7101584527
 30
0.0
 10
16.7953867682
 20
12.6863074901
 30
0.0
 10
16.7942222007
 20
12.6627201353
 30
0.0
 10
16.7917928769
 20
12.639421376
 30
0.0
 10
16.7881010705
 20
12.616435639
 30
0.0
 10
16.7831508173
 20
12.5937882373
 30
0.0
 10
16.7790129301
 20
12.5789240054
 30
0.0
 10
16.7767390322
 20
12.5715656584
 30
0.0
  0
SPLINE
  5
2B7
100
AcDbEntity
  8
LAYER_FEATURE
100
AcDbSpline
 62
7
  6
CONTINUOUS
 70
0
 71
3
 72
77
 73
73
 74
0
 42
0.0000001
 43
0.0000001
 44
0.0000000001
 40
0.0
 40
0.0
 40
0.0
 40
0.0
 40
0.005354118
 40
0.0107129251
 40
0.0160810908
 40
0.0214632432
 40
0.026863952
 40
0.0322877068
 40
0.037738903
 40
0.0432218215
 40
0.0487406178
 40
0.0542993039
 40
0.0655501202
 40
0.07700472
 40
0.0886891121
 40
0.1006262812
 40
0.112836113
 40
0.1190492007
 40
0.1253364888
 40
0.1381389509
 40
0.1512553813
 40
0.1646937396
 40
0.178459304
 40
0.1925548268
 40
0.2069806933
 40
0.2217350801
 40
0.23681411
 40
0.2522120009
 40
0.2679212084
 40
0.2839325606
 40
0.300235386
 40
0.3168176344
 40
0.3336659908
 40
0.3507659833
 40
0.368102086
 40
0.3856578162
 40
0.4034158277
 40
0.4213579998
 40
0.4394655239
 40
0.4577189859
 40
0.4760984476
 40
0.4945835246
 40
0.5131534638
 40
0.5317872187
 40
0.550463524
 40
0.5691609693
 40
0.5878580726
 40
0.6065333527
 40
0.6251654027
 40
0.6437329633
 40
0.6622149961
 40
0.6805907586
 40
0.6988398794
 40
0.7169424357
 40
0.7348790315
 40
0.7526308787
 40
0.77017988
 40
0.7875087153
 40
0.8046009309
 40
0.8214410328
 40
0.8380145846
 40
0.8543083096
 40
0.8703101998
 40
0.8860096295
 40
0.9013974767
 40
0.9164662509
 40
0.9312102283
 40
0.9456255953
 40
0.9597105949
 40
0.9734656894
 40
0.986893699
 40
1.0
 40
1.0
 40
1.0
 40
1.0
 10
14.3231624564
 20
12.5488789009
 30
0.0
 10
14.3244296112
 20
12.5529794033
 30
0.0
 10
14.3271134974
 20
12.561138964
 30
0.0
 10
14.3315814209
 20
12.5732332332
 30
0.0
 10
14.3364903793
 20
12.5851797768
 30
0.0
 10
14.3418381361
 20
12.5969732608
 30
0.0
 10
14.3476224384
 20
12.6086086483
 30
0.0
 10
14.3538407315
 20
12.6200809421
 30
0.0
 10
14.360490369
 20
12.6313852072
 30
0.0
 10
14.3675684047
 20
12.6425165811
 30
0.0
 10
14.3750719238
 20
12.6534703969
 30
0.0
 10
14.3856809709
 20
12.6678889815
 30
0.0
 10
14.4000162687
 20
12.6854564167
 30
0.0
 10
14.418793805
 20
12.7056629818
 30
0.0
 10
14.4391840436
 20
12.725047957
 30
0.0
 10
14.4611504463
 20
12.7435777376
 30
0.0
 10
14.4806243338
 20
12.758195804
 30
0.0
 10
14.4969349632
 20
12.7694376707
 30
0.0
 10
14.5139359676
 20
12.7805027159
 30
0.0
 10
14.5361164723
 20
12.793736296
 30
0.0
 10
14.5639832158
 20
12.8085518323
 30
0.0
 10
14.5932120808
 20
12.822373164
 30
0.0
 10
14.6237526631
 20
12.8351768545
 30
0.0
 10
14.6555530033
 20
12.8469415371
 30
0.0
 10
14.6885588542
 20
12.8576474453
 30
0.0
 10
14.7227139807
 20
12.867276592
 30
0.0
 10
14.7579601825
 20
12.8758127675
 30
0.0
 10
14.7942374017
 20
12.8832415845
 30
0.0
 10
14.8314838146
 20
12.889550507
 30
0.0
 10
14.8696359345
 20
12.8947288782
 30
0.0
 10
14.9086287173
 20
12.8987679451
 30
0.0
 10
14.9483956711
 20
12.9016608778
 30
0.0
 10
14.9888689694
 20
12.9034027862
 30
0.0
 10
15.0299795669
 20
12.903990732
 30
0.0
 10
15.0716573178
 20
12.9034237364
 30
0.0
 10
15.1138310964
 20
12.9017027851
 30
0.0
 10
15.1564289195
 20
12.8988308283
 30
0.0
 10
15.1993780703
 20
12.8948127774
 30
0.0
 10
15.2426052236
 20
12.8896554981
 30
0.0
 10
15.2860365721
 20
12.8833677998
 30
0.0
 10
15.3295979535
 20
12.8759604216
 30
0.0
 10
15.3732149783
 20
12.8674460141
 30
0.0
 10
15.4168131574
 20
12.8578391185
 30
0.0
 10
15.4603180309
 20
12.8471561423
 30
0.0
 10
15.5036552955
 20
12.8354153312
 30
0.0
 10
15.546750933
 20
12.8226367379
 30
0.0
 10
15.5895313368
 20
12.8088421879
 30
0.0
 10
15.6319234388
 20
12.794055242
 30
0.0
 10
15.6738548351
 20
12.778301156
 30
0.0
 10
15.71525391
 20
12.7616068367
 30
0.0
 10
15.7560499593
 20
12.7440007956
 30
0.0
 10
15.7961733115
 20
12.7255131
 30
0.0
 10
15.8355554477
 20
12.70617532
 30
0.0
 10
15.8741291188
 20
12.6860204746
 30
0.0
 10
15.911828461
 20
12.6650829734
 30
0.0
 10
15.9485891088
 20
12.6433985571
 30
0.0
 10
15.9843483048
 20
12.6210042344
 30
0.0
 10
16.0190450075
 20
12.5979382179
 30
0.0
 10
16.0526199949
 20
12.5742398557
 30
0.0
 10
16.0850159651
 20
12.5499495632
 30
0.0
 10
16.1161776339
 20
12.5251087502
 30
0.0
 10
16.1460518271
 20
12.4997597483
 30
0.0
 10
16.1745875698
 20
12.4739457351
 30
0.0
 10
16.2017361699
 20
12.4477106569
 30
0.0
 10
16.2274512975
 20
12.421099151
 30
0.0
 10
16.2516890593
 20
12.3941564635
 30
0.0
 10
16.2744080629
 20
12.3669283784
 30
0.0
 10
16.2955694921
 20
12.3394611042
 30
0.0
 10
16.3151371107
 20
12.3118013129
 30
0.0
 10
16.3330775064
 20
12.2839956338
 30
0.0
 10
16.3493594005
 20
12.2560921297
 30
0.0
 10
16.3592081413
 20
12.2372288945
 30
0.0
 10
16.3638364539
 20
12.2277973849
 30
0.0
  0
SPLINE
  5
2B8
100
AcDbEntity
  8
LAYER_FEATURE
100
AcDbSpline
 62
7
  6
CONTINUOUS
 70
0
 71
3
 72
22
 73
18
 74
0
 42
0.0000001
 43
0.0000001
 44
0.0000000001
 40
0.0
 40
0.0
 40
0.0
 40
0.0
 40
0.1381197291
 40
0.2053664275
 40
0.271454927
 40
0.3364371357
 40
0.4003725811
 40
0.4633278416
 40
0.5253764095
 40
0.5865986164
 40
0.6470813105
 40
0.706917441
 40
0.7662055024
 40
0.82504886
 40
0.8835549603
 40
0.9418344159
 40
1.0
 40
1.0
 40
1.0
 40
1.0
 10
16.3638364539
 20
12.2277973849
 30
0.0
 10
16.3705539433
 20
12.2141085808
 30
0.0
 10
16.3798101201
 20
12.19337958
 30
0.0
 10
16.3903670756
 20
12.1653259921
 30
0.0
 10
16.3972317328
 20
12.1445288931
 30
0.0
 10
16.4031057337
 20
12.1238104891
 30
0.0
 10
16.4079835301
 20
12.1031899933
 30
0.0
 10
16.4118601812
 20
12.0826872751
 30
0.0
 10
16.4147317572
 20
12.0623219285
 30
0.0
 10
16.4165952511
 20
12.0421135172
 30
0.0
 10
16.4174486489
 20
12.0220814857
 30
0.0
 10
16.4172909184
 20
12.0022451662
 30
0.0
 10
16.4161220027
 20
11.9826237328
 30
0.0
 10
16.413942853
 20
11.9632362667
 30
0.0
 10
16.4107553814
 20
11.9441014179
 30
0.0
 10
16.4065628014
 20
11.9252385168
 30
0.0
 10
16.4030986944
 20
11.9128510015
 30
0.0
 10
16.4012027895
 20
11.9067158689
 30
0.0
  0
SPLINE
  5
2B9
100
AcDbEntity
  8
LAYER_FEATURE
100
AcDbSpline
 62
7
  6
CONTINUOUS
 70
0
 71
3
 72
18
 73
14
 74
0
 42
0.0000001
 43
0.0000001
 44
0.0000000001
 40
0.0
 40
0.0
 40
0.0
 40
0.0
 40
0.135771751
 40
0.2729930802
 40
0.4091848157
 40
0.5419165435
 40
0.6062980394
 40
0.6690017651
 40
0.7298040187
 40
0.7885135825
 40
0.8449775703
 40
0.8990864617
 40
1.0
 40
1.0
 40
1.0
 40
1.0
 10
16.0287888699
 20
13.4076848075
 30
0.0
 10
16.0278135712
 20
13.408157539
 30
0.0
 10
16.0258041936
 20
13.4090112095
 30
0.0
 10
16.0226868274
 20
13.4100017635
 30
0.0
 10
16.019513923
 20
13.4106910279
 30
0.0
 10
16.0168665409
 20
13.4110023041
 30
0.0
 10
16.0147931463
 20
13.4110814626
 30
0.0
 10
16.013292688
 20
13.4110564202
 30
0.0
 10
16.0118412944
 20
13.4109477656
 30
0.0
 10
16.0104487323
 20
13.4107562113
 30
0.0
 10
16.0091240104
 20
13.4104828778
 30
0.0
 10
16.00749897
 20
13.4100228754
 30
0.0
 10
16.0063474648
 20
13.409547695
 30
0.0
 10
16.0056370197
 20
13.4091679558
 30
0.0
  0
SPLINE
  5
2BA
100
AcDbEntity
  8
LAYER_FEATURE
100
AcDbSpline
 62
7
  6
CONTINUOUS
 70
0
 71
3
 72
11
 73
7
 74
0
 42
0.0000001
 43
0.0000001
 44
0.0000000001
 40
0.0
 40
0.0
 40
0.0
 40
0.0
 40
0.2528688527
 40
0.5039562468
 40
0.7530641814
 40
1.0
 40
1.0
 40
1.0
 40
1.0
 10
16.0287888699
 20
13.4076848075
 30
0.0
 10
16.0403986402
 20
13.4020575025
 30
0.0
 10
16.0634182588
 20
13.3905968349
 30
0.0
 10
16.0974389962
 20
13.3727339151
 30
0.0
 10
16.1307959532
 20
13.354277487
 30
0.0
 10
16.1526650647
 20
13.3415337582
 30
0.0
 10
16.1634777405
 20
13.3350669157
 30
0.0
  0
SPLINE
  5
2BB
100
AcDbEntity
  8
LAYER_CUT_FEAT
100
AcDbSpline
 62
7
  6
CONTINUOUS
 70
0
 71
3
 72
15
 73
11
 74
0
 42
0.0000001
 43
0.0000001
 44
0.0000000001
 40
0.0
 40
0.0
 40
0.0
 40
0.0
 40
0.1231334833
 40
0.2506891336
 40
0.3807840363
 40
0.51140002
 40
0.6404999884
 40
0.7661181467
 40
0.8864543099
 40
1.0
 40
1.0
 40
1.0
 40
1.0
 10
16.2391395128
 20
13.2303890538
 30
0.0
 10
16.2399300145
 20
13.2298471668
 30
0.0
 10
16.2415982691
 20
13.2288279108
 30
0.0
 10
16.2442647292
 20
13.2275252551
 30
0.0
 10
16.2470908953
 20
13.2264438513
 30
0.0
 10
16.2500117446
 20
13.2256087441
 30
0.0
 10
16.252960369
 20
13.2250389931
 30
0.0
 10
16.2558694317
 20
13.2247477079
 30
0.0
 10
16.2586720687
 20
13.2247414447
 30
0.0
 10
16.2604871582
 20
13.2249340408
 30
0.0
 10
16.2613582883
 20
13.2250830124
 30
0.0
  0
SPLINE
  5
2BC
100
AcDbEntity
  8
LAYER_FEATURE
100
AcDbSpline
 62
7
  6
CONTINUOUS
 70
0
 71
3
 72
17
 73
13
 74
0
 42
0.0000001
 43
0.0000001
 44
0.0000000001
 40
0.0
 40
0.0
 40
0.0
 40
0.0
 40
0.1202219408
 40
0.2462377355
 40
0.3759658302
 40
0.5071069908
 40
0.6372865661
 40
0.7641822629
 40
0.8257419208
 40
0.88570041
 40
0.9438524344
 40
1.0
 40
1.0
 40
1.0
 40
1.0
 10
16.3235162027
 20
13.2253609293
 30
0.0
 10
16.3227271421
 20
13.2259820423
 30
0.0
 10
16.3210324128
 20
13.2271565226
 30
0.0
 10
16.3182729024
 20
13.2286659233
 30
0.0
 10
16.315295226
 20
13.2299343702
 30
0.0
 10
16.312178639
 20
13.2309279816
 30
0.0
 10
16.3090059198
 20
13.2316203979
 30
0.0
 10
16.3063580348
 20
13.2319344685
 30
0.0
 10
16.3042838321
 20
13.2320159099
 30
0.0
 10
16.3027824306
 20
13.2319925912
 30
0.0
 10
16.3013300136
 20
13.2318856248
 30
0.0
 10
16.300383249
 20
13.231756653
 30
0.0
 10
16.2999209702
 20
13.231677599
 30
0.0
  0
SPLINE
  5
2BD
100
AcDbEntity
  8
LAYER_FEATURE
100
AcDbSpline
 62
7
  6
CONTINUOUS
 70
0
 71
3
 72
11
 73
7
 74
0
 42
0.0000001
 43
0.0000001
 44
0.0000000001
 40
0.0
 40
0.0
 40
0.0
 40
0.0
 40
0.2557503358
 40
0.5077555038
 40
0.755879532
 40
1.0
 40
1.0
 40
1.0
 40
1.0
 10
16.3235162027
 20
13.2253609293
 30
0.0
 10
16.332705453
 20
13.2181275646
 30
0.0
 10
16.3507671632
 20
13.2035333328
 30
0.0
 10
16.3770709807
 20
13.1811046197
 30
0.0
 10
16.4023590092
 20
13.1583235048
 30
0.0
 10
16.4186547143
 20
13.1427911124
 30
0.0
 10
16.4266212051
 20
13.1349716849
 30
0.0
  0
SPLINE
  5
2BE
100
AcDbEntity
  8
LAYER_CUT_FEAT
100
AcDbSpline
 62
7
  6
CONTINUOUS
 70
0
 71
3
 72
15
 73
11
 74
0
 42
0.0000001
 43
0.0000001
 44
0.0000000001
 40
0.0
 40
0.0
 40
0.0
 40
0.0
 40
0.1094216423
 40
0.2265186296
 40
0.3500272471
 40
0.4783065515
 40
0.6094753005
 40
0.7415131118
 40
0.8723533467
 40
1.0
 40
1.0
 40
1.0
 40
1.0
 10
16.4504333657
 20
13.0306420448
 30
0.0
 10
16.4509851247
 20
13.0300048764
 30
0.0
 10
16.4522218594
 20
13.0287660175
 30
0.0
 10
16.4543412363
 20
13.027091243
 30
0.0
 10
16.456745607
 20
13.0255680154
 30
0.0
 10
16.4593798914
 20
13.0242313236
 30
0.0
 10
16.4621840243
 20
13.023111476
 30
0.0
 10
16.4650938401
 20
13.0222341664
 30
0.0
 10
16.4680423082
 20
13.0216194535
 30
0.0
 10
16.4700236364
 20
13.0213901363
 30
0.0
 10
16.4710047394
 20
13.0213251834
 30
0.0
  0
SPLINE
  5
2BF
100
AcDbEntity
  8
LAYER_FEATURE
100
AcDbSpline
 62
7
  6
CONTINUOUS
 70
0
 71
3
 72
18
 73
14
 74
0
 42
0.0000001
 43
0.0000001
 44
0.0000000001
 40
0.0
 40
0.0
 40
0.0
 40
0.0
 40
0.0518318078
 40
0.1059902777
 40
0.1623764855
 40
0.2208658797
 40
0.2812831984
 40
0.3434218211
 40
0.4718604425
 40
0.6041055504
 40
0.7378158049
 40
0.87056851
 40
1.0
 40
1.0
 40
1.0
 40
1.0
 10
16.5366273377
 20
13.0079372
 30
0.0
 10
16.5363791755
 20
13.0082817472
 30
0.0
 10
16.5358419605
 20
13.0089652505
 30
0.0
 10
16.5349433479
 20
13.0099474889
 30
0.0
 10
16.5339398452
 20
13.0109031997
 30
0.0
 10
16.5328383577
 20
13.0118259451
 30
0.0
 10
16.5316461557
 20
13.0127096366
 30
0.0
 10
16.5299275971
 20
13.0138401653
 30
0.0
 10
16.5276042502
 20
13.0151141003
 30
0.0
 10
16.5246286583
 20
13.0163850539
 30
0.0
 10
16.5215129837
 20
13.0173816397
 30
0.0
 10
16.5183405656
 20
13.0180772474
 30
0.0
 10
16.5162036396
 20
13.0183328376
 30
0.0
 10
16.5151456327
 20
13.0184028818
 30
0.0
  0
SPLINE
  5
2C0
100
AcDbEntity
  8
LAYER_FEATURE
100
AcDbSpline
 62
7
  6
CONTINUOUS
 70
0
 71
3
 72
11
 73
7
 74
0
 42
0.0000001
 43
0.0000001
 44
0.0000000001
 40
0.0
 40
0.0
 40
0.0
 40
0.0
 40
0.2577607805
 40
0.5103156581
 40
0.7577053407
 40
1.0
 40
1.0
 40
1.0
 40
1.0
 10
16.5366273377
 20
13.0079372
 30
0.0
 10
16.5424276725
 20
12.999884041
 30
0.0
 10
16.55363253
 20
12.9837372058
 30
0.0
 10
16.5693726055
 20
12.9591656215
 30
0.0
 10
16.5838545778
 20
12.9345200794
 30
0.0
 10
16.5927501215
 20
12.9178890398
 30
0.0
 10
16.5969754451
 20
12.9095716802
 30
0.0
  0
SPLINE
  5
2C1
100
AcDbEntity
  8
LAYER_CUT_FEAT
100
AcDbSpline
 62
7
  6
CONTINUOUS
 70
0
 71
3
 72
15
 73
11
 74
0
 42
0.0000001
 43
0.0000001
 44
0.0000000001
 40
0.0
 40
0.0
 40
0.0
 40
0.0
 40
0.111646723
 40
0.2285286845
 40
0.3500684494
 40
0.4755606418
 40
0.6042032996
 40
0.7351114523
 40
0.8673708308
 40
1.0
 40
1.0
 40
1.0
 40
1.0
 10
16.5694795758
 20
12.812137224
 30
0.0
 10
16.5698839579
 20
12.8117147037
 30
0.0
 10
16.570751168
 20
12.8108869942
 30
0.0
 10
16.5721759782
 20
12.809729912
 30
0.0
 10
16.5737413675
 20
12.8086391211
 30
0.0
 10
16.5754303993
 20
12.8076264077
 30
0.0
 10
16.577224937
 20
12.8067026303
 30
0.0
 10
16.5791057069
 20
12.8058776574
 30
0.0
 10
16.5810523196
 20
12.8051605005
 30
0.0
 10
16.5823815387
 20
12.8047589022
 30
0.0
 10
16.5830523212
 20
12.8045779423
 30
0.0
  0
SPLINE
  5
2C2
100
AcDbEntity
  8
LAYER_CUT_FEAT
100
AcDbSpline
 62
7
  6
CONTINUOUS
 70
0
 71
3
 72
16
 73
12
 74
0
 42
0.0000001
 43
0.0000001
 44
0.0000000001
 40
0.0
 40
0.0
 40
0.0
 40
0.0
 40
0.1377577757
 40
0.2757036351
 40
0.4116996854
 40
0.5436841814
 40
0.6697999632
 40
0.78850529
 40
0.8447454429
 40
0.8987708957
 40
1.0
 40
1.0
 40
1.0
 40
1.0
 10
15.9553729858
 20
13.3944913364
 30
0.0
 10
15.9563090056
 20
13.3941004261
 30
0.0
 10
15.9582182492
 20
13.3934013315
 30
0.0
 10
15.9611481808
 20
13.3926090487
 30
0.0
 10
15.9640949198
 20
13.3920845954
 30
0.0
 10
15.9669909386
 20
13.3918401519
 30
0.0
 10
15.9697699984
 20
13.3918813406
 30
0.0
 10
15.9719752291
 20
13.3921580188
 30
0.0
 10
15.9736214218
 20
13.3925282405
 30
0.0
 10
15.9751143986
 20
13.3929733842
 30
0.0
 10
15.9761740358
 20
13.3934197324
 30
0.0
 10
15.9768314141
 20
13.3937711069
 30
0.0
  0
SPLINE
  5
2C3
100
AcDbEntity
  8
LAYER_CUT_FEAT
100
AcDbSpline
 62
7
  6
CONTINUOUS
 70
0
 71
3
 72
19
 73
15
 74
0
 42
0.0000001
 43
0.0000001
 44
0.0000000001
 40
0.0
 40
0.0
 40
0.0
 40
0.0
 40
0.0464566871
 40
0.0945366179
 40
0.1445556883
 40
0.1967808288
 40
0.3083896288
 40
0.3680116705
 40
0.4301354664
 40
0.4946865032
 40
0.5615433515
 40
0.701456767
 40
0.8482809662
 40
1.0
 40
1.0
 40
1.0
 40
1.0
 10
15.851055342
 20
13.4462990255
 30
0.0
 10
15.8510590949
 20
13.4459937095
 30
0.0
 10
15.8511062796
 20
13.4453723266
 30
0.0
 10
15.8512893471
 20
13.4444380853
 30
0.0
 10
15.8515844673
 20
13.4434932007
 30
0.0
 10
15.8521366051
 20
13.44219857
 30
0.0
 10
15.8529001508
 20
13.4409341967
 30
0.0
 10
15.8538355361
 20
13.4397178122
 30
0.0
 10
15.8546491978
 20
13.4388013741
 30
0.0
 10
15.8555544657
 20
13.4379066425
 30
0.0
 10
15.8568970016
 20
13.4367315169
 30
0.0
 10
15.8587746664
 20
13.4353536414
 30
0.0
 10
15.8612610454
 20
13.4338886976
 30
0.0
 10
15.8630397015
 20
13.4330525283
 30
0.0
 10
15.8639598617
 20
13.4326682414
 30
0.0
  0
SPLINE
  5
2C4
100
AcDbEntity
  8
LAYER_FEATURE
100
AcDbSpline
 62
7
  6
CONTINUOUS
 70
0
 71
3
 72
22
 73
18
 74
0
 42
0.0000001
 43
0.0000001
 44
0.0000000001
 40
0.0
 40
0.0
 40
0.0
 40
0.0
 40
0.0457430008
 40
0.0932280231
 40
0.1428183618
 40
0.1947973734
 40
0.2493430885
 40
0.3065467308
 40
0.3664205974
 40
0.4289078349
 40
0.4938921866
 40
0.5612062149
 40
0.6306392715
 40
0.7019453859
 40
0.7748486122
 40
0.8490447433
 40
1.0
 40
1.0
 40
1.0
 40
1.0
 10
15.850716476
 20
13.4738674935
 30
0.0
 10
15.8507124285
 20
13.4741967833
 30
0.0
 10
15.8506581099
 20
13.4748680356
 30
0.0
 10
15.8504463155
 20
13.4758765895
 30
0.0
 10
15.8501048415
 20
13.4768962498
 30
0.0
 10
15.8496365221
 20
13.4779200205
 30
0.0
 10
15.8490447216
 20
13.4789413139
 30
0.0
 10
15.8483336149
 20
13.4799534621
 30
0.0
 10
15.8475080599
 20
13.4809498647
 30
0.0
 10
15.8465736207
 20
13.4819239698
 30
0.0
 10
15.8455365676
 20
13.4828693334
 30
0.0
 10
15.8444038652
 20
13.4837796807
 30
0.0
 10
15.8431831088
 20
13.4846489491
 30
0.0
 10
15.8418825008
 20
13.4854713101
 30
0.0
 10
15.8405107184
 20
13.4862412662
 30
0.0
 10
15.8385885459
 20
13.4871963587
 30
0.0
 10
15.837084897
 20
13.4878104495
 30
0.0
 10
15.8360607288
 20
13.4881739495
 30
0.0
  0
SPLINE
  5
2C5
100
AcDbEntity
  8
LAYER_FEATURE
100
AcDbSpline
 62
7
  6
CONTINUOUS
 70
0
 71
3
 72
22
 73
18
 74
0
 42
0.0000001
 43
0.0000001
 44
0.0000000001
 40
0.0
 40
0.0
 40
0.0
 40
0.0
 40
0.1508637139
 40
0.2250284839
 40
0.2979098001
 40
0.3692031369
 40
0.4386320571
 40
0.5059499127
 40
0.5709451708
 40
0.6334492755
 40
0.6933445873
 40
0.7505725746
 40
0.8051435342
 40
0.8571463524
 40
0.906756408
 40
0.9542541739
 40
1.0
 40
1.0
 40
1.0
 40
1.0
 10
15.6843836191
 20
13.5351512134
 30
0.0
 10
15.6833330449
 20
13.5354302945
 30
0.0
 10
15.6817450745
 20
13.5357737077
 30
0.0
 10
15.6796188376
 20
13.5360724998
 30
0.0
 10
15.6780511867
 20
13.5362129373
 30
0.0
 10
15.6765124547
 20
13.5362699694
 30
0.0
 10
15.6750129141
 20
13.536243225
 30
0.0
 10
15.6735626339
 20
13.5361328738
 30
0.0
 10
15.6721713157
 20
13.5359396219
 30
0.0
 10
15.6708482623
 20
13.5356647068
 30
0.0
 10
15.6696022992
 20
13.5353098979
 30
0.0
 10
15.6684417316
 20
13.534877453
 30
0.0
 10
15.6673743097
 20
13.5343700692
 30
0.0
 10
15.6664072574
 20
13.533790885
 30
0.0
 10
15.6655470843
 20
13.5331434305
 30
0.0
 10
15.6648000923
 20
13.5324318694
 30
0.0
 10
15.6643742774
 20
13.5319092694
 30
0.0
 10
15.6641840132
 20
13.5316401182
 30
0.0
  0
SPLINE
  5
2C6
100
AcDbEntity
  8
LAYER_CUT_FEAT
100
AcDbSpline
 62
7
  6
CONTINUOUS
 70
0
 71
3
 72
19
 73
15
 74
0
 42
0.0000001
 43
0.0000001
 44
0.0000000001
 40
0.0
 40
0.0
 40
0.0
 40
0.0
 40
0.1516374136
 40
0.2984159107
 40
0.4383168891
 40
0.5051784101
 40
0.5697402941
 40
0.6318800036
 40
0.6915216814
 40
0.8031747297
 40
0.8554199921
 40
0.9054548936
 40
0.9535437957
 40
1.0
 40
1.0
 40
1.0
 40
1.0
 10
15.629884291
 20
13.505165864
 30
0.0
 10
15.6308609221
 20
13.5049626901
 30
0.0
 10
15.6328017256
 20
13.5046469255
 30
0.0
 10
15.6356824904
 20
13.5044495913
 30
0.0
 10
15.6380119978
 20
13.5045244028
 30
0.0
 10
15.6397854124
 20
13.50473442
 30
0.0
 10
15.6410393745
 20
13.5049603969
 30
0.0
 10
15.6422301515
 20
13.5052560189
 30
0.0
 10
15.6436915296
 20
13.5057300956
 30
0.0
 10
15.6450384329
 20
13.506340778
 30
0.0
 10
15.6462283126
 20
13.50709585
 30
0.0
 10
15.6470078437
 20
13.5077078674
 30
0.0
 10
15.6476889841
 20
13.508374416
 30
0.0
 10
15.6480806078
 20
13.5088599407
 30
0.0
 10
15.6482570183
 20
13.5091094943
 30
0.0
  0
SPLINE
  5
2C7
100
AcDbEntity
  8
LAYER_CUT_FEAT
100
AcDbSpline
 62
7
  6
CONTINUOUS
 70
0
 71
3
 72
16
 73
12
 74
0
 42
0.0000001
 43
0.0000001
 44
0.0000000001
 40
0.0
 40
0.0
 40
0.0
 40
0.0
 40
0.1011581431
 40
0.1551500453
 40
0.2113596987
 40
0.3300174168
 40
0.4561093628
 40
0.5880984232
 40
0.7241300612
 40
0.8621434296
 40
1.0
 40
1.0
 40
1.0
 40
1.0
 10
15.5147771647
 20
13.5368780295
 30
0.0
 10
15.5151195468
 20
13.5362170015
 30
0.0
 10
15.5157395996
 20
13.5352503843
 30
0.0
 10
15.5167174452
 20
13.5340400001
 30
0.0
 10
15.5178641788
 20
13.5328047107
 30
0.0
 10
15.519524828
 20
13.5313306589
 30
0.0
 10
15.5217920086
 20
13.5297265765
 30
0.0
 10
15.524317698
 20
13.5282918426
 30
0.0
 10
15.5270441127
 20
13.5270592439
 30
0.0
 10
15.5299086855
 20
13.5260568906
 30
0.0
 10
15.5318788772
 20
13.5255544597
 30
0.0
 10
15.5328721151
 20
13.5253478311
 30
0.0
  0
SPLINE
  5
2C8
100
AcDbEntity
  8
LAYER_FEATURE
100
AcDbSpline
 62
7
  6
CONTINUOUS
 70
0
 71
3
 72
18
 73
14
 74
0
 42
0.0000001
 43
0.0000001
 44
0.0000000001
 40
0.0
 40
0.0
 40
0.0
 40
0.0
 40
0.1008360005
 40
0.1549082534
 40
0.2113390046
 40
0.2700200129
 40
0.3307994459
 40
0.3934869407
 40
0.4578594751
 40
0.5905969415
 40
0.7268279376
 40
0.8641224869
 40
1.0
 40
1.0
 40
1.0
 40
1.0
 10
15.4997745898
 20
13.5658430988
 30
0.0
 10
15.4994045679
 20
13.5665574902
 30
0.0
 10
15.498725152
 20
13.5675997864
 30
0.0
 10
15.4976468963
 20
13.5688970257
 30
0.0
 10
15.4967101839
 20
13.5698707708
 30
0.0
 10
15.4956711421
 20
13.5708154378
 30
0.0
 10
15.4945365591
 20
13.5717250158
 30
0.0
 10
15.4933140803
 20
13.5725933999
 30
0.0
 10
15.4915601314
 20
13.573699671
 30
0.0
 10
15.4892012993
 20
13.5749389128
 30
0.0
 10
15.4861949321
 20
13.5761634466
 30
0.0
 10
15.4830633384
 20
13.5771082742
 30
0.0
 10
15.4809229184
 20
13.5775398762
 30
0.0
 10
15.4798508837
 20
13.5777012634
 30
0.0
  0
SPLINE
  5
2C9
100
AcDbEntity
  8
LAYER_FEATURE
100
AcDbSpline
 62
7
  6
CONTINUOUS
 70
0
 71
3
 72
11
 73
7
 74
0
 42
0.0000001
 43
0.0000001
 44
0.0000000001
 40
0.0
 40
0.0
 40
0.0
 40
0.0
 40
0.2469554552
 40
0.4960700997
 40
0.7471510197
 40
1.0
 40
1.0
 40
1.0
 40
1.0
 10
15.3276221032
 20
13.5939471839
 30
0.0
 10
15.3402041807
 20
13.593168148
 30
0.0
 10
15.3654614201
 20
13.591315814
 30
0.0
 10
15.4034301552
 20
13.5876813493
 30
0.0
 10
15.4416091118
 20
13.5831826819
 30
0.0
 10
15.467087686
 20
13.5796226729
 30
0.0
 10
15.4798508837
 20
13.5777012634
 30
0.0
  0
SPLINE
  5
2CA
100
AcDbEntity
  8
LAYER_FEATURE
100
AcDbSpline
 62
7
  6
CONTINUOUS
 70
0
 71
3
 72
20
 73
16
 74
0
 42
0.0000001
 43
0.0000001
 44
0.0000000001
 40
0.0
 40
0.0
 40
0.0
 40
0.0
 40
0.1568643522
 40
0.3055745606
 40
0.3764418116
 40
0.4447833078
 40
0.510516279
 40
0.5736066325
 40
0.6918979396
 40
0.7474444006
 40
0.8008342561
 40
0.8523723148
 40
0.9024399281
 40
0.9514833983
 40
1.0
 40
1.0
 40
1.0
 40
1.0
 10
15.3276221032
 20
13.5939471839
 30
0.0
 10
15.3267202352
 20
13.5940030243
 30
0.0
 10
15.3249571879
 20
13.594032072
 30
0.0
 10
15.322792042
 20
13.5938474433
 30
0.0
 10
15.3211572401
 20
13.593562641
 30
0.0
 10
15.3200081789
 20
13.5932884465
 30
0.0
 10
15.3189224507
 20
13.5929516029
 30
0.0
 10
15.3175961607
 20
13.5924327277
 30
0.0
 10
15.316383407
 20
13.5917893595
 30
0.0
 10
15.3153243042
 20
13.5910171569
 30
0.0
 10
15.3146349088
 20
13.590398711
 30
0.0
 10
15.3140380381
 20
13.5897321841
 30
0.0
 10
15.3135371344
 20
13.5890209652
 30
0.0
 10
15.3131353062
 20
13.5882691078
 30
0.0
 10
15.3129346736
 20
13.5877422259
 30
0.0
 10
15.312852158
 20
13.587475212
 30
0.0
  0
LINE
  5
2CB
100
AcDbEntity
  8
LAYER_CUT_FEAT
100
AcDbLine
 62
7
  6
CONTINUOUS
 10
15.2979451789
 20
13.5504193341
 11
15.3015013361
 21
13.5506698032
  0
SPLINE
  5
2CC
100
AcDbEntity
  8
LAYER_CUT_FEAT
100
AcDbSpline
 62
7
  6
CONTINUOUS
 70
0
 71
3
 72
15
 73
11
 74
0
 42
0.0000001
 43
0.0000001
 44
0.0000000001
 40
0.0
 40
0.0
 40
0.0
 40
0.0
 40
0.1134553144
 40
0.2337215431
 40
0.3592948875
 40
0.4883781338
 40
0.6190069329
 40
0.7491442202
 40
0.8767704679
 40
1.0
 40
1.0
 40
1.0
 40
1.0
 10
15.1845222133
 20
13.5585994708
 30
0.0
 10
15.185155711
 20
13.557984446
 30
0.0
 10
15.1865425735
 20
13.5568000794
 30
0.0
 10
15.1888561169
 20
13.555221789
 30
0.0
 10
15.1914191426
 20
13.5538182937
 30
0.0
 10
15.1941728204
 20
13.5526219649
 30
0.0
 10
15.197054213
 20
13.5516600397
 30
0.0
 10
15.1999973557
 20
13.5509546109
 30
0.0
 10
15.2029344412
 20
13.5505217731
 30
0.0
 10
15.2048877251
 20
13.5504193341
 30
0.0
 10
15.2058467257
 20
13.5504193341
 30
0.0
  0
SPLINE
  5
2CD
100
AcDbEntity
  8
LAYER_FEATURE
100
AcDbSpline
 62
7
  6
CONTINUOUS
 70
0
 71
3
 72
17
 73
13
 74
0
 42
0.0000001
 43
0.0000001
 44
0.0000000001
 40
0.0
 40
0.0
 40
0.0
 40
0.0
 40
0.0560965651
 40
0.1142022309
 40
0.1741199089
 40
0.2356450306
 40
0.3624926801
 40
0.4926548516
 40
0.623810638
 40
0.7535850191
 40
0.8796766454
 40
1.0
 40
1.0
 40
1.0
 40
1.0
 10
15.1564816912
 20
13.5858223268
 30
0.0
 10
15.1561455315
 20
13.5861486841
 30
0.0
 10
15.1554383634
 20
13.5867899313
 30
0.0
 10
15.154301979
 20
13.5876986959
 30
0.0
 10
15.1530777444
 20
13.5885661922
 30
0.0
 10
15.1513218336
 20
13.5896710383
 30
0.0
 10
15.148961001
 20
13.5909082609
 30
0.0
 10
15.1459529974
 20
13.5921300923
 30
0.0
 10
15.1428203111
 20
13.5930719595
 30
0.0
 10
15.1396461322
 20
13.5937088199
 30
0.0
 10
15.1365150152
 20
13.5940238212
 30
0.0
 10
15.1344518395
 20
13.5940132889
 30
0.0
 10
15.133449069
 20
13.5939471839
 30
0.0
  0
SPLINE
  5
2CE
100
AcDbEntity
  8
LAYER_FEATURE
100
AcDbSpline
 62
7
  6
CONTINUOUS
 70
0
 71
3
 72
11
 73
7
 74
0
 42
0.0000001
 43
0.0000001
 44
0.0000000001
 40
0.0
 40
0.0
 40
0.0
 40
0.0
 40
0.2441378383
 40
0.4922681479
 40
0.7442677532
 40
1.0
 40
1.0
 40
1.0
 40
1.0
 10
14.9971649681
 20
13.5777012634
 30
0.0
 10
15.0081690091
 20
13.5796450402
 30
0.0
 10
15.0304155884
 20
13.5832399277
 30
0.0
 10
15.0641885035
 20
13.5877287577
 30
0.0
 10
15.0985986209
 20
13.5913532266
 30
0.0
 10
15.1217693353
 20
13.593177229
 30
0.0
 10
15.133449069
 20
13.5939471839
 30
0.0
  0
SPLINE
  5
2CF
100
AcDbEntity
  8
LAYER_FEATURE
100
AcDbSpline
 62
7
  6
CONTINUOUS
 70
0
 71
3
 72
17
 73
13
 74
0
 42
0.0000001
 43
0.0000001
 44
0.0000000001
 40
0.0
 40
0.0
 40
0.0
 40
0.0
 40
0.1506413441
 40
0.2931307608
 40
0.4273526386
 40
0.5535760676
 40
0.6725040735
 40
0.7853272461
 40
0.8400066497
 40
0.8938271813
 40
0.9470620416
 40
1.0
 40
1.0
 40
1.0
 40
1.0
 10
14.9971649681
 20
13.5777012634
 30
0.0
 10
14.9966034273
 20
13.5776020717
 30
0.0
 10
14.9955180009
 20
13.5773633868
 30
0.0
 10
14.9939756251
 20
13.5768669008
 30
0.0
 10
14.9925787392
 20
13.5762463293
 30
0.0
 10
14.9913426414
 20
13.5755075537
 30
0.0
 10
14.9902813022
 20
13.5746577444
 30
0.0
 10
14.9895450499
 20
13.5738546948
 30
0.0
 10
14.9890617491
 20
13.5731692539
 30
0.0
 10
14.9887535206
 20
13.5726393082
 30
0.0
 10
14.9884968698
 20
13.572089877
 30
0.0
 10
14.9883604915
 20
13.5717111103
 30
0.0
 10
14.9883013242
 20
13.5715196542
 30
0.0
  0
SPLINE
  5
2D0
100
AcDbEntity
  8
LAYER_FEATURE
100
AcDbSpline
 62
7
  6
CONTINUOUS
 70
0
 71
3
 72
20
 73
16
 74
0
 42
0.0000001
 43
0.0000001
 44
0.0000000001
 40
0.0
 40
0.0
 40
0.0
 40
0.0
 40
0.0465243214
 40
0.0952476676
 40
0.1463616749
 40
0.1999897553
 40
0.2561672008
 40
0.314862035
 40
0.3759825583
 40
0.4393856227
 40
0.5048846052
 40
0.5722559188
 40
0.7115291545
 40
0.854954532
 40
1.0
 40
1.0
 40
1.0
 40
1.0
 10
16.6450283768
 20
12.7789748542
 30
0.0
 10
16.644951033
 20
12.7793175824
 30
0.0
 10
16.6447495947
 20
12.7800100639
 30
0.0
 10
16.6443259939
 20
12.7810330116
 30
0.0
 10
16.6437775515
 20
12.7820559937
 30
0.0
 10
16.6431083016
 20
12.7830721379
 30
0.0
 10
16.642322761
 20
12.7840748845
 30
0.0
 10
16.6414262837
 20
12.785057642
 30
0.0
 10
16.6404248969
 20
12.7860139406
 30
0.0
 10
16.6393253187
 20
12.7869374249
 30
0.0
 10
16.6381348904
 20
12.7878219718
 30
0.0
 10
16.6364184168
 20
12.7889538657
 30
0.0
 10
16.6340971318
 20
12.7902297664
 30
0.0
 10
16.6311236001
 20
12.7915033036
 30
0.0
 10
16.6290456359
 20
12.7921701265
 30
0.0
 10
16.6279880752
 20
12.7924554293
 30
0.0
  0
SPLINE
  5
2D1
100
AcDbEntity
  8
LAYER_CUT_FEAT
100
AcDbSpline
 62
7
  6
CONTINUOUS
 70
0
 71
3
 72
15
 73
11
 74
0
 42
0.0000001
 43
0.0000001
 44
0.0000000001
 40
0.0
 40
0.0
 40
0.0
 40
0.0
 40
0.1275489634
 40
0.2583188014
 40
0.3903156136
 40
0.5214734865
 40
0.6497713423
 40
0.7733257339
 40
0.8904918181
 40
1.0
 40
1.0
 40
1.0
 40
1.0
 10
14.8960787362
 20
13.5091094943
 30
0.0
 10
14.8969243291
 20
13.508608658
 30
0.0
 10
14.898687722
 20
13.5076781419
 30
0.0
 10
14.9014667892
 20
13.5065189601
 30
0.0
 10
14.9043630407
 20
13.5055980525
 30
0.0
 10
14.9073098428
 20
13.5049367581
 30
0.0
 10
14.9102397249
 20
13.5045501523
 30
0.0
 10
14.9130859727
 20
13.5044471895
 30
0.0
 10
14.9157833258
 20
13.504630149
 30
0.0
 10
14.9175056234
 20
13.5049524636
 30
0.0
 10
14.9183219689
 20
13.505165864
 30
0.0
  0
SPLINE
  5
2D2
100
AcDbEntity
  8
LAYER_FEATURE
100
AcDbSpline
 62
7
  6
CONTINUOUS
 70
0
 71
3
 72
18
 73
14
 74
0
 42
0.0000001
 43
0.0000001
 44
0.0000000001
 40
0.0
 40
0.0
 40
0.0
 40
0.0
 40
0.1293264958
 40
0.2620040177
 40
0.3956713197
 40
0.5279063673
 40
0.6563666669
 40
0.7185270777
 40
0.7789727592
 40
0.8374963362
 40
0.893921615
 40
0.9481229288
 40
1.0
 40
1.0
 40
1.0
 40
1.0
 10
14.8580388927
 20
13.5316401182
 30
0.0
 10
14.8571270098
 20
13.5321802174
 30
0.0
 10
14.8552204243
 20
13.5331770023
 30
0.0
 10
14.8522108578
 20
13.534396033
 30
0.0
 10
14.8490772355
 20
13.5353349332
 30
0.0
 10
14.845903351
 20
13.5359685499
 30
0.0
 10
14.8432655254
 20
13.5362311858
 30
0.0
 10
14.8412075306
 20
13.5362703584
 30
0.0
 10
14.8397233388
 20
13.5362155935
 30
0.0
 10
14.8382917499
 20
13.5360773879
 30
0.0
 10
14.8369222122
 20
13.5358566526
 30
0.0
 10
14.8356240715
 20
13.5355547928
 30
0.0
 10
14.8347933828
 20
13.535294977
 30
0.0
 10
14.8343932963
 20
13.5351512134
 30
0.0
  0
SPLINE
  5
2D3
100
AcDbEntity
  8
LAYER_FEATURE
100
AcDbSpline
 62
7
  6
CONTINUOUS
 70
0
 71
3
 72
11
 73
7
 74
0
 42
0.0000001
 43
0.0000001
 44
0.0000000001
 40
0.0
 40
0.0
 40
0.0
 40
0.0
 40
0.2422985151
 40
0.4896907762
 40
0.7422449813
 40
1.0
 40
1.0
 40
1.0
 40
1.0
 10
14.7288223721
 20
13.4881739495
 30
0.0
 10
14.7370257944
 20
13.4926418949
 30
0.0
 10
14.753797154
 20
13.5013233482
 30
0.0
 10
14.7797218362
 20
13.5134541138
 30
0.0
 10
14.8066414816
 20
13.5248131169
 30
0.0
 10
14.825041591
 20
13.5317908519
 30
0.0
 10
14.8343932963
 20
13.5351512134
 30
0.0
  0
SPLINE
  5
2D4
100
AcDbEntity
  8
LAYER_FEATURE
100
AcDbSpline
 62
7
  6
CONTINUOUS
 70
0
 71
3
 72
13
 73
9
 74
0
 42
0.0000001
 43
0.0000001
 44
0.0000000001
 40
0.0
 40
0.0
 40
0.0
 40
0.0
 40
0.2723542936
 40
0.5263399679
 40
0.6479644966
 40
0.7668742908
 40
0.8839139545
 40
1.0
 40
1.0
 40
1.0
 40
1.0
 10
14.7288223721
 20
13.4881739495
 30
0.0
 10
14.7283217556
 20
13.4879012917
 30
0.0
 10
14.7273899403
 20
13.4873038115
 30
0.0
 10
14.7263853735
 20
13.4863801628
 30
0.0
 10
14.7257355581
 20
13.4855724373
 30
0.0
 10
14.7253284952
 20
13.4849426757
 30
0.0
 10
14.7249967841
 20
13.4842831786
 30
0.0
 10
14.7248265831
 20
13.4838246126
 30
0.0
 10
14.7247548426
 20
13.4835924709
 30
0.0
  0
SPLINE
  5
2D5
100
AcDbEntity
  8
LAYER_FEATURE
100
AcDbSpline
 62
7
  6
CONTINUOUS
 70
0
 71
3
 72
11
 73
7
 74
0
 42
0.0000001
 43
0.0000001
 44
0.0000000001
 40
0.0
 40
0.0
 40
0.0
 40
0.0
 40
0.255959039
 40
0.5076541357
 40
0.7555121993
 40
1.0
 40
1.0
 40
1.0
 40
1.0
 10
16.6450283768
 20
12.7789748542
 30
0.0
 10
16.6468408695
 20
12.7709432875
 30
0.0
 10
16.6500284494
 20
12.7549184998
 30
0.0
 10
16.6534896748
 20
12.7308515984
 30
0.0
 10
16.6555840189
 20
12.7069974562
 30
0.0
 10
16.656069771
 20
12.6911570235
 30
0.0
 10
16.6560799354
 20
12.6832924894
 30
0.0
  0
SPLINE
  5
2D6
100
AcDbEntity
  8
LAYER_CUT_FEAT
100
AcDbSpline
 62
7
  6
CONTINUOUS
 70
0
 71
3
 72
15
 73
11
 74
0
 42
0.0000001
 43
0.0000001
 44
0.0000000001
 40
0.0
 40
0.0
 40
0.0
 40
0.0
 40
0.1330857435
 40
0.2657772916
 40
0.3970359297
 40
0.5258860897
 40
0.6513925081
 40
0.7727115179
 40
0.8891097382
 40
1.0
 40
1.0
 40
1.0
 40
1.0
 10
14.6807040599
 20
13.3937711069
 30
0.0
 10
14.6813795599
 20
13.3935342833
 30
0.0
 10
14.6827435064
 20
13.393102809
 30
0.0
 10
14.6848164684
 20
13.392584506
 30
0.0
 10
14.68689538
 20
13.3922002724
 30
0.0
 10
14.6889563112
 20
13.3919544822
 30
0.0
 10
14.6909757963
 20
13.3918499755
 30
0.0
 10
14.6929308588
 20
13.391887963
 30
0.0
 10
14.6947990724
 20
13.3920680334
 30
0.0
 10
14.6960036975
 20
13.3922872043
 30
0.0
 10
14.6965847254
 20
13.3924218773
 30
0.0
  0
SPLINE
  5
2D7
100
AcDbEntity
  8
LAYER_FEATURE
100
AcDbSpline
 62
7
  6
CONTINUOUS
 70
0
 71
3
 72
20
 73
16
 74
0
 42
0.0000001
 43
0.0000001
 44
0.0000000001
 40
0.0
 40
0.0
 40
0.0
 40
0.0
 40
0.144944004
 40
0.2883042011
 40
0.4275482297
 40
0.4949176594
 40
0.5604225854
 40
0.6238386837
 40
0.6849783908
 40
0.7436973903
 40
0.7999025587
 40
0.8535602098
 40
0.9047036168
 40
0.9534538692
 40
1.0
 40
1.0
 40
1.0
 40
1.0
 10
14.6367871022
 20
13.4091679558
 30
0.0
 10
14.6357533921
 20
13.4095303643
 30
0.0
 10
14.6336619756
 20
13.4101548483
 30
0.0
 10
14.6304883228
 20
13.4107851715
 30
0.0
 10
14.627851081
 20
13.4110450224
 30
0.0
 10
14.6257940298
 20
13.4110818919
 30
0.0
 10
14.6243108144
 20
13.4110254199
 30
0.0
 10
14.6228803798
 20
13.4108855266
 30
0.0
 10
14.6215122524
 20
13.4106631114
 30
0.0
 10
14.6202155774
 20
13.4103596175
 30
0.0
 10
14.6189989949
 20
13.4099769733
 30
0.0
 10
14.6178706592
 20
13.4095175879
 30
0.0
 10
14.6168380157
 20
13.4089843177
 30
0.0
 10
14.6159082877
 20
13.4083805488
 30
0.0
 10
14.6153491943
 20
13.4079236037
 30
0.0
 10
14.6150908989
 20
13.4076848075
 30
0.0
  0
SPLINE
  5
2D8
100
AcDbEntity
  8
LAYER_FEATURE
100
AcDbSpline
 62
7
  6
CONTINUOUS
 70
0
 71
3
 72
11
 73
7
 74
0
 42
0.0000001
 43
0.0000001
 44
0.0000000001
 40
0.0
 40
0.0
 40
0.0
 40
0.0
 40
0.2444501596
 40
0.4922975992
 40
0.744006234
 40
1.0
 40
1.0
 40
1.0
 40
1.0
 10
14.5516733991
 20
13.3350669157
 30
0.0
 10
14.5561459114
 20
13.3415435578
 30
0.0
 10
14.5655377493
 20
13.3543255291
 30
0.0
 10
14.5808033447
 20
13.3728027932
 30
0.0
 10
14.597316271
 20
13.3906831443
 30
0.0
 10
14.6090385772
 20
13.402089387
 30
0.0
 10
14.6150908989
 20
13.4076848075
 30
0.0
  0
LINE
  5
2D9
100
AcDbEntity
  8
LAYER_FEATURE
100
AcDbLine
 62
7
  6
CONTINUOUS
 10
14.5516733991
 20
13.3350669157
 11
14.5507720647
 21
13.3332219366
  0
SPLINE
  5
2DA
100
AcDbEntity
  8
LAYER_FEATURE
100
AcDbSpline
 62
7
  6
CONTINUOUS
 70
0
 71
3
 72
22
 73
18
 74
0
 42
0.0000001
 43
0.0000001
 44
0.0000000001
 40
0.0
 40
0.0
 40
0.0
 40
0.0
 40
0.1574295534
 40
0.2336098474
 40
0.3077030378
 40
0.379455321
 40
0.4486574383
 40
0.5151481279
 40
0.578821269
 40
0.6396364529
 40
0.6976292609
 40
0.7529210641
 40
0.8057288765
 40
0.8563724745
 40
0.905272768
 40
0.9529534637
 40
1.0
 40
1.0
 40
1.0
 40
1.0
 10
14.5167023844
 20
13.231677599
 30
0.0
 10
14.5156697321
 20
13.2318288128
 30
0.0
 10
14.5141248774
 20
13.2319800514
 30
0.0
 10
14.512084581
 20
13.2320165257
 30
0.0
 10
14.5106128739
 20
13.2319611347
 30
0.0
 10
14.50919301
 20
13.2318236313
 30
0.0
 10
14.5078342806
 20
13.2316049013
 30
0.0
 10
14.5065456311
 20
13.2313063408
 30
0.0
 10
14.5053355173
 20
13.2309298169
 30
0.0
 10
14.5042118904
 20
13.2304776654
 30
0.0
 10
14.5031821457
 20
13.2299526757
 30
0.0
 10
14.5022531244
 20
13.2293580455
 30
0.0
 10
14.5014311253
 20
13.2286973598
 30
0.0
 10
14.5007219523
 20
13.2279746706
 30
0.0
 10
14.5001307313
 20
13.2271945016
 30
0.0
 10
14.4996621945
 20
13.2263622448
 30
0.0
 10
14.4994334103
 20
13.2257747202
 30
0.0
 10
14.4993413171
 20
13.2254767358
 30
0.0
  0
ENDSEC
  0
SECTION
  2
OBJECTS
  0
DICTIONARY
  5
C
100
AcDbDictionary
280
0
281
1
  3
ACAD_GROUP
350
D
  3
ACAD_MLINESTYLE
350
17
  3
ACAD_LAYOUT
350
1A
  3
ACAD_PLOTSETTINGS
350
19
  3
ACAD_PLOTSTYLENAME
350
E
  0
DICTIONARY
  5
D
102
{ACAD_REACTORS
330
C
102
}
100
AcDbDictionary
280
0
281
1
  0
ACDBDICTIONARYWDFLT
  5
E
102
{ACAD_REACTORS
330
C
102
}
100
AcDbDictionary
281
1
  3
Normal
350
F
100
AcDbDictionaryWithDefault
340
F
  0
DICTIONARY
  5
17
102
{ACAD_REACTORS
330
C
102
}
100
AcDbDictionary
280
0
281
1
  3
Standard
350
18
  0
DICTIONARY
  5
19
102
{ACAD_REACTORS
330
C
102
}
100
AcDbDictionary
281
1
  0
DICTIONARY
  5
1A
102
{ACAD_REACTORS
330
C
102
}
100
AcDbDictionary
281
1
  3
Model
350
2DB
  3
Layout1
350
2DC
  0
ACDBPLACEHOLDER
  5
F
102
{ACAD_REACTORS
330
E
102
}
  0
MLINESTYLE
  5
18
102
{ACAD_REACTORS
330
17
102
}
100
AcDbMlineStyle
  2
STANDARD
 70
0
  3

 62
256
 51
90.0
 52
90.0
 71
2
 49
0.5
 62
256
  6
BYLAYER
 49
-0.5
 62
256
  6
BYLAYER
  0
LAYOUT
  5
2DB
102
{ACAD_REACTORS
330
1A
102
}
100
AcDbPlotSettings
  1

  2
none_device
  4
ANSI_C_(22.00_x_17.00_Inches)
  6

 40
0.0
 41
0.0
 42
0.0
 43
0.0
 44
558.8
 45
431.8
 46
0.0
 47
0.0
 48
0.0
 49
0.0
140
0.0
141
0.0
142
1.0
143
1.0
 70
1024
 72
0
 73
0
 74
0
  7

 75
0
147
1.0
148
0.0
149
0.0
100
AcDbLayout
  1
Model
 70
0
 71
0
 10
0.0
 20
0.0
 11
22.0
 21
17.0
 12
0.0
 22
0.0
 32
0.0
 14
0.0
 24
0.0
 34
0.0
 15
0.0
 25
0.0
 35
0.0
146
0.0
 13
0.0
 23
0.0
 33
0.0
 16
1.0
 26
0.0
 36
0.0
 17
0.0
 27
1.0
 37
0.0
 76
0
330
222
345
0
346
0
  0
LAYOUT
  5
2DC
102
{ACAD_REACTORS
330
1A
102
}
100
AcDbPlotSettings
  1

  2
none_device
  4
ANSI_C_(22.00_x_17.00_Inches)
  6

 40
0.0
 41
0.0
 42
0.0
 43
0.0
 44
558.8
 45
431.8
 46
0.0
 47
0.0
 48
0.0
 49
0.0
140
0.0
141
0.0
142
1.0
143
1.0
 70
0
 72
0
 73
0
 74
0
  7

 75
0
147
1.0
148
0.0
149
0.0
100
AcDbLayout
  1
Layout1
 70
0
 71
1
 10
0.0
 20
0.0
 11
22.0
 21
17.0
 12
0.0
 22
0.0
 32
0.0
 14
0.0
 24
0.0
 34
0.0
 15
0.0
 25
0.0
 35
0.0
146
0.0
 13
0.0
 23
0.0
 33
0.0
 16
1.0
 26
0.0
 36
0.0
 17
0.0
 27
1.0
 37
0.0
 76
0
330
223
345
0
346
0
  0
ENDSEC
  0
EOF