999
DXF file: _cgs_temp_output.dxf
999
Pro/ENGINEER 2016360 by Parametric Technology Corporation
  0
SECTION
  2
HEADER
  9
$ACADVER
  1
AC1021
  9
$DWGCODEPAGE
  3
ANSI_1252
  9
$EXTMAX
 10
22.0
 20
17.0
 30
0.0
  9
$EXTMIN
 10
0.0
 20
0.0
 30
0.0
  9
$LIMMIN
 10
0.0
 20
0.0
  9
$LIMMAX
 10
22.0
 20
17.0
  9
$VIEWCTR
 10
11.0
 20
8.5
  9
$VIEWSIZE
 40
17.0
  9
$CLAYER
  8
0
  9
$LTSCALE
 40
1.21
  9
$CELTYPE
  6
BYLAYER
  9
$DIMSCALE
 40
1.0
  9
$DIMASZ
 40
0.1875
  9
$DIMEXO
 40
0.0625
  9
$DIMDLI
 40
0.836
  9
$DIMEXE
 40
0.125
  9
$DIMCEN
 40
0.198
  9
$DIMLFAC
 40
1.0
  9
$DIMBLK
  1
_CLOSED
  9
$DIMALT
 70
0
  9
$DIMALTF
 40
25.4
  9
$DIMTXT
 40
0.15625
  9
$DIMTOL
 70
0
  9
$DIMLIM
 70
0
  9
$DIMTFAC
 40
1.0
  9
$DIMGAP
 40
0.09
  9
$DIMDSEP
 70
46
  9
$AUNITS
 70
0
  9
$PDMODE
 70
3
  9
$PDSIZE
 40
0.3125
  9
$HANDSEED
  5
2D6
  9
$TILEMODE
 70
1
  9
$MEASUREMENT
 70
0
  9
$INSUNITS
 70
1
  0
ENDSEC
  0
SECTION
  2
CLASSES
  0
CLASS
  1
ACDBDICTIONARYWDFLT
  2
AcDbDictionaryWithDefault
  3
AutoCAD 2000
 90
0
 91
1
280
0
281
0
  0
CLASS
  1
ACDBPLACEHOLDER
  2
AcDbPlaceHolder
  3
AutoCAD 2000
 90
0
 91
1
280
0
281
0
  0
CLASS
  1
LAYOUT
  2
AcDbLayout
  3
AutoCAD 2000
 90
0
 91
0
280
0
281
0
  0
ENDSEC
  0
SECTION
  2
TABLES
  0
TABLE
  2
VPORT
  5
8
100
AcDbSymbolTable
 70
2
  0
VPORT
  5
1F4
100
AcDbSymbolTableRecord
100
AcDbViewportTableRecord
  2
*ACTIVE
 70
0
 10
0.0
 20
0.0
 11
1.0
 21
1.0
 12
11.0
 22
8.5
 13
0.0
 23
0.0
 14
1.0
 24
1.0
 15
0.0
 25
0.0
 16
0.0
 26
0.0
 36
1.0
 17
0.0
 27
0.0
 37
0.0
 40
17.0
 41
1.2941176471
 42
50.0
 43
0.0
 44
0.0
 50
0.0
 51
0.0
 71
0
 72
100
 73
1
 74
1
 75
0
 76
0
 77
0
 78
0
  0
ENDTAB
  0
TABLE
  2
LTYPE
  5
5
100
AcDbSymbolTable
 70
6
  0
LTYPE
  5
14
100
AcDbSymbolTableRecord
100
AcDbLinetypeTableRecord
  2
BYBLOCK
 70
0
  3

 72
65
 73
0
 40
0.0
  0
LTYPE
  5
15
100
AcDbSymbolTableRecord
100
AcDbLinetypeTableRecord
  2
BYLAYER
 70
0
  3

 72
65
 73
0
 40
0.0
  0
LTYPE
  5
16
100
AcDbSymbolTableRecord
100
AcDbLinetypeTableRecord
  2
CONTINUOUS
 70
64
  3
Solid line
 72
65
 73
0
 40
0.0
  0
LTYPE
  5
1F5
100
AcDbSymbolTableRecord
100
AcDbLinetypeTableRecord
  2
CENTER
 70
64
  3
____ _ ____ _ ____ _ ____ _ ____ _ ____ _ ____
 72
65
 73
4
 40
0.6
 49
0.375
 74
0
 49
-0.075
 74
0
 49
0.075
 74
0
 49
-0.075
 74
0
  0
LTYPE
  5
1F6
100
AcDbSymbolTableRecord
100
AcDbLinetypeTableRecord
  2
HIDDEN
 70
64
  3
- - - - - - - - - - - - - - - - - - - -
 72
65
 73
2
 40
0.2
 49
0.1
 74
0
 49
-0.1
 74
0
  0
LTYPE
  5
1F7
100
AcDbSymbolTableRecord
100
AcDbLinetypeTableRecord
  2
PHANTOM
 70
64
  3
_____ _ _ _____ _ _ _____ _ _ _____
 72
65
 73
6
 40
0.8
 49
0.45
 74
0
 49
-0.05
 74
0
 49
0.1
 74
0
 49
-0.05
 74
0
 49
0.1
 74
0
 49
-0.05
 74
0
  0
LTYPE
  5
1F8
100
AcDbSymbolTableRecord
100
AcDbLinetypeTableRecord
  2
DOT
 70
64
  3
. . . . . . . . . . . . . . . . . . . .
 72
65
 73
2
 40
0.2
 49
0.1
 74
0
 49
-0.1
 74
0
  0
LTYPE
  5
1F9
100
AcDbSymbolTableRecord
100
AcDbLinetypeTableRecord
  2
DASHED
 70
64
  3
- - - - - - - - - - - - - - - - - - - -
 72
65
 73
2
 40
0.2
 49
0.1
 74
0
 49
-0.1
 74
0
  0
ENDTAB
  0
TABLE
  2
LAYER
  5
2
100
AcDbSymbolTable
 70
36
  0
LAYER
  5
10
100
AcDbSymbolTableRecord
100
AcDbLayerTableRecord
  2
0
 70
0
 62
7
  6
CONTINUOUS
370
-3
390
F
  0
LAYER
  5
1FA
100
AcDbSymbolTableRecord
100
AcDbLayerTableRecord
  2
DEFAULT_1
 70
0
 62
7
  6
CENTER
370
-3
390
F
  0
LAYER
  5
1FB
100
AcDbSymbolTableRecord
100
AcDbLayerTableRecord
  2
DEFAULT_2
 70
0
 62
8
  6
HIDDEN
370
-3
390
F
  0
LAYER
  5
1FC
100
AcDbSymbolTableRecord
100
AcDbLayerTableRecord
  2
DEFAULT_3
 70
0
 62
7
  6
PHANTOM
370
-3
390
F
  0
LAYER
  5
1FD
100
AcDbSymbolTableRecord
100
AcDbLayerTableRecord
  2
01_ALL_DTM_PLN
 70
0
 62
7
  6
CONTINUOUS
370
-3
390
F
  0
LAYER
  5
1FE
100
AcDbSymbolTableRecord
100
AcDbLayerTableRecord
  2
01__ASM_ALL_DTM_PLN
 70
0
 62
7
  6
CONTINUOUS
370
-3
390
F
  0
LAYER
  5
1FF
100
AcDbSymbolTableRecord
100
AcDbLayerTableRecord
  2
01__ASM_DEF_DTM_PLN
 70
0
 62
7
  6
CONTINUOUS
370
-3
390
F
  0
LAYER
  5
200
100
AcDbSymbolTableRecord
100
AcDbLayerTableRecord
  2
01___PRT_ALL_DTM_PLN
 70
0
 62
7
  6
CONTINUOUS
370
-3
390
F
  0
LAYER
  5
201
100
AcDbSymbolTableRecord
100
AcDbLayerTableRecord
  2
01___PRT_DEF_DTM_PLN
 70
0
 62
7
  6
CONTINUOUS
370
-3
390
F
  0
LAYER
  5
202
100
AcDbSymbolTableRecord
100
AcDbLayerTableRecord
  2
02_ALL_AXES
 70
0
 62
7
  6
CONTINUOUS
370
-3
390
F
  0
LAYER
  5
203
100
AcDbSymbolTableRecord
100
AcDbLayerTableRecord
  2
02__ASM_ALL_AXES
 70
0
 62
7
  6
CONTINUOUS
370
-3
390
F
  0
LAYER
  5
204
100
AcDbSymbolTableRecord
100
AcDbLayerTableRecord
  2
02___PRT_ALL_AXES
 70
0
 62
7
  6
CONTINUOUS
370
-3
390
F
  0
LAYER
  5
205
100
AcDbSymbolTableRecord
100
AcDbLayerTableRecord
  2
03_ALL_CURVES
 70
0
 62
7
  6
CONTINUOUS
370
-3
390
F
  0
LAYER
  5
206
100
AcDbSymbolTableRecord
100
AcDbLayerTableRecord
  2
03__ASM_ALL_CURVES
 70
0
 62
7
  6
CONTINUOUS
370
-3
390
F
  0
LAYER
  5
207
100
AcDbSymbolTableRecord
100
AcDbLayerTableRecord
  2
03___PRT_ALL_CURVES
 70
0
 62
7
  6
CONTINUOUS
370
-3
390
F
  0
LAYER
  5
208
100
AcDbSymbolTableRecord
100
AcDbLayerTableRecord
  2
04_ALL_DTM_PNT
 70
0
 62
7
  6
CONTINUOUS
370
-3
390
F
  0
LAYER
  5
209
100
AcDbSymbolTableRecord
100
AcDbLayerTableRecord
  2
04__ASM_ALL_DTM_PNT
 70
0
 62
7
  6
CONTINUOUS
370
-3
390
F
  0
LAYER
  5
20A
100
AcDbSymbolTableRecord
100
AcDbLayerTableRecord
  2
04___PRT_ALL_DTM_PNT
 70
0
 62
7
  6
CONTINUOUS
370
-3
390
F
  0
LAYER
  5
20B
100
AcDbSymbolTableRecord
100
AcDbLayerTableRecord
  2
05_ALL_DTM_CSYS
 70
0
 62
7
  6
CONTINUOUS
370
-3
390
F
  0
LAYER
  5
20C
100
AcDbSymbolTableRecord
100
AcDbLayerTableRecord
  2
05__ASM_ALL_DTM_CSYS
 70
0
 62
7
  6
CONTINUOUS
370
-3
390
F
  0
LAYER
  5
20D
100
AcDbSymbolTableRecord
100
AcDbLayerTableRecord
  2
05__ASM_DEF_DTM_CSYS
 70
0
 62
7
  6
CONTINUOUS
370
-3
390
F
  0
LAYER
  5
20E
100
AcDbSymbolTableRecord
100
AcDbLayerTableRecord
  2
05___PRT_ALL_DTM_CSYS
 70
0
 62
7
  6
CONTINUOUS
370
-3
390
F
  0
LAYER
  5
20F
100
AcDbSymbolTableRecord
100
AcDbLayerTableRecord
  2
05___PRT_DEF_DTM_CSYS
 70
0
 62
7
  6
CONTINUOUS
370
-3
390
F
  0
LAYER
  5
210
100
AcDbSymbolTableRecord
100
AcDbLayerTableRecord
  2
06_ALL_SURFS
 70
0
 62
7
  6
CONTINUOUS
370
-3
390
F
  0
LAYER
  5
211
100
AcDbSymbolTableRecord
100
AcDbLayerTableRecord
  2
06__ASM_ALL_SURFS
 70
0
 62
7
  6
CONTINUOUS
370
-3
390
F
  0
LAYER
  5
212
100
AcDbSymbolTableRecord
100
AcDbLayerTableRecord
  2
06___PRT_ALL_SURFS
 70
0
 62
7
  6
CONTINUOUS
370
-3
390
F
  0
LAYER
  5
213
100
AcDbSymbolTableRecord
100
AcDbLayerTableRecord
  2
07__ASM_ALL_SKELETONS
 70
0
 62
7
  6
CONTINUOUS
370
-3
390
F
  0
LAYER
  5
214
100
AcDbSymbolTableRecord
100
AcDbLayerTableRecord
  2
LAYER_AXIS
 70
0
 62
7
  6
CONTINUOUS
370
-3
390
F
  0
LAYER
  5
215
100
AcDbSymbolTableRecord
100
AcDbLayerTableRecord
  2
LAYER_CHAMFER_FEAT
 70
0
 62
7
  6
CONTINUOUS
370
-3
390
F
  0
LAYER
  5
216
100
AcDbSymbolTableRecord
100
AcDbLayerTableRecord
  2
LAYER_CUT_FEAT
 70
0
 62
7
  6
CONTINUOUS
370
-3
390
F
  0
LAYER
  5
217
100
AcDbSymbolTableRecord
100
AcDbLayerTableRecord
  2
LAYER_DIM
 70
0
 62
7
  6
CONTINUOUS
370
-3
390
F
  0
LAYER
  5
218
100
AcDbSymbolTableRecord
100
AcDbLayerTableRecord
  2
LAYER_FEATURE
 70
0
 62
7
  6
CONTINUOUS
370
-3
390
F
  0
LAYER
  5
219
100
AcDbSymbolTableRecord
100
AcDbLayerTableRecord
  2
LAYER_GEOM_FEAT
 70
0
 62
7
  6
CONTINUOUS
370
-3
390
F
  0
LAYER
  5
21A
100
AcDbSymbolTableRecord
100
AcDbLayerTableRecord
  2
LAYER_NOGEOM_FEAT
 70
0
 62
7
  6
CONTINUOUS
370
-3
390
F
  0
LAYER
  5
21B
100
AcDbSymbolTableRecord
100
AcDbLayerTableRecord
  2
LAYER_PARAMETER_DIM
 70
0
 62
7
  6
CONTINUOUS
370
-3
390
F
  0
LAYER
  5
21C
100
AcDbSymbolTableRecord
100
AcDbLayerTableRecord
  2
LAYER_PROTRUSION_FEAT
 70
0
 62
7
  6
CONTINUOUS
370
-3
390
F
  0
ENDTAB
  0
TABLE
  2
STYLE
  5
3
100
AcDbSymbolTable
 70
1
  0
STYLE
  5
11
100
AcDbSymbolTableRecord
100
AcDbTextStyleTableRecord
  2
STANDARD
 70
0
 40
0.0
 41
0.8
 50
0.0
 71
0
 42
0.2
  3
txt
  4

  0
STYLE
  5
21D
100
AcDbSymbolTableRecord
100
AcDbTextStyleTableRecord
  2
TEXTSTYLE_1
 70
0
 40
0.0
 41
0.8
 50
0.0
 71
0
 42
0.2
  3
gdt
  4

  0
ENDTAB
  0
TABLE
  2
VIEW
  5
6
100
AcDbSymbolTable
 70
0
  0
ENDTAB
  0
TABLE
  2
UCS
  5
7
100
AcDbSymbolTable
 70
0
  0
ENDTAB
  0
TABLE
  2
APPID
  5
9
100
AcDbSymbolTable
 70
1
  0
APPID
  5
21E
100
AcDbSymbolTableRecord
100
AcDbRegAppTableRecord
  2
ACAD
 70
0
  0
ENDTAB
  0
TABLE
  2
BLOCK_RECORD
  5
1
100
AcDbSymbolTable
 70
0
  0
BLOCK_RECORD
  5
21F
100
AcDbSymbolTableRecord
100
AcDbBlockTableRecord
  2
*Model_Space
  0
BLOCK_RECORD
  5
220
100
AcDbSymbolTableRecord
100
AcDbBlockTableRecord
  2
*Paper_Space
  0
ENDTAB
  0
TABLE
  2
DIMSTYLE
  5
A
100
AcDbSymbolTable
 70
1
100
AcDbDimStyleTable
 71
0
  0
DIMSTYLE
105
221
100
AcDbSymbolTableRecord
100
AcDbDimStyleTableRecord
  2
STANDARD
 70
0
  3

  4

 40
1.0
 41
0.1875
 42
0.0625
 43
0.38
 44
0.125
 45
0.0
 46
0.0
 47
0.0001
 48
0.0001
140
0.15625
141
0.09
142
0.0
143
25.4
144
1.0
145
0.0
146
1.0
147
0.09
 71
0.0
 72
0.0
 73
1
 74
1
 75
0
 76
0
 77
0
 78
4
 79
1
170
0
171
3
172
0
173
0
174
0
175
0
176
0
177
0
178
0
270
2
179
4
271
4
272
4
273
2
274
2
275
0
280
0
281
0
282
0
283
1
284
4
285
0
286
0
287
3
288
0
340
11
278
46
  0
ENDTAB
  0
ENDSEC
  0
SECTION
  2
BLOCKS
  0
BLOCK
  5
20
100
AcDbEntity
  8
0
100
AcDbBlockBegin
  2
*Model_Space
 70
0
 10
0.0
 20
0.0
 30
0.0
  3
*Model_Space
  1

  0
ENDBLK
  5
21
100
AcDbEntity
  8
0
100
AcDbBlockEnd
  0
BLOCK
  5
1C
100
AcDbEntity
  8
0
100
AcDbBlockBegin
  2
*Paper_Space
 70
0
 10
0.0
 20
0.0
 30
0.0
  3
*Paper_Space
  1

  0
ENDBLK
  5
1D
100
AcDbEntity
  8
0
100
AcDbBlockEnd
  0
ENDSEC
  0
SECTION
  2
ENTITIES
  0
MTEXT
  5
222
100
AcDbEntity
  8
0
100
AcDbMText
 62
7
  6
CONTINUOUS
  7
STANDARD
 71
1
 72
1
 10
15.9560215477
 20
0.9479130325
 30
0.0
 11
1.0
 21
0.0
 31
0.0
 44
0.9
  1
SCALE: 1:0.500
 40
0.3
 41
3.36
  0
LINE
  5
223
100
AcDbEntity
  8
0
100
AcDbLine
 62
7
  6
CONTINUOUS
 10
0.0
 20
0.0
 11
0.0
 21
17.0
  0
LINE
  5
224
100
AcDbEntity
  8
0
100
AcDbLine
 62
7
  6
CONTINUOUS
 10
0.0
 20
0.0
 11
22.0
 21
0.0
  0
LINE
  5
225
100
AcDbEntity
  8
0
100
AcDbLine
 62
7
  6
CONTINUOUS
 10
0.0
 20
17.0
 11
22.0
 21
17.0
  0
LINE
  5
226
100
AcDbEntity
  8
0
100
AcDbLine
 62
7
  6
CONTINUOUS
 10
22.0
 20
0.0
 11
22.0
 21
17.0
  0
LINE
  5
227
100
AcDbEntity
  8
LAYER_FEATURE
100
AcDbLine
 62
7
  6
CONTINUOUS
 10
7.2658672762
 20
3.6401198968
 11
7.2045268405
 21
3.6401198968
  0
LINE
  5
228
100
AcDbEntity
  8
LAYER_FEATURE
100
AcDbLine
 62
7
  6
CONTINUOUS
 10
4.4568672762
 20
3.6401198968
 11
4.5182077119
 21
3.6401198968
  0
LINE
  5
229
100
AcDbEntity
  8
LAYER_FEATURE
100
AcDbLine
 62
7
  6
CONTINUOUS
 10
4.4568672762
 20
7.4001198968
 11
4.4568672762
 21
3.6401198968
  0
LINE
  5
22A
100
AcDbEntity
  8
02___PRT_ALL_AXES
100
AcDbLine
 62
7
  6
CONTINUOUS
 10
4.5388672762
 20
3.8371198968
 11
7.1838672762
 21
3.8371198968
  0
LINE
  5
22B
100
AcDbEntity
  8
LAYER_FEATURE
100
AcDbLine
 62
7
  6
CONTINUOUS
 10
4.5182077119
 20
7.4001198968
 11
4.5182077119
 21
3.6401198968
  0
LINE
  5
22C
100
AcDbEntity
  8
LAYER_FEATURE
100
AcDbLine
 62
7
  6
CONTINUOUS
 10
4.5388672762
 20
7.3029242885
 11
4.5388672762
 21
3.737315505
  0
LINE
  5
22D
100
AcDbEntity
  8
02___PRT_ALL_AXES
100
AcDbLine
 62
7
  6
CONTINUOUS
 10
7.2658672762
 20
4.0476198968
 11
7.7723672762
 21
4.0476198968
  0
LINE
  5
22E
100
AcDbEntity
  8
LAYER_FEATURE
100
AcDbLine
 62
7
  6
CONTINUOUS
 10
4.5182077119
 20
3.6401198968
 11
4.5388672762
 21
3.737315505
  0
LINE
  5
22F
100
AcDbEntity
  8
LAYER_FEATURE
100
AcDbLine
 62
7
  6
CONTINUOUS
 10
4.5182077119
 20
7.4001198968
 11
4.5388672762
 21
7.3029242885
  0
LINE
  5
230
100
AcDbEntity
  8
LAYER_FEATURE
100
AcDbLine
 62
7
  6
CONTINUOUS
 10
7.2045268405
 20
7.4001198968
 11
7.1838672762
 21
7.3029242885
  0
LINE
  5
231
100
AcDbEntity
  8
LAYER_FEATURE
100
AcDbLine
 62
7
  6
CONTINUOUS
 10
7.2045268405
 20
3.6401198968
 11
7.1838672762
 21
3.737315505
  0
LINE
  5
232
100
AcDbEntity
  8
LAYER_FEATURE
100
AcDbLine
 62
7
  6
CONTINUOUS
 10
7.1838672762
 20
7.3029242885
 11
7.1838672762
 21
3.737315505
  0
LINE
  5
233
100
AcDbEntity
  8
LAYER_FEATURE
100
AcDbLine
 62
7
  6
CONTINUOUS
 10
7.2045268405
 20
7.4001198968
 11
7.2045268405
 21
3.6401198968
  0
LINE
  5
234
100
AcDbEntity
  8
LAYER_FEATURE
100
AcDbLine
 62
7
  6
CONTINUOUS
 10
7.2658672762
 20
7.4001198968
 11
7.2658672762
 21
3.6401198968
  0
LINE
  5
235
100
AcDbEntity
  8
LAYER_FEATURE
100
AcDbLine
 62
7
  6
CONTINUOUS
 10
4.5388672762
 20
6.9540724964
 11
7.1838672762
 21
6.9540724964
  0
LINE
  5
236
100
AcDbEntity
  8
LAYER_CUT_FEAT
100
AcDbLine
 62
7
  6
CONTINUOUS
 10
4.5388672762
 20
6.9562656909
 11
7.1838672762
 21
6.9562656909
  0
LINE
  5
237
100
AcDbEntity
  8
02___PRT_ALL_AXES
100
AcDbLine
 62
7
  6
CONTINUOUS
 10
7.2658672762
 20
6.9926198968
 11
7.7723672762
 21
6.9926198968
  0
LINE
  5
238
100
AcDbEntity
  8
LAYER_CHAMFER_FEAT
100
AcDbLine
 62
7
  6
CONTINUOUS
 10
7.7723672762
 20
6.9926198968
 11
7.7723672762
 21
4.0476198968
  0
LINE
  5
239
100
AcDbEntity
  8
LAYER_CHAMFER_FEAT
100
AcDbLine
 62
7
  6
CONTINUOUS
 10
7.8038672762
 20
6.9611198968
 11
7.8038672762
 21
4.0791198968
  0
LINE
  5
23A
100
AcDbEntity
  8
LAYER_FEATURE
100
AcDbLine
 62
7
  6
CONTINUOUS
 10
4.5388672762
 20
7.059797018
 11
7.1838672762
 21
7.059797018
  0
LINE
  5
23B
100
AcDbEntity
  8
LAYER_FEATURE
100
AcDbLine
 62
7
  6
CONTINUOUS
 10
4.5388672762
 20
7.0768353519
 11
7.1838672762
 21
7.0768353519
  0
LINE
  5
23C
100
AcDbEntity
  8
LAYER_CUT_FEAT
100
AcDbLine
 62
7
  6
CONTINUOUS
 10
4.5388672762
 20
7.0778207341
 11
7.1838672762
 21
7.0778207341
  0
LINE
  5
23D
100
AcDbEntity
  8
LAYER_FEATURE
100
AcDbLine
 62
7
  6
CONTINUOUS
 10
4.5388672762
 20
7.1488773205
 11
7.1838672762
 21
7.1488773205
  0
LINE
  5
23E
100
AcDbEntity
  8
LAYER_FEATURE
100
AcDbLine
 62
7
  6
CONTINUOUS
 10
4.5388672762
 20
7.1592800948
 11
7.1838672762
 21
7.1592800948
  0
LINE
  5
23F
100
AcDbEntity
  8
LAYER_CUT_FEAT
100
AcDbLine
 62
7
  6
CONTINUOUS
 10
4.5388672762
 20
7.1595280458
 11
7.1838672762
 21
7.1595280458
  0
LINE
  5
240
100
AcDbEntity
  8
LAYER_FEATURE
100
AcDbLine
 62
7
  6
CONTINUOUS
 10
4.5388672762
 20
7.1957736612
 11
7.1838672762
 21
7.1957736612
  0
LINE
  5
241
100
AcDbEntity
  8
LAYER_FEATURE
100
AcDbLine
 62
7
  6
CONTINUOUS
 10
4.5388672762
 20
7.1992714496
 11
7.1838672762
 21
7.1992714496
  0
LINE
  5
242
100
AcDbEntity
  8
LAYER_FEATURE
100
AcDbLine
 62
7
  6
CONTINUOUS
 10
7.2658672762
 20
7.4001198968
 11
7.2045268405
 21
7.4001198968
  0
LINE
  5
243
100
AcDbEntity
  8
LAYER_FEATURE
100
AcDbLine
 62
7
  6
CONTINUOUS
 10
4.4568672762
 20
7.4001198968
 11
4.5182077119
 21
7.4001198968
  0
LINE
  5
244
100
AcDbEntity
  8
LAYER_CHAMFER_FEAT
100
AcDbLine
 62
7
  6
CONTINUOUS
 10
7.7723672762
 20
4.0476198968
 11
7.8038672762
 21
4.0791198968
  0
LINE
  5
245
100
AcDbEntity
  8
LAYER_CHAMFER_FEAT
100
AcDbLine
 62
7
  6
CONTINUOUS
 10
7.7723672762
 20
6.9926198968
 11
7.8038672762
 21
6.9611198968
  0
LINE
  5
246
100
AcDbEntity
  8
LAYER_FEATURE
100
AcDbLine
 62
7
  6
CONTINUOUS
 10
4.3973720839
 20
10.7200477814
 11
4.4587125196
 21
10.7200477814
  0
LINE
  5
247
100
AcDbEntity
  8
LAYER_FEATURE
100
AcDbLine
 62
7
  6
CONTINUOUS
 10
7.1450316482
 20
10.7200477814
 11
7.2063720839
 21
10.7200477814
  0
LINE
  5
248
100
AcDbEntity
  8
LAYER_FEATURE
100
AcDbLine
 62
7
  6
CONTINUOUS
 10
4.3973720839
 20
10.7200477814
 11
4.3973720839
 21
14.4800477814
  0
LINE
  5
249
100
AcDbEntity
  8
02___PRT_ALL_AXES
100
AcDbLine
 62
7
  6
CONTINUOUS
 10
4.4793720839
 20
10.9170477814
 11
7.1243720839
 21
10.9170477814
  0
LINE
  5
24A
100
AcDbEntity
  8
LAYER_FEATURE
100
AcDbLine
 62
7
  6
CONTINUOUS
 10
4.4587125196
 20
10.7200477814
 11
4.4587125196
 21
14.4800477814
  0
LINE
  5
24B
100
AcDbEntity
  8
LAYER_FEATURE
100
AcDbLine
 62
7
  6
CONTINUOUS
 10
4.4793720839
 20
10.8172435183
 11
4.4793720839
 21
14.3828520445
  0
LINE
  5
24C
100
AcDbEntity
  8
LAYER_CHAMFER_FEAT
100
AcDbLine
 62
7
  6
CONTINUOUS
 10
7.2063720839
 20
11.1275477814
 11
7.7128720839
 21
11.1275477814
  0
LINE
  5
24D
100
AcDbEntity
  8
LAYER_FEATURE
100
AcDbLine
 62
7
  6
CONTINUOUS
 10
4.4587125196
 20
10.7200477814
 11
4.4793720839
 21
10.8172433897
  0
LINE
  5
24E
100
AcDbEntity
  8
LAYER_FEATURE
100
AcDbLine
 62
7
  6
CONTINUOUS
 10
4.4587125196
 20
14.4800477814
 11
4.4793720839
 21
14.3828521731
  0
LINE
  5
24F
100
AcDbEntity
  8
LAYER_FEATURE
100
AcDbLine
 62
7
  6
CONTINUOUS
 10
4.4793720839
 20
11.7189865225
 11
7.1243720839
 21
11.7189865225
  0
LINE
  5
250
100
AcDbEntity
  8
LAYER_FEATURE
100
AcDbLine
 62
7
  6
CONTINUOUS
 10
7.1243720839
 20
11.8455184878
 11
4.4793720839
 21
11.8455184878
  0
LINE
  5
251
100
AcDbEntity
  8
LAYER_FEATURE
100
AcDbLine
 62
7
  6
CONTINUOUS
 10
7.1243720839
 20
11.8986458493
 11
4.4793720839
 21
11.8986458493
  0
LINE
  5
252
100
AcDbEntity
  8
LAYER_CUT_FEAT
100
AcDbLine
 62
7
  6
CONTINUOUS
 10
4.4793720839
 20
11.9101787246
 11
7.1243720839
 21
11.9101787246
  0
LINE
  5
253
100
AcDbEntity
  8
LAYER_FEATURE
100
AcDbLine
 62
7
  6
CONTINUOUS
 10
4.4793720839
 20
11.9204277683
 11
7.1243720839
 21
11.9204277683
  0
LINE
  5
254
100
AcDbEntity
  8
LAYER_FEATURE
100
AcDbLine
 62
7
  6
CONTINUOUS
 10
4.4793720839
 20
11.9604182076
 11
7.1243720839
 21
11.9604182076
  0
LINE
  5
255
100
AcDbEntity
  8
LAYER_FEATURE
100
AcDbLine
 62
7
  6
CONTINUOUS
 10
7.1243720839
 20
12.0755471092
 11
4.4793720839
 21
12.0755471092
  0
LINE
  5
256
100
AcDbEntity
  8
LAYER_FEATURE
100
AcDbLine
 62
7
  6
CONTINUOUS
 10
7.1243720839
 20
12.1324592957
 11
4.4793720839
 21
12.1324592957
  0
LINE
  5
257
100
AcDbEntity
  8
LAYER_FEATURE
100
AcDbLine
 62
7
  6
CONTINUOUS
 10
4.4793720839
 20
12.1762102481
 11
7.1243720839
 21
12.1762102481
  0
LINE
  5
258
100
AcDbEntity
  8
LAYER_FEATURE
100
AcDbLine
 62
7
  6
CONTINUOUS
 10
4.4793720839
 20
12.2184159626
 11
7.1243720839
 21
12.2184159626
  0
LINE
  5
259
100
AcDbEntity
  8
LAYER_FEATURE
100
AcDbLine
 62
7
  6
CONTINUOUS
 10
7.1243720839
 20
12.3191600226
 11
4.4793720839
 21
12.3191600226
  0
LINE
  5
25A
100
AcDbEntity
  8
LAYER_FEATURE
100
AcDbLine
 62
7
  6
CONTINUOUS
 10
7.1243720839
 20
12.3783830383
 11
4.4793720839
 21
12.3783830383
  0
LINE
  5
25B
100
AcDbEntity
  8
LAYER_FEATURE
100
AcDbLine
 62
7
  6
CONTINUOUS
 10
4.4793720839
 20
12.4429698974
 11
7.1243720839
 21
12.4429698974
  0
LINE
  5
25C
100
AcDbEntity
  8
LAYER_FEATURE
100
AcDbLine
 62
7
  6
CONTINUOUS
 10
4.4793720839
 20
12.4862977814
 11
7.1243720839
 21
12.4862977814
  0
LINE
  5
25D
100
AcDbEntity
  8
LAYER_FEATURE
100
AcDbLine
 62
7
  6
CONTINUOUS
 10
7.1243720839
 20
12.5700477814
 11
4.4793720839
 21
12.5700477814
  0
LINE
  5
25E
100
AcDbEntity
  8
LAYER_FEATURE
100
AcDbLine
 62
7
  6
CONTINUOUS
 10
7.1243720839
 20
12.6300477814
 11
4.4793720839
 21
12.6300477814
  0
LINE
  5
25F
100
AcDbEntity
  8
LAYER_FEATURE
100
AcDbLine
 62
7
  6
CONTINUOUS
 10
4.4793720839
 20
12.7137977814
 11
7.1243720839
 21
12.7137977814
  0
LINE
  5
260
100
AcDbEntity
  8
LAYER_FEATURE
100
AcDbLine
 62
7
  6
CONTINUOUS
 10
7.1243720839
 20
14.3828521731
 11
7.1450316482
 21
14.4800477814
  0
LINE
  5
261
100
AcDbEntity
  8
LAYER_FEATURE
100
AcDbLine
 62
7
  6
CONTINUOUS
 10
7.1243720839
 20
10.8172433897
 11
7.1450316482
 21
10.7200477814
  0
LINE
  5
262
100
AcDbEntity
  8
LAYER_FEATURE
100
AcDbLine
 62
7
  6
CONTINUOUS
 10
7.1243720839
 20
10.8172435054
 11
7.1243720839
 21
14.3828520573
  0
LINE
  5
263
100
AcDbEntity
  8
LAYER_FEATURE
100
AcDbLine
 62
7
  6
CONTINUOUS
 10
7.1450316482
 20
10.7200477814
 11
7.1450316482
 21
14.4800477814
  0
LINE
  5
264
100
AcDbEntity
  8
LAYER_FEATURE
100
AcDbLine
 62
7
  6
CONTINUOUS
 10
7.2063720839
 20
10.7200477814
 11
7.2063720839
 21
14.4800477814
  0
LINE
  5
265
100
AcDbEntity
  8
LAYER_CHAMFER_FEAT
100
AcDbLine
 62
7
  6
CONTINUOUS
 10
7.2063720839
 20
14.0725477814
 11
7.7128720839
 21
14.0725477814
  0
LINE
  5
266
100
AcDbEntity
  8
LAYER_CHAMFER_FEAT
100
AcDbLine
 62
7
  6
CONTINUOUS
 10
7.7128720839
 20
14.0725477814
 11
7.7128720839
 21
11.1275477814
  0
LINE
  5
267
100
AcDbEntity
  8
LAYER_CHAMFER_FEAT
100
AcDbLine
 62
7
  6
CONTINUOUS
 10
7.7443720839
 20
14.0410477814
 11
7.7443720839
 21
11.1590477814
  0
LINE
  5
268
100
AcDbEntity
  8
02___PRT_ALL_AXES
100
AcDbLine
 62
7
  6
CONTINUOUS
 10
4.4793720839
 20
14.2830477814
 11
7.1243720839
 21
14.2830477814
  0
LINE
  5
269
100
AcDbEntity
  8
LAYER_FEATURE
100
AcDbLine
 62
7
  6
CONTINUOUS
 10
4.3973720839
 20
14.4800477814
 11
4.4587125196
 21
14.4800477814
  0
LINE
  5
26A
100
AcDbEntity
  8
LAYER_FEATURE
100
AcDbLine
 62
7
  6
CONTINUOUS
 10
7.1450316482
 20
14.4800477814
 11
7.2063720839
 21
14.4800477814
  0
LINE
  5
26B
100
AcDbEntity
  8
LAYER_CHAMFER_FEAT
100
AcDbLine
 62
7
  6
CONTINUOUS
 10
7.7443720839
 20
11.1590477814
 11
7.7128720839
 21
11.1275477814
  0
LINE
  5
26C
100
AcDbEntity
  8
LAYER_CHAMFER_FEAT
100
AcDbLine
 62
7
  6
CONTINUOUS
 10
7.7443720839
 20
14.0410477814
 11
7.7128720839
 21
14.0725477814
  0
LINE
  5
26D
100
AcDbEntity
  8
LAYER_FEATURE
100
AcDbLine
 62
7
  6
CONTINUOUS
 10
13.4892125395
 20
12.7732826654
 11
13.4935672831
 21
12.8322313508
  0
LINE
  5
26E
100
AcDbEntity
  8
LAYER_FEATURE
100
AcDbLine
 62
7
  6
CONTINUOUS
 10
13.5133979373
 20
13.0176539738
 11
13.5213786413
 21
13.0740454599
  0
LINE
  5
26F
100
AcDbEntity
  8
LAYER_FEATURE
100
AcDbLine
 62
7
  6
CONTINUOUS
 10
13.5525353064
 20
13.2488981598
 11
13.5639352747
 21
13.3012719367
  0
LINE
  5
270
100
AcDbEntity
  8
LAYER_FEATURE
100
AcDbLine
 62
7
  6
CONTINUOUS
 10
13.6092259288
 20
13.4727240038
 11
13.6201349888
 21
13.508025735
  0
LINE
  5
271
100
AcDbEntity
  8
LAYER_FEATURE
100
AcDbLine
 62
7
  6
CONTINUOUS
 10
14.0151788296
 20
10.6308049929
 11
14.0716771123
 21
10.6308049929
  0
LINE
  5
272
100
AcDbEntity
  8
LAYER_FEATURE
100
AcDbLine
 62
7
  6
CONTINUOUS
 10
16.5459408791
 20
10.6308049929
 11
16.6024391617
 21
10.6308049929
  0
LINE
  5
273
100
AcDbEntity
  8
02___PRT_ALL_AXES
100
AcDbLine
 62
7
  6
CONTINUOUS
 10
14.0907058311
 20
10.8278049929
 11
16.2198933878
 21
10.8278049929
  0
LINE
  5
274
100
AcDbEntity
  8
LAYER_FEATURE
100
AcDbLine
 62
7
  6
CONTINUOUS
 10
13.5096132671
 20
13.132904984
 11
13.4933006429
 21
13.1704562244
  0
LINE
  5
275
100
AcDbEntity
  8
LAYER_FEATURE
100
AcDbLine
 62
7
  6
CONTINUOUS
 10
13.5559990425
 20
13.3642157012
 11
13.5422433794
 21
13.4080002461
  0
LINE
  5
276
100
AcDbEntity
  8
LAYER_FEATURE
100
AcDbLine
 62
7
  6
CONTINUOUS
 10
13.6162334428
 20
13.5734235294
 11
13.6053910053
 21
13.622307382
  0
LINE
  5
277
100
AcDbEntity
  8
02___PRT_ALL_AXES
100
AcDbLine
 62
7
  6
CONTINUOUS
 10
16.6005970398
 20
11.0383049929
 11
17.0689565552
 21
11.0383049929
  0
LINE
  5
278
100
AcDbEntity
  8
LAYER_FEATURE
100
AcDbLine
 62
7
  6
CONTINUOUS
 10
13.4782774839
 20
12.8854822038
 11
13.459830387
 21
12.9158275823
  0
LINE
  5
279
100
AcDbEntity
  8
LAYER_FEATURE
100
AcDbLine
 62
7
  6
CONTINUOUS
 10
13.4458974181
 20
12.7272217154
 11
13.4673906248
 21
12.7381104906
  0
LINE
  5
27A
100
AcDbEntity
  8
02___PRT_ALL_AXES
100
AcDbLine
 62
7
  6
CONTINUOUS
 10
16.5229303712
 20
13.9808372497
 11
16.50605441
 21
13.9749577073
  0
LINE
  5
27B
100
AcDbEntity
  8
02___PRT_ALL_AXES
100
AcDbLine
 62
7
  6
CONTINUOUS
 10
16.5229303712
 20
11.0407727362
 11
16.50605441
 21
11.0466522785
  0
LINE
  5
27C
100
AcDbEntity
  8
LAYER_FEATURE
100
AcDbLine
 62
7
  6
CONTINUOUS
 10
13.4400149938
 20
12.7120052297
 11
15.8180436041
 21
12.7120052297
  0
LINE
  5
27D
100
AcDbEntity
  8
LAYER_FEATURE
100
AcDbLine
 62
7
  6
CONTINUOUS
 10
15.8210919821
 20
12.7732826654
 11
13.4892125395
 21
12.7732826654
  0
LINE
  5
27E
100
AcDbEntity
  8
LAYER_FEATURE
100
AcDbLine
 62
7
  6
CONTINUOUS
 10
15.8247570491
 20
12.8322313508
 11
13.4935672831
 21
12.8322313508
  0
LINE
  5
27F
100
AcDbEntity
  8
LAYER_FEATURE
100
AcDbLine
 62
7
  6
CONTINUOUS
 10
13.4565267301
 20
12.9355189949
 11
15.8327629062
 21
12.9355189949
  0
LINE
  5
280
100
AcDbEntity
  8
LAYER_FEATURE
100
AcDbLine
 62
7
  6
CONTINUOUS
 10
13.4610096636
 20
12.9774357802
 11
15.8368942202
 21
12.9774357802
  0
LINE
  5
281
100
AcDbEntity
  8
LAYER_FEATURE
100
AcDbLine
 62
7
  6
CONTINUOUS
 10
15.8410094115
 20
13.0176539738
 11
13.5133979373
 21
13.0176539738
  0
LINE
  5
282
100
AcDbEntity
  8
LAYER_FEATURE
100
AcDbLine
 62
7
  6
CONTINUOUS
 10
15.8475186941
 20
13.0740454599
 11
13.5213786413
 21
13.0740454599
  0
LINE
  5
283
100
AcDbEntity
  8
LAYER_FEATURE
100
AcDbLine
 62
7
  6
CONTINUOUS
 10
13.4677664416
 20
12.9900320969
 11
13.4896615071
 21
12.9919262688
  0
LINE
  5
284
100
AcDbEntity
  8
LAYER_FEATURE
100
AcDbLine
 62
7
  6
CONTINUOUS
 10
13.4912698329
 20
13.1912534983
 11
15.8636284981
 21
13.1912534983
  0
LINE
  5
285
100
AcDbEntity
  8
LAYER_FEATURE
100
AcDbLine
 62
7
  6
CONTINUOUS
 10
13.4983131333
 20
13.2307808384
 11
15.8697081346
 21
13.2307808384
  0
LINE
  5
286
100
AcDbEntity
  8
LAYER_CUT_FEAT
100
AcDbLine
 62
7
  6
CONTINUOUS
 10
13.5048216789
 20
13.2405859999
 11
15.8713631396
 21
13.2405859999
  0
LINE
  5
287
100
AcDbEntity
  8
LAYER_FEATURE
100
AcDbLine
 62
7
  6
CONTINUOUS
 10
15.8727661422
 20
13.2488981598
 11
13.5525353064
 21
13.2488981598
  0
LINE
  5
288
100
AcDbEntity
  8
LAYER_FEATURE
100
AcDbLine
 62
7
  6
CONTINUOUS
 10
15.8817623694
 20
13.3012719367
 11
13.5639352747
 21
13.3012719367
  0
LINE
  5
289
100
AcDbEntity
  8
LAYER_FEATURE
100
AcDbLine
 62
7
  6
CONTINUOUS
 10
13.5415380131
 20
13.4293647428
 11
15.9071836269
 21
13.4293647428
  0
LINE
  5
28A
100
AcDbEntity
  8
LAYER_FEATURE
100
AcDbLine
 62
7
  6
CONTINUOUS
 10
13.5509592628
 20
13.4654789004
 11
15.9154204199
 21
13.4654789004
  0
LINE
  5
28B
100
AcDbEntity
  8
0
100
AcDbLine
 62
7
  6
CONTINUOUS
 10
13.5567999554
 20
13.4727240038
 11
15.9170728582
 21
13.4727240038
  0
LINE
  5
28C
100
AcDbEntity
  8
LAYER_FEATURE
100
AcDbLine
 62
7
  6
CONTINUOUS
 10
15.9254400133
 20
13.508025735
 11
13.6201349888
 21
13.508025735
  0
LINE
  5
28D
100
AcDbEntity
  8
LAYER_FEATURE
100
AcDbLine
 62
7
  6
CONTINUOUS
 10
13.6060293513
 20
13.6436857724
 11
15.9618655655
 21
13.6436857724
  0
LINE
  5
28E
100
AcDbEntity
  8
02___PRT_ALL_AXES
100
AcDbLine
 62
7
  6
CONTINUOUS
 10
16.6005970398
 20
13.9833049929
 11
17.0689565552
 21
13.9833049929
  0
LINE
  5
28F
100
AcDbEntity
  8
02___PRT_ALL_AXES
100
AcDbLine
 62
7
  6
CONTINUOUS
 10
14.0907058311
 20
14.1938049929
 11
16.2198246683
 21
14.1938049929
  0
LINE
  5
290
100
AcDbEntity
  8
LAYER_FEATURE
100
AcDbLine
 62
7
  6
CONTINUOUS
 10
14.0151788296
 20
14.3908049929
 11
14.0716771123
 21
14.3908049929
  0
LINE
  5
291
100
AcDbEntity
  8
LAYER_FEATURE
100
AcDbLine
 62
7
  6
CONTINUOUS
 10
16.5459408791
 20
14.3908049929
 11
16.6024391617
 21
14.3908049929
  0
LINE
  5
292
100
AcDbEntity
  8
LAYER_CHAMFER_FEAT
100
AcDbLine
 62
7
  6
CONTINUOUS
 10
17.3113940123
 20
11.1763869389
 11
17.3352211655
 21
11.2049330637
  0
LINE
  5
293
100
AcDbEntity
  8
LAYER_CHAMFER_FEAT
100
AcDbLine
 62
7
  6
CONTINUOUS
 10
17.3113940123
 20
13.8452230469
 11
17.3352211655
 21
13.8166769222
  0
CIRCLE
  5
294
100
AcDbEntity
  8
LAYER_FEATURE
100
AcDbCircle
 62
7
  6
CONTINUOUS
 10
15.5603552569
 20
5.4606247044
 40
1.88
  0
CIRCLE
  5
295
100
AcDbEntity
  8
LAYER_FEATURE
100
AcDbCircle
 62
7
  6
CONTINUOUS
 10
15.5603552569
 20
5.4606247044
 40
1.7828043917
  0
CIRCLE
  5
296
100
AcDbEntity
  8
02___PRT_ALL_AXES
100
AcDbCircle
 62
7
  6
CONTINUOUS
 10
15.5603552569
 20
5.4606247044
 40
1.4835
  0
CIRCLE
  5
297
100
AcDbEntity
  8
LAYER_CHAMFER_FEAT
100
AcDbCircle
 62
7
  6
CONTINUOUS
 10
15.5603552569
 20
5.4606247044
 40
1.4725
  0
CIRCLE
  5
298
100
AcDbEntity
  8
LAYER_CHAMFER_FEAT
100
AcDbCircle
 62
7
  6
CONTINUOUS
 10
15.5603552569
 20
5.4606247044
 40
1.441
  0
CIRCLE
  5
299
100
AcDbEntity
  8
02___PRT_ALL_AXES
100
AcDbCircle
 62
7
  6
CONTINUOUS
 10
15.5603552569
 20
5.4606247044
 40
0.375
  0
ARC
  5
29A
100
AcDbEntity
  8
LAYER_FEATURE
100
AcDbCircle
 62
7
  6
CONTINUOUS
 10
17.3722676761
 20
12.5379348509
 40
3.9358735126
100
AcDbArc
 50
173.5886719312
 51
174.2023507998
  0
ARC
  5
29B
100
AcDbEntity
  8
LAYER_FEATURE
100
AcDbCircle
 62
7
  6
CONTINUOUS
 10
16.8391909491
 20
12.6150850829
 40
3.39713789
100
AcDbArc
 50
169.5580313672
 51
170.2352002959
  0
ARC
  5
29C
100
AcDbEntity
  8
LAYER_FEATURE
100
AcDbCircle
 62
7
  6
CONTINUOUS
 10
16.1840093063
 20
12.7592982854
 40
2.7261041053
100
AcDbArc
 50
164.9866624035
 51
165.7710991851
  0
ARC
  5
29D
100
AcDbEntity
  8
LAYER_CHAMFER_FEAT
100
AcDbCircle
 62
7
  6
CONTINUOUS
 10
16.8903844751
 20
13.445689383
 40
0.5792334845
100
AcDbArc
 50
39.8276303156
 51
43.5156850303
  0
ARC
  5
29E
100
AcDbEntity
  8
LAYER_CHAMFER_FEAT
100
AcDbCircle
 62
7
  6
CONTINUOUS
 10
16.9015858758
 20
11.5659507574
 40
0.5642458066
100
AcDbArc
 50
316.4315775968
 51
320.2213461902
  0
SPLINE
  5
29F
100
AcDbEntity
  8
LAYER_CHAMFER_FEAT
100
AcDbSpline
 62
7
  6
CONTINUOUS
 70
0
 71
3
 72
53
 73
49
 74
0
 42
0.0000001
 43
0.0000001
 44
0.0000000001
 40
0.0
 40
0.0
 40
0.0
 40
0.0
 40
0.0101614596
 40
0.0206687206
 40
0.0315254924
 40
0.0427337819
 40
0.0542940559
 40
0.0662053903
 40
0.0784655815
 40
0.0910712476
 40
0.1040179445
 40
0.1173002514
 40
0.1309118309
 40
0.1448455124
 40
0.1590933625
 40
0.1736467283
 40
0.1884962873
 40
0.2036321097
 40
0.2190436973
 40
0.2347200102
 40
0.2668192397
 40
0.2998333655
 40
0.333658542
 40
0.3681855693
 40
0.4033007744
 40
0.4388868208
 40
0.4748235157
 40
0.5109885594
 40
0.5472583003
 40
0.5835084695
 40
0.6196149135
 40
0.655454325
 40
0.6909049895
 40
0.7258475259
 40
0.760165668
 40
0.793747059
 40
0.826484084
 40
0.858274785
 40
0.8737857306
 40
0.8890249439
 40
0.9039817213
 40
0.9186459083
 40
0.9330079519
 40
0.9470589725
 40
0.9607907342
 40
0.9741956978
 40
0.9872675963
 40
1.0
 40
1.0
 40
1.0
 40
1.0
 10
17.3352211635
 20
11.2049330743
 30
0.0
 10
17.3407010891
 20
11.2114982903
 30
0.0
 10
17.351571591
 20
11.2250845186
 30
0.0
 10
17.3673492104
 20
11.2464216971
 30
0.0
 10
17.3828543031
 20
11.2690342933
 30
0.0
 10
17.3980711183
 20
11.2928991405
 30
0.0
 10
17.4129846305
 20
11.3179924151
 30
0.0
 10
17.4275799063
 20
11.3442889076
 30
0.0
 10
17.4418423367
 20
11.3717622284
 30
0.0
 10
17.4557576466
 20
11.4003847526
 30
0.0
 10
17.4693118604
 20
11.4301277076
 30
0.0
 10
17.4824913235
 20
11.4609611877
 30
0.0
 10
17.4952827886
 20
11.492854151
 30
0.0
 10
17.5076733784
 20
11.5257744789
 30
0.0
 10
17.5196505823
 20
11.5596890213
 30
0.0
 10
17.5312023123
 20
11.5945636037
 30
0.0
 10
17.5423169364
 20
11.6303630698
 30
0.0
 10
17.5529832078
 20
11.667051305
 30
0.0
 10
17.5631904043
 20
11.7045914094
 30
0.0
 10
17.576276794
 20
11.7561353659
 30
0.0
 10
17.5913840067
 20
11.8224397391
 30
0.0
 10
17.6073881149
 20
11.9041642805
 30
0.0
 10
17.6213427552
 20
11.9883350566
 30
0.0
 10
17.6331913581
 20
12.0746123673
 30
0.0
 10
17.6428858596
 20
12.162648732
 30
0.0
 10
17.6503870017
 20
12.2520892051
 30
0.0
 10
17.6556643092
 20
12.3425731585
 30
0.0
 10
17.6586964189
 20
12.4337356699
 30
0.0
 10
17.659471017
 20
12.5252090467
 30
0.0
 10
17.6579849483
 20
12.6166243233
 30
0.0
 10
17.654244279
 20
12.7076127718
 30
0.0
 10
17.6482641269
 20
12.7978074104
 30
0.0
 10
17.6400688009
 20
12.886844504
 30
0.0
 10
17.6296914953
 20
12.9743650738
 30
0.0
 10
17.6171743032
 20
13.0600162906
 30
0.0
 10
17.6025679699
 20
13.1434532524
 30
0.0
 10
17.5859316698
 20
13.2243392467
 30
0.0
 10
17.5703073232
 20
13.2898744883
 30
0.0
 10
17.5568178224
 20
13.3407520131
 30
0.0
 10
17.5463203132
 20
13.3777601686
 30
0.0
 10
17.5353704874
 20
13.4138930653
 30
0.0
 10
17.5239793003
 20
13.4491143471
 30
0.0
 10
17.5121582911
 20
13.483388503
 30
0.0
 10
17.4999193802
 20
13.5166810022
 30
0.0
 10
17.4872749278
 20
13.5489582128
 30
0.0
 10
17.4742375864
 20
13.580187936
 30
0.0
 10
17.46082065
 20
13.6103381571
 30
0.0
 10
17.4515081245
 20
13.6299595472
 30
0.0
 10
17.4467875485
 20
13.6395790697
 30
0.0
  0
SPLINE
  5
2A0
100
AcDbEntity
  8
02___PRT_ALL_AXES
100
AcDbSpline
 62
7
  6
CONTINUOUS
 70
0
 71
3
 72
15
 73
11
 74
0
 42
0.0000001
 43
0.0000001
 44
0.0000000001
 40
0.0
 40
0.0
 40
0.0
 40
0.0
 40
0.1268457509
 40
0.2518054357
 40
0.3755413607
 40
0.4987405915
 40
0.6221013273
 40
0.7463184053
 40
0.8720690441
 40
1.0
 40
1.0
 40
1.0
 40
1.0
 10
16.6698269299
 20
11.037995666
 30
0.0
 10
16.6637901237
 20
11.0361244663
 30
0.0
 10
16.6516610669
 20
11.0328586679
 30
0.0
 10
16.6332482016
 20
11.0294238813
 30
0.0
 10
16.6147976318
 20
11.027501051
 30
0.0
 10
16.5963312993
 20
11.0270933149
 30
0.0
 10
16.5778697805
 20
11.0282011283
 30
0.0
 10
16.5594336125
 20
11.0308230563
 30
0.0
 10
16.5410445086
 20
11.0349549603
 30
0.0
 10
16.5289497422
 20
11.0386756078
 30
0.0
 10
16.5229303717
 20
11.0407727471
 30
0.0
  0
SPLINE
  5
2A1
100
AcDbEntity
  8
LAYER_CHAMFER_FEAT
100
AcDbSpline
 62
7
  6
CONTINUOUS
 70
0
 71
3
 72
23
 73
19
 74
0
 42
0.0000001
 43
0.0000001
 44
0.0000000001
 40
0.0
 40
0.0
 40
0.0
 40
0.0
 40
0.0756512672
 40
0.1491004501
 40
0.2204005889
 40
0.2896161668
 40
0.3568243468
 40
0.4221155436
 40
0.4855943089
 40
0.547380129
 40
0.6076076576
 40
0.6664271898
 40
0.7240043294
 40
0.7805193818
 40
0.8361662971
 40
0.8911507715
 40
0.9456880435
 40
1.0
 40
1.0
 40
1.0
 40
1.0
 10
17.3113940112
 20
13.8452230405
 30
0.0
 10
17.3067371288
 20
13.8508022088
 30
0.0
 10
17.2973683289
 20
13.8616410304
 30
0.0
 10
17.2829345136
 20
13.8771376143
 30
0.0
 10
17.2683400075
 20
13.8916188921
 30
0.0
 10
17.2535955092
 20
13.9050737071
 30
0.0
 10
17.2387116717
 20
13.9174920566
 30
0.0
 10
17.2236992227
 20
13.9288644827
 30
0.0
 10
17.2085689602
 20
13.939182214
 30
0.0
 10
17.1933318751
 20
13.9484372728
 30
0.0
 10
17.1779989731
 20
13.9566221963
 30
0.0
 10
17.1625815182
 20
13.9637303595
 30
0.0
 10
17.1470909279
 20
13.969755792
 30
0.0
 10
17.1315387991
 20
13.9746931949
 30
0.0
 10
17.1159371279
 20
13.9785382564
 30
0.0
 10
17.1002977386
 20
13.9812873165
 30
0.0
 10
17.0846340148
 20
13.9829378238
 30
0.0
 10
17.0741739346
 20
13.9833049877
 30
0.0
 10
17.0689565552
 20
13.9833049923
 30
0.0
  0
SPLINE
  5
2A2
100
AcDbEntity
  8
02___PRT_ALL_AXES
100
AcDbSpline
 62
7
  6
CONTINUOUS
 70
0
 71
3
 72
15
 73
11
 74
0
 42
0.0000001
 43
0.0000001
 44
0.0000000001
 40
0.0
 40
0.0
 40
0.0
 40
0.0
 40
0.1279088374
 40
0.2536296585
 40
0.377816119
 40
0.5011526323
 40
0.6243412917
 40
0.7480873173
 40
0.8730842234
 40
1.0
 40
1.0
 40
1.0
 40
1.0
 10
16.5229303712
 20
13.9808372496
 30
0.0
 10
16.5289804233
 20
13.9829450703
 30
0.0
 10
16.5411372907
 20
13.9866823305
 30
0.0
 10
16.5596219768
 20
13.9908240001
 30
0.0
 10
16.578154045
 20
13.9934400182
 30
0.0
 10
16.5967114308
 20
13.9945261858
 30
0.0
 10
16.615273253
 20
13.9940810256
 30
0.0
 10
16.633818589
 20
13.9921050761
 30
0.0
 10
16.6523251521
 20
13.9886016242
 30
0.0
 10
16.6645135698
 20
13.9852807565
 30
0.0
 10
16.6705796439
 20
13.9833797272
 30
0.0
  0
SPLINE
  5
2A3
100
AcDbEntity
  8
LAYER_CHAMFER_FEAT
100
AcDbSpline
 62
7
  6
CONTINUOUS
 70
0
 71
3
 72
23
 73
19
 74
0
 42
0.0000001
 43
0.0000001
 44
0.0000000001
 40
0.0
 40
0.0
 40
0.0
 40
0.0
 40
0.0543119557
 40
0.108849225
 40
0.1638337038
 40
0.2194806135
 40
0.2759956657
 40
0.3335728098
 40
0.3923923312
 40
0.452619872
 40
0.5144056832
 40
0.5778844443
 40
0.6431756525
 40
0.7103838164
 40
0.7795994088
 40
0.8508995389
 40
0.9243487144
 40
1.0
 40
1.0
 40
1.0
 40
1.0
 10
17.0689565552
 20
11.0383049935
 30
0.0
 10
17.0741739346
 20
11.038304989
 30
0.0
 10
17.0846340139
 20
11.0386721744
 30
0.0
 10
17.1002977403
 20
11.0403226559
 30
0.0
 10
17.1159371255
 20
11.043071741
 30
0.0
 10
17.1315387999
 20
11.0469167862
 30
0.0
 10
17.1470909291
 20
11.0518541907
 30
0.0
 10
17.1625815142
 20
11.0578796339
 30
0.0
 10
17.1779989782
 20
11.0649877796
 30
0.0
 10
17.1933318702
 20
11.073172721
 30
0.0
 10
17.2085689609
 20
11.0824277699
 30
0.0
 10
17.2236992259
 20
11.0927454985
 30
0.0
 10
17.2387116654
 20
11.1041179356
 30
0.0
 10
17.2535955154
 20
11.1165362718
 30
0.0
 10
17.2683400025
 20
11.1299910982
 30
0.0
 10
17.2829345133
 20
11.144472371
 30
0.0
 10
17.2973683332
 20
11.1599689514
 30
0.0
 10
17.3067371278
 20
11.1708077793
 30
0.0
 10
17.3113940103
 20
11.1763869498
 30
0.0
  0
SPLINE
  5
2A4
100
AcDbEntity
  8
LAYER_FEATURE
100
AcDbSpline
 62
7
  6
CONTINUOUS
 70
0
 71
3
 72
64
 73
60
 74
0
 42
0.0000001
 43
0.0000001
 44
0.0000000001
 40
0.0
 40
0.0
 40
0.0
 40
0.0
 40
0.0163581643
 40
0.0330511969
 40
0.0500644421
 40
0.0673829524
 40
0.0849908485
 40
0.1028717375
 40
0.1210086232
 40
0.1393839985
 40
0.1579798791
 40
0.1767778498
 40
0.2149034827
 40
0.2536076146
 40
0.2927316004
 40
0.3321137379
 40
0.3715904674
 40
0.410997553
 40
0.4501712564
 40
0.4889495162
 40
0.5271731445
 40
0.5460288375
 40
0.5646881171
 40
0.5831324457
 40
0.6013437037
 40
0.6193042329
 40
0.6369968818
 40
0.6544050523
 40
0.67151275
 40
0.6883046359
 40
0.7047660834
 40
0.7208832377
 40
0.7366430823
 40
0.7520335099
 40
0.767043399
 40
0.7816627003
 40
0.7958825321
 40
0.8096952874
 40
0.8230947541
 40
0.836076252
 40
0.8486367875
 40
0.8607752285
 40
0.8724925022
 40
0.8837918203
 40
0.8946789315
 40
0.9051624021
 40
0.9152539229
 40
0.9249686369
 40
0.934325474
 40
0.9433474731
 40
0.9520620613
 40
0.9605012482
 40
0.9687016828
 40
0.9767045127
 40
0.984554994
 40
0.9884391523
 40
0.9923037178
 40
0.9961551521
 40
1.0
 40
1.0
 40
1.0
 40
1.0
 10
15.9724621698
 20
13.6794317333
 30
0.0
 10
15.9670927331
 20
13.6620562296
 30
0.0
 10
15.9566033688
 20
13.6268374678
 30
0.0
 10
15.9417550627
 20
13.5731920011
 30
0.0
 10
15.9276467429
 20
13.5182441375
 30
0.0
 10
15.9142957878
 20
13.4620616415
 30
0.0
 10
15.9017185635
 20
13.4047130928
 30
0.0
 10
15.8899305073
 20
13.3462688378
 30
0.0
 10
15.8789460884
 20
13.2868004391
 30
0.0
 10
15.8687788109
 20
13.2263808137
 30
0.0
 10
15.8594410876
 20
13.1650838531
 30
0.0
 10
15.8480593574
 20
13.0818972373
 30
0.0
 10
15.8360099388
 20
12.9762511406
 30
0.0
 10
15.8250841787
 20
12.8477863072
 30
0.0
 10
15.8176790201
 20
12.717671225
 30
0.0
 10
15.8138309405
 20
12.586543608
 30
0.0
 10
15.8135588988
 20
12.4550451406
 30
0.0
 10
15.8168642353
 20
12.3238197146
 30
0.0
 10
15.8237306638
 20
12.1935095041
 30
0.0
 10
15.8341243682
 20
12.0647531852
 30
0.0
 10
15.8457342242
 20
11.9588009514
 30
0.0
 10
15.8567687779
 20
11.8753218708
 30
0.0
 10
15.8658519924
 20
11.8137730925
 30
0.0
 10
15.8757683551
 20
11.753078922
 30
0.0
 10
15.8865057616
 20
11.6933135924
 30
0.0
 10
15.898051009
 20
11.6345503779
 30
0.0
 10
15.9103899284
 20
11.5768612661
 30
0.0
 10
15.9235073731
 20
11.5203169321
 30
0.0
 10
15.9373872456
 20
11.4649866341
 30
0.0
 10
15.9520125165
 20
11.4109381317
 30
0.0
 10
15.9673652467
 20
11.3582376005
 30
0.0
 10
15.9834266127
 20
11.3069495487
 30
0.0
 10
16.0001769273
 20
11.2571367337
 30
0.0
 10
16.0175956689
 20
11.2088600837
 30
0.0
 10
16.0356615123
 20
11.1621786224
 30
0.0
 10
16.0543523595
 20
11.1171493953
 30
0.0
 10
16.0736453724
 20
11.0738273983
 30
0.0
 10
16.0935170088
 20
11.0322655092
 30
0.0
 10
16.1139430613
 20
10.9925144218
 30
0.0
 10
16.1348986997
 20
10.9546225841
 30
0.0
 10
16.156358511
 20
10.9186361384
 30
0.0
 10
16.178296554
 20
10.8845988751
 30
0.0
 10
16.2006864112
 20
10.8525521933
 30
0.0
 10
16.2235012439
 20
10.8225350714
 30
0.0
 10
16.2467138491
 20
10.7945840512
 30
0.0
 10
16.2702967133
 20
10.7687332403
 30
0.0
 10
16.2942220599
 20
10.7450143341
 30
0.0
 10
16.3184618757
 20
10.7234566593
 30
0.0
 10
16.3429879107
 20
10.7040872365
 30
0.0
 10
16.3677716206
 20
10.686930867
 30
0.0
 10
16.3927841065
 20
10.6720102021
 30
0.0
 10
16.4179957492
 20
10.6593457864
 30
0.0
 10
16.4433766217
 20
10.6489559559
 30
0.0
 10
16.4688938847
 20
10.6408568039
 30
0.0
 10
16.4903257742
 20
10.6360098143
 30
0.0
 10
16.5074611237
 20
10.6333073389
 30
0.0
 10
16.52028111
 20
10.631863822
 30
0.0
 10
16.5331087432
 20
10.6309975796
 30
0.0
 10
16.5416663597
 20
10.6308050076
 30
0.0
 10
16.5459408791
 20
10.6308050034
 30
0.0
  0
SPLINE
  5
2A5
100
AcDbEntity
  8
LAYER_FEATURE
100
AcDbSpline
 62
7
  6
CONTINUOUS
 70
0
 71
3
 72
23
 73
19
 74
0
 42
0.0000001
 43
0.0000001
 44
0.0000000001
 40
0.0
 40
0.0
 40
0.0
 40
0.0
 40
0.0535973056
 40
0.1074433429
 40
0.1617826163
 40
0.2168514462
 40
0.2728745295
 40
0.3300622512
 40
0.3886087046
 40
0.4486904133
 40
0.5104658544
 40
0.5740754809
 40
0.6396420638
 40
0.7072714937
 40
0.7770537685
 40
0.8490639401
 40
0.9233631905
 40
1.0
 40
1.0
 40
1.0
 40
1.0
 10
14.0716771123
 20
14.3908049858
 30
0.0
 10
14.0787244
 20
14.390804996
 30
0.0
 10
14.0928572347
 20
14.3902800543
 30
0.0
 10
14.1140164255
 20
14.3879206785
 30
0.0
 10
14.1351385156
 20
14.3839912594
 30
0.0
 10
14.1562032104
 20
14.3784960688
 30
0.0
 10
14.1771925879
 20
14.3714409263
 30
0.0
 10
14.1980886155
 20
14.3628329607
 30
0.0
 10
14.21887381
 20
14.3526805393
 30
0.0
 10
14.2395310568
 20
14.3409932702
 30
0.0
 10
14.2600435441
 20
14.3277818105
 30
0.0
 10
14.2803946748
 20
14.3130578536
 30
0.0
 10
14.3005680899
 20
14.2968342328
 30
0.0
 10
14.3205475913
 20
14.2791248366
 30
0.0
 10
14.3403170601
 20
14.2599446352
 30
0.0
 10
14.3598606214
 20
14.2393096254
 30
0.0
 10
14.3791622008
 20
14.2172374131
 30
0.0
 10
14.3916632445
 20
14.2018170498
 30
0.0
 10
14.3978728082
 20
14.1938810351
 30
0.0
  0
SPLINE
  5
2A6
100
AcDbEntity
  8
LAYER_FEATURE
100
AcDbSpline
 62
7
  6
CONTINUOUS
 70
0
 71
3
 72
23
 73
19
 74
0
 42
0.0000001
 43
0.0000001
 44
0.0000000001
 40
0.0
 40
0.0
 40
0.0
 40
0.0
 40
0.0536063094
 40
0.1074610563
 40
0.1618084449
 40
0.2168845227
 40
0.2729137793
 40
0.3301063697
 40
0.3886561886
 40
0.4487396807
 40
0.5105152196
 40
0.5741231323
 40
0.639686203
 40
0.7073103482
 40
0.7770855023
 40
0.8490867615
 40
0.9233754346
 40
1.0
 40
1.0
 40
1.0
 40
1.0
 10
14.0716771123
 20
10.630805
 30
0.0
 10
14.0787195368
 20
10.6308050102
 30
0.0
 10
14.0928425684
 20
10.6313291679
 30
0.0
 10
14.1139871331
 20
10.6336853325
 30
0.0
 10
14.1350946786
 20
10.6376093124
 30
0.0
 10
14.1561449646
 20
10.6430968794
 30
0.0
 10
14.1771200781
 20
10.6501423203
 30
0.0
 10
14.1980020365
 20
10.6587384597
 30
0.0
 10
14.2187734178
 20
10.6688769093
 30
0.0
 10
14.2394171006
 20
10.6805481795
 30
0.0
 10
14.2599163075
 20
10.6937416216
 30
0.0
 10
14.2802545176
 20
10.7084455072
 30
0.0
 10
14.3004153712
 20
10.7246470944
 30
0.0
 10
14.3203826773
 20
10.7423325557
 30
0.0
 10
14.3401403983
 20
10.761486898
 30
0.0
 10
14.3596726859
 20
10.7820941809
 30
0.0
 10
14.3789634399
 20
10.8041368993
 30
0.0
 10
14.3914578406
 20
10.8195368608
 30
0.0
 10
14.3976641511
 20
10.8274624005
 30
0.0
  0
SPLINE
  5
2A7
100
AcDbEntity
  8
LAYER_FEATURE
100
AcDbSpline
 62
7
  6
CONTINUOUS
 70
0
 71
3
 72
27
 73
23
 74
0
 42
0.0000001
 43
0.0000001
 44
0.0000000001
 40
0.0
 40
0.0
 40
0.0
 40
0.0
 40
0.0239239783
 40
0.0479066615
 40
0.0720062185
 40
0.0962797847
 40
0.1207829592
 40
0.1455694234
 40
0.1706905222
 40
0.196195043
 40
0.2485218694
 40
0.3028959242
 40
0.3595991873
 40
0.418865069
 40
0.4808812193
 40
0.5457933897
 40
0.6137096744
 40
0.6847046994
 40
0.7588235173
 40
0.8360850995
 40
0.9164853985
 40
1.0
 40
1.0
 40
1.0
 40
1.0
 10
16.6024391617
 20
14.3908049824
 30
0.0
 10
16.6075571904
 20
14.3908049774
 30
0.0
 10
16.6178079421
 20
14.390528723
 30
0.0
 10
16.6331689874
 20
14.3892861671
 30
0.0
 10
16.6485163604
 20
14.3872160362
 30
0.0
 10
16.6638424287
 20
14.384319279
 30
0.0
 10
16.6791404285
 20
14.380597485
 30
0.0
 10
16.6944032986
 20
14.3760524434
 30
0.0
 10
16.7096245566
 20
14.3706863533
 30
0.0
 10
16.7300265141
 20
14.3623705658
 30
0.0
 10
16.7554377913
 20
14.3498579909
 30
0.0
 10
16.7853763903
 20
14.3317363922
 30
0.0
 10
16.8149746404
 20
14.3104166042
 30
0.0
 10
16.8441820166
 20
14.2859403934
 30
0.0
 10
16.8729515563
 20
14.2583525707
 30
0.0
 10
16.9012359098
 20
14.2277025155
 30
0.0
 10
16.9289882832
 20
14.1940441235
 30
0.0
 10
16.9561622008
 20
14.1574361002
 30
0.0
 10
16.9827116845
 20
14.1179421216
 30
0.0
 10
17.0085915178
 20
14.0756306063
 30
0.0
 10
17.0337568979
 20
14.030575771
 30
0.0
 10
17.0497286952
 20
13.9993486674
 30
0.0
 10
17.0575978302
 20
13.9833088068
 30
0.0
  0
SPLINE
  5
2A8
100
AcDbEntity
  8
LAYER_FEATURE
100
AcDbSpline
 62
7
  6
CONTINUOUS
 70
0
 71
3
 72
27
 73
23
 74
0
 42
0.0000001
 43
0.0000001
 44
0.0000000001
 40
0.0
 40
0.0
 40
0.0
 40
0.0
 40
0.0239267297
 40
0.0479121338
 40
0.072014352
 40
0.096290487
 40
0.1207961188
 40
0.1455848906
 40
0.1707081439
 40
0.1962146203
 40
0.248544761
 40
0.3029212239
 40
0.3596259282
 40
0.4188922603
 40
0.4809078773
 40
0.5458185619
 40
0.6137324591
 40
0.684724261
 40
0.758839098
 40
0.8360960286
 40
0.9164911009
 40
1.0
 40
1.0
 40
1.0
 40
1.0
 10
16.6024391617
 20
10.6308050034
 30
0.0
 10
16.6075555548
 20
10.6308049984
 30
0.0
 10
16.6178030211
 20
10.6310810953
 30
0.0
 10
16.633159155
 20
10.6323228376
 30
0.0
 10
16.6485016255
 20
10.634391665
 30
0.0
 10
16.6638228211
 20
10.6372865436
 30
0.0
 10
16.6791159613
 20
10.6410059914
 30
0.0
 10
16.6943740267
 20
10.6455480955
 30
0.0
 10
16.7095904942
 20
10.6509108012
 30
0.0
 10
16.7299860155
 20
10.659221212
 30
0.0
 10
16.7553893339
 20
10.6717257733
 30
0.0
 10
16.7853188987
 20
10.6898358636
 30
0.0
 10
16.8149084354
 20
10.7111421877
 30
0.0
 10
16.8441074671
 20
10.735603018
 30
0.0
 10
16.8728690714
 20
10.7631736011
 30
0.0
 10
16.9011459412
 20
10.7938046165
 30
0.0
 10
16.9288913244
 20
10.8274422346
 30
0.0
 10
16.956058787
 20
10.8640278218
 30
0.0
 10
16.9826023914
 20
10.903497781
 30
0.0
 10
17.0084769617
 20
10.9457837774
 30
0.0
 10
17.0336377285
 20
10.9908116877
 30
0.0
 10
17.0496069871
 20
11.0220203462
 30
0.0
 10
17.0574749501
 20
11.0380507762
 30
0.0
  0
SPLINE
  5
2A9
100
AcDbEntity
  8
LAYER_FEATURE
100
AcDbSpline
 62
7
  6
CONTINUOUS
 70
0
 71
3
 72
38
 73
34
 74
0
 42
0.0000001
 43
0.0000001
 44
0.0000000001
 40
0.0
 40
0.0
 40
0.0
 40
0.0
 40
0.0879640716
 40
0.1307307847
 40
0.1726592835
 40
0.2137306933
 40
0.2539278613
 40
0.2932354821
 40
0.331640013
 40
0.3691299341
 40
0.4056958476
 40
0.4413306462
 40
0.4760297484
 40
0.5097912612
 40
0.5426162009
 40
0.5745087936
 40
0.6054767306
 40
0.6355314471
 40
0.6646884872
 40
0.6929678677
 40
0.7203944107
 40
0.7469981459
 40
0.7728147257
 40
0.7978857495
 40
0.8222590824
 40
0.8459891342
 40
0.8691369629
 40
0.8917702321
 40
0.9139630012
 40
0.9357952498
 40
0.9573521255
 40
0.9787229532
 40
1.0
 40
1.0
 40
1.0
 40
1.0
 10
15.9724621698
 20
13.6794317333
 30
0.0
 10
15.9808442402
 20
13.706556123
 30
0.0
 10
15.9939468864
 20
13.7466740948
 30
0.0
 10
16.0126445767
 20
13.7991708665
 30
0.0
 10
16.0269581684
 20
13.8371566334
 30
0.0
 10
16.0416817848
 20
13.8740939918
 30
0.0
 10
16.0568039042
 20
13.9099539516
 30
0.0
 10
16.0723125635
 20
13.9447081632
 30
0.0
 10
16.0881955653
 20
13.9783292467
 30
0.0
 10
16.1044403717
 20
14.0107907085
 30
0.0
 10
16.121034206
 20
14.0420669728
 30
0.0
 10
16.13796405
 20
14.0721333958
 30
0.0
 10
16.1552165932
 20
14.1009663235
 30
0.0
 10
16.1727783142
 20
14.128543071
 30
0.0
 10
16.1906355062
 20
14.1548419247
 30
0.0
 10
16.2087742236
 20
14.179842205
 30
0.0
 10
16.2271803361
 20
14.2035242556
 30
0.0
 10
16.2458395796
 20
14.2258694148
 30
0.0
 10
16.264737524
 20
14.2468600595
 30
0.0
 10
16.2838595732
 20
14.2664796258
 30
0.0
 10
16.3031910367
 20
14.2847125429
 30
0.0
 10
16.3227171153
 20
14.3015442373
 30
0.0
 10
16.3424228446
 20
14.3169611936
 30
0.0
 10
16.3622931554
 20
14.3309508631
 30
0.0
 10
16.382312853
 20
14.3435016316
 30
0.0
 10
16.4024665205
 20
14.3546029147
 30
0.0
 10
16.4227385247
 20
14.3642451094
 30
0.0
 10
16.4431129682
 20
14.3724195633
 30
0.0
 10
16.4635736428
 20
14.3791187136
 30
0.0
 10
16.4841038308
 20
14.3843361835
 30
0.0
 10
16.5046869513
 20
14.3880667878
 30
0.0
 10
16.5253042693
 20
14.3903066759
 30
0.0
 10
16.539073812
 20
14.3908049891
 30
0.0
 10
16.5459408791
 20
14.3908049824
 30
0.0
  0
SPLINE
  5
2AA
100
AcDbEntity
  8
02___PRT_ALL_AXES
100
AcDbSpline
 62
7
  6
CONTINUOUS
 70
0
 71
3
 72
23
 73
19
 74
0
 42
0.0000001
 43
0.0000001
 44
0.0000000001
 40
0.0
 40
0.0
 40
0.0
 40
0.0
 40
0.0478957894
 40
0.0962584234
 40
0.1455382454
 40
0.1961549846
 40
0.2484872105
 40
0.3028661959
 40
0.3595739788
 40
0.4188439963
 40
0.4808638105
 40
0.5457792502
 40
0.6136984648
 40
0.6846963045
 40
0.758817391
 40
0.8360802656
 40
0.9164856442
 40
1.0
 40
1.0
 40
1.0
 40
1.0
 10
17.0979699765
 20
12.1358049951
 30
0.0
 10
17.0959268353
 20
12.1358050029
 30
0.0
 10
17.0918172631
 20
12.1360272647
 30
0.0
 10
17.0856784247
 20
12.1370248768
 30
0.0
 10
17.079564089
 20
12.1386842663
 30
0.0
 10
17.0734869285
 20
12.1410010135
 30
0.0
 10
17.0674576614
 20
12.1439694096
 30
0.0
 10
17.0614866833
 20
12.1475827848
 30
0.0
 10
17.0555838955
 20
12.1518337573
 30
0.0
 10
17.049758947
 20
12.1567141529
 30
0.0
 10
17.0440212952
 20
12.1622149632
 30
0.0
 10
17.038380363
 20
12.1683263788
 30
0.0
 10
17.0328454948
 20
12.1750376697
 30
0.0
 10
17.0274259414
 20
12.1823371097
 30
0.0
 10
17.0221308855
 20
12.1902119782
 30
0.0
 10
17.0169692611
 20
12.1986487779
 30
0.0
 10
17.0119501632
 20
12.2076325642
 30
0.0
 10
17.0087645651
 20
12.2138591789
 30
0.0
 10
17.0071951052
 20
12.2170574018
 30
0.0
  0
SPLINE
  5
2AB
100
AcDbEntity
  8
LAYER_FEATURE
100
AcDbSpline
 62
7
  6
CONTINUOUS
 70
0
 71
3
 72
65
 73
61
 74
0
 42
0.0000001
 43
0.0000001
 44
0.0000000001
 40
0.0
 40
0.0
 40
0.0
 40
0.0
 40
0.0163581197
 40
0.0330511451
 40
0.0500643483
 40
0.0673828299
 40
0.084990693
 40
0.1028715492
 40
0.1210084025
 40
0.1393837448
 40
0.1579795916
 40
0.1767775276
 40
0.21490309
 40
0.2536071518
 40
0.2927310665
 40
0.3321131318
 40
0.3715897894
 40
0.4109968029
 40
0.4501704345
 40
0.4889486246
 40
0.5271721828
 40
0.5460278405
 40
0.5646870855
 40
0.5831313807
 40
0.6013426065
 40
0.6193031038
 40
0.6369957203
 40
0.6544038584
 40
0.671511524
 40
0.6883033789
 40
0.7047647965
 40
0.7208819223
 40
0.7366417387
 40
0.752032138
 40
0.7670419993
 40
0.7816612736
 40
0.7958810795
 40
0.8096938098
 40
0.8230932521
 40
0.8360747259
 40
0.8486352383
 40
0.8607736572
 40
0.8724909101
 40
0.8837902083
 40
0.8946772999
 40
0.9051607504
 40
0.9152522516
 40
0.9249669475
 40
0.9343237681
 40
0.9433457518
 40
0.9520603249
 40
0.9604994965
 40
0.9686999153
 40
0.9767027298
 40
0.9806449359
 40
0.9845550216
 40
0.9884391738
 40
0.9923037317
 40
0.9961551592
 40
1.0
 40
1.0
 40
1.0
 40
1.0
 10
13.4417001203
 20
13.6794317333
 30
0.0
 10
13.4363306884
 20
13.6620562453
 30
0.0
 10
13.425841324
 20
13.6268374737
 30
0.0
 10
13.4109930144
 20
13.5731920107
 30
0.0
 10
13.3968846945
 20
13.5182441296
 30
0.0
 10
13.3835337383
 20
13.462061644
 30
0.0
 10
13.3709565128
 20
13.4047130935
 30
0.0
 10
13.3591684556
 20
13.3462688392
 30
0.0
 10
13.3481840385
 20
13.286800439
 30
0.0
 10
13.3380167644
 20
13.2263808115
 30
0.0
 10
13.3286790415
 20
13.1650838507
 30
0.0
 10
13.3172973097
 20
13.0818972364
 30
0.0
 10
13.305247884
 20
12.9762511413
 30
0.0
 10
13.294322128
 20
12.8477863073
 30
0.0
 10
13.2869169788
 20
12.7176712243
 30
0.0
 10
13.2830688894
 20
12.5865436076
 30
0.0
 10
13.2827968417
 20
12.4550451405
 30
0.0
 10
13.2861021918
 20
12.3238197152
 30
0.0
 10
13.29296862
 20
12.1935095044
 30
0.0
 10
13.3033623107
 20
12.0647531838
 30
0.0
 10
13.3149721727
 20
11.9588009507
 30
0.0
 10
13.3260067317
 20
11.8753218728
 30
0.0
 10
13.3350899481
 20
11.8137730961
 30
0.0
 10
13.3450063094
 20
11.7530789246
 30
0.0
 10
13.3557437112
 20
11.6933135918
 30
0.0
 10
13.3672889554
 20
11.6345503746
 30
0.0
 10
13.3796278761
 20
11.5768612631
 30
0.0
 10
13.3927453234
 20
11.5203169315
 30
0.0
 10
13.4066251982
 20
11.4649866363
 30
0.0
 10
13.42125047
 20
11.4109381353
 30
0.0
 10
13.4366031996
 20
11.3582376032
 30
0.0
 10
13.4526645625
 20
11.3069495485
 30
0.0
 10
13.469414876
 20
11.2571367317
 30
0.0
 10
13.4868336187
 20
11.2088600823
 30
0.0
 10
13.5048994632
 20
11.1621786225
 30
0.0
 10
13.5235903109
 20
11.1171493964
 30
0.0
 10
13.5428833236
 20
11.0738273993
 30
0.0
 10
13.5627549592
 20
11.0322655094
 30
0.0
 10
13.5831810114
 20
10.992514422
 30
0.0
 10
13.6041366509
 20
10.9546225857
 30
0.0
 10
13.6255964628
 20
10.918636141
 30
0.0
 10
13.6475345056
 20
10.884598877
 30
0.0
 10
13.6699243618
 20
10.8525521927
 30
0.0
 10
13.6927391933
 20
10.8225350678
 30
0.0
 10
13.7159517972
 20
10.7945840465
 30
0.0
 10
13.7395346636
 20
10.7687332402
 30
0.0
 10
13.7634600125
 20
10.745014341
 30
0.0
 10
13.7876998301
 20
10.7234566675
 30
0.0
 10
13.8122258571
 20
10.7040872421
 30
0.0
 10
13.8370095897
 20
10.6869308622
 30
0.0
 10
13.862021988
 20
10.6720102023
 30
0.0
 10
13.8872339366
 20
10.6593457424
 30
0.0
 10
13.9126137163
 20
10.6489560744
 30
0.0
 10
13.9339882228
 20
10.642172428
 30
0.0
 10
13.9511001479
 20
10.6379235264
 30
0.0
 10
13.9638916762
 20
10.6353273881
 30
0.0
 10
13.9766991962
 20
10.6333072605
 30
0.0
 10
13.989519029
 20
10.6318638525
 30
0.0
 10
14.0023467028
 20
10.6309975761
 30
0.0
 10
14.0109043103
 20
10.6308049938
 30
0.0
 10
14.0151788296
 20
10.630805
 30
0.0
  0
SPLINE
  5
2AC
100
AcDbEntity
  8
LAYER_CHAMFER_FEAT
100
AcDbSpline
 62
7
  6
CONTINUOUS
 70
0
 71
3
 72
15
 73
11
 74
0
 42
0.0000001
 43
0.0000001
 44
0.0000000001
 40
0.0
 40
0.0
 40
0.0
 40
0.0
 40
0.1375055938
 40
0.2714668076
 40
0.4018486921
 40
0.5286395806
 40
0.6518353103
 40
0.7714434022
 40
0.8874859864
 40
1.0
 40
1.0
 40
1.0
 40
1.0
 10
17.4467875485
 20
13.6395790697
 30
0.0
 10
17.4425513206
 20
13.6482115945
 30
0.0
 10
17.4339876859
 20
13.6651568066
 30
0.0
 10
17.4206878234
 20
13.6899154162
 30
0.0
 10
17.4071111136
 20
13.7136644222
 30
0.0
 10
17.3932693775
 20
13.7363831335
 30
0.0
 10
17.3791742795
 20
13.7580524278
 30
0.0
 10
17.3648376474
 20
13.7786538707
 30
0.0
 10
17.3502718753
 20
13.7981695024
 30
0.0
 10
17.3402631271
 20
13.8106364028
 30
0.0
 10
17.3352211643
 20
13.8166769159
 30
0.0
  0
SPLINE
  5
2AD
100
AcDbEntity
  8
LAYER_FEATURE
100
AcDbSpline
 62
7
  6
CONTINUOUS
 70
0
 71
3
 72
39
 73
35
 74
0
 42
0.0000001
 43
0.0000001
 44
0.0000000001
 40
0.0
 40
0.0
 40
0.0
 40
0.0
 40
0.0443811822
 40
0.0879669451
 40
0.1307335213
 40
0.1726618635
 40
0.2137331588
 40
0.2539302027
 40
0.2932376924
 40
0.3316421064
 40
0.3691319148
 40
0.4056977065
 40
0.4413323939
 40
0.4760313948
 40
0.5097927958
 40
0.542617629
 40
0.574510131
 40
0.6054779683
 40
0.6355325823
 40
0.6646895404
 40
0.6929688339
 40
0.7203952799
 40
0.7469989387
 40
0.7728154432
 40
0.7978863777
 40
0.822259637
 40
0.8459896216
 40
0.8691373708
 40
0.8917705679
 40
0.9139632733
 40
0.9357954509
 40
0.957352257
 40
0.9787230198
 40
1.0
 40
1.0
 40
1.0
 40
1.0
 10
13.4417001203
 20
13.6794317333
 30
0.0
 10
13.4459292033
 20
13.6931170508
 30
0.0
 10
13.4545307221
 20
13.7201753232
 30
0.0
 10
13.4679904014
 20
13.7601667988
 30
0.0
 10
13.4818825937
 20
13.7991709814
 30
0.0
 10
13.4961961059
 20
13.8371566038
 30
0.0
 10
13.5109197389
 20
13.8740939968
 30
0.0
 10
13.5260418496
 20
13.9099539517
 30
0.0
 10
13.5415505188
 20
13.9447081609
 30
0.0
 10
13.5574335172
 20
13.9783292451
 30
0.0
 10
13.5736783159
 20
14.0107907114
 30
0.0
 10
13.5902721608
 20
14.0420669694
 30
0.0
 10
13.6072020044
 20
14.0721333927
 30
0.0
 10
13.6244545365
 20
14.1009663278
 30
0.0
 10
13.6420162663
 20
14.1285430691
 30
0.0
 10
13.6598734639
 20
14.1548419185
 30
0.0
 10
13.6780121676
 20
14.1798422099
 30
0.0
 10
13.6964182834
 20
14.2035242576
 30
0.0
 10
13.7150775403
 20
14.2258694045
 30
0.0
 10
13.7339754702
 20
14.2468600631
 30
0.0
 10
13.7530975158
 20
14.2664796337
 30
0.0
 10
13.7724289985
 20
14.284712529
 30
0.0
 10
13.7919550649
 20
14.3015442372
 30
0.0
 10
13.8116607846
 20
14.316961208
 30
0.0
 10
13.8315311149
 20
14.3309508488
 30
0.0
 10
13.8515508062
 20
14.3435016249
 30
0.0
 10
13.8717044612
 20
14.3546029342
 30
0.0
 10
13.8919764797
 20
14.3642450996
 30
0.0
 10
13.9123509232
 20
14.3724195479
 30
0.0
 10
13.9328115869
 20
14.3791187344
 30
0.0
 10
13.9533417824
 20
14.3843361827
 30
0.0
 10
13.9739249044
 20
14.3880667617
 30
0.0
 10
13.9945422178
 20
14.3903067046
 30
0.0
 10
14.0083117625
 20
14.3908049759
 30
0.0
 10
14.0151788296
 20
14.3908049858
 30
0.0
  0
SPLINE
  5
2AE
100
AcDbEntity
  8
02___PRT_ALL_AXES
100
AcDbSpline
 62
7
  6
CONTINUOUS
 70
0
 71
3
 72
49
 73
45
 74
0
 42
0.0000001
 43
0.0000001
 44
0.0000000001
 40
0.0
 40
0.0
 40
0.0
 40
0.0
 40
0.0283479313
 40
0.0584491973
 40
0.0902070445
 40
0.1235018198
 40
0.1581957776
 40
0.1941356929
 40
0.2311555347
 40
0.2690787451
 40
0.3077202989
 40
0.346888631
 40
0.3863874989
 40
0.4260177651
 40
0.4655791451
 40
0.5048719551
 40
0.5436988606
 40
0.5818666423
 40
0.6191880234
 40
0.6554835882
 40
0.6905837897
 40
0.7243311466
 40
0.7565827318
 40
0.7872130596
 40
0.8018880097
 40
0.8161203827
 40
0.8299010736
 40
0.8432229159
 40
0.8560807919
 40
0.8684719898
 40
0.8803964067
 40
0.8918568397
 40
0.902859449
 40
0.9134140415
 40
0.9235345838
 40
0.933239708
 40
0.9425531152
 40
0.9515041493
 40
0.9601281297
 40
0.9684665607
 40
0.9765671625
 40
0.9844833998
 40
0.9922736702
 40
1.0
 40
1.0
 40
1.0
 40
1.0
 10
17.0071951052
 20
12.2170574018
 30
0.0
 10
17.0041546074
 20
12.223253285
 30
0.0
 10
16.9982960845
 20
12.2362324427
 30
0.0
 10
16.9903703254
 20
12.2567243594
 30
0.0
 10
16.9830806271
 20
12.2787231872
 30
0.0
 10
16.9764707049
 20
12.3020985503
 30
0.0
 10
16.9705797612
 20
12.3267127978
 30
0.0
 10
16.965442993
 20
12.3524202477
 30
0.0
 10
16.961091102
 20
12.3790685949
 30
0.0
 10
16.9575501491
 20
12.4064997398
 30
0.0
 10
16.9548413539
 20
12.4345508099
 30
0.0
 10
16.9529809335
 20
12.4630551494
 30
0.0
 10
16.9519800351
 20
12.4918433487
 30
0.0
 10
16.9518446643
 20
12.5207442755
 30
0.0
 10
16.9525756421
 20
12.5495861123
 30
0.0
 10
16.9541685735
 20
12.5781974013
 30
0.0
 10
16.956613909
 20
12.606408084
 30
0.0
 10
16.9598970022
 20
12.6340505356
 30
0.0
 10
16.9639981939
 20
12.6609605862
 30
0.0
 10
16.9688929157
 20
12.6869785573
 30
0.0
 10
16.9745518781
 20
12.7119501695
 30
0.0
 10
16.980941305
 20
12.7357277849
 30
0.0
 10
16.9880230673
 20
12.7581703953
 30
0.0
 10
16.9945566349
 20
12.7758958085
 30
0.0
 10
17.0001151965
 20
12.7892847018
 30
0.0
 10
17.0043702431
 20
12.7987683991
 30
0.0
 10
17.0087645373
 20
12.8078236747
 30
0.0
 10
17.0132916147
 20
12.8164371851
 30
0.0
 10
17.0179448423
 20
12.8245961652
 30
0.0
 10
17.0227173654
 20
12.8322885834
 30
0.0
 10
17.0276022017
 20
12.8395030978
 30
0.0
 10
17.0325923051
 20
12.8462290369
 30
0.0
 10
17.0376804222
 20
12.8524565096
 30
0.0
 10
17.042859301
 20
12.8581762829
 30
0.0
 10
17.0481216041
 20
12.8633798273
 30
0.0
 10
17.0534598775
 20
12.8680593568
 30
0.0
 10
17.0588667042
 20
12.8722076372
 30
0.0
 10
17.0643344994
 20
12.875818135
 30
0.0
 10
17.0698555546
 20
12.8788849051
 30
0.0
 10
17.0754220061
 20
12.8814024913
 30
0.0
 10
17.0810255137
 20
12.8833662199
 30
0.0
 10
17.0866576383
 20
12.8847720427
 30
0.0
 10
17.0923085139
 20
12.8856168209
 30
0.0
 10
17.0960888909
 20
12.8858049979
 30
0.0
 10
17.0979699765
 20
12.8858049907
 30
0.0
  0
SPLINE
  5
2AF
100
AcDbEntity
  8
LAYER_FEATURE
100
AcDbSpline
 62
7
  6
CONTINUOUS
 70
0
 71
3
 72
24
 73
20
 74
0
 42
0.0000001
 43
0.0000001
 44
0.0000000001
 40
0.0
 40
0.0
 40
0.0
 40
0.0
 40
0.0836660357
 40
0.1647132341
 40
0.2430320466
 40
0.3185262401
 40
0.3911162802
 40
0.4607407278
 40
0.5273589233
 40
0.5909538687
 40
0.6515357297
 40
0.7091459627
 40
0.7638621277
 40
0.8158033682
 40
0.8651363739
 40
0.9120813636
 40
0.9569172183
 40
0.9786557881
 40
1.0
 40
1.0
 40
1.0
 40
1.0
 10
16.1326907716
 20
13.4292751153
 30
0.0
 10
16.1383068793
 20
13.4474488466
 30
0.0
 10
16.1498515446
 20
13.4830791683
 30
0.0
 10
16.168423293
 20
13.5351271669
 30
0.0
 10
16.187941342
 20
13.584838367
 30
0.0
 10
16.2083612316
 20
13.632099467
 30
0.0
 10
16.2296366631
 20
13.6768034244
 30
0.0
 10
16.2517196124
 20
13.7188490791
 30
0.0
 10
16.2745604917
 20
13.7581414921
 30
0.0
 10
16.2981083889
 20
13.7945921043
 30
0.0
 10
16.322311325
 20
13.8281188732
 30
0.0
 10
16.3471164976
 20
13.8586463014
 30
0.0
 10
16.3724706714
 20
13.8861053835
 30
0.0
 10
16.3983200276
 20
13.9104332026
 30
0.0
 10
16.4246114998
 20
13.9315729529
 30
0.0
 10
16.4512880517
 20
13.9494716361
 30
0.0
 10
16.4740303254
 20
13.9617738886
 30
0.0
 10
16.4923108739
 20
13.9698775732
 30
0.0
 10
16.5014718959
 20
13.9733611725
 30
0.0
 10
16.50605441
 20
13.9749577072
 30
0.0
  0
SPLINE
  5
2B0
100
AcDbEntity
  8
LAYER_FEATURE
100
AcDbSpline
 62
7
  6
CONTINUOUS
 70
0
 71
3
 72
82
 73
78
 74
0
 42
0.0000001
 43
0.0000001
 44
0.0000000001
 40
0.0
 40
0.0
 40
0.0
 40
0.0
 40
0.0178387302
 40
0.0361334131
 40
0.0548584944
 40
0.0739867082
 40
0.0934894826
 40
0.1133369646
 40
0.1334981929
 40
0.1539412124
 40
0.1746331975
 40
0.195540567
 40
0.2166290963
 40
0.2378640262
 40
0.2592101703
 40
0.2806320198
 40
0.3020938481
 40
0.3235598135
 40
0.3449940629
 40
0.3663608339
 40
0.3876245585
 40
0.4087499665
 40
0.4297021909
 40
0.450446874
 40
0.4709502762
 40
0.4911793871
 40
0.5111020407
 40
0.5306870341
 40
0.5499042522
 40
0.5687247991
 40
0.5871211382
 40
0.6050672431
 40
0.622538762
 40
0.6395131984
 40
0.6559701127
 40
0.6718913499
 40
0.6872612991
 40
0.702067192
 40
0.7162994507
 40
0.7299520926
 40
0.7430232075
 40
0.7555155157
 40
0.7674370206
 40
0.7788017598
 40
0.7896306507
 40
0.7999524071
 40
0.8098044662
 40
0.8192338201
 40
0.8238087219
 40
0.8283002436
 40
0.8327171112
 40
0.837068656
 40
0.841364763
 40
0.8456158161
 40
0.8498326224
 40
0.8540263206
 40
0.8582082812
 40
0.8623899927
 40
0.866582946
 40
0.8707985196
 40
0.8750478634
 40
0.8793418024
 40
0.8836907384
 40
0.8881045818
 40
0.8925926861
 40
0.8971638071
 40
0.9065846062
 40
0.911450991
 40
0.9164290624
 40
0.9267402234
 40
0.9320845243
 40
0.937559371
 40
0.9489122649
 40
0.9608215482
 40
0.9733013978
 40
0.9863599393
 40
1.0
 40
1.0
 40
1.0
 40
1.0
 10
16.0395804634
 20
13.6190139743
 30
0.0
 10
16.0331110496
 20
13.5980789433
 30
0.0
 10
16.020558136
 20
13.5555015911
 30
0.0
 10
16.0030809338
 20
13.4904170417
 30
0.0
 10
15.986743734
 20
13.4234055299
 30
0.0
 10
15.9715789076
 20
13.3545991811
 30
0.0
 10
15.9576162917
 20
13.2841330977
 30
0.0
 10
15.9448834316
 20
13.2121458039
 30
0.0
 10
15.9334054297
 20
13.138778823
 30
0.0
 10
15.9232049259
 20
13.064176425
 30
0.0
 10
15.9143020401
 20
12.9884853309
 30
0.0
 10
15.9067143352
 20
12.9118544225
 30
0.0
 10
15.9004567801
 20
12.8344344457
 30
0.0
 10
15.895541721
 20
12.7563777107
 30
0.0
 10
15.8919788546
 20
12.6778377904
 30
0.0
 10
15.8897752097
 20
12.5989692151
 30
0.0
 10
15.8889351337
 20
12.519927166
 30
0.0
 10
15.8894602837
 20
12.4408671681
 30
0.0
 10
15.8913496234
 20
12.3619447816
 30
0.0
 10
15.8945994252
 20
12.2833152942
 30
0.0
 10
15.8992032773
 20
12.2051334133
 30
0.0
 10
15.9051520969
 20
12.1275529592
 30
0.0
 10
15.912434148
 20
12.0507265607
 30
0.0
 10
15.9210350649
 20
11.9748053516
 30
0.0
 10
15.9309378813
 20
11.8999386707
 30
0.0
 10
15.942123064
 20
11.8262737645
 30
0.0
 10
15.9545685514
 20
11.7539554936
 30
0.0
 10
15.9682498003
 20
11.6831260434
 30
0.0
 10
15.9831398355
 20
11.6139246399
 30
0.0
 10
15.9992093067
 20
11.5464872702
 30
0.0
 10
16.0164265501
 20
11.4809464087
 30
0.0
 10
16.0347576565
 20
11.4174307493
 30
0.0
 10
16.0541665467
 20
11.3560649434
 30
0.0
 10
16.0746150529
 20
11.2969693461
 30
0.0
 10
16.0960630099
 20
11.2402597689
 30
0.0
 10
16.1184683544
 20
11.1860472417
 30
0.0
 10
16.1417872375
 20
11.1344377845
 30
0.0
 10
16.165974147
 20
11.0855321909
 30
0.0
 10
16.1909820498
 20
11.0394258295
 30
0.0
 10
16.2167625522
 20
10.9962084672
 30
0.0
 10
16.2432660776
 20
10.9559641245
 30
0.0
 10
16.2704420746
 20
10.9187709721
 30
0.0
 10
16.298239207
 20
10.8847013072
 30
0.0
 10
16.3266056551
 20
10.8538215685
 30
0.0
 10
16.3554889771
 20
10.8261926488
 30
0.0
 10
16.3848372528
 20
10.8018697184
 30
0.0
 10
16.4145951742
 20
10.7809043352
 30
0.0
 10
16.4399464924
 20
10.7661207222
 30
0.0
 10
16.4603384561
 20
10.7560879474
 30
0.0
 10
16.4755424286
 20
10.749502617
 30
0.0
 10
16.4908011256
 20
10.7437854488
 30
0.0
 10
16.5061072274
 20
10.738939329
 30
0.0
 10
16.5214530071
 20
10.7349670584
 30
0.0
 10
16.5368307149
 20
10.7318708727
 30
0.0
 10
16.5522324946
 20
10.7296525424
 30
0.0
 10
16.5676504313
 20
10.7283134261
 30
0.0
 10
16.5830765429
 20
10.7278542248
 30
0.0
 10
16.5985028274
 20
10.7282753298
 30
0.0
 10
16.6139212851
 20
10.7295763551
 30
0.0
 10
16.6293239251
 20
10.7317566722
 30
0.0
 10
16.644702844
 20
10.7348148674
 30
0.0
 10
16.660050158
 20
10.7387492857
 30
0.0
 10
16.6753581516
 20
10.7435576094
 30
0.0
 10
16.6906190268
 20
10.7492371476
 30
0.0
 10
16.705825615
 20
10.7557849967
 30
0.0
 10
16.7262204803
 20
10.7657670115
 30
0.0
 10
16.7462856842
 20
10.7774158684
 30
0.0
 10
16.7659558665
 20
10.7905802415
 30
0.0
 10
16.7859528227
 20
10.8051875169
 30
0.0
 10
16.8055148388
 20
10.8213465518
 30
0.0
 10
16.8246268
 20
10.8389129377
 30
0.0
 10
16.8440431629
 20
10.8580177288
 30
0.0
 10
16.8679739881
 20
10.8839994661
 30
0.0
 10
16.8957834528
 20
10.9180001065
 30
0.0
 10
16.9229736681
 20
10.9551267305
 30
0.0
 10
16.9494919217
 20
10.9953052106
 30
0.0
 10
16.9663246995
 20
11.0234639773
 30
0.0
 10
16.9746313419
 20
11.0380143275
 30
0.0
  0
SPLINE
  5
2B1
100
AcDbEntity
  8
LAYER_FEATURE
100
AcDbSpline
 62
7
  6
CONTINUOUS
 70
0
 71
3
 72
64
 73
60
 74
0
 42
0.0000001
 43
0.0000001
 44
0.0000000001
 40
0.0
 40
0.0
 40
0.0
 40
0.0
 40
0.0163581643
 40
0.0330511969
 40
0.0500644421
 40
0.0673829524
 40
0.0849908485
 40
0.1028717375
 40
0.1210086232
 40
0.1393839985
 40
0.1579798791
 40
0.1767778498
 40
0.2149034827
 40
0.2536076146
 40
0.2927316004
 40
0.3321137379
 40
0.3715904674
 40
0.410997553
 40
0.4501712564
 40
0.4889495162
 40
0.5271731445
 40
0.5460288375
 40
0.5646881171
 40
0.5831324457
 40
0.6013437037
 40
0.6193042329
 40
0.6369968818
 40
0.6544050523
 40
0.67151275
 40
0.6883046359
 40
0.7047660834
 40
0.7208832377
 40
0.7366430823
 40
0.7520335099
 40
0.767043399
 40
0.7816627003
 40
0.7958825321
 40
0.8096952874
 40
0.8230947541
 40
0.836076252
 40
0.8486367875
 40
0.8607752285
 40
0.8724925022
 40
0.8837918203
 40
0.8946789315
 40
0.9051624021
 40
0.9152539229
 40
0.9249686369
 40
0.934325474
 40
0.9433474731
 40
0.9520620613
 40
0.9605012482
 40
0.9687016828
 40
0.9767045127
 40
0.984554994
 40
0.9884391523
 40
0.9923037178
 40
0.9961551521
 40
1.0
 40
1.0
 40
1.0
 40
1.0
 10
16.0289604525
 20
13.6794317333
 30
0.0
 10
16.0235910157
 20
13.6620562296
 30
0.0
 10
16.0131016514
 20
13.6268374678
 30
0.0
 10
15.9982533454
 20
13.5731920011
 30
0.0
 10
15.9841450256
 20
13.5182441375
 30
0.0
 10
15.9707940704
 20
13.4620616415
 30
0.0
 10
15.9582168462
 20
13.4047130928
 30
0.0
 10
15.9464287899
 20
13.3462688378
 30
0.0
 10
15.9354443711
 20
13.2868004391
 30
0.0
 10
15.9252770936
 20
13.2263808137
 30
0.0
 10
15.9159393702
 20
13.1650838531
 30
0.0
 10
15.90455764
 20
13.0818972373
 30
0.0
 10
15.8925082214
 20
12.9762511406
 30
0.0
 10
15.8815824614
 20
12.8477863072
 30
0.0
 10
15.8741773028
 20
12.717671225
 30
0.0
 10
15.8703292231
 20
12.586543608
 30
0.0
 10
15.8700571814
 20
12.4550451406
 30
0.0
 10
15.873362518
 20
12.3238197146
 30
0.0
 10
15.8802289465
 20
12.1935095041
 30
0.0
 10
15.8906226508
 20
12.0647531852
 30
0.0
 10
15.9022325069
 20
11.9588009514
 30
0.0
 10
15.9132670606
 20
11.8753218708
 30
0.0
 10
15.922350275
 20
11.8137730925
 30
0.0
 10
15.9322666378
 20
11.753078922
 30
0.0
 10
15.9430040443
 20
11.6933135924
 30
0.0
 10
15.9545492916
 20
11.6345503779
 30
0.0
 10
15.966888211
 20
11.5768612661
 30
0.0
 10
15.9800056557
 20
11.5203169321
 30
0.0
 10
15.9938855283
 20
11.4649866341
 30
0.0
 10
16.0085107992
 20
11.4109381317
 30
0.0
 10
16.0238635294
 20
11.3582376005
 30
0.0
 10
16.0399248954
 20
11.3069495487
 30
0.0
 10
16.05667521
 20
11.2571367337
 30
0.0
 10
16.0740939515
 20
11.2088600837
 30
0.0
 10
16.092159795
 20
11.1621786224
 30
0.0
 10
16.1108506422
 20
11.1171493953
 30
0.0
 10
16.130143655
 20
11.0738273983
 30
0.0
 10
16.1500152915
 20
11.0322655092
 30
0.0
 10
16.170441344
 20
10.9925144218
 30
0.0
 10
16.1913969823
 20
10.9546225841
 30
0.0
 10
16.2128567937
 20
10.9186361384
 30
0.0
 10
16.2347948367
 20
10.8845988751
 30
0.0
 10
16.2571846939
 20
10.8525521933
 30
0.0
 10
16.2799995266
 20
10.8225350714
 30
0.0
 10
16.3032121318
 20
10.7945840512
 30
0.0
 10
16.3267949959
 20
10.7687332403
 30
0.0
 10
16.3507203425
 20
10.7450143341
 30
0.0
 10
16.3749601583
 20
10.7234566593
 30
0.0
 10
16.3994861933
 20
10.7040872365
 30
0.0
 10
16.4242699033
 20
10.686930867
 30
0.0
 10
16.4492823892
 20
10.6720102021
 30
0.0
 10
16.4744940319
 20
10.6593457864
 30
0.0
 10
16.4998749044
 20
10.6489559559
 30
0.0
 10
16.5253921673
 20
10.6408568039
 30
0.0
 10
16.5468240568
 20
10.6360098143
 30
0.0
 10
16.5639594063
 20
10.6333073389
 30
0.0
 10
16.5767793926
 20
10.631863822
 30
0.0
 10
16.5896070258
 20
10.6309975796
 30
0.0
 10
16.5981646424
 20
10.6308050076
 30
0.0
 10
16.6024391617
 20
10.6308050034
 30
0.0
  0
SPLINE
  5
2B2
100
AcDbEntity
  8
02___PRT_ALL_AXES
100
AcDbSpline
 62
7
  6
CONTINUOUS
 70
0
 71
3
 72
24
 73
20
 74
0
 42
0.0000001
 43
0.0000001
 44
0.0000000001
 40
0.0
 40
0.0
 40
0.0
 40
0.0
 40
0.0836660357
 40
0.1647132341
 40
0.2430320466
 40
0.3185262401
 40
0.3911162802
 40
0.4607407278
 40
0.5273589233
 40
0.5909538687
 40
0.6515357297
 40
0.7091459627
 40
0.7638621277
 40
0.8158033682
 40
0.8651363739
 40
0.9120813636
 40
0.9569172183
 40
0.9786557881
 40
1.0
 40
1.0
 40
1.0
 40
1.0
 10
16.1480674306
 20
13.4329633808
 30
0.0
 10
16.1537060907
 20
13.4512100916
 30
0.0
 10
16.1652971154
 20
13.4869834927
 30
0.0
 10
16.1839434418
 20
13.5392404984
 30
0.0
 10
16.2035398686
 20
13.5891513219
 30
0.0
 10
16.2240417576
 20
13.6366022065
 30
0.0
 10
16.245402624
 20
13.68148568
 30
0.0
 10
16.267574251
 20
13.7237001757
 30
0.0
 10
16.2905068515
 20
13.7631503739
 30
0.0
 10
16.3141493092
 20
13.7997473593
 30
0.0
 10
16.3384494361
 20
13.8334087605
 30
0.0
 10
16.3633542178
 20
13.8640587765
 30
0.0
 10
16.3888102055
 20
13.891628125
 30
0.0
 10
16.4147633639
 20
13.9160536364
 30
0.0
 10
16.4411604138
 20
13.9372782767
 30
0.0
 10
16.4679440897
 20
13.955248835
 30
0.0
 10
16.4907776887
 20
13.9676004892
 30
0.0
 10
16.5091316457
 20
13.9757367154
 30
0.0
 10
16.5183294552
 20
13.9792343037
 30
0.0
 10
16.5229303712
 20
13.9808372496
 30
0.0
  0
SPLINE
  5
2B3
100
AcDbEntity
  8
LAYER_CHAMFER_FEAT
100
AcDbSpline
 62
7
  6
CONTINUOUS
 70
0
 71
3
 72
67
 73
63
 74
0
 42
0.0000001
 43
0.0000001
 44
0.0000000001
 40
0.0
 40
0.0
 40
0.0
 40
0.0
 40
0.0038601977
 40
0.0077284266
 40
0.0116126569
 40
0.0155207368
 40
0.0194603357
 40
0.0234388982
 40
0.0315392196
 40
0.0398773694
 40
0.0485010461
 40
0.0574517744
 40
0.0667648672
 40
0.0764696504
 40
0.0865898536
 40
0.0971440809
 40
0.108146306
 40
0.1196063545
 40
0.1315303518
 40
0.1439211269
 40
0.156778569
 40
0.1700999442
 40
0.1838801696
 40
0.1981120509
 40
0.2127864903
 40
0.2278926666
 40
0.2434181942
 40
0.2593492619
 40
0.2756707589
 40
0.2923663881
 40
0.3094187673
 40
0.3268095215
 40
0.3445193689
 40
0.3625281992
 40
0.3808151479
 40
0.3993586669
 40
0.4181365927
 40
0.4371262101
 40
0.4563043145
 40
0.495129884
 40
0.5344213454
 40
0.5739813668
 40
0.6136102717
 40
0.6531077835
 40
0.6922747686
 40
0.7309149927
 40
0.7499781056
 40
0.768838182
 40
0.7874723155
 40
0.8058581283
 40
0.823973835
 40
0.8417983072
 40
0.8593111431
 40
0.8764927399
 40
0.8933243711
 40
0.9097882703
 40
0.9258677245
 40
0.9415471582
 40
0.9568122897
 40
0.9716500943
 40
0.9860493514
 40
1.0
 40
1.0
 40
1.0
 40
1.0
 10
17.0689565552
 20
13.9833049923
 30
0.0
 10
17.065266067
 20
13.9833049955
 30
0.0
 10
17.057876107
 20
13.9831216284
 30
0.0
 10
17.0468003552
 20
13.9822970278
 30
0.0
 10
17.0357328949
 20
13.9809230347
 30
0.0
 10
17.0246784188
 20
13.9790002957
 30
0.0
 10
17.0136408309
 20
13.9765295386
 30
0.0
 10
16.9988661008
 20
13.9724824902
 30
0.0
 10
16.980417446
 20
13.9660177668
 30
0.0
 10
16.9585608222
 20
13.9561321174
 30
0.0
 10
16.9368811696
 20
13.9440899783
 30
0.0
 10
16.9154110448
 20
13.9299127461
 30
0.0
 10
16.8941802528
 20
13.9136237871
 30
0.0
 10
16.873218579
 20
13.8952488926
 30
0.0
 10
16.8525553207
 20
13.874816253
 30
0.0
 10
16.8322195755
 20
13.8523566265
 30
0.0
 10
16.8122402001
 20
13.8279034426
 30
0.0
 10
16.7926457895
 20
13.801492884
 30
0.0
 10
16.773464608
 20
13.7731639276
 30
0.0
 10
16.7547245148
 20
13.7429583544
 30
0.0
 10
16.7364528774
 20
13.7109207345
 30
0.0
 10
16.7186765056
 20
13.67709838
 30
0.0
 10
16.7014215803
 20
13.6415412875
 30
0.0
 10
16.6847135895
 20
13.6043020707
 30
0.0
 10
16.6685772714
 20
13.5654358846
 30
0.0
 10
16.6530365616
 20
13.5250003436
 30
0.0
 10
16.6381145468
 20
13.4830554355
 30
0.0
 10
16.623833413
 20
13.4396634321
 30
0.0
 10
16.6102144123
 20
13.39488879
 30
0.0
 10
16.5972778255
 20
13.3487980496
 30
0.0
 10
16.5850429278
 20
13.3014597322
 30
0.0
 10
16.5735279567
 20
13.2529442361
 30
0.0
 10
16.5627500827
 20
13.2033237297
 30
0.0
 10
16.5527253826
 20
13.1526720423
 30
0.0
 10
16.5434688091
 20
13.1010645578
 30
0.0
 10
16.5349941649
 20
13.048578082
 30
0.0
 10
16.5273141112
 20
12.9952907903
 30
0.0
 10
16.5204400386
 20
12.9412818627
 30
0.0
 10
16.5123303729
 20
12.8681189332
 30
0.0
 10
16.5042963753
 20
12.7754321236
 30
0.0
 10
16.498041452
 20
12.6630856358
 30
0.0
 10
16.495171176
 20
12.5498332054
 30
0.0
 10
16.4957027088
 20
12.4363489718
 30
0.0
 10
16.4996328842
 20
12.3233071561
 30
0.0
 10
16.5069381758
 20
12.2113806405
 30
0.0
 10
16.5158413548
 20
12.1191810371
 30
0.0
 10
16.5246387839
 20
12.0465115237
 30
0.0
 10
16.532017623
 20
11.9929439237
 30
0.0
 10
16.5401954266
 20
11.9401476526
 30
0.0
 10
16.5491600629
 20
11.8882011541
 30
0.0
 10
16.5588981368
 20
11.8371817906
 30
0.0
 10
16.5693951261
 20
11.7871654823
 30
0.0
 10
16.5806353736
 20
11.7382266576
 30
0.0
 10
16.5926021194
 20
11.6904381236
 30
0.0
 10
16.6052775262
 20
11.6438709603
 30
0.0
 10
16.6186427063
 20
11.5985944056
 30
0.0
 10
16.6326777504
 20
11.5546757641
 30
0.0
 10
16.6473617626
 20
11.5121802446
 30
0.0
 10
16.662672891
 20
11.4711710573
 30
0.0
 10
16.678588442
 20
11.4317087632
 30
0.0
 10
16.6950845803
 20
11.3938525744
 30
0.0
 10
16.7066382335
 20
11.3693294557
 30
0.0
 10
16.712513894
 20
11.3573561185
 30
0.0
  0
SPLINE
  5
2B4
100
AcDbEntity
  8
02___PRT_ALL_AXES
100
AcDbSpline
 62
7
  6
CONTINUOUS
 70
0
 71
3
 72
67
 73
63
 74
0
 42
0.0000001
 43
0.0000001
 44
0.0000000001
 40
0.0
 40
0.0
 40
0.0
 40
0.0
 40
0.0038601976
 40
0.0077284267
 40
0.011612657
 40
0.0155207363
 40
0.0194603366
 40
0.023438897
 40
0.0315392188
 40
0.0398773698
 40
0.048501048
 40
0.057451777
 40
0.0667648688
 40
0.0764696504
 40
0.086589852
 40
0.0971440786
 40
0.1081463044
 40
0.1196063549
 40
0.1315303539
 40
0.1439211288
 40
0.1567785699
 40
0.1700999441
 40
0.1838801688
 40
0.1981120502
 40
0.21278649
 40
0.227892667
 40
0.2434181948
 40
0.2593492621
 40
0.2756707589
 40
0.2923663883
 40
0.3094187678
 40
0.3268095223
 40
0.3445193696
 40
0.3625281992
 40
0.3808151473
 40
0.3993586663
 40
0.4181365926
 40
0.4371262106
 40
0.4563043154
 40
0.4951298844
 40
0.5344213452
 40
0.5739813671
 40
0.6136102717
 40
0.6531077834
 40
0.6922747695
 40
0.7309149933
 40
0.7499781052
 40
0.7688381809
 40
0.7874723145
 40
0.8058581282
 40
0.8239738359
 40
0.8417983088
 40
0.8593111446
 40
0.8764927402
 40
0.8933243703
 40
0.9097882693
 40
0.9258677239
 40
0.9415471591
 40
0.9568122873
 40
0.9716501036
 40
0.9860493362
 40
1.0
 40
1.0
 40
1.0
 40
1.0
 10
16.6005970398
 20
13.9833049807
 30
0.0
 10
16.5969065516
 20
13.9833049768
 30
0.0
 10
16.5895165906
 20
13.9831216536
 30
0.0
 10
16.57844084
 20
13.9822970197
 30
0.0
 10
16.567373381
 20
13.9809230292
 30
0.0
 10
16.5563188985
 20
13.9790003166
 30
0.0
 10
16.5452813229
 20
13.9765295122
 30
0.0
 10
16.530506576
 20
13.9724825289
 30
0.0
 10
16.5120579305
 20
13.9660177717
 30
0.0
 10
16.4902013053
 20
13.9561321222
 30
0.0
 10
16.4685216561
 20
13.944089969
 30
0.0
 10
16.4470515328
 20
13.929912733
 30
0.0
 10
16.4258207393
 20
13.9136237791
 30
0.0
 10
16.4048590633
 20
13.8952488932
 30
0.0
 10
16.384195803
 20
13.8748162609
 30
0.0
 10
16.3638600564
 20
13.8523566374
 30
0.0
 10
16.3438806815
 20
13.8279034505
 30
0.0
 10
16.3242862742
 20
13.8014928843
 30
0.0
 10
16.3051050957
 20
13.7731639219
 30
0.0
 10
16.2863650017
 20
13.7429583485
 30
0.0
 10
16.2680933627
 20
13.710920732
 30
0.0
 10
16.2503169893
 20
13.6770983812
 30
0.0
 10
16.233062063
 20
13.641541291
 30
0.0
 10
16.2163540721
 20
13.6043020743
 30
0.0
 10
16.2002177548
 20
13.5654358866
 30
0.0
 10
16.1846770468
 20
13.5250003436
 30
0.0
 10
16.1697550319
 20
13.4830554351
 30
0.0
 10
16.1554738972
 20
13.4396634324
 30
0.0
 10
16.141854896
 20
13.3948887908
 30
0.0
 10
16.1289183094
 20
13.34879805
 30
0.0
 10
16.1166834126
 20
13.3014597316
 30
0.0
 10
16.1051684426
 20
13.2529442346
 30
0.0
 10
16.094390569
 20
13.2033237287
 30
0.0
 10
16.0843658663
 20
13.1526720432
 30
0.0
 10
16.0751092906
 20
13.1010645602
 30
0.0
 10
16.066634646
 20
13.0485780846
 30
0.0
 10
16.0589545936
 20
12.9952907915
 30
0.0
 10
16.0520805235
 20
12.9412818622
 30
0.0
 10
16.0439708618
 20
12.8681189317
 30
0.0
 10
16.0359368638
 20
12.7754321229
 30
0.0
 10
16.0296819285
 20
12.6630856363
 30
0.0
 10
16.0268116572
 20
12.5498332058
 30
0.0
 10
16.027343201
 20
12.4363489721
 30
0.0
 10
16.031273371
 20
12.3233071558
 30
0.0
 10
16.038578652
 20
12.2113806388
 30
0.0
 10
16.0474818358
 20
12.1191810359
 30
0.0
 10
16.0562792714
 20
12.0465115253
 30
0.0
 10
16.0636581128
 20
11.9929439271
 30
0.0
 10
16.0718359145
 20
11.9401476555
 30
0.0
 10
16.0808005476
 20
11.8882011544
 30
0.0
 10
16.0905386186
 20
11.8371817879
 30
0.0
 10
16.1010356065
 20
11.7871654777
 30
0.0
 10
16.1122758545
 20
11.7382266536
 30
0.0
 10
16.1242426034
 20
11.6904381226
 30
0.0
 10
16.1369180134
 20
11.6438709626
 30
0.0
 10
16.150283193
 20
11.5985944086
 30
0.0
 10
16.1643182355
 20
11.5546757648
 30
0.0
 10
16.1790022467
 20
11.5121802464
 30
0.0
 10
16.1943133742
 20
11.4711710487
 30
0.0
 10
16.2102289253
 20
11.4317087712
 30
0.0
 10
16.226725059
 20
11.3938525779
 30
0.0
 10
16.2382787117
 20
11.3693294687
 30
0.0
 10
16.2441543785
 20
11.3573561185
 30
0.0
  0
SPLINE
  5
2B5
100
AcDbEntity
  8
LAYER_CHAMFER_FEAT
100
AcDbSpline
 62
7
  6
CONTINUOUS
 70
0
 71
3
 72
81
 73
77
 74
0
 42
0.0000001
 43
0.0000001
 44
0.0000000001
 40
0.0
 40
0.0
 40
0.0
 40
0.0
 40
0.0107620438
 40
0.0210151445
 40
0.0307945092
 40
0.0401447494
 40
0.0491205287
 40
0.0534892935
 40
0.0577896385
 40
0.0620311911
 40
0.0662241017
 40
0.0703789769
 40
0.0745067925
 40
0.0786187957
 40
0.0827263951
 40
0.0868410449
 40
0.0909741263
 40
0.0951368336
 40
0.0993400651
 40
0.1035943292
 40
0.1079096607
 40
0.1122955573
 40
0.1167609281
 40
0.1259602052
 40
0.1307111716
 40
0.1355709194
 40
0.1456372659
 40
0.1508553768
 40
0.1562016718
 40
0.1672908033
 40
0.1789281417
 40
0.1911285569
 40
0.2039007615
 40
0.2172480825
 40
0.2311691308
 40
0.2456583764
 40
0.2607066371
 40
0.2763014952
 40
0.2924276528
 40
0.3090672377
 40
0.3262000679
 40
0.3438038837
 40
0.3618545522
 40
0.380326252
 40
0.3991916389
 40
0.4184219997
 40
0.437987393
 40
0.457856783
 40
0.4779981651
 40
0.498378686
 40
0.5189647599
 40
0.5397221805
 40
0.5606162307
 40
0.58161179
 40
0.6026734403
 40
0.6237655711
 40
0.6448524829
 40
0.6658984916
 40
0.6868680321
 40
0.7077257623
 40
0.7284366687
 40
0.7489661724
 40
0.769280237
 40
0.7893454789
 40
0.8091292808
 40
0.8285999087
 40
0.8477266332
 40
0.8664798579
 40
0.8848312546
 40
0.902753908
 40
0.9202224721
 40
0.9372133417
 40
0.9537048426
 40
0.9696774407
 40
0.9851139921
 40
1.0
 40
1.0
 40
1.0
 40
1.0
 10
17.3104364327
 20
13.8445224089
 30
0.0
 10
17.3028888039
 20
13.8524511362
 30
0.0
 10
17.2876646841
 20
13.8674826227
 30
0.0
 10
17.2638692308
 20
13.8878934796
 30
0.0
 10
17.2397253646
 20
13.9055651609
 30
0.0
 10
17.2152805313
 20
13.9204569968
 30
0.0
 10
17.1945065283
 20
13.930613176
 30
0.0
 10
17.1778277029
 20
13.9372597903
 30
0.0
 10
17.1653882693
 20
13.9414881774
 30
0.0
 10
17.1529140159
 20
13.9450015476
 30
0.0
 10
17.1404110377
 20
13.9477980405
 30
0.0
 10
17.127885858
 20
13.9498759928
 30
0.0
 10
17.1153449697
 20
13.9512341738
 30
0.0
 10
17.1027949453
 20
13.9518717758
 30
0.0
 10
17.0902423804
 20
13.9517884081
 30
0.0
 10
17.077693883
 20
13.9509841254
 30
0.0
 10
17.0651560455
 20
13.9494594105
 30
0.0
 10
17.0526354223
 20
13.9472151735
 30
0.0
 10
17.0401385187
 20
13.9442527463
 30
0.0
 10
17.0276717442
 20
13.940573832
 30
0.0
 10
17.0152415395
 20
13.9361805934
 30
0.0
 10
17.0028538449
 20
13.9310752771
 30
0.0
 10
16.9862397488
 20
13.9232463643
 30
0.0
 10
16.9698876148
 20
13.9140454407
 30
0.0
 10
16.9538549711
 20
13.903596777
 30
0.0
 10
16.9375551628
 20
13.891972885
 30
0.0
 10
16.9216068584
 20
13.8790709311
 30
0.0
 10
16.9060247177
 20
13.8650108774
 30
0.0
 10
16.8901909211
 20
13.8496948652
 30
0.0
 10
16.8706726205
 20
13.8288241509
 30
0.0
 10
16.8479897701
 20
13.8014576531
 30
0.0
 10
16.8258094788
 20
13.7715246901
 30
0.0
 10
16.8041748523
 20
13.7390850995
 30
0.0
 10
16.7831274283
 20
13.7042024694
 30
0.0
 10
16.7627082332
 20
13.6669455715
 30
0.0
 10
16.7429572561
 20
13.6273878668
 30
0.0
 10
16.7239133967
 20
13.5856075075
 30
0.0
 10
16.7056143008
 20
13.541687157
 30
0.0
 10
16.688096249
 20
13.4957138352
 30
0.0
 10
16.6713940482
 20
13.4477787365
 30
0.0
 10
16.6555409385
 20
13.3979770411
 30
0.0
 10
16.6405685083
 20
13.3464077158
 30
0.0
 10
16.6265066179
 20
13.2931733089
 30
0.0
 10
16.6133833306
 20
13.2383797371
 30
0.0
 10
16.6012248495
 20
13.1821360678
 30
0.0
 10
16.5900554604
 20
13.1245542952
 30
0.0
 10
16.5798974793
 20
13.0657491112
 30
0.0
 10
16.5707712057
 20
13.0058376729
 30
0.0
 10
16.5626948801
 20
12.9449393637
 30
0.0
 10
16.5556846461
 20
12.883175553
 30
0.0
 10
16.5497545175
 20
12.8206693501
 30
0.0
 10
16.5449163496
 20
12.7575453564
 30
0.0
 10
16.541179815
 20
12.6939294149
 30
0.0
 10
16.5385523842
 20
12.6299483563
 30
0.0
 10
16.5370393104
 20
12.5657297446
 30
0.0
 10
16.5366436185
 20
12.501401621
 30
0.0
 10
16.5373661
 20
12.4370922464
 30
0.0
 10
16.5392053101
 20
12.372929844
 30
0.0
 10
16.5421575716
 20
12.3090423421
 30
0.0
 10
16.5462169822
 20
12.2455571168
 30
0.0
 10
16.5513754257
 20
12.1826007365
 30
0.0
 10
16.5576225895
 20
12.1202987072
 30
0.0
 10
16.5649459845
 20
12.0587752201
 30
0.0
 10
16.5733309713
 20
11.9981529015
 30
0.0
 10
16.5827607897
 20
11.9385525655
 30
0.0
 10
16.5932165933
 20
11.8800929695
 30
0.0
 10
16.6046774886
 20
11.8228905744
 30
0.0
 10
16.6171205786
 20
11.7670593076
 30
0.0
 10
16.6305210116
 20
11.7127103316
 30
0.0
 10
16.6448520349
 20
11.6599518141
 30
0.0
 10
16.6600850513
 20
11.6088887149
 30
0.0
 10
16.6761896955
 20
11.5596225391
 30
0.0
 10
16.6931338597
 20
11.5122512307
 30
0.0
 10
16.7108839393
 20
11.4668686036
 30
0.0
 10
16.7294043212
 20
11.4235654274
 30
0.0
 10
16.7424819281
 20
11.3956239179
 30
0.0
 10
16.7491524045
 20
11.3820309161
 30
0.0
  0
SPLINE
  5
2B6
100
AcDbEntity
  8
LAYER_FEATURE
100
AcDbSpline
 62
7
  6
CONTINUOUS
 70
0
 71
3
 72
55
 73
51
 74
0
 42
0.0000001
 43
0.0000001
 44
0.0000000001
 40
0.0
 40
0.0
 40
0.0
 40
0.0
 40
0.0079087276
 40
0.01602737
 40
0.0243882415
 40
0.033019932
 40
0.0419473145
 40
0.0511916614
 40
0.0607708329
 40
0.0706995033
 40
0.0809894159
 40
0.0916496391
 40
0.1026868085
 40
0.1141053485
 40
0.1259076795
 40
0.1380944109
 40
0.1506645103
 40
0.1636154501
 40
0.1769433341
 40
0.1906430221
 40
0.2047082365
 40
0.2191316548
 40
0.2339049878
 40
0.2490190547
 40
0.2644638567
 40
0.2802286375
 40
0.2963019375
 40
0.3126716403
 40
0.3293250271
 40
0.3462488215
 40
0.3808509173
 40
0.4163631794
 40
0.4526632087
 40
0.4896231778
 40
0.5271108491
 40
0.5649905345
 40
0.6031240223
 40
0.6413714878
 40
0.6795923847
 40
0.7176463339
 40
0.7553940157
 40
0.7926980635
 40
0.8294239827
 40
0.8654410876
 40
0.9006234792
 40
0.9348510775
 40
0.9515717759
 40
0.9680118834
 40
0.9841588942
 40
1.0
 40
1.0
 40
1.0
 40
1.0
 10
16.5060544106
 20
11.0466522894
 30
0.0
 10
16.4997250609
 20
11.048857425
 30
0.0
 10
16.4870675034
 20
11.0538266232
 30
0.0
 10
16.4684175986
 20
11.06277371
 30
0.0
 10
16.4498981985
 20
11.0732910309
 30
0.0
 10
16.4315303202
 20
11.0853652626
 30
0.0
 10
16.4133326259
 20
11.0989824085
 30
0.0
 10
16.3953240692
 20
11.114126948
 30
0.0
 10
16.3775232573
 20
11.1307820428
 30
0.0
 10
16.3599486591
 20
11.1489293971
 30
0.0
 10
16.3426185821
 20
11.1685492727
 30
0.0
 10
16.3255511788
 20
11.1896204601
 30
0.0
 10
16.3087644262
 20
11.2121202626
 30
0.0
 10
16.2922760846
 20
11.2360244712
 30
0.0
 10
16.2761036618
 20
11.2613073681
 30
0.0
 10
16.2602644034
 20
11.2879417605
 30
0.0
 10
16.2447752553
 20
11.315898997
 30
0.0
 10
16.2296528395
 20
11.3451489867
 30
0.0
 10
16.2149133999
 20
11.3756602118
 30
0.0
 10
16.2005728034
 20
11.4073997776
 30
0.0
 10
16.1866465131
 20
11.4403334516
 30
0.0
 10
16.1731495714
 20
11.4744256985
 30
0.0
 10
16.1600965609
 20
11.5096397063
 30
0.0
 10
16.1475015881
 20
11.5459374297
 30
0.0
 10
16.1353782805
 20
11.5832796441
 30
0.0
 10
16.1237397668
 20
11.6216259859
 30
0.0
 10
16.1125986543
 20
11.6609350019
 30
0.0
 10
16.1019670219
 20
11.7011641455
 30
0.0
 10
16.0918563133
 20
11.742269996
 30
0.0
 10
16.0789900989
 20
11.7986020977
 30
0.0
 10
16.0643174033
 20
11.8709046786
 30
0.0
 10
16.0490765861
 20
11.9598045216
 30
0.0
 10
16.0361410535
 20
12.0510873209
 30
0.0
 10
16.0255670631
 20
12.1443579493
 30
0.0
 10
16.0174006016
 20
12.2392134367
 30
0.0
 10
16.0116772202
 20
12.3352435879
 30
0.0
 10
16.0084217865
 20
12.4320331108
 30
0.0
 10
16.0076485119
 20
12.5291633613
 30
0.0
 10
16.0093607093
 20
12.626214202
 30
0.0
 10
16.013550981
 20
12.7227658446
 30
0.0
 10
16.0202010458
 20
12.8184006894
 30
0.0
 10
16.0292820087
 20
12.9127051823
 30
0.0
 10
16.0407543371
 20
13.0052715489
 30
0.0
 10
16.054568147
 20
13.095699932
 30
0.0
 10
16.0706633621
 20
13.183598933
 30
0.0
 10
16.0860360463
 20
13.2549698948
 30
0.0
 10
16.0994489852
 20
13.3104851047
 30
0.0
 10
16.1099544907
 20
13.3509326258
 30
0.0
 10
16.1209722342
 20
13.3904701841
 30
0.0
 10
16.1287270723
 20
13.4164485797
 30
0.0
 10
16.1326907716
 20
13.4292751153
 30
0.0
  0
SPLINE
  5
2B7
100
AcDbEntity
  8
02___PRT_ALL_AXES
100
AcDbSpline
 62
7
  6
CONTINUOUS
 70
0
 71
3
 72
55
 73
51
 74
0
 42
0.0000001
 43
0.0000001
 44
0.0000000001
 40
0.0
 40
0.0
 40
0.0
 40
0.0
 40
0.0079087276
 40
0.01602737
 40
0.0243882415
 40
0.033019932
 40
0.0419473145
 40
0.0511916614
 40
0.0607708329
 40
0.0706995033
 40
0.0809894159
 40
0.0916496391
 40
0.1026868085
 40
0.1141053485
 40
0.1259076795
 40
0.1380944109
 40
0.1506645103
 40
0.1636154501
 40
0.1769433341
 40
0.1906430221
 40
0.2047082365
 40
0.2191316548
 40
0.2339049878
 40
0.2490190547
 40
0.2644638567
 40
0.2802286375
 40
0.2963019375
 40
0.3126716403
 40
0.3293250271
 40
0.3462488215
 40
0.3808509173
 40
0.4163631794
 40
0.4526632087
 40
0.4896231778
 40
0.5271108491
 40
0.5649905345
 40
0.6031240223
 40
0.6413714878
 40
0.6795923847
 40
0.7176463339
 40
0.7553940157
 40
0.7926980635
 40
0.8294239827
 40
0.8654410876
 40
0.9006234792
 40
0.9348510775
 40
0.9515717759
 40
0.9680118834
 40
0.9841588942
 40
1.0
 40
1.0
 40
1.0
 40
1.0
 10
16.5229303717
 20
11.0407727471
 30
0.0
 10
16.5165756055
 20
11.0429867378
 30
0.0
 10
16.5038672195
 20
11.0479758906
 30
0.0
 10
16.4851424231
 20
11.0569589059
 30
0.0
 10
16.4665486553
 20
11.0675184608
 30
0.0
 10
16.4481070178
 20
11.0796411785
 30
0.0
 10
16.4298362477
 20
11.0933130062
 30
0.0
 10
16.4117553748
 20
11.1085183611
 30
0.0
 10
16.3938830808
 20
11.1252403371
 30
0.0
 10
16.376237909
 20
11.1434605651
 30
0.0
 10
16.3588382402
 20
11.1631592275
 30
0.0
 10
16.3417023
 20
11.1843150297
 30
0.0
 10
16.3248481375
 20
11.2069051838
 30
0.0
 10
16.3082935843
 20
11.2309053835
 30
0.0
 10
16.2920562185
 20
11.2562898081
 30
0.0
 10
16.276153355
 20
11.2830311551
 30
0.0
 10
16.2606020077
 20
11.3111006584
 30
0.0
 10
16.2454188655
 20
11.3404681062
 30
0.0
 10
16.2306202372
 20
11.3711018541
 30
0.0
 10
16.2162220537
 20
11.4029688753
 30
0.0
 10
16.2022398402
 20
11.4360347998
 30
0.0
 10
16.1886886992
 20
11.4702639496
 30
0.0
 10
16.1755832723
 20
11.5056193649
 30
0.0
 10
16.1629377224
 20
11.5420628478
 30
0.0
 10
16.1507657316
 20
11.5795550158
 30
0.0
 10
16.1390804816
 20
11.6180553436
 30
0.0
 10
16.1278946302
 20
11.6575222113
 30
0.0
 10
16.1172203048
 20
11.6979129016
 30
0.0
 10
16.1070689949
 20
11.7391838193
 30
0.0
 10
16.0941511141
 20
11.7957421316
 30
0.0
 10
16.079419498
 20
11.8683350553
 30
0.0
 10
16.0641174788
 20
11.9575918899
 30
0.0
 10
16.0511300015
 20
12.0492412501
 30
0.0
 10
16.0405135495
 20
12.1428864219
 30
0.0
 10
16.0323142943
 20
12.2381228168
 30
0.0
 10
16.0265679297
 20
12.3345385926
 30
0.0
 10
16.0232994233
 20
12.4317167896
 30
0.0
 10
16.0225230435
 20
12.5292370823
 30
0.0
 10
16.0242421165
 20
12.6266776464
 30
0.0
 10
16.0284492149
 20
12.7236170077
 30
0.0
 10
16.0351259841
 20
12.8196358897
 30
0.0
 10
16.044243413
 20
12.9143190776
 30
0.0
 10
16.0557618104
 20
13.0072571595
 30
0.0
 10
16.0696310919
 20
13.0980486724
 30
0.0
 10
16.08579094
 20
13.186300646
 30
0.0
 10
16.1012253557
 20
13.2579582095
 30
0.0
 10
16.1146921565
 20
13.3136963497
 30
0.0
 10
16.1252398485
 20
13.3543062943
 30
0.0
 10
16.1363018356
 20
13.3940026221
 30
0.0
 10
16.1440878144
 20
13.4200853382
 30
0.0
 10
16.1480674306
 20
13.4329633808
 30
0.0
  0
SPLINE
  5
2B8
100
AcDbEntity
  8
LAYER_FEATURE
100
AcDbSpline
 62
7
  6
CONTINUOUS
 70
0
 71
3
 72
9
 73
5
 74
0
 42
0.0000001
 43
0.0000001
 44
0.0000000001
 40
0.0
 40
0.0
 40
0.0
 40
0.0
 40
0.476433085
 40
1.0
 40
1.0
 40
1.0
 40
1.0
 10
13.5467296138
 20
13.2405300663
 30
0.0
 10
13.5477957879
 20
13.2417491797
 30
0.0
 10
13.5498700602
 20
13.2444528007
 30
0.0
 10
13.5516605923
 20
13.2473481614
 30
0.0
 10
13.5525353064
 20
13.2488981598
 30
0.0
  0
SPLINE
  5
2B9
100
AcDbEntity
  8
LAYER_FEATURE
100
AcDbSpline
 62
7
  6
CONTINUOUS
 70
0
 71
3
 72
18
 73
14
 74
0
 42
0.0000001
 43
0.0000001
 44
0.0000000001
 40
0.0
 40
0.0
 40
0.0
 40
0.0
 40
0.0396698705
 40
0.0802923617
 40
0.1227465579
 40
0.1677693837
 40
0.2159400394
 40
0.2676839225
 40
0.3828256757
 40
0.5143295094
 40
0.6619091604
 40
0.8243920971
 40
1.0
 40
1.0
 40
1.0
 40
1.0
 10
13.5048216789
 20
13.2405860021
 30
0.0
 10
13.5046563689
 20
13.2405860056
 30
0.0
 10
13.5043211112
 20
13.2405571059
 30
0.0
 10
13.5038239301
 20
13.2404281165
 30
0.0
 10
13.5033324912
 20
13.2402146623
 30
0.0
 10
13.5028491661
 20
13.2399184515
 30
0.0
 10
13.5023756906
 20
13.2395413401
 30
0.0
 10
13.5017371867
 20
13.2389105091
 30
0.0
 10
13.5009812324
 20
13.2379155939
 30
0.0
 10
13.5001735222
 20
13.236481048
 30
0.0
 10
13.4994461456
 20
13.2347876384
 30
0.0
 10
13.4988113199
 20
13.2328638054
 30
0.0
 10
13.498468773
 20
13.2314958789
 30
0.0
 10
13.4983131333
 20
13.2307808384
 30
0.0
  0
SPLINE
  5
2BA
100
AcDbEntity
  8
02___PRT_ALL_AXES
100
AcDbSpline
 62
7
  6
CONTINUOUS
 70
0
 71
3
 72
27
 73
23
 74
0
 42
0.0000001
 43
0.0000001
 44
0.0000000001
 40
0.0
 40
0.0
 40
0.0
 40
0.0
 40
0.083511091
 40
0.1639083651
 40
0.2411670835
 40
0.3152835286
 40
0.3862766026
 40
0.4541914516
 40
0.5191027253
 40
0.581118554
 40
0.6403847064
 40
0.6970888372
 40
0.7514643421
 40
0.8037931644
 40
0.8292988702
 40
0.8544212602
 40
0.8792091189
 40
0.9037137694
 40
0.9279888851
 40
0.9520900428
 40
0.9760743653
 40
1.0
 40
1.0
 40
1.0
 40
1.0
 10
16.2441543785
 20
11.3573561185
 30
0.0
 10
16.250317281
 20
11.3447974436
 30
0.0
 10
16.2628259118
 20
11.320347673
 30
0.0
 10
16.28253438
 20
11.2850714111
 30
0.0
 10
16.3028021539
 20
11.2519431695
 30
0.0
 10
16.3235941154
 20
11.2210210538
 30
0.0
 10
16.3448749024
 20
11.1923585958
 30
0.0
 10
16.3666085035
 20
11.166005638
 30
0.0
 10
16.3887585448
 20
11.1420081261
 30
0.0
 10
16.4112883915
 20
11.1204082422
 30
0.0
 10
16.4341609784
 20
11.1012446343
 30
0.0
 10
16.4573395418
 20
11.0845523752
 30
0.0
 10
16.4807845278
 20
11.0703641519
 30
0.0
 10
16.500684029
 20
11.0605675377
 30
0.0
 10
16.5166607072
 20
11.0540567473
 30
0.0
 10
16.528580428
 20
11.0498554092
 30
0.0
 10
16.5405327148
 20
11.046296887
 30
0.0
 10
16.5525125073
 20
11.0433829448
 30
0.0
 10
16.5645142656
 20
11.0411149369
 30
0.0
 10
16.5765327054
 20
11.0394941536
 30
0.0
 10
16.5885618444
 20
11.0385212959
 30
0.0
 10
16.5965891424
 20
11.0383050009
 30
0.0
 10
16.6005970398
 20
11.0383050051
 30
0.0
  0
SPLINE
  5
2BB
100
AcDbEntity
  8
LAYER_FEATURE
100
AcDbSpline
 62
7
  6
CONTINUOUS
 70
0
 71
3
 72
16
 73
12
 74
0
 42
0.0000001
 43
0.0000001
 44
0.0000000001
 40
0.0
 40
0.0
 40
0.0
 40
0.0
 40
0.0426531299
 40
0.0860493787
 40
0.1776001512
 40
0.2793799622
 40
0.3942717851
 40
0.5237386387
 40
0.668179787
 40
0.8272413566
 40
1.0
 40
1.0
 40
1.0
 40
1.0
 10
13.5567999554
 20
13.4727239897
 30
0.0
 10
13.5566598587
 20
13.4727239879
 30
0.0
 10
13.5563767965
 20
13.472703365
 30
0.0
 10
13.5558053092
 20
13.4725782634
 30
0.0
 10
13.5550880922
 20
13.4722549993
 30
0.0
 10
13.5542774629
 20
13.4716379107
 30
0.0
 10
13.553504802
 20
13.4707975974
 30
0.0
 10
13.5527765343
 20
13.4697447435
 30
0.0
 10
13.5520994261
 20
13.4684915463
 30
0.0
 10
13.551481176
 20
13.4670527781
 30
0.0
 10
13.5511267967
 20
13.4660210404
 30
0.0
 10
13.5509592628
 20
13.4654789004
 30
0.0
  0
SPLINE
  5
2BC
100
AcDbEntity
  8
02___PRT_ALL_AXES
100
AcDbSpline
 62
7
  6
CONTINUOUS
 70
0
 71
3
 72
23
 73
19
 74
0
 42
0.0000001
 43
0.0000001
 44
0.0000000001
 40
0.0
 40
0.0
 40
0.0
 40
0.0
 40
0.0478957894
 40
0.0962584234
 40
0.1455382454
 40
0.1961549846
 40
0.2484872105
 40
0.3028661959
 40
0.3595739788
 40
0.4188439963
 40
0.4808638105
 40
0.5457792502
 40
0.6136984648
 40
0.6846963045
 40
0.758817391
 40
0.8360802656
 40
0.9164856442
 40
1.0
 40
1.0
 40
1.0
 40
1.0
 10
17.0979699765
 20
12.8858049907
 30
0.0
 10
17.1000131178
 20
12.8858049829
 30
0.0
 10
17.10412269
 20
12.8855827211
 30
0.0
 10
17.1102615283
 20
12.884585109
 30
0.0
 10
17.1163758641
 20
12.8829257195
 30
0.0
 10
17.1224530245
 20
12.8806089723
 30
0.0
 10
17.1284822916
 20
12.8776405762
 30
0.0
 10
17.1344532698
 20
12.8740272011
 30
0.0
 10
17.1403560575
 20
12.8697762285
 30
0.0
 10
17.146181006
 20
12.8648958329
 30
0.0
 10
17.1519186579
 20
12.8593950226
 30
0.0
 10
17.15755959
 20
12.853283607
 30
0.0
 10
17.1630944582
 20
12.8465723162
 30
0.0
 10
17.1685140116
 20
12.8392728761
 30
0.0
 10
17.1738090675
 20
12.8313980077
 30
0.0
 10
17.178970692
 20
12.8229612079
 30
0.0
 10
17.1839897898
 20
12.8139774216
 30
0.0
 10
17.1871753879
 20
12.8077508069
 30
0.0
 10
17.1887448478
 20
12.804552584
 30
0.0
  0
SPLINE
  5
2BD
100
AcDbEntity
  8
LAYER_FEATURE
100
AcDbSpline
 62
7
  6
CONTINUOUS
 70
0
 71
3
 72
37
 73
33
 74
0
 42
0.0000001
 43
0.0000001
 44
0.0000000001
 40
0.0
 40
0.0
 40
0.0
 40
0.0
 40
0.0219942249
 40
0.0440714164
 40
0.066313387
 40
0.0887997223
 40
0.1116067845
 40
0.1348069347
 40
0.1584678978
 40
0.1826522964
 40
0.207417449
 40
0.2328152014
 40
0.2588919818
 40
0.285688956
 40
0.3132421429
 40
0.3415827569
 40
0.3707374332
 40
0.4007284975
 40
0.431574344
 40
0.4632896105
 40
0.4958855252
 40
0.5293701679
 40
0.5637486251
 40
0.5990233251
 40
0.6351941543
 40
0.6722586584
 40
0.7102122726
 40
0.7490483408
 40
0.7887584292
 40
0.8293323916
 40
0.9130188194
 40
1.0
 40
1.0
 40
1.0
 40
1.0
 10
14.0907058311
 20
14.1938049889
 30
0.0
 10
14.0850207845
 20
14.1938049806
 30
0.0
 10
14.0736256018
 20
14.1934237289
 30
0.0
 10
14.0565588945
 20
14.1917095907
 30
0.0
 10
14.039516129
 20
14.188854403
 30
0.0
 10
14.022510518
 20
14.1848604788
 30
0.0
 10
14.0055537727
 20
14.179731219
 30
0.0
 10
13.9886577609
 20
14.1734707303
 30
0.0
 10
13.9718340568
 20
14.1660838876
 30
0.0
 10
13.9550940007
 20
14.1575764005
 30
0.0
 10
13.9384488238
 20
14.1479545132
 30
0.0
 10
13.9219095492
 20
14.1372252491
 30
0.0
 10
13.9054870711
 20
14.1253962654
 30
0.0
 10
13.8891922415
 20
14.1124757964
 30
0.0
 10
13.8730357175
 20
14.0984728544
 30
0.0
 10
13.8570281539
 20
14.0833970137
 30
0.0
 10
13.8411801055
 20
14.0672585452
 30
0.0
 10
13.8255019885
 20
14.0500684364
 30
0.0
 10
13.8100042345
 20
14.0318382661
 30
0.0
 10
13.7946970873
 20
14.01258037
 30
0.0
 10
13.7795907244
 20
13.9923077281
 30
0.0
 10
13.7646952575
 20
13.9710339702
 30
0.0
 10
13.7500205801
 20
13.9487734575
 30
0.0
 10
13.7355765556
 20
13.9255411556
 30
0.0
 10
13.7213728613
 20
13.9013527151
 30
0.0
 10
13.7074190018
 20
13.8762244458
 30
0.0
 10
13.6937244085
 20
13.8501732542
 30
0.0
 10
13.680298269
 20
13.8232167359
 30
0.0
 10
13.667149549
 20
13.7953729852
 30
0.0
 10
13.6498214667
 20
13.7566915178
 30
0.0
 10
13.6289505572
 20
13.7062219722
 30
0.0
 10
13.6135406643
 20
13.6648767399
 30
0.0
 10
13.6060293513
 20
13.6436857724
 30
0.0
  0
SPLINE
  5
2BE
100
AcDbEntity
  8
LAYER_FEATURE
100
AcDbSpline
 62
7
  6
CONTINUOUS
 70
0
 71
3
 72
60
 73
56
 74
0
 42
0.0000001
 43
0.0000001
 44
0.0000000001
 40
0.0
 40
0.0
 40
0.0
 40
0.0
 40
0.0468288193
 40
0.0922238964
 40
0.1361262287
 40
0.1784837463
 40
0.2192530964
 40
0.2584003412
 40
0.2773590463
 40
0.2959045385
 40
0.3140358321
 40
0.3317528513
 40
0.3490564255
 40
0.3659484005
 40
0.382431699
 40
0.3985103769
 40
0.4141897584
 40
0.429476456
 40
0.4443785358
 40
0.4589055554
 40
0.4730686967
 40
0.48688086
 40
0.5003567327
 40
0.5135129224
 40
0.5389353222
 40
0.5512518654
 40
0.563335105
 40
0.5752116694
 40
0.5869100497
 40
0.5984604701
 40
0.6098946442
 40
0.6212455276
 40
0.6325469842
 40
0.6438334325
 40
0.655139461
 40
0.6664994383
 40
0.6779471251
 40
0.6895153324
 40
0.7012355911
 40
0.7131379032
 40
0.7252505294
 40
0.737599829
 40
0.7502101918
 40
0.7762948041
 40
0.8036663394
 40
0.8324480452
 40
0.8474005045
 40
0.8627387294
 40
0.8784705921
 40
0.8946025346
 40
0.9111396947
 40
0.9280859931
 40
0.9454441847
 40
0.9632159952
 40
1.0
 40
1.0
 40
1.0
 40
1.0
 10
16.0395804634
 20
13.6190139743
 30
0.0
 10
16.0462188493
 20
13.640495799
 30
0.0
 10
16.0598579514
 20
13.6826298997
 30
0.0
 10
16.081769373
 20
13.7442163042
 30
0.0
 10
16.104778017
 20
13.8031036669
 30
0.0
 10
16.1288336727
 20
13.8591634402
 30
0.0
 10
16.1538837323
 20
13.912273004
 30
0.0
 10
16.1757702154
 20
13.9544161571
 30
0.0
 10
16.1937557365
 20
13.9865278766
 30
0.0
 10
16.2073146705
 20
14.0095460551
 30
0.0
 10
16.2210798276
 20
14.0317430621
 30
0.0
 10
16.2350437491
 20
14.053106872
 30
0.0
 10
16.24919886
 20
14.0736257758
 30
0.0
 10
16.2635374697
 20
14.0932885746
 30
0.0
 10
16.278051782
 20
14.1120845393
 30
0.0
 10
16.2927339918
 20
14.1300033633
 30
0.0
 10
16.3075760977
 20
14.1470352953
 30
0.0
 10
16.322570167
 20
14.1631709546
 30
0.0
 10
16.3377080717
 20
14.1784015419
 30
0.0
 10
16.3529816951
 20
14.1927186432
 30
0.0
 10
16.3683829047
 20
14.2061143963
 30
0.0
 10
16.3839031769
 20
14.2185812688
 30
0.0
 10
16.3995351233
 20
14.2301127258
 30
0.0
 10
16.420274109
 20
14.2440703608
 30
0.0
 10
16.4414553169
 20
14.2563444079
 30
0.0
 10
16.4630010175
 20
14.266756689
 30
0.0
 10
16.4790603489
 20
14.2735212355
 30
0.0
 10
16.4951787636
 20
14.2793179482
 30
0.0
 10
16.5113478214
 20
14.2841434186
 30
0.0
 10
16.5275582912
 20
14.2879946232
 30
0.0
 10
16.5438010405
 20
14.2908689741
 30
0.0
 10
16.5600667342
 20
14.2927646561
 30
0.0
 10
16.57634599
 20
14.2936803661
 30
0.0
 10
16.5926293521
 20
14.2936154678
 30
0.0
 10
16.6089073573
 20
14.2925700767
 30
0.0
 10
16.6251705498
 20
14.2905447862
 30
0.0
 10
16.6414095614
 20
14.287541073
 30
0.0
 10
16.6576150807
 20
14.2835608006
 30
0.0
 10
16.673777939
 20
14.2786066212
 30
0.0
 10
16.6898890984
 20
14.2726816311
 30
0.0
 10
16.7059395365
 20
14.2657895287
 30
0.0
 10
16.721920786
 20
14.2579343686
 30
0.0
 10
16.7433643753
 20
14.2460504296
 30
0.0
 10
16.7699806338
 20
14.2287061411
 30
0.0
 10
16.8011247783
 20
14.2043667893
 30
0.0
 10
16.8263375276
 20
14.1812979343
 30
0.0
 10
16.8462429518
 20
14.1610879011
 30
0.0
 10
16.8612175848
 20
14.1448328837
 30
0.0
 10
16.8760389407
 20
14.1276831287
 30
0.0
 10
16.8906993888
 20
14.109647645
 30
0.0
 10
16.9051909243
 20
14.0907363937
 30
0.0
 10
16.9195056505
 20
14.0709597093
 30
0.0
 10
16.9336360321
 20
14.0503282454
 30
0.0
 10
16.9524354018
 20
14.0213632594
 30
0.0
 10
16.9659046311
 20
13.9988834712
 30
0.0
 10
16.9746601388
 20
13.9835452178
 30
0.0
  0
SPLINE
  5
2BF
100
AcDbEntity
  8
LAYER_FEATURE
100
AcDbSpline
 62
7
  6
CONTINUOUS
 70
0
 71
3
 72
38
 73
34
 74
0
 42
0.0000001
 43
0.0000001
 44
0.0000000001
 40
0.0
 40
0.0
 40
0.0
 40
0.0
 40
0.0879640716
 40
0.1307307847
 40
0.1726592835
 40
0.2137306933
 40
0.2539278613
 40
0.2932354821
 40
0.331640013
 40
0.3691299341
 40
0.4056958476
 40
0.4413306462
 40
0.4760297484
 40
0.5097912612
 40
0.5426162009
 40
0.5745087936
 40
0.6054767306
 40
0.6355314471
 40
0.6646884872
 40
0.6929678677
 40
0.7203944107
 40
0.7469981459
 40
0.7728147257
 40
0.7978857495
 40
0.8222590824
 40
0.8459891342
 40
0.8691369629
 40
0.8917702321
 40
0.9139630012
 40
0.9357952498
 40
0.9573521255
 40
0.9787229532
 40
1.0
 40
1.0
 40
1.0
 40
1.0
 10
16.0289604525
 20
13.6794317333
 30
0.0
 10
16.0373425229
 20
13.706556123
 30
0.0
 10
16.050445169
 20
13.7466740948
 30
0.0
 10
16.0691428594
 20
13.7991708665
 30
0.0
 10
16.0834564511
 20
13.8371566334
 30
0.0
 10
16.0981800675
 20
13.8740939918
 30
0.0
 10
16.1133021869
 20
13.9099539516
 30
0.0
 10
16.1288108462
 20
13.9447081632
 30
0.0
 10
16.144693848
 20
13.9783292467
 30
0.0
 10
16.1609386544
 20
14.0107907085
 30
0.0
 10
16.1775324886
 20
14.0420669728
 30
0.0
 10
16.1944623327
 20
14.0721333958
 30
0.0
 10
16.2117148759
 20
14.1009663235
 30
0.0
 10
16.2292765969
 20
14.128543071
 30
0.0
 10
16.2471337889
 20
14.1548419247
 30
0.0
 10
16.2652725063
 20
14.179842205
 30
0.0
 10
16.2836786188
 20
14.2035242556
 30
0.0
 10
16.3023378622
 20
14.2258694148
 30
0.0
 10
16.3212358066
 20
14.2468600595
 30
0.0
 10
16.3403578559
 20
14.2664796258
 30
0.0
 10
16.3596893194
 20
14.2847125429
 30
0.0
 10
16.379215398
 20
14.3015442373
 30
0.0
 10
16.3989211273
 20
14.3169611936
 30
0.0
 10
16.4187914381
 20
14.3309508631
 30
0.0
 10
16.4388111357
 20
14.3435016316
 30
0.0
 10
16.4589648032
 20
14.3546029147
 30
0.0
 10
16.4792368074
 20
14.3642451094
 30
0.0
 10
16.4996112509
 20
14.3724195633
 30
0.0
 10
16.5200719255
 20
14.3791187136
 30
0.0
 10
16.5406021135
 20
14.3843361835
 30
0.0
 10
16.561185234
 20
14.3880667878
 30
0.0
 10
16.581802552
 20
14.3903066759
 30
0.0
 10
16.5955720947
 20
14.3908049891
 30
0.0
 10
16.6024391617
 20
14.3908049824
 30
0.0
  0
SPLINE
  5
2C0
100
AcDbEntity
  8
LAYER_FEATURE
100
AcDbSpline
 62
7
  6
CONTINUOUS
 70
0
 71
3
 72
65
 73
61
 74
0
 42
0.0000001
 43
0.0000001
 44
0.0000000001
 40
0.0
 40
0.0
 40
0.0
 40
0.0
 40
0.0163581197
 40
0.0330511451
 40
0.0500643483
 40
0.0673828299
 40
0.084990693
 40
0.1028715492
 40
0.1210084025
 40
0.1393837448
 40
0.1579795916
 40
0.1767775276
 40
0.21490309
 40
0.2536071518
 40
0.2927310665
 40
0.3321131318
 40
0.3715897894
 40
0.4109968029
 40
0.4501704345
 40
0.4889486246
 40
0.5271721828
 40
0.5460278405
 40
0.5646870855
 40
0.5831313807
 40
0.6013426065
 40
0.6193031038
 40
0.6369957203
 40
0.6544038584
 40
0.671511524
 40
0.6883033789
 40
0.7047647965
 40
0.7208819223
 40
0.7366417387
 40
0.752032138
 40
0.7670419993
 40
0.7816612736
 40
0.7958810795
 40
0.8096938098
 40
0.8230932521
 40
0.8360747259
 40
0.8486352383
 40
0.8607736572
 40
0.8724909101
 40
0.8837902083
 40
0.8946772999
 40
0.9051607504
 40
0.9152522516
 40
0.9249669475
 40
0.9343237681
 40
0.9433457518
 40
0.9520603249
 40
0.9604994965
 40
0.9686999153
 40
0.9767027298
 40
0.9806449359
 40
0.9845550216
 40
0.9884391738
 40
0.9923037317
 40
0.9961551592
 40
1.0
 40
1.0
 40
1.0
 40
1.0
 10
13.498198403
 20
13.6794317333
 30
0.0
 10
13.4928289711
 20
13.6620562453
 30
0.0
 10
13.4823396066
 20
13.6268374737
 30
0.0
 10
13.467491297
 20
13.5731920107
 30
0.0
 10
13.4533829772
 20
13.5182441296
 30
0.0
 10
13.4400320209
 20
13.462061644
 30
0.0
 10
13.4274547955
 20
13.4047130935
 30
0.0
 10
13.4156667382
 20
13.3462688392
 30
0.0
 10
13.4046823212
 20
13.286800439
 30
0.0
 10
13.394515047
 20
13.2263808115
 30
0.0
 10
13.3851773242
 20
13.1650838507
 30
0.0
 10
13.3737955924
 20
13.0818972364
 30
0.0
 10
13.3617461667
 20
12.9762511413
 30
0.0
 10
13.3508204106
 20
12.8477863073
 30
0.0
 10
13.3434152615
 20
12.7176712243
 30
0.0
 10
13.339567172
 20
12.5865436076
 30
0.0
 10
13.3392951244
 20
12.4550451405
 30
0.0
 10
13.3426004745
 20
12.3238197152
 30
0.0
 10
13.3494669027
 20
12.1935095044
 30
0.0
 10
13.3598605934
 20
12.0647531838
 30
0.0
 10
13.3714704554
 20
11.9588009507
 30
0.0
 10
13.3825050143
 20
11.8753218728
 30
0.0
 10
13.3915882308
 20
11.8137730961
 30
0.0
 10
13.4015045921
 20
11.7530789246
 30
0.0
 10
13.4122419939
 20
11.6933135918
 30
0.0
 10
13.4237872381
 20
11.6345503746
 30
0.0
 10
13.4361261588
 20
11.5768612631
 30
0.0
 10
13.4492436061
 20
11.5203169315
 30
0.0
 10
13.4631234809
 20
11.4649866363
 30
0.0
 10
13.4777487527
 20
11.4109381353
 30
0.0
 10
13.4931014823
 20
11.3582376032
 30
0.0
 10
13.5091628452
 20
11.3069495485
 30
0.0
 10
13.5259131587
 20
11.2571367317
 30
0.0
 10
13.5433319014
 20
11.2088600823
 30
0.0
 10
13.5613977459
 20
11.1621786225
 30
0.0
 10
13.5800885936
 20
11.1171493964
 30
0.0
 10
13.5993816063
 20
11.0738273993
 30
0.0
 10
13.6192532419
 20
11.0322655094
 30
0.0
 10
13.6396792941
 20
10.992514422
 30
0.0
 10
13.6606349336
 20
10.9546225857
 30
0.0
 10
13.6820947455
 20
10.918636141
 30
0.0
 10
13.7040327883
 20
10.884598877
 30
0.0
 10
13.7264226445
 20
10.8525521927
 30
0.0
 10
13.749237476
 20
10.8225350678
 30
0.0
 10
13.7724500799
 20
10.7945840465
 30
0.0
 10
13.7960329463
 20
10.7687332402
 30
0.0
 10
13.8199582952
 20
10.745014341
 30
0.0
 10
13.8441981128
 20
10.7234566675
 30
0.0
 10
13.8687241398
 20
10.7040872421
 30
0.0
 10
13.8935078723
 20
10.6869308622
 30
0.0
 10
13.9185202707
 20
10.6720102023
 30
0.0
 10
13.9437322193
 20
10.6593457424
 30
0.0
 10
13.969111999
 20
10.6489560744
 30
0.0
 10
13.9904865054
 20
10.642172428
 30
0.0
 10
14.0075984306
 20
10.6379235264
 30
0.0
 10
14.0203899589
 20
10.6353273881
 30
0.0
 10
14.0331974788
 20
10.6333072605
 30
0.0
 10
14.0460173116
 20
10.6318638525
 30
0.0
 10
14.0588449855
 20
10.6309975761
 30
0.0
 10
14.067402593
 20
10.6308049938
 30
0.0
 10
14.0716771123
 20
10.630805
 30
0.0
  0
SPLINE
  5
2C1
100
AcDbEntity
  8
LAYER_FEATURE
100
AcDbSpline
 62
7
  6
CONTINUOUS
 70
0
 71
3
 72
47
 73
43
 74
0
 42
0.0000001
 43
0.0000001
 44
0.0000000001
 40
0.0
 40
0.0
 40
0.0
 40
0.0
 40
0.0475268233
 40
0.0938667602
 40
0.1389772335
 40
0.1828205251
 40
0.2253629556
 40
0.2665759923
 40
0.3064364954
 40
0.3449274019
 40
0.3820383697
 40
0.4177665635
 40
0.4521175442
 40
0.4851062892
 40
0.5167583488
 40
0.547111135
 40
0.5762153233
 40
0.6041363156
 40
0.6309556715
 40
0.6567723589
 40
0.6817036014
 40
0.6938817668
 40
0.7058909654
 40
0.717750901
 40
0.7294822324
 40
0.7411065166
 40
0.7526460595
 40
0.7641237961
 40
0.7755631224
 40
0.7869877288
 40
0.7984214184
 40
0.8098879266
 40
0.8214107322
 40
0.8330128979
 40
0.8447168876
 40
0.856544452
 40
0.8685164682
 40
0.8929668337
 40
0.9182208995
 40
0.9444073188
 40
0.9716362863
 40
1.0
 40
1.0
 40
1.0
 40
1.0
 10
13.5468758516
 20
13.6190139743
 30
0.0
 10
13.5523632514
 20
13.6367712066
 30
0.0
 10
13.5635886406
 20
13.6717240389
 30
0.0
 10
13.5814181433
 20
13.7230697851
 30
0.0
 10
13.6000055403
 20
13.7726111542
 30
0.0
 10
13.6193230216
 20
13.8202741949
 30
0.0
 10
13.6393420036
 20
13.8659883696
 30
0.0
 10
13.6600327795
 20
13.9096858787
 30
0.0
 10
13.681364771
 20
13.9513020421
 30
0.0
 10
13.7033065138
 20
13.9907753032
 30
0.0
 10
13.7258257655
 20
14.0280473411
 30
0.0
 10
13.7488895751
 20
14.0630631363
 30
0.0
 10
13.7724643765
 20
14.0957710273
 30
0.0
 10
13.7965160797
 20
14.1261227431
 30
0.0
 10
13.8210101703
 20
14.1540734065
 30
0.0
 10
13.8459117763
 20
14.1795814932
 30
0.0
 10
13.8711857867
 20
14.202608772
 30
0.0
 10
13.896796644
 20
14.2231201055
 30
0.0
 10
13.9227090133
 20
14.2410835459
 30
0.0
 10
13.9488849352
 20
14.256469296
 30
0.0
 10
13.9710624029
 20
14.2672049423
 30
0.0
 10
13.9888635432
 20
14.2744352956
 30
0.0
 10
14.0021505176
 20
14.2791584991
 30
0.0
 10
14.0154712849
 20
14.283221897
 30
0.0
 10
14.0288210775
 20
14.2866238302
 30
0.0
 10
14.0421947224
 20
14.2893629481
 30
0.0
 10
14.0555871347
 20
14.2914380275
 30
0.0
 10
14.0689931443
 20
14.2928482274
 30
0.0
 10
14.0824075745
 20
14.2935929352
 30
0.0
 10
14.095825224
 20
14.2936718006
 30
0.0
 10
14.1092408887
 20
14.2930848555
 30
0.0
 10
14.1226493605
 20
14.2918322536
 30
0.0
 10
14.1360454624
 20
14.2899146609
 30
0.0
 10
14.1494240259
 20
14.2873327411
 30
0.0
 10
14.1627798868
 20
14.2840877765
 30
0.0
 10
14.1761081691
 20
14.2801808299
 30
0.0
 10
14.1939585206
 20
14.2740493778
 30
0.0
 10
14.2162210738
 20
14.2646834825
 30
0.0
 10
14.2425420831
 20
14.2509050974
 30
0.0
 10
14.2686227623
 20
14.2345321665
 30
0.0
 10
14.2944233766
 20
14.2155937272
 30
0.0
 10
14.3110617846
 20
14.2015739814
 30
0.0
 10
14.3193244848
 20
14.1941741556
 30
0.0
  0
SPLINE
  5
2C2
100
AcDbEntity
  8
LAYER_FEATURE
100
AcDbSpline
 62
7
  6
CONTINUOUS
 70
0
 71
3
 72
79
 73
75
 74
0
 42
0.0000001
 43
0.0000001
 44
0.0000000001
 40
0.0
 40
0.0
 40
0.0
 40
0.0
 40
0.0174305741
 40
0.0352680291
 40
0.0534918107
 40
0.0720803336
 40
0.0910108917
 40
0.1102598579
 40
0.1298027331
 40
0.1496142468
 40
0.169668434
 40
0.1899387158
 40
0.210397975
 40
0.23101863
 40
0.2517727072
 40
0.272631912
 40
0.2935676988
 40
0.31455134
 40
0.3355539951
 40
0.3565467783
 40
0.3775008273
 40
0.3983873713
 40
0.4191777998
 40
0.4398437312
 40
0.4603570825
 40
0.4806901403
 40
0.5008156325
 40
0.5207068016
 40
0.5403374799
 40
0.5596821681
 40
0.5787161153
 40
0.597415404
 40
0.6157570392
 40
0.6337190426
 40
0.6512805548
 40
0.668421944
 40
0.6851249267
 40
0.7013726992
 40
0.7171500851
 40
0.7324437001
 40
0.74724214
 40
0.7615361943
 40
0.7753190924
 40
0.7885867874
 40
0.8013382848
 40
0.8135760222
 40
0.8253063055
 40
0.8365398054
 40
0.8472921117
 40
0.8575843342
 40
0.8674437226
 40
0.8769042578
 40
0.8860071339
 40
0.8948010218
 40
0.8991005112
 40
0.903344376
 40
0.9075406721
 40
0.9116978175
 40
0.9158245283
 40
0.9199297688
 40
0.9240226761
 40
0.9281124919
 40
0.9322084831
 40
0.9363198649
 40
0.9404557251
 40
0.9446249519
 40
0.9488361692
 40
0.953097679
 40
0.9574174125
 40
0.961802895
 40
0.9707969387
 40
0.980133244
 40
0.989855484
 40
1.0
 40
1.0
 40
1.0
 40
1.0
 10
13.5468758516
 20
13.6190139743
 30
0.0
 10
13.5410127163
 20
13.6000408615
 30
0.0
 10
13.5296020002
 20
13.5615105428
 30
0.0
 10
13.5135979053
 20
13.502702431
 30
0.0
 10
13.4985276188
 20
13.4422874914
 30
0.0
 10
13.4844157034
 20
13.3803639488
 30
0.0
 10
13.4712850238
 20
13.3170318532
 30
0.0
 10
13.459156894
 20
13.2523937743
 30
0.0
 10
13.4480509991
 20
13.1865543464
 30
0.0
 10
13.4379853667
 20
13.1196201885
 30
0.0
 10
13.4289763385
 20
13.0516997005
 30
0.0
 10
13.4210385415
 20
12.982902894
 30
0.0
 10
13.4141848644
 20
12.9133412095
 30
0.0
 10
13.4084264359
 20
12.8431273353
 30
0.0
 10
13.4037726068
 20
12.772375023
 30
0.0
 10
13.4002309341
 20
12.701198902
 30
0.0
 10
13.3978071692
 20
12.6297142922
 30
0.0
 10
13.3965052481
 20
12.5580370164
 30
0.0
 10
13.3963272849
 20
12.4862832113
 30
0.0
 10
13.3972735688
 20
12.4145691383
 30
0.0
 10
13.3993425629
 20
12.3430109942
 30
0.0
 10
13.4025309076
 20
12.2717247214
 30
0.0
 10
13.4068334253
 20
12.2008258196
 30
0.0
 10
13.4122431293
 20
12.1304291572
 30
0.0
 10
13.4187512351
 20
12.0606487837
 30
0.0
 10
13.426347175
 20
11.991597744
 30
0.0
 10
13.4350186153
 20
11.9233878937
 30
0.0
 10
13.4447514767
 20
11.8561297161
 30
0.0
 10
13.4555299577
 20
11.7899321416
 30
0.0
 10
13.4673365607
 20
11.7249023689
 30
0.0
 10
13.4801521217
 20
11.6611456893
 30
0.0
 10
13.4939558422
 20
11.5987653133
 30
0.0
 10
13.5087253248
 20
11.5378622006
 30
0.0
 10
13.5244366123
 20
11.478534893
 30
0.0
 10
13.5410642288
 20
11.420879351
 30
0.0
 10
13.5585812262
 20
11.3649887943
 30
0.0
 10
13.5769592326
 20
11.3109535457
 30
0.0
 10
13.5961685064
 20
11.2588608798
 30
0.0
 10
13.6161779943
 20
11.2087948766
 30
0.0
 10
13.6369553946
 20
11.16083628
 30
0.0
 10
13.6584672275
 20
11.1150623627
 30
0.0
 10
13.6806789114
 20
11.0715467994
 30
0.0
 10
13.7035548487
 20
11.0303595483
 30
0.0
 10
13.7270585197
 20
10.9915667463
 30
0.0
 10
13.7511525881
 20
10.9552306213
 30
0.0
 10
13.7757990147
 20
10.9214094269
 30
0.0
 10
13.800959177
 20
10.8901574108
 30
0.0
 10
13.8265939946
 20
10.8615248236
 30
0.0
 10
13.8526640117
 20
10.8355579897
 30
0.0
 10
13.879129531
 20
10.8122994148
 30
0.0
 10
13.9059503339
 20
10.791788047
 30
0.0
 10
13.9330864183
 20
10.7740592401
 30
0.0
 10
13.9604944978
 20
10.7591458336
 30
0.0
 10
13.98370358
 20
10.7490115411
 30
0.0
 10
14.0023180052
 20
10.7423864654
 30
0.0
 10
14.0162127141
 20
10.7381717846
 30
0.0
 10
14.0301385036
 20
10.7346768968
 30
0.0
 10
14.0440898331
 20
10.7319030995
 30
0.0
 10
14.058060832
 20
10.7298518617
 30
0.0
 10
14.072045627
 20
10.7285240022
 30
0.0
 10
14.0860383244
 20
10.7279202714
 30
0.0
 10
14.1000329972
 20
10.7280408487
 30
0.0
 10
14.1140237194
 20
10.7288857676
 30
0.0
 10
14.128004577
 20
10.730454554
 30
0.0
 10
14.141969673
 20
10.7327465243
 30
0.0
 10
14.1559131503
 20
10.7357605686
 30
0.0
 10
14.169829211
 20
10.7394953216
 30
0.0
 10
14.1837120273
 20
10.743949041
 30
0.0
 10
14.1975561459
 20
10.7491198542
 30
0.0
 10
14.2161095904
 20
10.7570327328
 30
0.0
 10
14.239213225
 20
10.7687712738
 30
0.0
 10
14.2664439709
 20
10.7855643753
 30
0.0
 10
14.2933738887
 20
10.805150858
 30
0.0
 10
14.3107159697
 20
10.8197262664
 30
0.0
 10
14.3193255053
 20
10.827436744
 30
0.0
  0
SPLINE
  5
2C3
100
AcDbEntity
  8
LAYER_FEATURE
100
AcDbSpline
 62
7
  6
CONTINUOUS
 70
0
 71
3
 72
15
 73
11
 74
0
 42
0.0000001
 43
0.0000001
 44
0.0000000001
 40
0.0
 40
0.0
 40
0.0
 40
0.0
 40
0.1213339219
 40
0.2484555623
 40
0.3790646631
 40
0.5107324282
 40
0.6410008057
 40
0.7674571383
 40
0.8878112372
 40
1.0
 40
1.0
 40
1.0
 40
1.0
 10
13.5415380131
 20
13.4293647428
 30
0.0
 10
13.5413523489
 20
13.4285117638
 30
0.0
 10
13.5410367996
 20
13.4267506138
 30
0.0
 10
13.5407284608
 20
13.4240392697
 30
0.0
 10
13.540578186
 20
13.4212401008
 30
0.0
 10
13.5405894132
 20
13.41841436
 30
0.0
 10
13.5407618709
 20
13.4156237558
 30
0.0
 10
13.5410917058
 20
13.4129291315
 30
0.0
 10
13.5415714294
 20
13.4103893418
 30
0.0
 10
13.5420014558
 20
13.4087702936
 30
0.0
 10
13.5422433794
 20
13.4080002461
 30
0.0
  0
SPLINE
  5
2C4
100
AcDbEntity
  8
LAYER_FEATURE
100
AcDbSpline
 62
7
  6
CONTINUOUS
 70
0
 71
3
 72
15
 73
11
 74
0
 42
0.0000001
 43
0.0000001
 44
0.0000000001
 40
0.0
 40
0.0
 40
0.0
 40
0.0
 40
0.1327178881
 40
0.2650342869
 40
0.3960175694
 40
0.5247465545
 40
0.6503311233
 40
0.7719215299
 40
0.8887195296
 40
1.0
 40
1.0
 40
1.0
 40
1.0
 10
13.5639352747
 20
13.3012719367
 30
0.0
 10
13.5639930398
 20
13.30408945
 30
0.0
 10
13.5640080834
 20
13.3097185195
 30
0.0
 10
13.5637316275
 20
13.3181246341
 30
0.0
 10
13.5631585421
 20
13.3264310125
 30
0.0
 10
13.5622936168
 20
13.3345684301
 30
0.0
 10
13.5611441639
 20
13.3424691978
 30
0.0
 10
13.5597198094
 20
13.3500677298
 30
0.0
 10
13.5580326183
 20
13.3573007604
 30
0.0
 10
13.5567072616
 20
13.3619614259
 30
0.0
 10
13.5559990425
 20
13.3642157012
 30
0.0
  0
SPLINE
  5
2C5
100
AcDbEntity
  8
LAYER_CHAMFER_FEAT
100
AcDbSpline
 62
7
  6
CONTINUOUS
 70
0
 71
3
 72
27
 73
23
 74
0
 42
0.0000001
 43
0.0000001
 44
0.0000000001
 40
0.0
 40
0.0
 40
0.0
 40
0.0
 40
0.0835110203
 40
0.163908404
 40
0.2411670621
 40
0.3152835286
 40
0.3862765929
 40
0.4541914438
 40
0.5191027171
 40
0.5811185474
 40
0.640384702
 40
0.6970888357
 40
0.7514643437
 40
0.8037931689
 40
0.8292988633
 40
0.8544212653
 40
0.8792091128
 40
0.9037137736
 40
0.927988881
 40
0.9520900451
 40
0.9760743638
 40
1.0
 40
1.0
 40
1.0
 40
1.0
 10
16.712513894
 20
11.3573561185
 30
0.0
 10
16.7186767913
 20
11.3447974543
 30
0.0
 10
16.7311854277
 20
11.3203476795
 30
0.0
 10
16.7508938885
 20
11.2850714175
 30
0.0
 10
16.7711616754
 20
11.2519431701
 30
0.0
 10
16.7919536293
 20
11.2210210593
 30
0.0
 10
16.8132344203
 20
11.1923586016
 30
0.0
 10
16.8349680198
 20
11.1660056444
 30
0.0
 10
16.8571180615
 20
11.1420081324
 30
0.0
 10
16.8796479076
 20
11.120408247
 30
0.0
 10
16.9025204945
 20
11.1012446379
 30
0.0
 10
16.9256990563
 20
11.0845523734
 30
0.0
 10
16.9491440455
 20
11.0703641559
 30
0.0
 10
16.9690435342
 20
11.0605675123
 30
0.0
 10
16.9850202326
 20
11.0540567734
 30
0.0
 10
16.9969399328
 20
11.0498553802
 30
0.0
 10
17.0088922403
 20
11.0462969229
 30
0.0
 10
17.0208720139
 20
11.0433829083
 30
0.0
 10
17.0328737879
 20
11.0411149767
 30
0.0
 10
17.044892216
 20
11.0394941155
 30
0.0
 10
17.0569213624
 20
11.0385213315
 30
0.0
 10
17.0649486576
 20
11.0383049971
 30
0.0
 10
17.0689565552
 20
11.0383049935
 30
0.0
  0
SPLINE
  5
2C6
100
AcDbEntity
  8
LAYER_FEATURE
100
AcDbSpline
 62
7
  6
CONTINUOUS
 70
0
 71
3
 72
15
 73
11
 74
0
 42
0.0000001
 43
0.0000001
 44
0.0000000001
 40
0.0
 40
0.0
 40
0.0
 40
0.0
 40
0.1303105813
 40
0.2639701505
 40
0.39850443
 40
0.5313966917
 40
0.6601890075
 40
0.782560582
 40
0.8964145809
 40
1.0
 40
1.0
 40
1.0
 40
1.0
 10
13.4912698329
 20
13.1912534983
 30
0.0
 10
13.49114128
 20
13.1903451463
 30
0.0
 10
13.4909406779
 20
13.1884962117
 30
0.0
 10
13.4908039896
 20
13.1856925332
 30
0.0
 10
13.4908288731
 20
13.1828673643
 30
0.0
 10
13.4910148175
 20
13.1800825221
 30
0.0
 10
13.4913576194
 20
13.1773987793
 30
0.0
 10
13.4918496332
 20
13.1748743835
 30
0.0
 10
13.49247973
 20
13.1725642143
 30
0.0
 10
13.4930100797
 20
13.1711250934
 30
0.0
 10
13.4933006429
 20
13.1704562244
 30
0.0
  0
SPLINE
  5
2C7
100
AcDbEntity
  8
LAYER_FEATURE
100
AcDbSpline
 62
7
  6
CONTINUOUS
 70
0
 71
3
 72
15
 73
11
 74
0
 42
0.0000001
 43
0.0000001
 44
0.0000000001
 40
0.0
 40
0.0
 40
0.0
 40
0.0
 40
0.138722247
 40
0.2752913386
 40
0.4087625207
 40
0.5382244053
 40
0.6628219081
 40
0.7817679241
 40
0.8943585571
 40
1.0
 40
1.0
 40
1.0
 40
1.0
 10
13.5213786413
 20
13.0740454599
 30
0.0
 10
13.5212603996
 20
13.0768327648
 30
0.0
 10
13.5209269773
 20
13.0823604726
 30
0.0
 10
13.5201309176
 20
13.0905442029
 30
0.0
 10
13.5190483795
 20
13.0985073232
 30
0.0
 10
13.5176884359
 20
13.1061835689
 30
0.0
 10
13.5160625539
 20
13.1135092259
 30
0.0
 10
13.5141842989
 20
13.1204237498
 30
0.0
 10
13.512069534
 20
13.1268697409
 30
0.0
 10
13.5104597621
 20
13.1309563745
 30
0.0
 10
13.5096132671
 20
13.132904984
 30
0.0
  0
SPLINE
  5
2C8
100
AcDbEntity
  8
LAYER_FEATURE
100
AcDbSpline
 62
7
  6
CONTINUOUS
 70
0
 71
3
 72
18
 73
14
 74
0
 42
0.0000001
 43
0.0000001
 44
0.0000000001
 40
0.0
 40
0.0
 40
0.0
 40
0.0
 40
0.0453527212
 40
0.0916041362
 40
0.1392150913
 40
0.1886096735
 40
0.2940530334
 40
0.3507451076
 40
0.4103252957
 40
0.5386205341
 40
0.6796567814
 40
0.8335454473
 40
1.0
 40
1.0
 40
1.0
 40
1.0
 10
13.4896615071
 20
12.9919262688
 30
0.0
 10
13.4902131499
 20
12.9919739922
 30
0.0
 10
13.4913226919
 20
12.9921361922
 30
0.0
 10
13.492968854
 20
12.9925723246
 30
0.0
 10
13.4946042932
 20
12.9932016205
 30
0.0
 10
13.4968126574
 20
12.9943193562
 30
0.0
 10
13.4989397469
 20
12.9958104037
 30
0.0
 10
13.5009675188
 20
12.9976054594
 30
0.0
 10
13.5030607117
 20
12.9997381321
 30
0.0
 10
13.5055886648
 20
13.0028708471
 30
0.0
 10
13.5084042754
 20
13.0072119329
 30
0.0
 10
13.5110531783
 20
13.0121897353
 30
0.0
 10
13.512634212
 20
13.0157707277
 30
0.0
 10
13.5133979373
 20
13.0176539738
 30
0.0
  0
SPLINE
  5
2C9
100
AcDbEntity
  8
LAYER_FEATURE
100
AcDbSpline
 62
7
  6
CONTINUOUS
 70
0
 71
3
 72
19
 73
15
 74
0
 42
0.0000001
 43
0.0000001
 44
0.0000000001
 40
0.0
 40
0.0
 40
0.0
 40
0.0
 40
0.0371850802
 40
0.0759555356
 40
0.1172077899
 40
0.1616596662
 40
0.2098176544
 40
0.2620081064
 40
0.3184085129
 40
0.3790765422
 40
0.5129314396
 40
0.6624870161
 40
0.8257126312
 40
1.0
 40
1.0
 40
1.0
 40
1.0
 10
13.4677664416
 20
12.9900320969
 30
0.0
 10
13.4675800087
 20
12.9900159683
 30
0.0
 10
13.4672015606
 20
12.9899459735
 30
0.0
 10
13.4666477387
 20
12.9897352091
 30
0.0
 10
13.4661037158
 20
12.9894198489
 30
0.0
 10
13.4655723466
 20
12.9890027764
 30
0.0
 10
13.4650557398
 20
12.9884867874
 30
0.0
 10
13.4645562617
 20
12.9878747739
 30
0.0
 10
13.4640761847
 20
12.9871700685
 30
0.0
 10
13.4634444698
 20
12.9860756015
 30
0.0
 10
13.4627298936
 20
12.9844936871
 30
0.0
 10
13.4620119761
 20
12.9823608779
 30
0.0
 10
13.4614229099
 20
12.9799791838
 30
0.0
 10
13.461132566
 20
12.9783042062
 30
0.0
 10
13.4610096636
 20
12.9774357802
 30
0.0
  0
SPLINE
  5
2CA
100
AcDbEntity
  8
LAYER_FEATURE
100
AcDbSpline
 62
7
  6
CONTINUOUS
 70
0
 71
3
 72
15
 73
11
 74
0
 42
0.0000001
 43
0.0000001
 44
0.0000000001
 40
0.0
 40
0.0
 40
0.0
 40
0.0
 40
0.1397400448
 40
0.2801617857
 40
0.4186541954
 40
0.5526535795
 40
0.6797530236
 40
0.7977924382
 40
0.9049686454
 40
1.0
 40
1.0
 40
1.0
 40
1.0
 10
13.4565267301
 20
12.9355189949
 30
0.0
 10
13.4564573142
 20
12.9345793347
 30
0.0
 10
13.4563744941
 20
12.9326908395
 30
0.0
 10
13.4564130745
 20
12.9298667844
 30
0.0
 10
13.456612456
 20
12.9270881511
 30
0.0
 10
13.4569682058
 20
12.9244156262
 30
0.0
 10
13.4574723043
 20
12.9219073413
 30
0.0
 10
13.4581136268
 20
12.9196171977
 30
0.0
 10
13.458877781
 20
12.91759447
 30
0.0
 10
13.4594975393
 20
12.916375115
 30
0.0
 10
13.459830387
 20
12.9158275823
 30
0.0
  0
SPLINE
  5
2CB
100
AcDbEntity
  8
LAYER_FEATURE
100
AcDbSpline
 62
7
  6
CONTINUOUS
 70
0
 71
3
 72
15
 73
11
 74
0
 42
0.0000001
 43
0.0000001
 44
0.0000000001
 40
0.0
 40
0.0
 40
0.0
 40
0.0
 40
0.145203619
 40
0.2862997416
 40
0.4223521631
 40
0.552487839
 40
0.6759244603
 40
0.7919878184
 40
0.9001361742
 40
1.0
 40
1.0
 40
1.0
 40
1.0
 10
13.4935672831
 20
12.8322313508
 30
0.0
 10
13.4932783158
 20
12.8349165882
 30
0.0
 10
13.4926095956
 20
12.8402010909
 30
0.0
 10
13.4913147067
 20
12.8479513751
 30
0.0
 10
13.4897509477
 20
12.8553660848
 30
0.0
 10
13.4879314019
 20
12.8623837123
 30
0.0
 10
13.4858713382
 20
12.8689462874
 30
0.0
 10
13.4835877395
 20
12.8750000691
 30
0.0
 10
13.4810997163
 20
12.8804951264
 30
0.0
 10
13.4792423355
 20
12.8838950279
 30
0.0
 10
13.4782774839
 20
12.8854822038
 30
0.0
  0
SPLINE
  5
2CC
100
AcDbEntity
  8
LAYER_FEATURE
100
AcDbSpline
 62
7
  6
CONTINUOUS
 70
0
 71
3
 72
16
 73
12
 74
0
 42
0.0000001
 43
0.0000001
 44
0.0000000001
 40
0.0
 40
0.0
 40
0.0
 40
0.0
 40
0.0891724561
 40
0.1370393052
 40
0.1873281665
 40
0.2956568684
 40
0.4149103571
 40
0.5452857799
 40
0.6866073655
 40
0.8384075773
 40
1.0
 40
1.0
 40
1.0
 40
1.0
 10
13.4673906248
 20
12.7381104906
 30
0.0
 10
13.4685142708
 20
12.7386797462
 30
0.0
 10
13.470155347
 20
12.7397313805
 30
0.0
 10
13.4721991607
 20
12.7414139166
 30
0.0
 10
13.4743107071
 20
12.7434298319
 30
0.0
 10
13.4768662551
 20
12.7464229218
 30
0.0
 10
13.4797185251
 20
12.7506073022
 30
0.0
 10
13.4824090947
 20
12.7554372419
 30
0.0
 10
13.4849168665
 20
12.760873781
 30
0.0
 10
13.4872219144
 20
12.7668731683
 30
0.0
 10
13.4885713056
 20
12.7710919924
 30
0.0
 10
13.4892125395
 20
12.7732826654
 30
0.0
  0
SPLINE
  5
2CD
100
AcDbEntity
  8
LAYER_FEATURE
100
AcDbSpline
 62
7
  6
CONTINUOUS
 70
0
 71
3
 72
17
 73
13
 74
0
 42
0.0000001
 43
0.0000001
 44
0.0000000001
 40
0.0
 40
0.0
 40
0.0
 40
0.0
 40
0.07766259
 40
0.1214453447
 40
0.1688806572
 40
0.2201079022
 40
0.2751626267
 40
0.3964501571
 40
0.5316904589
 40
0.6790164764
 40
0.836033181
 40
1.0
 40
1.0
 40
1.0
 40
1.0
 10
13.4458974181
 20
12.7272217154
 30
0.0
 10
13.4455086755
 20
12.7270247727
 30
0.0
 10
13.4449516261
 20
12.7266133501
 30
0.0
 10
13.4442934843
 20
12.7259311275
 30
0.0
 10
13.4437968552
 20
12.7253030045
 30
0.0
 10
13.4433203594
 20
12.7245830834
 30
0.0
 10
13.4426943633
 20
12.7234690085
 30
0.0
 10
13.4419878014
 20
12.7218652546
 30
0.0
 10
13.4412801772
 20
12.719709627
 30
0.0
 10
13.4407026499
 20
12.717309117
 30
0.0
 10
13.4402679731
 20
12.7147156814
 30
0.0
 10
13.4400827769
 20
12.7129227866
 30
0.0
 10
13.4400149938
 20
12.7120052297
 30
0.0
  0
SPLINE
  5
2CE
100
AcDbEntity
  8
LAYER_FEATURE
100
AcDbSpline
 62
7
  6
CONTINUOUS
 70
0
 71
3
 72
54
 73
50
 74
0
 42
0.0000001
 43
0.0000001
 44
0.0000000001
 40
0.0
 40
0.0
 40
0.0
 40
0.0
 40
0.0416336265
 40
0.0833923601
 40
0.1251777869
 40
0.1668908073
 40
0.2084328434
 40
0.2497059777
 40
0.2906133995
 40
0.3310598158
 40
0.3709518726
 40
0.4101985935
 40
0.4487118228
 40
0.4864066939
 40
0.5232021331
 40
0.5590213973
 40
0.5937926457
 40
0.6274495812
 40
0.6599321822
 40
0.6757169115
 40
0.6911888482
 40
0.7063426553
 40
0.7211735581
 40
0.7356773878
 40
0.7498506514
 40
0.7636905412
 40
0.7771950146
 40
0.7903628536
 40
0.8031936997
 40
0.8156881648
 40
0.8278478816
 40
0.8396755842
 40
0.8511752318
 40
0.8623520692
 40
0.8732127532
 40
0.8837654723
 40
0.8940200304
 40
0.9039879951
 40
0.9136827924
 40
0.9231197961
 40
0.9323164393
 40
0.9412922404
 40
0.950068829
 40
0.9586699213
 40
0.9671212033
 40
0.9754501817
 40
0.9836859369
 40
0.9918588033
 40
1.0
 40
1.0
 40
1.0
 40
1.0
 10
13.4400149938
 20
12.7120052297
 30
0.0
 10
13.4386320227
 20
12.6825117175
 30
0.0
 10
13.4364780687
 20
12.6234053786
 30
0.0
 10
13.4350759725
 20
12.5346363635
 30
0.0
 10
13.4354990965
 20
12.44580059
 30
0.0
 10
13.4377463261
 20
12.3571460388
 30
0.0
 10
13.4418113593
 20
12.2689198133
 30
0.0
 10
13.4476828142
 20
12.1813678462
 30
0.0
 10
13.4553442572
 20
12.0947341523
 30
0.0
 10
13.4647742601
 20
12.0092601721
 30
0.0
 10
13.4759464472
 20
11.9251840732
 30
0.0
 10
13.4888295514
 20
11.8427400777
 30
0.0
 10
13.5033875385
 20
11.7621578004
 30
0.0
 10
13.5195797125
 20
11.6836616059
 30
0.0
 10
13.5373608218
 20
11.6074699329
 30
0.0
 10
13.556681171
 20
11.5337947527
 30
0.0
 10
13.5774868667
 20
11.4628406456
 30
0.0
 10
13.5997197827
 20
11.3948053519
 30
0.0
 10
13.6195699681
 20
11.3401889044
 30
0.0
 10
13.6361411926
 20
11.2981307591
 30
0.0
 10
13.6487682122
 20
11.2677334978
 30
0.0
 10
13.6617032827
 20
11.2382030277
 30
0.0
 10
13.6749374894
 20
11.209559823
 30
0.0
 10
13.6884616405
 20
11.1818238434
 30
0.0
 10
13.7022662954
 20
11.155014352
 30
0.0
 10
13.7163419036
 20
11.1291500025
 30
0.0
 10
13.7306787051
 20
11.1042487716
 30
0.0
 10
13.7452667333
 20
11.0803279403
 30
0.0
 10
13.7600959503
 20
11.0574041508
 30
0.0
 10
13.7751560837
 20
11.035493304
 30
0.0
 10
13.7904367483
 20
11.0146106089
 30
0.0
 10
13.8059274804
 20
10.9947706004
 30
0.0
 10
13.8216176003
 20
10.9759870299
 30
0.0
 10
13.8374964003
 20
10.9582729848
 30
0.0
 10
13.8535530563
 20
10.9416408275
 30
0.0
 10
13.8697765943
 20
10.9261021461
 30
0.0
 10
13.8861560473
 20
10.9116679019
 30
0.0
 10
13.9026802878
 20
10.8983482785
 30
0.0
 10
13.9193381083
 20
10.886152755
 30
0.0
 10
13.9361182646
 20
10.8750902001
 30
0.0
 10
13.9530093092
 20
10.8651686684
 30
0.0
 10
13.9699997223
 20
10.8563956033
 30
0.0
 10
13.9870778206
 20
10.848777764
 30
0.0
 10
14.0042316726
 20
10.8423210701
 30
0.0
 10
14.0214492207
 20
10.8370308224
 30
0.0
 10
14.0387180308
 20
10.8329114196
 30
0.0
 10
14.0560258062
 20
10.8299663457
 30
0.0
 10
14.0733587268
 20
10.8281982936
 30
0.0
 10
14.0849322214
 20
10.8278049943
 30
0.0
 10
14.0907058311
 20
10.8278050022
 30
0.0
  0
SPLINE
  5
2CF
100
AcDbEntity
  8
LAYER_FEATURE
100
AcDbSpline
 62
7
  6
CONTINUOUS
 70
0
 71
3
 72
15
 73
11
 74
0
 42
0.0000001
 43
0.0000001
 44
0.0000000001
 40
0.0
 40
0.0
 40
0.0
 40
0.0
 40
0.1126204601
 40
0.233296856
 40
0.3599530997
 40
0.4902911285
 40
0.6218950407
 40
0.7523079002
 40
0.8791063589
 40
1.0
 40
1.0
 40
1.0
 40
1.0
 10
13.6060293513
 20
13.6436857724
 30
0.0
 10
13.6057899974
 20
13.6429112228
 30
0.0
 10
13.6053652308
 20
13.6412842938
 30
0.0
 10
13.6048933881
 20
13.638734673
 30
0.0
 10
13.6045719241
 20
13.6360333157
 30
0.0
 10
13.6044081388
 20
13.6332392322
 30
0.0
 10
13.6044056912
 20
13.6304133502
 30
0.0
 10
13.6045646553
 20
13.6276173801
 30
0.0
 10
13.604881397
 20
13.624912502
 30
0.0
 10
13.6052025649
 20
13.6231569781
 30
0.0
 10
13.6053910053
 20
13.622307382
 30
0.0
  0
SPLINE
  5
2D0
100
AcDbEntity
  8
LAYER_FEATURE
100
AcDbSpline
 62
7
  6
CONTINUOUS
 70
0
 71
3
 72
15
 73
11
 74
0
 42
0.0000001
 43
0.0000001
 44
0.0000000001
 40
0.0
 40
0.0
 40
0.0
 40
0.0
 40
0.1270541201
 40
0.2553207885
 40
0.383896457
 40
0.511868149
 40
0.6383329274
 40
0.7624063719
 40
0.8832318236
 40
1.0
 40
1.0
 40
1.0
 40
1.0
 10
13.6201349888
 20
13.508025735
 30
0.0
 10
13.6203694798
 20
13.5108003861
 30
0.0
 10
13.6207369943
 20
13.5163854359
 30
0.0
 10
13.6209873592
 20
13.5247969485
 30
0.0
 10
13.6209386874
 20
13.5332322635
 30
0.0
 10
13.6205913483
 20
13.5416210364
 30
0.0
 10
13.6199482959
 20
13.5498934289
 30
0.0
 10
13.6190149124
 20
13.5579806281
 30
0.0
 10
13.6177991188
 20
13.5658152136
 30
0.0
 10
13.6167875872
 20
13.5709251327
 30
0.0
 10
13.6162334428
 20
13.5734235294
 30
0.0
  0
SPLINE
  5
2D1
100
AcDbEntity
  8
LAYER_CHAMFER_FEAT
100
AcDbSpline
 62
7
  6
CONTINUOUS
 70
0
 71
3
 72
39
 73
35
 74
0
 42
0.0000001
 43
0.0000001
 44
0.0000000001
 40
0.0
 40
0.0
 40
0.0
 40
0.0
 40
0.044193524
 40
0.0870953574
 40
0.1286934554
 40
0.1689841161
 40
0.207967535
 40
0.2456503717
 40
0.2820460327
 40
0.3171752394
 40
0.3510669373
 40
0.3837591002
 40
0.4152995592
 40
0.4457468799
 40
0.4751712215
 40
0.5036550239
 40
0.5312934439
 40
0.5581944658
 40
0.5844785359
 40
0.6102775275
 40
0.6357330185
 40
0.6609938906
 40
0.6862133357
 40
0.7115454734
 40
0.7371419032
 40
0.7631484735
 40
0.7897025197
 40
0.8169307832
 40
0.8449480363
 40
0.8738563516
 40
0.9037449402
 40
0.9346904704
 40
0.9667576585
 40
1.0
 40
1.0
 40
1.0
 40
1.0
 10
16.7491524045
 20
11.3820309161
 30
0.0
 10
16.7539320071
 20
11.37229111
 30
0.0
 10
16.7636061484
 20
11.3532196556
 30
0.0
 10
16.7786966151
 20
11.3254578305
 30
0.0
 10
16.7941369183
 20
11.2989918797
 30
0.0
 10
16.8099099755
 20
11.2738510441
 30
0.0
 10
16.8259989891
 20
11.2500624367
 30
0.0
 10
16.8423865907
 20
11.2276519738
 30
0.0
 10
16.8590552359
 20
11.2066440005
 30
0.0
 10
16.8759871939
 20
11.1870614045
 30
0.0
 10
16.8931645221
 20
11.1689255742
 30
0.0
 10
16.9105690953
 20
11.1522563878
 30
0.0
 10
16.9281826537
 20
11.1370722902
 30
0.0
 10
16.9459867965
 20
11.1233903377
 30
0.0
 10
16.9639629135
 20
11.1112261823
 30
0.0
 10
16.9820921354
 20
11.1005941078
 30
0.0
 10
17.0003552613
 20
11.0915070873
 30
0.0
 10
17.0187326289
 20
11.0839767577
 30
0.0
 10
17.0372039453
 20
11.078013223
 30
0.0
 10
17.05574822
 20
11.0736249199
 30
0.0
 10
17.074343743
 20
11.0708184042
 30
0.0
 10
17.092968168
 20
11.0695980764
 30
0.0
 10
17.1115987299
 20
11.0699658432
 30
0.0
 10
17.1302125815
 20
11.0719211011
 30
0.0
 10
17.1487871204
 20
11.0754607855
 30
0.0
 10
17.1673002615
 20
11.080579519
 30
0.0
 10
17.1857306304
 20
11.0872697933
 30
0.0
 10
17.2040575811
 20
11.0955223474
 30
0.0
 10
17.2222611173
 20
11.1053263806
 30
0.0
 10
17.2403217971
 20
11.1166696652
 30
0.0
 10
17.258220578
 20
11.1295385447
 30
0.0
 10
17.2759388484
 20
11.143918218
 30
0.0
 10
17.2934576174
 20
11.1597919324
 30
0.0
 10
17.3047839912
 20
11.1711505497
 30
0.0
 10
17.3104112038
 20
11.1770610797
 30
0.0
  0
SPLINE
  5
2D2
100
AcDbEntity
  8
LAYER_FEATURE
100
AcDbSpline
 62
7
  6
CONTINUOUS
 70
0
 71
3
 72
39
 73
35
 74
0
 42
0.0000001
 43
0.0000001
 44
0.0000000001
 40
0.0
 40
0.0
 40
0.0
 40
0.0
 40
0.0443811822
 40
0.0879669451
 40
0.1307335213
 40
0.1726618635
 40
0.2137331588
 40
0.2539302027
 40
0.2932376924
 40
0.3316421064
 40
0.3691319148
 40
0.4056977065
 40
0.4413323939
 40
0.4760313948
 40
0.5097927958
 40
0.542617629
 40
0.574510131
 40
0.6054779683
 40
0.6355325823
 40
0.6646895404
 40
0.6929688339
 40
0.7203952799
 40
0.7469989387
 40
0.7728154432
 40
0.7978863777
 40
0.822259637
 40
0.8459896216
 40
0.8691373708
 40
0.8917705679
 40
0.9139632733
 40
0.9357954509
 40
0.957352257
 40
0.9787230198
 40
1.0
 40
1.0
 40
1.0
 40
1.0
 10
13.498198403
 20
13.6794317333
 30
0.0
 10
13.502427486
 20
13.6931170508
 30
0.0
 10
13.5110290048
 20
13.7201753232
 30
0.0
 10
13.5244886841
 20
13.7601667988
 30
0.0
 10
13.5383808764
 20
13.7991709814
 30
0.0
 10
13.5526943886
 20
13.8371566038
 30
0.0
 10
13.5674180216
 20
13.8740939968
 30
0.0
 10
13.5825401323
 20
13.9099539517
 30
0.0
 10
13.5980488015
 20
13.9447081609
 30
0.0
 10
13.6139317999
 20
13.9783292451
 30
0.0
 10
13.6301765986
 20
14.0107907114
 30
0.0
 10
13.6467704435
 20
14.0420669694
 30
0.0
 10
13.6637002871
 20
14.0721333927
 30
0.0
 10
13.6809528191
 20
14.1009663278
 30
0.0
 10
13.698514549
 20
14.1285430691
 30
0.0
 10
13.7163717466
 20
14.1548419185
 30
0.0
 10
13.7345104503
 20
14.1798422099
 30
0.0
 10
13.7529165661
 20
14.2035242576
 30
0.0
 10
13.771575823
 20
14.2258694045
 30
0.0
 10
13.7904737529
 20
14.2468600631
 30
0.0
 10
13.8095957985
 20
14.2664796337
 30
0.0
 10
13.8289272812
 20
14.284712529
 30
0.0
 10
13.8484533476
 20
14.3015442372
 30
0.0
 10
13.8681590673
 20
14.316961208
 30
0.0
 10
13.8880293976
 20
14.3309508488
 30
0.0
 10
13.9080490889
 20
14.3435016249
 30
0.0
 10
13.9282027439
 20
14.3546029342
 30
0.0
 10
13.9484747624
 20
14.3642450996
 30
0.0
 10
13.9688492059
 20
14.3724195479
 30
0.0
 10
13.9893098696
 20
14.3791187344
 30
0.0
 10
14.009840065
 20
14.3843361827
 30
0.0
 10
14.0304231871
 20
14.3880667617
 30
0.0
 10
14.0510405005
 20
14.3903067046
 30
0.0
 10
14.0648100451
 20
14.3908049759
 30
0.0
 10
14.0716771123
 20
14.3908049858
 30
0.0
  0
SPLINE
  5
2D3
100
AcDbEntity
  8
02___PRT_ALL_AXES
100
AcDbSpline
 62
7
  6
CONTINUOUS
 70
0
 71
3
 72
49
 73
45
 74
0
 42
0.0000001
 43
0.0000001
 44
0.0000000001
 40
0.0
 40
0.0
 40
0.0
 40
0.0
 40
0.0283479313
 40
0.0584491973
 40
0.0902070445
 40
0.1235018198
 40
0.1581957776
 40
0.1941356929
 40
0.2311555347
 40
0.2690787451
 40
0.3077202989
 40
0.346888631
 40
0.3863874989
 40
0.4260177651
 40
0.4655791451
 40
0.5048719551
 40
0.5436988606
 40
0.5818666423
 40
0.6191880234
 40
0.6554835882
 40
0.6905837897
 40
0.7243311466
 40
0.7565827318
 40
0.7872130596
 40
0.8018880097
 40
0.8161203827
 40
0.8299010736
 40
0.8432229159
 40
0.8560807919
 40
0.8684719898
 40
0.8803964067
 40
0.8918568397
 40
0.902859449
 40
0.9134140415
 40
0.9235345838
 40
0.933239708
 40
0.9425531152
 40
0.9515041493
 40
0.9601281297
 40
0.9684665607
 40
0.9765671625
 40
0.9844833998
 40
0.9922736702
 40
1.0
 40
1.0
 40
1.0
 40
1.0
 10
17.1887448478
 20
12.804552584
 30
0.0
 10
17.1917853457
 20
12.7983567008
 30
0.0
 10
17.1976438686
 20
12.7853775431
 30
0.0
 10
17.2055696276
 20
12.7648856264
 30
0.0
 10
17.2128593259
 20
12.7428867986
 30
0.0
 10
17.2194692481
 20
12.7195114355
 30
0.0
 10
17.2253601918
 20
12.694897188
 30
0.0
 10
17.23049696
 20
12.6691897381
 30
0.0
 10
17.234848851
 20
12.6425413909
 30
0.0
 10
17.2383898039
 20
12.6151102461
 30
0.0
 10
17.2410985992
 20
12.587059176
 30
0.0
 10
17.2429590195
 20
12.5585548364
 30
0.0
 10
17.2439599179
 20
12.5297666371
 30
0.0
 10
17.2440952887
 20
12.5008657103
 30
0.0
 10
17.2433643109
 20
12.4720238735
 30
0.0
 10
17.2417713795
 20
12.4434125845
 30
0.0
 10
17.2393260441
 20
12.4152019018
 30
0.0
 10
17.2360429509
 20
12.3875594502
 30
0.0
 10
17.2319417592
 20
12.3606493996
 30
0.0
 10
17.2270470374
 20
12.3346314285
 30
0.0
 10
17.2213880749
 20
12.3096598163
 30
0.0
 10
17.214998648
 20
12.285882201
 30
0.0
 10
17.2079168858
 20
12.2634395905
 30
0.0
 10
17.2013833181
 20
12.2457141773
 30
0.0
 10
17.1958247565
 20
12.232325284
 30
0.0
 10
17.1915697099
 20
12.2228415867
 30
0.0
 10
17.1871754157
 20
12.2137863111
 30
0.0
 10
17.1826483383
 20
12.2051728007
 30
0.0
 10
17.1779951107
 20
12.1970138206
 30
0.0
 10
17.1732225876
 20
12.1893214024
 30
0.0
 10
17.1683377513
 20
12.182106888
 30
0.0
 10
17.1633476479
 20
12.175380949
 30
0.0
 10
17.1582595309
 20
12.1691534762
 30
0.0
 10
17.153080652
 20
12.163433703
 30
0.0
 10
17.1478183489
 20
12.1582301585
 30
0.0
 10
17.1424800755
 20
12.153550629
 30
0.0
 10
17.1370732488
 20
12.1494023486
 30
0.0
 10
17.1316054536
 20
12.1457918508
 30
0.0
 10
17.1260843984
 20
12.1427250807
 30
0.0
 10
17.1205179469
 20
12.1402074945
 30
0.0
 10
17.1149144393
 20
12.1382437659
 30
0.0
 10
17.1092823148
 20
12.1368379431
 30
0.0
 10
17.1036314391
 20
12.1359931649
 30
0.0
 10
17.0998510621
 20
12.1358049879
 30
0.0
 10
17.0979699765
 20
12.1358049951
 30
0.0
  0
ENDSEC
  0
SECTION
  2
OBJECTS
  0
DICTIONARY
  5
C
100
AcDbDictionary
280
0
281
1
  3
ACAD_GROUP
350
D
  3
ACAD_MLINESTYLE
350
17
  3
ACAD_LAYOUT
350
1A
  3
ACAD_PLOTSETTINGS
350
19
  3
ACAD_PLOTSTYLENAME
350
E
  0
DICTIONARY
  5
D
102
{ACAD_REACTORS
330
C
102
}
100
AcDbDictionary
280
0
281
1
  0
ACDBDICTIONARYWDFLT
  5
E
102
{ACAD_REACTORS
330
C
102
}
100
AcDbDictionary
281
1
  3
Normal
350
F
100
AcDbDictionaryWithDefault
340
F
  0
DICTIONARY
  5
17
102
{ACAD_REACTORS
330
C
102
}
100
AcDbDictionary
280
0
281
1
  3
Standard
350
18
  0
DICTIONARY
  5
19
102
{ACAD_REACTORS
330
C
102
}
100
AcDbDictionary
281
1
  0
DICTIONARY
  5
1A
102
{ACAD_REACTORS
330
C
102
}
100
AcDbDictionary
281
1
  3
Model
350
2D4
  3
Layout1
350
2D5
  0
ACDBPLACEHOLDER
  5
F
102
{ACAD_REACTORS
330
E
102
}
  0
MLINESTYLE
  5
18
102
{ACAD_REACTORS
330
17
102
}
100
AcDbMlineStyle
  2
STANDARD
 70
0
  3

 62
256
 51
90.0
 52
90.0
 71
2
 49
0.5
 62
256
  6
BYLAYER
 49
-0.5
 62
256
  6
BYLAYER
  0
LAYOUT
  5
2D4
102
{ACAD_REACTORS
330
1A
102
}
100
AcDbPlotSettings
  1

  2
none_device
  4
ANSI_C_(22.00_x_17.00_Inches)
  6

 40
0.0
 41
0.0
 42
0.0
 43
0.0
 44
558.8
 45
431.8
 46
0.0
 47
0.0
 48
0.0
 49
0.0
140
0.0
141
0.0
142
1.0
143
1.0
 70
1024
 72
0
 73
0
 74
0
  7

 75
0
147
1.0
148
0.0
149
0.0
100
AcDbLayout
  1
Model
 70
0
 71
0
 10
0.0
 20
0.0
 11
22.0
 21
17.0
 12
0.0
 22
0.0
 32
0.0
 14
0.0
 24
0.0
 34
0.0
 15
0.0
 25
0.0
 35
0.0
146
0.0
 13
0.0
 23
0.0
 33
0.0
 16
1.0
 26
0.0
 36
0.0
 17
0.0
 27
1.0
 37
0.0
 76
0
330
21F
345
0
346
0
  0
LAYOUT
  5
2D5
102
{ACAD_REACTORS
330
1A
102
}
100
AcDbPlotSettings
  1

  2
none_device
  4
ANSI_C_(22.00_x_17.00_Inches)
  6

 40
0.0
 41
0.0
 42
0.0
 43
0.0
 44
558.8
 45
431.8
 46
0.0
 47
0.0
 48
0.0
 49
0.0
140
0.0
141
0.0
142
1.0
143
1.0
 70
0
 72
0
 73
0
 74
0
  7

 75
0
147
1.0
148
0.0
149
0.0
100
AcDbLayout
  1
Layout1
 70
0
 71
1
 10
0.0
 20
0.0
 11
22.0
 21
17.0
 12
0.0
 22
0.0
 32
0.0
 14
0.0
 24
0.0
 34
0.0
 15
0.0
 25
0.0
 35
0.0
146
0.0
 13
0.0
 23
0.0
 33
0.0
 16
1.0
 26
0.0
 36
0.0
 17
0.0
 27
1.0
 37
0.0
 76
0
330
220
345
0
346
0
  0
ENDSEC
  0
EOF