999
DXF file: _cgs_temp_output.dxf
999
Pro/ENGINEER 2016360 by Parametric Technology Corporation
  0
SECTION
  2
HEADER
  9
$ACADVER
  1
AC1021
  9
$DWGCODEPAGE
  3
ANSI_1252
  9
$EXTMAX
 10
22.0
 20
17.0
 30
0.0
  9
$EXTMIN
 10
0.0
 20
0.0
 30
0.0
  9
$LIMMIN
 10
0.0
 20
0.0
  9
$LIMMAX
 10
22.0
 20
17.0
  9
$VIEWCTR
 10
11.0
 20
8.5
  9
$VIEWSIZE
 40
17.0
  9
$CLAYER
  8
0
  9
$LTSCALE
 40
1.21
  9
$CELTYPE
  6
BYLAYER
  9
$DIMSCALE
 40
1.0
  9
$DIMASZ
 40
0.1875
  9
$DIMEXO
 40
0.0625
  9
$DIMDLI
 40
0.836
  9
$DIMEXE
 40
0.125
  9
$DIMCEN
 40
0.198
  9
$DIMLFAC
 40
1.0
  9
$DIMBLK
  1
_CLOSED
  9
$DIMALT
 70
0
  9
$DIMALTF
 40
25.4
  9
$DIMTXT
 40
0.15625
  9
$DIMTOL
 70
0
  9
$DIMLIM
 70
0
  9
$DIMTFAC
 40
1.0
  9
$DIMGAP
 40
0.09
  9
$DIMDSEP
 70
46
  9
$AUNITS
 70
0
  9
$PDMODE
 70
3
  9
$PDSIZE
 40
0.3125
  9
$HANDSEED
  5
346
  9
$TILEMODE
 70
1
  9
$MEASUREMENT
 70
0
  9
$INSUNITS
 70
1
  0
ENDSEC
  0
SECTION
  2
CLASSES
  0
CLASS
  1
ACDBDICTIONARYWDFLT
  2
AcDbDictionaryWithDefault
  3
AutoCAD 2000
 90
0
 91
1
280
0
281
0
  0
CLASS
  1
ACDBPLACEHOLDER
  2
AcDbPlaceHolder
  3
AutoCAD 2000
 90
0
 91
1
280
0
281
0
  0
CLASS
  1
LAYOUT
  2
AcDbLayout
  3
AutoCAD 2000
 90
0
 91
0
280
0
281
0
  0
ENDSEC
  0
SECTION
  2
TABLES
  0
TABLE
  2
VPORT
  5
8
100
AcDbSymbolTable
 70
2
  0
VPORT
  5
1F4
100
AcDbSymbolTableRecord
100
AcDbViewportTableRecord
  2
*ACTIVE
 70
0
 10
0.0
 20
0.0
 11
1.0
 21
1.0
 12
11.0
 22
8.5
 13
0.0
 23
0.0
 14
1.0
 24
1.0
 15
0.0
 25
0.0
 16
0.0
 26
0.0
 36
1.0
 17
0.0
 27
0.0
 37
0.0
 40
17.0
 41
1.2941176471
 42
50.0
 43
0.0
 44
0.0
 50
0.0
 51
0.0
 71
0
 72
100
 73
1
 74
1
 75
0
 76
0
 77
0
 78
0
  0
ENDTAB
  0
TABLE
  2
LTYPE
  5
5
100
AcDbSymbolTable
 70
6
  0
LTYPE
  5
14
100
AcDbSymbolTableRecord
100
AcDbLinetypeTableRecord
  2
BYBLOCK
 70
0
  3

 72
65
 73
0
 40
0.0
  0
LTYPE
  5
15
100
AcDbSymbolTableRecord
100
AcDbLinetypeTableRecord
  2
BYLAYER
 70
0
  3

 72
65
 73
0
 40
0.0
  0
LTYPE
  5
16
100
AcDbSymbolTableRecord
100
AcDbLinetypeTableRecord
  2
CONTINUOUS
 70
64
  3
Solid line
 72
65
 73
0
 40
0.0
  0
LTYPE
  5
1F5
100
AcDbSymbolTableRecord
100
AcDbLinetypeTableRecord
  2
CENTER
 70
64
  3
____ _ ____ _ ____ _ ____ _ ____ _ ____ _ ____
 72
65
 73
4
 40
0.6
 49
0.375
 74
0
 49
-0.075
 74
0
 49
0.075
 74
0
 49
-0.075
 74
0
  0
LTYPE
  5
1F6
100
AcDbSymbolTableRecord
100
AcDbLinetypeTableRecord
  2
HIDDEN
 70
64
  3
- - - - - - - - - - - - - - - - - - - -
 72
65
 73
2
 40
0.2
 49
0.1
 74
0
 49
-0.1
 74
0
  0
LTYPE
  5
1F7
100
AcDbSymbolTableRecord
100
AcDbLinetypeTableRecord
  2
PHANTOM
 70
64
  3
_____ _ _ _____ _ _ _____ _ _ _____
 72
65
 73
6
 40
0.8
 49
0.45
 74
0
 49
-0.05
 74
0
 49
0.1
 74
0
 49
-0.05
 74
0
 49
0.1
 74
0
 49
-0.05
 74
0
  0
LTYPE
  5
1F8
100
AcDbSymbolTableRecord
100
AcDbLinetypeTableRecord
  2
DOT
 70
64
  3
. . . . . . . . . . . . . . . . . . . .
 72
65
 73
2
 40
0.2
 49
0.1
 74
0
 49
-0.1
 74
0
  0
LTYPE
  5
1F9
100
AcDbSymbolTableRecord
100
AcDbLinetypeTableRecord
  2
DASHED
 70
64
  3
- - - - - - - - - - - - - - - - - - - -
 72
65
 73
2
 40
0.2
 49
0.1
 74
0
 49
-0.1
 74
0
  0
ENDTAB
  0
TABLE
  2
LAYER
  5
2
100
AcDbSymbolTable
 70
36
  0
LAYER
  5
10
100
AcDbSymbolTableRecord
100
AcDbLayerTableRecord
  2
0
 70
0
 62
7
  6
CONTINUOUS
370
-3
390
F
  0
LAYER
  5
1FA
100
AcDbSymbolTableRecord
100
AcDbLayerTableRecord
  2
DEFAULT_1
 70
0
 62
7
  6
CENTER
370
-3
390
F
  0
LAYER
  5
1FB
100
AcDbSymbolTableRecord
100
AcDbLayerTableRecord
  2
DEFAULT_2
 70
0
 62
8
  6
HIDDEN
370
-3
390
F
  0
LAYER
  5
1FC
100
AcDbSymbolTableRecord
100
AcDbLayerTableRecord
  2
DEFAULT_3
 70
0
 62
7
  6
PHANTOM
370
-3
390
F
  0
LAYER
  5
1FD
100
AcDbSymbolTableRecord
100
AcDbLayerTableRecord
  2
01_ALL_DTM_PLN
 70
0
 62
7
  6
CONTINUOUS
370
-3
390
F
  0
LAYER
  5
1FE
100
AcDbSymbolTableRecord
100
AcDbLayerTableRecord
  2
01__ASM_ALL_DTM_PLN
 70
0
 62
7
  6
CONTINUOUS
370
-3
390
F
  0
LAYER
  5
1FF
100
AcDbSymbolTableRecord
100
AcDbLayerTableRecord
  2
01__ASM_DEF_DTM_PLN
 70
0
 62
7
  6
CONTINUOUS
370
-3
390
F
  0
LAYER
  5
200
100
AcDbSymbolTableRecord
100
AcDbLayerTableRecord
  2
01___PRT_ALL_DTM_PLN
 70
0
 62
7
  6
CONTINUOUS
370
-3
390
F
  0
LAYER
  5
201
100
AcDbSymbolTableRecord
100
AcDbLayerTableRecord
  2
01___PRT_DEF_DTM_PLN
 70
0
 62
7
  6
CONTINUOUS
370
-3
390
F
  0
LAYER
  5
202
100
AcDbSymbolTableRecord
100
AcDbLayerTableRecord
  2
02_ALL_AXES
 70
0
 62
7
  6
CONTINUOUS
370
-3
390
F
  0
LAYER
  5
203
100
AcDbSymbolTableRecord
100
AcDbLayerTableRecord
  2
02__ASM_ALL_AXES
 70
0
 62
7
  6
CONTINUOUS
370
-3
390
F
  0
LAYER
  5
204
100
AcDbSymbolTableRecord
100
AcDbLayerTableRecord
  2
02___PRT_ALL_AXES
 70
0
 62
7
  6
CONTINUOUS
370
-3
390
F
  0
LAYER
  5
205
100
AcDbSymbolTableRecord
100
AcDbLayerTableRecord
  2
03_ALL_CURVES
 70
0
 62
7
  6
CONTINUOUS
370
-3
390
F
  0
LAYER
  5
206
100
AcDbSymbolTableRecord
100
AcDbLayerTableRecord
  2
03__ASM_ALL_CURVES
 70
0
 62
7
  6
CONTINUOUS
370
-3
390
F
  0
LAYER
  5
207
100
AcDbSymbolTableRecord
100
AcDbLayerTableRecord
  2
03___PRT_ALL_CURVES
 70
0
 62
7
  6
CONTINUOUS
370
-3
390
F
  0
LAYER
  5
208
100
AcDbSymbolTableRecord
100
AcDbLayerTableRecord
  2
04_ALL_DTM_PNT
 70
0
 62
7
  6
CONTINUOUS
370
-3
390
F
  0
LAYER
  5
209
100
AcDbSymbolTableRecord
100
AcDbLayerTableRecord
  2
04__ASM_ALL_DTM_PNT
 70
0
 62
7
  6
CONTINUOUS
370
-3
390
F
  0
LAYER
  5
20A
100
AcDbSymbolTableRecord
100
AcDbLayerTableRecord
  2
04___PRT_ALL_DTM_PNT
 70
0
 62
7
  6
CONTINUOUS
370
-3
390
F
  0
LAYER
  5
20B
100
AcDbSymbolTableRecord
100
AcDbLayerTableRecord
  2
05_ALL_DTM_CSYS
 70
0
 62
7
  6
CONTINUOUS
370
-3
390
F
  0
LAYER
  5
20C
100
AcDbSymbolTableRecord
100
AcDbLayerTableRecord
  2
05__ASM_ALL_DTM_CSYS
 70
0
 62
7
  6
CONTINUOUS
370
-3
390
F
  0
LAYER
  5
20D
100
AcDbSymbolTableRecord
100
AcDbLayerTableRecord
  2
05__ASM_DEF_DTM_CSYS
 70
0
 62
7
  6
CONTINUOUS
370
-3
390
F
  0
LAYER
  5
20E
100
AcDbSymbolTableRecord
100
AcDbLayerTableRecord
  2
05___PRT_ALL_DTM_CSYS
 70
0
 62
7
  6
CONTINUOUS
370
-3
390
F
  0
LAYER
  5
20F
100
AcDbSymbolTableRecord
100
AcDbLayerTableRecord
  2
05___PRT_DEF_DTM_CSYS
 70
0
 62
7
  6
CONTINUOUS
370
-3
390
F
  0
LAYER
  5
210
100
AcDbSymbolTableRecord
100
AcDbLayerTableRecord
  2
06_ALL_SURFS
 70
0
 62
7
  6
CONTINUOUS
370
-3
390
F
  0
LAYER
  5
211
100
AcDbSymbolTableRecord
100
AcDbLayerTableRecord
  2
06__ASM_ALL_SURFS
 70
0
 62
7
  6
CONTINUOUS
370
-3
390
F
  0
LAYER
  5
212
100
AcDbSymbolTableRecord
100
AcDbLayerTableRecord
  2
06___PRT_ALL_SURFS
 70
0
 62
7
  6
CONTINUOUS
370
-3
390
F
  0
LAYER
  5
213
100
AcDbSymbolTableRecord
100
AcDbLayerTableRecord
  2
07__ASM_ALL_SKELETONS
 70
0
 62
7
  6
CONTINUOUS
370
-3
390
F
  0
LAYER
  5
214
100
AcDbSymbolTableRecord
100
AcDbLayerTableRecord
  2
ANNOTATIONS
 70
0
 62
7
  6
CONTINUOUS
370
-3
390
F
  0
LAYER
  5
215
100
AcDbSymbolTableRecord
100
AcDbLayerTableRecord
  2
ASM_DATUMS
 70
0
 62
7
  6
CONTINUOUS
370
-3
390
F
  0
LAYER
  5
216
100
AcDbSymbolTableRecord
100
AcDbLayerTableRecord
  2
ASM_DEF_DATUMS
 70
0
 62
7
  6
CONTINUOUS
370
-3
390
F
  0
LAYER
  5
217
100
AcDbSymbolTableRecord
100
AcDbLayerTableRecord
  2
AXIS
 70
0
 62
7
  6
CONTINUOUS
370
-3
390
F
  0
LAYER
  5
218
100
AcDbSymbolTableRecord
100
AcDbLayerTableRecord
  2
CSYS
 70
0
 62
7
  6
CONTINUOUS
370
-3
390
F
  0
LAYER
  5
219
100
AcDbSymbolTableRecord
100
AcDbLayerTableRecord
  2
CURVES
 70
0
 62
7
  6
CONTINUOUS
370
-3
390
F
  0
LAYER
  5
21A
100
AcDbSymbolTableRecord
100
AcDbLayerTableRecord
  2
DATUMS
 70
0
 62
7
  6
CONTINUOUS
370
-3
390
F
  0
LAYER
  5
21B
100
AcDbSymbolTableRecord
100
AcDbLayerTableRecord
  2
DEF_CSYS
 70
0
 62
7
  6
CONTINUOUS
370
-3
390
F
  0
LAYER
  5
21C
100
AcDbSymbolTableRecord
100
AcDbLayerTableRecord
  2
DEF_DATUMS
 70
0
 62
7
  6
CONTINUOUS
370
-3
390
F
  0
LAYER
  5
21D
100
AcDbSymbolTableRecord
100
AcDbLayerTableRecord
  2
GTOL
 70
0
 62
7
  6
CONTINUOUS
370
-3
390
F
  0
LAYER
  5
21E
100
AcDbSymbolTableRecord
100
AcDbLayerTableRecord
  2
POINTS
 70
0
 62
7
  6
CONTINUOUS
370
-3
390
F
  0
LAYER
  5
21F
100
AcDbSymbolTableRecord
100
AcDbLayerTableRecord
  2
SKELETONS
 70
0
 62
7
  6
CONTINUOUS
370
-3
390
F
  0
LAYER
  5
220
100
AcDbSymbolTableRecord
100
AcDbLayerTableRecord
  2
SURFACES
 70
0
 62
7
  6
CONTINUOUS
370
-3
390
F
  0
LAYER
  5
221
100
AcDbSymbolTableRecord
100
AcDbLayerTableRecord
  2
XSEC_DATUMS
 70
0
 62
7
  6
CONTINUOUS
370
-3
390
F
  0
ENDTAB
  0
TABLE
  2
STYLE
  5
3
100
AcDbSymbolTable
 70
1
  0
STYLE
  5
11
100
AcDbSymbolTableRecord
100
AcDbTextStyleTableRecord
  2
STANDARD
 70
0
 40
0.0
 41
0.8
 50
0.0
 71
0
 42
0.2
  3
txt
  4

  0
STYLE
  5
222
100
AcDbSymbolTableRecord
100
AcDbTextStyleTableRecord
  2
TEXTSTYLE_1
 70
0
 40
0.0
 41
0.8
 50
0.0
 71
0
 42
0.2
  3
gdt
  4

  0
ENDTAB
  0
TABLE
  2
VIEW
  5
6
100
AcDbSymbolTable
 70
0
  0
ENDTAB
  0
TABLE
  2
UCS
  5
7
100
AcDbSymbolTable
 70
0
  0
ENDTAB
  0
TABLE
  2
APPID
  5
9
100
AcDbSymbolTable
 70
1
  0
APPID
  5
223
100
AcDbSymbolTableRecord
100
AcDbRegAppTableRecord
  2
ACAD
 70
0
  0
ENDTAB
  0
TABLE
  2
BLOCK_RECORD
  5
1
100
AcDbSymbolTable
 70
0
  0
BLOCK_RECORD
  5
224
100
AcDbSymbolTableRecord
100
AcDbBlockTableRecord
  2
*Model_Space
  0
BLOCK_RECORD
  5
225
100
AcDbSymbolTableRecord
100
AcDbBlockTableRecord
  2
*Paper_Space
  0
ENDTAB
  0
TABLE
  2
DIMSTYLE
  5
A
100
AcDbSymbolTable
 70
1
100
AcDbDimStyleTable
 71
0
  0
DIMSTYLE
105
226
100
AcDbSymbolTableRecord
100
AcDbDimStyleTableRecord
  2
STANDARD
 70
0
  3

  4

 40
1.0
 41
0.1875
 42
0.0625
 43
0.38
 44
0.125
 45
0.0
 46
0.0
 47
0.0001
 48
0.0001
140
0.15625
141
0.09
142
0.0
143
25.4
144
1.0
145
0.0
146
1.0
147
0.09
 71
0.0
 72
0.0
 73
1
 74
1
 75
0
 76
0
 77
0
 78
4
 79
1
170
0
171
3
172
0
173
0
174
0
175
0
176
0
177
0
178
0
270
2
179
4
271
4
272
4
273
2
274
2
275
0
280
0
281
0
282
0
283
1
284
4
285
0
286
0
287
3
288
0
340
11
278
46
  0
ENDTAB
  0
ENDSEC
  0
SECTION
  2
BLOCKS
  0
BLOCK
  5
20
100
AcDbEntity
  8
0
100
AcDbBlockBegin
  2
*Model_Space
 70
0
 10
0.0
 20
0.0
 30
0.0
  3
*Model_Space
  1

  0
ENDBLK
  5
21
100
AcDbEntity
  8
0
100
AcDbBlockEnd
  0
BLOCK
  5
1C
100
AcDbEntity
  8
0
100
AcDbBlockBegin
  2
*Paper_Space
 70
0
 10
0.0
 20
0.0
 30
0.0
  3
*Paper_Space
  1

  0
ENDBLK
  5
1D
100
AcDbEntity
  8
0
100
AcDbBlockEnd
  0
ENDSEC
  0
SECTION
  2
ENTITIES
  0
MTEXT
  5
227
100
AcDbEntity
  8
0
100
AcDbMText
 62
7
  6
CONTINUOUS
  7
STANDARD
 71
1
 72
1
 10
15.9560215477
 20
0.9479130325
 30
0.0
 11
1.0
 21
0.0
 31
0.0
 44
0.9
  1
SCALE: 1:0.500
 40
0.3
 41
3.36
  0
LINE
  5
228
100
AcDbEntity
  8
0
100
AcDbLine
 62
7
  6
CONTINUOUS
 10
0.0
 20
0.0
 11
0.0
 21
17.0
  0
LINE
  5
229
100
AcDbEntity
  8
0
100
AcDbLine
 62
7
  6
CONTINUOUS
 10
0.0
 20
0.0
 11
22.0
 21
0.0
  0
LINE
  5
22A
100
AcDbEntity
  8
0
100
AcDbLine
 62
7
  6
CONTINUOUS
 10
0.0
 20
17.0
 11
22.0
 21
17.0
  0
LINE
  5
22B
100
AcDbEntity
  8
0
100
AcDbLine
 62
7
  6
CONTINUOUS
 10
22.0
 20
0.0
 11
22.0
 21
17.0
  0
LINE
  5
22C
100
AcDbEntity
  8
02___PRT_ALL_AXES
100
AcDbLine
 62
7
  6
CONTINUOUS
 10
6.7147367718
 20
3.9891198968
 11
6.7734256278
 21
4.0015945982
  0
LINE
  5
22D
100
AcDbEntity
  8
02___PRT_ALL_AXES
100
AcDbLine
 62
7
  6
CONTINUOUS
 10
5.1530348485
 20
3.9891198968
 11
5.0943459925
 21
4.0015945982
  0
LINE
  5
22E
100
AcDbEntity
  8
0
100
AcDbLine
 62
7
  6
CONTINUOUS
 10
5.1801358102
 20
4.1497127229
 11
6.6876358102
 21
4.1497127229
  0
LINE
  5
22F
100
AcDbEntity
  8
0
100
AcDbLine
 62
7
  6
CONTINUOUS
 10
5.1801358102
 20
4.200513497
 11
6.6876358102
 21
4.200513497
  0
LINE
  5
230
100
AcDbEntity
  8
0
100
AcDbLine
 62
7
  6
CONTINUOUS
 10
5.1801358102
 20
4.3006425453
 11
6.6876358102
 21
4.3006425453
  0
LINE
  5
231
100
AcDbEntity
  8
0
100
AcDbLine
 62
7
  6
CONTINUOUS
 10
7.1513858102
 20
4.3776198968
 11
6.7734256278
 21
4.3776198968
  0
LINE
  5
232
100
AcDbEntity
  8
02___PRT_ALL_AXES
100
AcDbLine
 62
7
  6
CONTINUOUS
 10
5.0943459925
 20
7.0386451953
 11
5.0943459925
 21
4.0015945982
  0
LINE
  5
233
100
AcDbEntity
  8
02___PRT_ALL_AXES
100
AcDbLine
 62
7
  6
CONTINUOUS
 10
5.1530348485
 20
7.0511198968
 11
5.1530348485
 21
3.9891198968
  0
LINE
  5
234
100
AcDbEntity
  8
0
100
AcDbLine
 62
7
  6
CONTINUOUS
 10
5.1801358102
 20
4.4462519645
 11
6.6876358102
 21
4.4462519645
  0
LINE
  5
235
100
AcDbEntity
  8
02___PRT_ALL_AXES
100
AcDbLine
 62
7
  6
CONTINUOUS
 10
5.1801358102
 20
6.9236198968
 11
5.1801358102
 21
4.1166198968
  0
LINE
  5
236
100
AcDbEntity
  8
0
100
AcDbLine
 62
7
  6
CONTINUOUS
 10
5.1801358102
 20
4.6317460662
 11
6.6876358102
 21
4.6317460662
  0
LINE
  5
237
100
AcDbEntity
  8
02___PRT_ALL_AXES
100
AcDbLine
 62
7
  6
CONTINUOUS
 10
5.1801358102
 20
4.1166198968
 11
5.1530348485
 21
3.9891198968
  0
LINE
  5
238
100
AcDbEntity
  8
0
100
AcDbLine
 62
7
  6
CONTINUOUS
 10
5.1801358102
 20
4.8499964163
 11
6.6876358102
 21
4.8499964163
  0
LINE
  5
239
100
AcDbEntity
  8
02___PRT_ALL_AXES
100
AcDbLine
 62
7
  6
CONTINUOUS
 10
5.1801358102
 20
6.9236198968
 11
5.1530348485
 21
7.0511198968
  0
LINE
  5
23A
100
AcDbEntity
  8
0
100
AcDbLine
 62
7
  6
CONTINUOUS
 10
5.1801358102
 20
5.092615776
 11
6.6876358102
 21
5.092615776
  0
LINE
  5
23B
100
AcDbEntity
  8
02___PRT_ALL_AXES
100
AcDbLine
 62
7
  6
CONTINUOUS
 10
6.6876358102
 20
6.9236198968
 11
6.7147367718
 21
7.0511198968
  0
LINE
  5
23C
100
AcDbEntity
  8
02___PRT_ALL_AXES
100
AcDbLine
 62
7
  6
CONTINUOUS
 10
6.6876358102
 20
4.1166198968
 11
6.7147367718
 21
3.9891198968
  0
LINE
  5
23D
100
AcDbEntity
  8
0
100
AcDbLine
 62
7
  6
CONTINUOUS
 10
6.6876358102
 20
5.9476240175
 11
5.1801358102
 21
5.9476240175
  0
LINE
  5
23E
100
AcDbEntity
  8
02___PRT_ALL_AXES
100
AcDbLine
 62
7
  6
CONTINUOUS
 10
6.6876358102
 20
4.1166198968
 11
6.6876358102
 21
6.9236198968
  0
LINE
  5
23F
100
AcDbEntity
  8
02___PRT_ALL_AXES
100
AcDbLine
 62
7
  6
CONTINUOUS
 10
6.7147367718
 20
3.9891198968
 11
6.7147367718
 21
7.0511198968
  0
LINE
  5
240
100
AcDbEntity
  8
02___PRT_ALL_AXES
100
AcDbLine
 62
7
  6
CONTINUOUS
 10
6.7734256278
 20
4.0015945982
 11
6.7734256278
 21
7.0386451953
  0
LINE
  5
241
100
AcDbEntity
  8
0
100
AcDbLine
 62
7
  6
CONTINUOUS
 10
6.6876358102
 20
6.1902433772
 11
5.1801358102
 21
6.1902433772
  0
LINE
  5
242
100
AcDbEntity
  8
0
100
AcDbLine
 62
7
  6
CONTINUOUS
 10
6.6876358102
 20
6.4084937273
 11
5.1801358102
 21
6.4084937273
  0
LINE
  5
243
100
AcDbEntity
  8
0
100
AcDbLine
 62
7
  6
CONTINUOUS
 10
7.1513858102
 20
4.3776198968
 11
7.1513858102
 21
6.6626198968
  0
LINE
  5
244
100
AcDbEntity
  8
0
100
AcDbLine
 62
7
  6
CONTINUOUS
 10
7.1663858102
 20
4.3926198968
 11
7.1663858102
 21
6.6476198968
  0
LINE
  5
245
100
AcDbEntity
  8
0
100
AcDbLine
 62
7
  6
CONTINUOUS
 10
6.6876358102
 20
6.5939878291
 11
5.1801358102
 21
6.5939878291
  0
LINE
  5
246
100
AcDbEntity
  8
0
100
AcDbLine
 62
7
  6
CONTINUOUS
 10
7.1513858102
 20
6.6626198968
 11
6.7734256278
 21
6.6626198968
  0
LINE
  5
247
100
AcDbEntity
  8
0
100
AcDbLine
 62
7
  6
CONTINUOUS
 10
6.6876358102
 20
6.7395972482
 11
5.1801358102
 21
6.7395972482
  0
LINE
  5
248
100
AcDbEntity
  8
0
100
AcDbLine
 62
7
  6
CONTINUOUS
 10
6.6876358102
 20
6.8397262965
 11
5.1801358102
 21
6.8397262965
  0
LINE
  5
249
100
AcDbEntity
  8
0
100
AcDbLine
 62
7
  6
CONTINUOUS
 10
6.6876358102
 20
6.8905270706
 11
5.1801358102
 21
6.8905270706
  0
LINE
  5
24A
100
AcDbEntity
  8
0
100
AcDbLine
 62
7
  6
CONTINUOUS
 10
7.1513858996
 20
4.3776198073
 11
7.1663858985
 21
4.3926198085
  0
LINE
  5
24B
100
AcDbEntity
  8
0
100
AcDbLine
 62
7
  6
CONTINUOUS
 10
7.1513858996
 20
6.6626199862
 11
7.1663858985
 21
6.647619985
  0
LINE
  5
24C
100
AcDbEntity
  8
02___PRT_ALL_AXES
100
AcDbLine
 62
7
  6
CONTINUOUS
 10
5.1530348485
 20
7.0511198968
 11
5.0943459925
 21
7.0386451953
  0
LINE
  5
24D
100
AcDbEntity
  8
02___PRT_ALL_AXES
100
AcDbLine
 62
7
  6
CONTINUOUS
 10
6.7147367718
 20
7.0511198968
 11
6.7734256278
 21
7.0386451953
  0
LINE
  5
24E
100
AcDbEntity
  8
02___PRT_ALL_AXES
100
AcDbLine
 62
7
  6
CONTINUOUS
 10
6.7139304355
 20
11.0815224828
 11
6.6552415795
 21
11.0690477814
  0
LINE
  5
24F
100
AcDbEntity
  8
02___PRT_ALL_AXES
100
AcDbLine
 62
7
  6
CONTINUOUS
 10
5.0348508002
 20
11.0815224828
 11
5.0935396562
 21
11.0690477814
  0
LINE
  5
250
100
AcDbEntity
  8
0
100
AcDbLine
 62
7
  6
CONTINUOUS
 10
5.1206406178
 20
11.2296406075
 11
6.6281406178
 21
11.2296406075
  0
LINE
  5
251
100
AcDbEntity
  8
0
100
AcDbLine
 62
7
  6
CONTINUOUS
 10
5.1206406178
 20
11.2804413817
 11
6.6281406178
 21
11.2804413817
  0
LINE
  5
252
100
AcDbEntity
  8
0
100
AcDbLine
 62
7
  6
CONTINUOUS
 10
5.1206406178
 20
11.3805704299
 11
6.6281406178
 21
11.3805704299
  0
LINE
  5
253
100
AcDbEntity
  8
AXIS
100
AcDbLine
 62
7
  6
CONTINUOUS
 10
7.0918907968
 20
11.4575477814
 11
6.7139304355
 21
11.4575477814
  0
LINE
  5
254
100
AcDbEntity
  8
02___PRT_ALL_AXES
100
AcDbLine
 62
7
  6
CONTINUOUS
 10
5.0348508002
 20
11.0815224828
 11
5.0348508002
 21
14.1185730799
  0
LINE
  5
255
100
AcDbEntity
  8
02___PRT_ALL_AXES
100
AcDbLine
 62
7
  6
CONTINUOUS
 10
5.0935396562
 20
11.0690477814
 11
5.0935396562
 21
14.1310477814
  0
LINE
  5
256
100
AcDbEntity
  8
0
100
AcDbLine
 62
7
  6
CONTINUOUS
 10
5.1206406178
 20
11.5261798491
 11
6.6281406178
 21
11.5261798491
  0
LINE
  5
257
100
AcDbEntity
  8
02___PRT_ALL_AXES
100
AcDbLine
 62
7
  6
CONTINUOUS
 10
5.1206406178
 20
11.1965477814
 11
5.1206406178
 21
14.0035477814
  0
LINE
  5
258
100
AcDbEntity
  8
0
100
AcDbLine
 62
7
  6
CONTINUOUS
 10
5.1206406178
 20
11.7116739508
 11
6.6281406178
 21
11.7116739508
  0
LINE
  5
259
100
AcDbEntity
  8
02___PRT_ALL_AXES
100
AcDbLine
 62
7
  6
CONTINUOUS
 10
5.0935396562
 20
11.0690477814
 11
5.1206406178
 21
11.1965477814
  0
LINE
  5
25A
100
AcDbEntity
  8
0
100
AcDbLine
 62
7
  6
CONTINUOUS
 10
5.1206406178
 20
11.9299243009
 11
6.6281406178
 21
11.9299243009
  0
LINE
  5
25B
100
AcDbEntity
  8
02___PRT_ALL_AXES
100
AcDbLine
 62
7
  6
CONTINUOUS
 10
5.0935396562
 20
14.1310477814
 11
5.1206406178
 21
14.0035477814
  0
LINE
  5
25C
100
AcDbEntity
  8
0
100
AcDbLine
 62
7
  6
CONTINUOUS
 10
5.1206406178
 20
12.1725436607
 11
6.6281406178
 21
12.1725436607
  0
LINE
  5
25D
100
AcDbEntity
  8
02___PRT_ALL_AXES
100
AcDbLine
 62
7
  6
CONTINUOUS
 10
6.6552415795
 20
14.1310477814
 11
6.6281406178
 21
14.0035477814
  0
LINE
  5
25E
100
AcDbEntity
  8
02___PRT_ALL_AXES
100
AcDbLine
 62
7
  6
CONTINUOUS
 10
6.6552415795
 20
11.0690477814
 11
6.6281406178
 21
11.1965477814
  0
LINE
  5
25F
100
AcDbEntity
  8
0
100
AcDbLine
 62
7
  6
CONTINUOUS
 10
6.6281406178
 20
13.0275519021
 11
5.1206406178
 21
13.0275519021
  0
LINE
  5
260
100
AcDbEntity
  8
02___PRT_ALL_AXES
100
AcDbLine
 62
7
  6
CONTINUOUS
 10
6.6281406178
 20
11.1965477814
 11
6.6281406178
 21
14.0035477814
  0
LINE
  5
261
100
AcDbEntity
  8
02___PRT_ALL_AXES
100
AcDbLine
 62
7
  6
CONTINUOUS
 10
6.6552415795
 20
11.0690477814
 11
6.6552415795
 21
14.1310477814
  0
LINE
  5
262
100
AcDbEntity
  8
02___PRT_ALL_AXES
100
AcDbLine
 62
7
  6
CONTINUOUS
 10
6.7139304355
 20
11.0815224828
 11
6.7139304355
 21
14.1185730799
  0
LINE
  5
263
100
AcDbEntity
  8
0
100
AcDbLine
 62
7
  6
CONTINUOUS
 10
6.6281406178
 20
13.2701712619
 11
5.1206406178
 21
13.2701712619
  0
LINE
  5
264
100
AcDbEntity
  8
0
100
AcDbLine
 62
7
  6
CONTINUOUS
 10
6.6281406178
 20
13.4884216119
 11
5.1206406178
 21
13.4884216119
  0
LINE
  5
265
100
AcDbEntity
  8
0
100
AcDbLine
 62
7
  6
CONTINUOUS
 10
7.0918906178
 20
11.4575477814
 11
7.0918906178
 21
13.7425477814
  0
LINE
  5
266
100
AcDbEntity
  8
0
100
AcDbLine
 62
7
  6
CONTINUOUS
 10
7.1068906178
 20
11.4725477814
 11
7.1068906178
 21
13.7275477813
  0
LINE
  5
267
100
AcDbEntity
  8
0
100
AcDbLine
 62
7
  6
CONTINUOUS
 10
6.6281406178
 20
13.6739157137
 11
5.1206406178
 21
13.6739157137
  0
LINE
  5
268
100
AcDbEntity
  8
AXIS
100
AcDbLine
 62
7
  6
CONTINUOUS
 10
7.0918907968
 20
13.7425477814
 11
6.7139304355
 21
13.7425477814
  0
LINE
  5
269
100
AcDbEntity
  8
0
100
AcDbLine
 62
7
  6
CONTINUOUS
 10
6.6281406178
 20
13.8195251328
 11
5.1206406178
 21
13.8195251328
  0
LINE
  5
26A
100
AcDbEntity
  8
0
100
AcDbLine
 62
7
  6
CONTINUOUS
 10
6.6281406178
 20
13.9196541811
 11
5.1206406178
 21
13.9196541811
  0
LINE
  5
26B
100
AcDbEntity
  8
0
100
AcDbLine
 62
7
  6
CONTINUOUS
 10
6.6281406178
 20
13.9704549552
 11
5.1206406178
 21
13.9704549552
  0
LINE
  5
26C
100
AcDbEntity
  8
0
100
AcDbLine
 62
7
  6
CONTINUOUS
 10
7.1068906178
 20
11.4725476048
 11
7.0918907968
 21
11.4575477814
  0
LINE
  5
26D
100
AcDbEntity
  8
0
100
AcDbLine
 62
7
  6
CONTINUOUS
 10
7.1068906178
 20
13.727547958
 11
7.0918907968
 21
13.7425477814
  0
LINE
  5
26E
100
AcDbEntity
  8
02___PRT_ALL_AXES
100
AcDbLine
 62
7
  6
CONTINUOUS
 10
5.0348508002
 20
14.1185730799
 11
5.0935396562
 21
14.1310477814
  0
LINE
  5
26F
100
AcDbEntity
  8
02___PRT_ALL_AXES
100
AcDbLine
 62
7
  6
CONTINUOUS
 10
6.7139304355
 20
14.1185730799
 11
6.6552415795
 21
14.1310477814
  0
LINE
  5
270
100
AcDbEntity
  8
02___PRT_ALL_AXES
100
AcDbLine
 62
7
  6
CONTINUOUS
 10
14.5397825135
 20
10.9984240539
 11
14.5934019644
 21
10.9859998284
  0
LINE
  5
271
100
AcDbEntity
  8
02___PRT_ALL_AXES
100
AcDbLine
 62
7
  6
CONTINUOUS
 10
16.1926020226
 20
10.9984240539
 11
16.1389825717
 21
10.9859998284
  0
LINE
  5
272
100
AcDbEntity
  8
0
100
AcDbLine
 62
7
  6
CONTINUOUS
 10
14.576971676
 20
11.1559546195
 11
14.5750460783
 21
11.1568540273
  0
LINE
  5
273
100
AcDbEntity
  8
0
100
AcDbLine
 62
7
  6
CONTINUOUS
 10
14.5794552584
 20
11.1553936503
 11
14.576971676
 21
11.1559546195
  0
LINE
  5
274
100
AcDbEntity
  8
0
100
AcDbLine
 62
7
  6
CONTINUOUS
 10
15.8256866485
 20
11.1343229057
 11
14.6795652471
 21
11.1343229057
  0
LINE
  5
275
100
AcDbEntity
  8
0
100
AcDbLine
 62
7
  6
CONTINUOUS
 10
14.5794552509
 20
11.1553851931
 11
15.8088205396
 21
11.1553851931
  0
LINE
  5
276
100
AcDbEntity
  8
0
100
AcDbLine
 62
7
  6
CONTINUOUS
 10
14.4809937374
 20
11.2270716449
 11
15.7608636515
 21
11.2270716449
  0
LINE
  5
277
100
AcDbEntity
  8
0
100
AcDbLine
 62
7
  6
CONTINUOUS
 10
14.3898702794
 20
11.3467077894
 11
15.6990051828
 21
11.3467077894
  0
LINE
  5
278
100
AcDbEntity
  8
AXIS
100
AcDbLine
 62
7
  6
CONTINUOUS
 10
16.4875841931
 20
11.3683049929
 11
16.1329755456
 21
11.3683049929
  0
LINE
  5
279
100
AcDbEntity
  8
AXIS
100
AcDbLine
 62
7
  6
CONTINUOUS
 10
16.1299753763
 20
11.3628308448
 11
16.1156887897
 21
11.3630770568
  0
LINE
  5
27A
100
AcDbEntity
  8
0
100
AcDbLine
 62
7
  6
CONTINUOUS
 10
14.3095867004
 20
11.5096960768
 11
15.6346910868
 21
11.5096960768
  0
LINE
  5
27B
100
AcDbEntity
  8
02___PRT_ALL_AXES
100
AcDbLine
 62
7
  6
CONTINUOUS
 10
15.973488637
 20
11.1636608015
 11
15.9727148575
 21
11.16417876
  0
LINE
  5
27C
100
AcDbEntity
  8
0
100
AcDbLine
 62
7
  6
CONTINUOUS
 10
14.2432282532
 20
11.7097729587
 11
15.5773291488
 21
11.7097729587
  0
LINE
  5
27D
100
AcDbEntity
  8
02___PRT_ALL_AXES
100
AcDbLine
 62
7
  6
CONTINUOUS
 10
15.9733434978
 20
11.1622859593
 11
15.9725711329
 21
11.1628252023
  0
LINE
  5
27E
100
AcDbEntity
  8
0
100
AcDbLine
 62
7
  6
CONTINUOUS
 10
14.1933450558
 20
11.9392495925
 11
15.5324718874
 21
11.9392495925
  0
LINE
  5
27F
100
AcDbEntity
  8
0
100
AcDbLine
 62
7
  6
CONTINUOUS
 10
14.1704790373
 20
12.1887667491
 11
15.502781414
 21
12.1887667491
  0
LINE
  5
280
100
AcDbEntity
  8
0
100
AcDbLine
 62
7
  6
CONTINUOUS
 10
14.161170175
 20
12.1893501848
 11
14.1704790373
 21
12.1887667491
  0
LINE
  5
281
100
AcDbEntity
  8
02___PRT_ALL_AXES
100
AcDbLine
 62
7
  6
CONTINUOUS
 10
15.628174816
 20
13.2737563275
 11
15.628333703
 21
13.2744580319
  0
LINE
  5
282
100
AcDbEntity
  8
02___PRT_ALL_AXES
100
AcDbLine
 62
7
  6
CONTINUOUS
 10
15.6286653635
 20
13.2730243202
 11
15.6288266866
 21
13.2737214841
  0
LINE
  5
283
100
AcDbEntity
  8
02___PRT_ALL_AXES
100
AcDbLine
 62
7
  6
CONTINUOUS
 10
15.6848165181
 20
13.4818243482
 11
15.6841597457
 21
13.4797930112
  0
LINE
  5
284
100
AcDbEntity
  8
02___PRT_ALL_AXES
100
AcDbLine
 62
7
  6
CONTINUOUS
 10
15.6851653307
 20
13.4810793413
 11
15.6844910621
 21
13.4790878724
  0
LINE
  5
285
100
AcDbEntity
  8
02___PRT_ALL_AXES
100
AcDbLine
 62
7
  6
CONTINUOUS
 10
15.7130934445
 20
13.44880385
 11
15.7122717193
 21
13.446383325
  0
LINE
  5
286
100
AcDbEntity
  8
02___PRT_ALL_AXES
100
AcDbLine
 62
7
  6
CONTINUOUS
 10
15.7127426462
 20
13.4496211158
 11
15.711902878
 21
13.4472386651
  0
LINE
  5
287
100
AcDbEntity
  8
02___PRT_ALL_AXES
100
AcDbLine
 62
7
  6
CONTINUOUS
 10
15.7235492518
 20
11.5422814245
 11
15.7226007564
 21
11.5448203328
  0
LINE
  5
288
100
AcDbEntity
  8
02___PRT_ALL_AXES
100
AcDbLine
 62
7
  6
CONTINUOUS
 10
15.7239636391
 20
11.5433048493
 11
15.7230193574
 21
11.5458489682
  0
LINE
  5
289
100
AcDbEntity
  8
02___PRT_ALL_AXES
100
AcDbLine
 62
7
  6
CONTINUOUS
 10
15.6954245179
 20
11.5079375153
 11
15.6946114429
 21
11.5103164602
  0
LINE
  5
28A
100
AcDbEntity
  8
02___PRT_ALL_AXES
100
AcDbLine
 62
7
  6
CONTINUOUS
 10
15.6958713769
 20
11.5089467602
 11
15.6950589885
 21
11.5113230163
  0
LINE
  5
28B
100
AcDbEntity
  8
02___PRT_ALL_AXES
100
AcDbLine
 62
7
  6
CONTINUOUS
 10
15.6369396004
 20
11.7103742257
 11
15.6367121239
 21
11.7113167477
  0
LINE
  5
28C
100
AcDbEntity
  8
02___PRT_ALL_AXES
100
AcDbLine
 62
7
  6
CONTINUOUS
 10
15.6373946621
 20
11.7110990562
 11
15.637172478
 21
11.7120488135
  0
LINE
  5
28D
100
AcDbEntity
  8
0
100
AcDbLine
 62
7
  6
CONTINUOUS
 10
14.1728981677
 20
12.7906344192
 11
15.4998103032
 21
12.7906344192
  0
LINE
  5
28E
100
AcDbEntity
  8
0
100
AcDbLine
 62
7
  6
CONTINUOUS
 10
15.5267640891
 20
13.0417007186
 11
14.186752666
 21
13.0417007186
  0
LINE
  5
28F
100
AcDbEntity
  8
0
100
AcDbLine
 62
7
  6
CONTINUOUS
 10
15.5694053919
 20
13.2752612641
 11
14.2336735477
 21
13.2752612641
  0
LINE
  5
290
100
AcDbEntity
  8
0
100
AcDbLine
 62
7
  6
CONTINUOUS
 10
15.6245777003
 20
13.4808276435
 11
14.2974368612
 21
13.4808276435
  0
LINE
  5
291
100
AcDbEntity
  8
0
100
AcDbLine
 62
7
  6
CONTINUOUS
 10
15.6875075071
 20
13.6505000563
 11
14.375592218
 21
13.6505000563
  0
LINE
  5
292
100
AcDbEntity
  8
AXIS
100
AcDbLine
 62
7
  6
CONTINUOUS
 10
16.4875841931
 20
13.6533049929
 11
16.1329755456
 21
13.6533049929
  0
LINE
  5
293
100
AcDbEntity
  8
0
100
AcDbLine
 62
7
  6
CONTINUOUS
 10
15.751698887
 20
13.7777580868
 11
14.4651361516
 21
13.7777580868
  0
LINE
  5
294
100
AcDbEntity
  8
0
100
AcDbLine
 62
7
  6
CONTINUOUS
 10
15.8030369202
 20
13.8577112802
 11
14.5626275389
 21
13.8577112802
  0
LINE
  5
295
100
AcDbEntity
  8
0
100
AcDbLine
 62
7
  6
CONTINUOUS
 10
14.664115147
 20
13.8872832425
 11
15.8249793942
 21
13.8872870801
  0
LINE
  5
296
100
AcDbEntity
  8
0
100
AcDbLine
 62
7
  6
CONTINUOUS
 10
14.559692087
 20
13.8569132392
 11
14.562627544
 21
13.8577055858
  0
LINE
  5
297
100
AcDbEntity
  8
02___PRT_ALL_AXES
100
AcDbLine
 62
7
  6
CONTINUOUS
 10
14.5397825135
 20
14.0231859319
 11
14.5934019644
 21
14.0356101574
  0
LINE
  5
298
100
AcDbEntity
  8
02___PRT_ALL_AXES
100
AcDbLine
 62
7
  6
CONTINUOUS
 10
16.1926020226
 20
14.0231859319
 11
16.1389825717
 21
14.0356101574
  0
CIRCLE
  5
299
100
AcDbEntity
  8
02___PRT_ALL_AXES
100
AcDbCircle
 62
7
  6
CONTINUOUS
 10
15.5603552569
 20
5.4606247044
 40
1.531
  0
CIRCLE
  5
29A
100
AcDbEntity
  8
02___PRT_ALL_AXES
100
AcDbCircle
 62
7
  6
CONTINUOUS
 10
15.5603552569
 20
5.4606247044
 40
1.5185252986
  0
CIRCLE
  5
29B
100
AcDbEntity
  8
02___PRT_ALL_AXES
100
AcDbCircle
 62
7
  6
CONTINUOUS
 10
15.5603552569
 20
5.4606247044
 40
1.3971937459
  0
CIRCLE
  5
29C
100
AcDbEntity
  8
AXIS
100
AcDbCircle
 62
7
  6
CONTINUOUS
 10
15.5603552569
 20
5.4606247044
 40
1.148
  0
CIRCLE
  5
29D
100
AcDbEntity
  8
0
100
AcDbCircle
 62
7
  6
CONTINUOUS
 10
15.5603552569
 20
5.4606247044
 40
1.1425
  0
CIRCLE
  5
29E
100
AcDbEntity
  8
0
100
AcDbCircle
 62
7
  6
CONTINUOUS
 10
15.5603552569
 20
5.4606247044
 40
1.1275000232
  0
CIRCLE
  5
29F
100
AcDbEntity
  8
0
100
AcDbCircle
 62
7
  6
CONTINUOUS
 10
15.5603552569
 20
5.4606247044
 40
0.2651223887
  0
CIRCLE
  5
2A0
100
AcDbEntity
  8
0
100
AcDbCircle
 62
7
  6
CONTINUOUS
 10
15.5603552569
 20
5.4606247044
 40
0.250125
  0
ARC
  5
2A1
100
AcDbEntity
  8
02___PRT_ALL_AXES
100
AcDbCircle
 62
7
  6
CONTINUOUS
 10
19.4137520232
 20
12.5109257244
 40
3.8656425849
100
AcDbArc
 50
175.8414623981
 51
184.7798795686
  0
ARC
  5
2A2
100
AcDbEntity
  8
02___PRT_ALL_AXES
100
AcDbCircle
 62
7
  6
CONTINUOUS
 10
19.0972157607
 20
12.5344539608
 40
3.5482302605
100
AcDbArc
 50
171.8831514938
 51
175.8497332607
  0
ARC
  5
2A3
100
AcDbEntity
  8
02___PRT_ALL_AXES
100
AcDbCircle
 62
7
  6
CONTINUOUS
 10
19.0197022666
 20
12.4784561562
 40
3.470245964
100
AcDbArc
 50
184.7877830944
 51
188.9197504381
  0
ARC
  5
2A4
100
AcDbEntity
  8
02___PRT_ALL_AXES
100
AcDbCircle
 62
7
  6
CONTINUOUS
 10
18.5792827904
 20
12.6102460136
 40
3.0247783742
100
AcDbArc
 50
167.3286529337
 51
171.8186324042
  0
ARC
  5
2A5
100
AcDbEntity
  8
02___PRT_ALL_AXES
100
AcDbCircle
 62
7
  6
CONTINUOUS
 10
17.6816705795
 20
12.8351436578
 40
2.0989574365
100
AcDbArc
 50
162.1137429859
 51
162.8310532761
  0
ARC
  5
2A6
100
AcDbEntity
  8
02___PRT_ALL_AXES
100
AcDbCircle
 62
7
  6
CONTINUOUS
 10
17.4503143844
 20
12.8362948907
 40
1.842641273
100
AcDbArc
 50
160.6365894653
 51
162.8606697587
  0
ARC
  5
2A7
100
AcDbEntity
  8
0
100
AcDbCircle
 62
7
  6
CONTINUOUS
 10
15.7849146448
 20
12.9035308686
 40
1.6010601766
100
AcDbArc
 50
159.2830239409
 51
159.4211477314
  0
ARC
  5
2A8
100
AcDbEntity
  8
0
100
AcDbCircle
 62
7
  6
CONTINUOUS
 10
15.6804320265
 20
12.0773916166
 40
1.488932566
100
AcDbArc
 50
201.8487090927
 51
201.9936831386
  0
ARC
  5
2A9
100
AcDbEntity
  8
0
100
AcDbCircle
 62
7
  6
CONTINUOUS
 10
15.8040699423
 20
13.798529005
 40
1.2575350262
100
AcDbArc
 50
178.9107785188
 51
180.9465912321
  0
ARC
  5
2AA
100
AcDbEntity
  8
0
100
AcDbCircle
 62
7
  6
CONTINUOUS
 10
15.8186502383
 20
11.2292787384
 40
1.2556783804
100
AcDbArc
 50
180.1007403069
 51
181.8233866039
  0
ARC
  5
2AB
100
AcDbEntity
  8
0
100
AcDbCircle
 62
7
  6
CONTINUOUS
 10
15.6742985963
 20
11.2150021468
 40
1.210209291
100
AcDbArc
 50
175.1339057258
 51
177.443167071
  0
ARC
  5
2AC
100
AcDbEntity
  8
0
100
AcDbCircle
 62
7
  6
CONTINUOUS
 10
15.6487273825
 20
13.803832974
 40
1.2012081967
100
AcDbArc
 50
183.3080248305
 51
185.6227813312
  0
ARC
  5
2AD
100
AcDbEntity
  8
0
100
AcDbCircle
 62
7
  6
CONTINUOUS
 10
15.4212089906
 20
11.265935306
 40
1.0543869168
100
AcDbArc
 50
170.3582461539
 51
172.8935099759
  0
ARC
  5
2AE
100
AcDbEntity
  8
0
100
AcDbCircle
 62
7
  6
CONTINUOUS
 10
15.3887113651
 20
13.7427356885
 40
1.0378059307
100
AcDbArc
 50
187.9288856048
 51
190.4769760484
  0
ARC
  5
2AF
100
AcDbEntity
  8
0
100
AcDbCircle
 62
7
  6
CONTINUOUS
 10
15.2248615615
 20
13.1599992549
 40
0.984494128
100
AcDbArc
 50
150.5434286797
 51
150.734442574
  0
ARC
  5
2B0
100
AcDbEntity
  8
0
100
AcDbCircle
 62
7
  6
CONTINUOUS
 10
15.1490106086
 20
11.8174114157
 40
0.8967014538
100
AcDbArc
 50
211.032652336
 51
211.2359388086
  0
ARC
  5
2B1
100
AcDbEntity
  8
0
100
AcDbCircle
 62
7
  6
CONTINUOUS
 10
15.1038456035
 20
11.3924985814
 40
0.8264266609
100
AcDbArc
 50
164.8519491335
 51
167.8390805105
  0
ARC
  5
2B2
100
AcDbEntity
  8
0
100
AcDbCircle
 62
7
  6
CONTINUOUS
 10
15.069149462
 20
13.6058722036
 40
0.806125129
100
AcDbArc
 50
193.1269298409
 51
196.1378105188
  0
ARC
  5
2B3
100
AcDbEntity
  8
0
100
AcDbCircle
 62
7
  6
CONTINUOUS
 10
14.8607385628
 20
13.4127208686
 40
0.5404042333
100
AcDbArc
 50
137.92988648
 51
138.2148097425
  0
ARC
  5
2B4
100
AcDbEntity
  8
0
100
AcDbCircle
 62
7
  6
CONTINUOUS
 10
14.8207376415
 20
11.5713017441
 40
0.4855096328
100
AcDbArc
 50
224.4323109894
 51
224.7383253506
  0
ARC
  5
2B5
100
AcDbEntity
  8
0
100
AcDbCircle
 62
7
  6
CONTINUOUS
 10
16.3302479315
 20
11.7867608821
 40
0.4646907683
100
AcDbArc
 50
317.8881902858
 51
320.1563189058
  0
ARC
  5
2B6
100
AcDbEntity
  8
0
100
AcDbCircle
 62
7
  6
CONTINUOUS
 10
16.3354821455
 20
13.2394241118
 40
0.4577406017
100
AcDbArc
 50
39.8237412876
 51
42.0670549445
  0
ARC
  5
2B7
100
AcDbEntity
  8
0
100
AcDbCircle
 62
7
  6
CONTINUOUS
 10
16.3629488646
 20
13.264296849
 40
0.4206856485
100
AcDbArc
 50
42.0586302464
 51
43.912221357
  0
ARC
  5
2B8
100
AcDbEntity
  8
02___PRT_ALL_AXES
100
AcDbCircle
 62
7
  6
CONTINUOUS
 10
16.1896980289
 20
13.5500935419
 40
0.3774174215
100
AcDbArc
 50
127.664770849
 51
128.0230189981
  0
ARC
  5
2B9
100
AcDbEntity
  8
0
100
AcDbCircle
 62
7
  6
CONTINUOUS
 10
14.700184998
 20
13.6014240298
 40
0.2915698787
100
AcDbArc
 50
118.8062904197
 51
119.236201059
  0
ARC
  5
2BA
100
AcDbEntity
  8
0
100
AcDbCircle
 62
7
  6
CONTINUOUS
 10
14.6719558841
 20
13.6781937006
 40
0.2092365018
100
AcDbArc
 50
92.1475523913
 51
92.6839015937
  0
ARC
  5
2BB
100
AcDbEntity
  8
AXIS
100
AcDbCircle
 62
7
  6
CONTINUOUS
 10
16.1328246646
 20
11.5399198311
 40
0.177115269
100
AcDbArc
 50
270.2714848551
 51
281.9525173425
  0
ARC
  5
2BC
100
AcDbEntity
  8
AXIS
100
AcDbCircle
 62
7
  6
CONTINUOUS
 10
16.1328378326
 20
13.4821949397
 40
0.1766136686
100
AcDbArc
 50
79.2609706037
 51
87.5910475729
  0
ARC
  5
2BD
100
AcDbEntity
  8
AXIS
100
AcDbCircle
 62
7
  6
CONTINUOUS
 10
16.1330045548
 20
11.5377192152
 40
0.1749145365
100
AcDbArc
 50
264.4150677446
 51
269.0076993264
  0
ARC
  5
2BE
100
AcDbEntity
  8
AXIS
100
AcDbCircle
 62
7
  6
CONTINUOUS
 10
16.1329814815
 20
13.4847120378
 40
0.1740927612
100
AcDbArc
 50
87.6034629075
 51
90.9893900645
  0
ARC
  5
2BF
100
AcDbEntity
  8
AXIS
100
AcDbCircle
 62
7
  6
CONTINUOUS
 10
16.1329687129
 20
11.536808564
 40
0.1740034024
100
AcDbArc
 50
269.0143065994
 51
270.2289074884
  0
ARC
  5
2C0
100
AcDbEntity
  8
AXIS
100
AcDbCircle
 62
7
  6
CONTINUOUS
 10
16.1329873192
 20
11.5421154094
 40
0.173810249
100
AcDbArc
 50
264.7222664474
 51
269.9961188335
  0
ARC
  5
2C1
100
AcDbEntity
  8
0
100
AcDbCircle
 62
7
  6
CONTINUOUS
 10
14.1729525388
 20
12.7151161847
 40
0.0755182432
100
AcDbArc
 50
90.0412514219
 51
101.9360583845
  0
ARC
  5
2C2
100
AcDbEntity
  8
0
100
AcDbCircle
 62
7
  6
CONTINUOUS
 10
16.5028602745
 20
12.6943073169
 40
0.0708248373
100
AcDbArc
 50
128.6013655851
 51
129.945000522
  0
ARC
  5
2C3
100
AcDbEntity
  8
0
100
AcDbCircle
 62
7
  6
CONTINUOUS
 10
16.4995990459
 20
12.3231478972
 40
0.0655430746
100
AcDbArc
 50
231.8127734846
 51
233.9210522093
  0
ARC
  5
2C4
100
AcDbEntity
  8
0
100
AcDbCircle
 62
7
  6
CONTINUOUS
 10
14.4052659411
 20
11.3230072288
 40
0.0634111385
100
AcDbArc
 50
355.1635636084
 51
3.7568751847
  0
SPLINE
  5
2C5
100
AcDbEntity
  8
02___PRT_ALL_AXES
100
AcDbSpline
 62
7
  6
CONTINUOUS
 70
0
 71
3
 72
37
 73
33
 74
0
 42
0.0000001
 43
0.0000001
 44
0.0000000001
 40
0.0
 40
0.0
 40
0.0
 40
0.0
 40
0.0323426815
 40
0.0658969376
 40
0.1005461792
 40
0.1361742162
 40
0.1726529535
 40
0.2098491554
 40
0.2476246302
 40
0.285837074
 40
0.3629834698
 40
0.4401159515
 40
0.4783110944
 40
0.5160624936
 40
0.5532280742
 40
0.5896697448
 40
0.6252544653
 40
0.6598555039
 40
0.6933535736
 40
0.7256380966
 40
0.7566087334
 40
0.7861772825
 40
0.814269594
 40
0.8408279991
 40
0.8658144826
 40
0.8892148044
 40
0.9110433316
 40
0.931349303
 40
0.950224607
 40
0.9678125509
 40
0.9843156996
 40
1.0
 40
1.0
 40
1.0
 40
1.0
 10
14.1297110975
 20
13.4547354556
 30
0.0
 10
14.1213074513
 20
13.4275412464
 30
0.0
 10
14.1052823112
 20
13.371790161
 30
0.0
 10
14.0839027866
 20
13.2859094024
 30
0.0
 10
14.0648123342
 20
13.1965324592
 30
0.0
 10
14.0480969673
 20
13.1040661606
 30
0.0
 10
14.0338329282
 20
13.0089238784
 30
0.0
 10
14.0220847431
 20
12.9115354606
 30
0.0
 10
14.0129051557
 20
12.8123390512
 30
0.0
 10
14.0041210264
 20
12.6778465878
 30
0.0
 10
13.9998181707
 20
12.5084171293
 30
0.0
 10
14.0043282727
 20
12.3390082167
 30
0.0
 10
14.0132783496
 20
12.2045754344
 30
0.0
 10
14.0225796664
 20
12.1054539839
 30
0.0
 10
14.0344473753
 20
12.0081613726
 30
0.0
 10
14.0488281446
 20
11.9131354502
 30
0.0
 10
14.0656568559
 20
11.8208045872
 30
0.0
 10
14.0848570051
 20
11.7315843643
 30
0.0
 10
14.1063415499
 20
11.6458760348
 30
0.0
 10
14.130013391
 20
11.5640646663
 30
0.0
 10
14.1557659224
 20
11.4865172292
 30
0.0
 10
14.1834830316
 20
11.413580516
 30
0.0
 10
14.2130406041
 20
11.345579657
 30
0.0
 10
14.2443075036
 20
11.2828166765
 30
0.0
 10
14.277146899
 20
11.2255690111
 30
0.0
 10
14.3114172747
 20
11.1740879649
 30
0.0
 10
14.3469751304
 20
11.1285988553
 30
0.0
 10
14.3836780275
 20
11.0893021051
 30
0.0
 10
14.421384173
 20
11.0563769176
 30
0.0
 10
14.4599589311
 20
11.0299850643
 30
0.0
 10
14.4992420887
 20
11.0102840174
 30
0.0
 10
14.5263358665
 20
11.0015398518
 30
0.0
 10
14.5397825136
 20
10.9984240572
 30
0.0
  0
SPLINE
  5
2C6
100
AcDbEntity
  8
02___PRT_ALL_AXES
100
AcDbSpline
 62
7
  6
CONTINUOUS
 70
0
 71
3
 72
19
 73
15
 74
0
 42
0.0000001
 43
0.0000001
 44
0.0000000001
 40
0.0
 40
0.0
 40
0.0
 40
0.0
 40
0.0559049662
 40
0.1112313688
 40
0.1663254742
 40
0.2215390816
 40
0.2772211897
 40
0.3337100233
 40
0.391325683
 40
0.4503657916
 40
0.5736941439
 40
0.7055878692
 40
0.8473847717
 40
1.0
 40
1.0
 40
1.0
 40
1.0
 10
14.5934019697
 20
14.0356100061
 30
0.0
 10
14.6000469718
 20
14.037149643
 30
0.0
 10
14.6134020328
 20
14.0396682128
 30
0.0
 10
14.6336164954
 20
14.0417136613
 30
0.0
 10
14.6538495883
 20
14.0419962397
 30
0.0
 10
14.6740734533
 20
14.0405168902
 30
0.0
 10
14.6942627077
 20
14.0372767945
 30
0.0
 10
14.714391561
 20
14.0322817186
 30
0.0
 10
14.734436528
 20
14.0255397594
 30
0.0
 10
14.7614045067
 20
14.014069743
 30
0.0
 10
14.794909036
 20
13.9951430595
 30
0.0
 10
14.8337344158
 20
13.9659868192
 30
0.0
 10
14.8716289552
 20
13.9302223109
 30
0.0
 10
14.8952798435
 20
13.9031108341
 30
0.0
 10
14.9069450069
 20
13.8885967943
 30
0.0
  0
SPLINE
  5
2C7
100
AcDbEntity
  8
02___PRT_ALL_AXES
100
AcDbSpline
 62
7
  6
CONTINUOUS
 70
0
 71
3
 72
23
 73
19
 74
0
 42
0.0000001
 43
0.0000001
 44
0.0000000001
 40
0.0
 40
0.0
 40
0.0
 40
0.0
 40
0.0851522239
 40
0.1674896832
 40
0.2468623958
 40
0.3231705653
 40
0.39633169
 40
0.4662790781
 40
0.5329746114
 40
0.5964101441
 40
0.6566132174
 40
0.7136501456
 40
0.7676357692
 40
0.8187385015
 40
0.8671892319
 40
0.9132882609
 40
0.9574091928
 40
1.0
 40
1.0
 40
1.0
 40
1.0
 10
14.1297110975
 20
13.4547354556
 30
0.0
 10
14.135815172
 20
13.4744882478
 30
0.0
 10
14.1483827455
 20
13.5131706411
 30
0.0
 10
14.1686756675
 20
13.5695781125
 30
0.0
 10
14.1900539021
 20
13.6232804782
 30
0.0
 10
14.2124606454
 20
13.6741377472
 30
0.0
 10
14.2358395021
 20
13.722023309
 30
0.0
 10
14.2601324219
 20
13.7668159269
 30
0.0
 10
14.2852774932
 20
13.8084023762
 30
0.0
 10
14.3112135029
 20
13.8466773097
 30
0.0
 10
14.337875484
 20
13.8815453376
 30
0.0
 10
14.3652006735
 20
13.9129175166
 30
0.0
 10
14.3931232067
 20
13.9407147717
 30
0.0
 10
14.4215791338
 20
13.9648642845
 30
0.0
 10
14.4505026136
 20
13.9853001211
 30
0.0
 10
14.4798285745
 20
14.0019632074
 30
0.0
 10
14.5094812416
 20
14.0147956358
 30
0.0
 10
14.5297086155
 20
14.0208517303
 30
0.0
 10
14.5397825136
 20
14.0231859296
 30
0.0
  0
SPLINE
  5
2C8
100
AcDbEntity
  8
02___PRT_ALL_AXES
100
AcDbSpline
 62
7
  6
CONTINUOUS
 70
0
 71
3
 72
18
 73
14
 74
0
 42
0.0000001
 43
0.0000001
 44
0.0000000001
 40
0.0
 40
0.0
 40
0.0
 40
0.0
 40
0.0558799357
 40
0.111180939
 40
0.1662507758
 40
0.2214423751
 40
0.2771059574
 40
0.3335805302
 40
0.4501372409
 40
0.5734808384
 40
0.7054180483
 40
0.8472863846
 40
1.0
 40
1.0
 40
1.0
 40
1.0
 10
14.593401971
 20
10.9860000166
 30
0.0
 10
14.6000599734
 20
10.9844572159
 30
0.0
 10
14.6134414126
 20
10.9819345098
 30
0.0
 10
14.6336961764
 20
10.9798910883
 30
0.0
 10
14.6539694991
 20
10.9796158214
 30
0.0
 10
14.6742332389
 20
10.9811106425
 30
0.0
 10
14.6944626927
 20
10.9843734765
 30
0.0
 10
14.7216318116
 20
10.9911390934
 30
0.0
 10
14.7556092964
 20
11.0042271375
 30
0.0
 10
14.7952967148
 20
11.0267196771
 30
0.0
 10
14.8341964126
 20
11.0560091634
 30
0.0
 10
14.8721509937
 20
11.0919283742
 30
0.0
 10
14.895836352
 20
11.1191529397
 30
0.0
 10
14.9075179232
 20
11.1337267888
 30
0.0
  0
SPLINE
  5
2C9
100
AcDbEntity
  8
02___PRT_ALL_AXES
100
AcDbSpline
 62
7
  6
CONTINUOUS
 70
0
 71
3
 72
27
 73
23
 74
0
 42
0.0000001
 43
0.0000001
 44
0.0000000001
 40
0.0
 40
0.0
 40
0.0
 40
0.0
 40
0.0924885682
 40
0.1807455676
 40
0.2645232149
 40
0.3436547697
 40
0.4180207151
 40
0.4875795149
 40
0.5523801553
 40
0.6125812988
 40
0.6684773883
 40
0.7205261012
 40
0.7693726027
 40
0.7928699139
 40
0.81589936
 40
0.8385937868
 40
0.8610938654
 40
0.8835447126
 40
0.9060926768
 40
0.9288817089
 40
0.9520502022
 40
1.0
 40
1.0
 40
1.0
 40
1.0
 10
14.243816284
 20
13.3832345834
 30
0.0
 10
14.2513890755
 20
13.4077401455
 30
0.0
 10
14.2671156761
 20
13.4553510542
 30
0.0
 10
14.2931121509
 20
13.5239736443
 30
0.0
 10
14.3208697458
 20
13.5878893779
 30
0.0
 10
14.3502579332
 20
13.6468018209
 30
0.0
 10
14.3811459269
 20
13.7004441528
 30
0.0
 10
14.4133958737
 20
13.7485726255
 30
0.0
 10
14.4468690798
 20
13.7909700823
 30
0.0
 10
14.4814270605
 20
13.8274430975
 30
0.0
 10
14.5169369438
 20
13.8578199117
 30
0.0
 10
14.5532557939
 20
13.8819413726
 30
0.0
 10
14.584497949
 20
13.896898507
 30
0.0
 10
14.6095666039
 20
13.9054100797
 30
0.0
 10
14.6282099584
 20
13.9100800541
 30
0.0
 10
14.6469097662
 20
13.9131065746
 30
0.0
 10
14.6656424786
 20
13.9144858097
 30
0.0
 10
14.6843835946
 20
13.9142159278
 30
0.0
 10
14.7031078777
 20
13.9122959231
 30
0.0
 10
14.7217929313
 20
13.9087296997
 30
0.0
 10
14.7468958129
 20
13.9017132153
 30
0.0
 10
14.7651921426
 20
13.8940754335
 30
0.0
 10
14.7770699428
 20
13.8880971147
 30
0.0
  0
SPLINE
  5
2CA
100
AcDbEntity
  8
02___PRT_ALL_AXES
100
AcDbSpline
 62
7
  6
CONTINUOUS
 70
0
 71
3
 72
22
 73
18
 74
0
 42
0.0000001
 43
0.0000001
 44
0.0000000001
 40
0.0
 40
0.0
 40
0.0
 40
0.0
 40
0.1620740222
 40
0.2393825944
 40
0.3140775827
 40
0.3860911999
 40
0.4553649219
 40
0.5218552987
 40
0.5855406188
 40
0.6464194831
 40
0.7045153677
 40
0.7598789883
 40
0.8125937241
 40
0.8627790385
 40
0.9105958253
 40
0.9562507664
 40
1.0
 40
1.0
 40
1.0
 40
1.0
 10
14.1799618074
 20
13.4624898543
 30
0.0
 10
14.1908125718
 20
13.4976029409
 30
0.0
 10
14.2081565703
 20
13.5490787625
 30
0.0
 10
14.2338992621
 20
13.6154919722
 30
0.0
 10
14.2537451067
 20
13.6622625807
 30
0.0
 10
14.2743929955
 20
13.706683718
 30
0.0
 10
14.2958009313
 20
13.7486669953
 30
0.0
 10
14.3179268021
 20
13.7881263497
 30
0.0
 10
14.3407250848
 20
13.8249824927
 30
0.0
 10
14.3641513943
 20
13.8591607755
 30
0.0
 10
14.3881587865
 20
13.8905927861
 30
0.0
 10
14.4127011695
 20
13.9192145661
 30
0.0
 10
14.4377308954
 20
13.9449684047
 30
0.0
 10
14.4632005625
 20
13.9678008301
 30
0.0
 10
14.4890632923
 20
13.9876642056
 30
0.0
 10
14.515266959
 20
14.0045127385
 30
0.0
 10
14.5332818426
 20
14.0138908257
 30
0.0
 10
14.5423013999
 20
14.0180215517
 30
0.0
  0
SPLINE
  5
2CB
100
AcDbEntity
  8
02___PRT_ALL_AXES
100
AcDbSpline
 62
7
  6
CONTINUOUS
 70
0
 71
3
 72
9
 73
5
 74
0
 42
0.0000001
 43
0.0000001
 44
0.0000000001
 40
0.0
 40
0.0
 40
0.0
 40
0.0
 40
0.5072320985
 40
1.0
 40
1.0
 40
1.0
 40
1.0
 10
14.5423013999
 20
14.0180215517
 30
0.0
 10
14.5506196389
 20
14.0218310919
 30
0.0
 10
14.5673801943
 20
14.0285823927
 30
0.0
 10
14.5847431647
 20
14.0336037741
 30
0.0
 10
14.5934019697
 20
14.0356100061
 30
0.0
  0
SPLINE
  5
2CC
100
AcDbEntity
  8
02___PRT_ALL_AXES
100
AcDbSpline
 62
7
  6
CONTINUOUS
 70
0
 71
3
 72
35
 73
31
 74
0
 42
0.0000001
 43
0.0000001
 44
0.0000000001
 40
0.0
 40
0.0
 40
0.0
 40
0.0
 40
0.0316681463
 40
0.0644803267
 40
0.0983313657
 40
0.1331171877
 40
0.1687229306
 40
0.2050290898
 40
0.2792368639
 40
0.3547161992
 40
0.430404359
 40
0.5052334994
 40
0.542000573
 40
0.5781636055
 40
0.6135994816
 40
0.6481899031
 40
0.6818222606
 40
0.714390646
 40
0.7457971508
 40
0.7759531006
 40
0.8047804311
 40
0.8322134606
 40
0.8582012156
 40
0.8827099196
 40
0.9057261994
 40
0.9272613166
 40
0.9473565414
 40
0.9660892687
 40
0.9835801184
 40
1.0
 40
1.0
 40
1.0
 40
1.0
 10
14.1799618074
 20
13.4624898543
 30
0.0
 10
14.1718327823
 20
13.4361843197
 30
0.0
 10
14.1562986964
 20
13.3823039849
 30
0.0
 10
14.1354668897
 20
13.2993742286
 30
0.0
 10
14.116756575
 20
13.2131645643
 30
0.0
 10
14.1002456604
 20
13.1240371829
 30
0.0
 10
14.0860029875
 20
13.0323587921
 30
0.0
 10
14.0700025737
 20
12.906317421
 30
0.0
 10
14.0561433384
 20
12.7451247399
 30
0.0
 10
14.0493251941
 20
12.5492167308
 30
0.0
 10
14.0523184097
 20
12.3526731121
 30
0.0
 10
14.0630066709
 20
12.1901165405
 30
0.0
 10
14.076499568
 20
12.0623492572
 30
0.0
 10
14.0889295526
 20
11.968944736
 30
0.0
 10
14.1036749697
 20
11.8777940175
 30
0.0
 10
14.1206744649
 20
11.7892749876
 30
0.0
 10
14.139856918
 20
11.7037552774
 30
0.0
 10
14.1611425531
 20
11.6215896123
 30
0.0
 10
14.184442482
 20
11.5431183052
 30
0.0
 10
14.2096596424
 20
11.4686657531
 30
0.0
 10
14.2366895031
 20
11.3985391898
 30
0.0
 10
14.2654208064
 20
11.3330272668
 30
0.0
 10
14.2957356161
 20
11.2723983572
 30
0.0
 10
14.3275110642
 20
11.2168996481
 30
0.0
 10
14.3606205803
 20
11.1667565611
 30
0.0
 10
14.3949360728
 20
11.1221721725
 30
0.0
 10
14.4303272652
 20
11.0833278665
 30
0.0
 10
14.4666701245
 20
11.0503838319
 30
0.0
 10
14.5038265962
 20
11.0234913176
 30
0.0
 10
14.529785918
 20
11.0092932324
 30
0.0
 10
14.5427756792
 20
11.0033717497
 30
0.0
  0
SPLINE
  5
2CD
100
AcDbEntity
  8
02___PRT_ALL_AXES
100
AcDbSpline
 62
7
  6
CONTINUOUS
 70
0
 71
3
 72
9
 73
5
 74
0
 42
0.0000001
 43
0.0000001
 44
0.0000000001
 40
0.0
 40
0.0
 40
0.0
 40
0.0
 40
0.5071476517
 40
1.0
 40
1.0
 40
1.0
 40
1.0
 10
14.5427756792
 20
11.0033717497
 30
0.0
 10
14.5510190773
 20
10.9996139333
 30
0.0
 10
14.5676272716
 20
10.9929512237
 30
0.0
 10
14.5848250796
 20
10.9879874647
 30
0.0
 10
14.593401971
 20
10.9860000166
 30
0.0
  0
SPLINE
  5
2CE
100
AcDbEntity
  8
02___PRT_ALL_AXES
100
AcDbSpline
 62
7
  6
CONTINUOUS
 70
0
 71
3
 72
44
 73
40
 74
0
 42
0.0000001
 43
0.0000001
 44
0.0000000001
 40
0.0
 40
0.0
 40
0.0
 40
0.0
 40
0.0344421361
 40
0.0703213009
 40
0.1074801556
 40
0.1457554502
 40
0.1849694351
 40
0.2249372385
 40
0.2654669179
 40
0.3063617243
 40
0.3474218319
 40
0.3884460144
 40
0.4292333469
 40
0.4695848872
 40
0.5093054265
 40
0.5482052714
 40
0.586102059
 40
0.6228226831
 40
0.6582053793
 40
0.6921020695
 40
0.7243810976
 40
0.7549303501
 40
0.7836611112
 40
0.8105129644
 40
0.8354601583
 40
0.8585200216
 40
0.8797638502
 40
0.8993303381
 40
0.9174404997
 40
0.9260518279
 40
0.9344257713
 40
0.9426165112
 40
0.9506831601
 40
0.9586881909
 40
0.9666959403
 40
0.9747706273
 40
0.9829745771
 40
0.9913664004
 40
1.0
 40
1.0
 40
1.0
 40
1.0
 10
14.243816284
 20
13.3832345834
 30
0.0
 10
14.2350103341
 20
13.3547385191
 30
0.0
 10
14.2183358015
 20
13.2961478316
 30
0.0
 10
14.1964723257
 20
13.2056559177
 30
0.0
 10
14.1773395367
 20
13.111158676
 30
0.0
 10
14.1610479167
 20
13.0132040181
 30
0.0
 10
14.1476925398
 20
12.9123529834
 30
0.0
 10
14.1373507568
 20
12.8091873524
 30
0.0
 10
14.130082813
 20
12.7043013112
 30
0.0
 10
14.1259308162
 20
12.5982995764
 30
0.0
 10
14.124918866
 20
12.4917933289
 30
0.0
 10
14.1270528511
 20
12.385396701
 30
0.0
 10
14.1323203981
 20
12.2797232031
 30
0.0
 10
14.1406909951
 20
12.1753821153
 30
0.0
 10
14.1521159554
 20
12.0729748585
 30
0.0
 10
14.166528825
 20
11.9730914082
 30
0.0
 10
14.1838458863
 20
11.8763068122
 30
0.0
 10
14.2039666618
 20
11.783177782
 30
0.0
 10
14.2267745856
 20
11.6942393297
 30
0.0
 10
14.2521378336
 20
11.61000142
 30
0.0
 10
14.2799101141
 20
11.5309456455
 30
0.0
 10
14.3099322016
 20
11.4575221868
 30
0.0
 10
14.3420336575
 20
11.3901469364
 30
0.0
 10
14.376034922
 20
11.3291989596
 30
0.0
 10
14.4117510127
 20
11.2750183719
 30
0.0
 10
14.4489937757
 20
11.2279063329
 30
0.0
 10
14.4875825342
 20
11.1881254932
 30
0.0
 10
14.5273284251
 20
11.1559148448
 30
0.0
 10
14.5618595105
 20
11.1352195639
 30
0.0
 10
14.5896971802
 20
11.1229441249
 30
0.0
 10
14.6103607387
 20
11.1159004351
 30
0.0
 10
14.6311240896
 20
11.1108843267
 30
0.0
 10
14.6519547868
 20
11.1079035763
 30
0.0
 10
14.6728189573
 20
11.1069669963
 30
0.0
 10
14.6936816091
 20
11.108075703
 30
0.0
 10
14.714508017
 20
11.1112268544
 30
0.0
 10
14.7352642797
 20
11.1164149993
 30
0.0
 10
14.7559167937
 20
11.1236262805
 30
0.0
 10
14.7693826247
 20
11.1296792018
 30
0.0
 10
14.7760739918
 20
11.1330141718
 30
0.0
  0
SPLINE
  5
2CF
100
AcDbEntity
  8
02___PRT_ALL_AXES
100
AcDbSpline
 62
7
  6
CONTINUOUS
 70
0
 71
3
 72
23
 73
19
 74
0
 42
0.0000001
 43
0.0000001
 44
0.0000000001
 40
0.0
 40
0.0
 40
0.0
 40
0.0
 40
0.0442137919
 40
0.0880040051
 40
0.1323022723
 40
0.1780016627
 40
0.2258967329
 40
0.2766483484
 40
0.3307731203
 40
0.388650376
 40
0.4505389356
 40
0.5165951894
 40
0.586889042
 40
0.6614200517
 40
0.740127618
 40
0.8228992665
 40
0.9095923826
 40
1.0
 40
1.0
 40
1.0
 40
1.0
 10
16.1389825651
 20
14.0356099692
 30
0.0
 10
16.1268892789
 20
14.0384122407
 30
0.0
 10
16.1023494313
 20
14.042178265
 30
0.0
 10
16.0650520503
 20
14.0419040492
 30
0.0
 10
16.0278560906
 20
14.0356499263
 30
0.0
 10
15.9909602153
 20
14.0234719596
 30
0.0
 10
15.9545199065
 20
14.0054643415
 30
0.0
 10
15.9186686971
 20
13.9817357298
 30
0.0
 10
15.8835244857
 20
13.9524024508
 30
0.0
 10
15.8492001033
 20
13.9175890759
 30
0.0
 10
15.8158088075
 20
13.8774311835
 30
0.0
 10
15.783465332
 20
13.8320797597
 30
0.0
 10
15.7522836036
 20
13.7817042181
 30
0.0
 10
15.722376932
 20
13.7264924055
 30
0.0
 10
15.6938564232
 20
13.6666514682
 30
0.0
 10
15.666827453
 20
13.6024043404
 30
0.0
 10
15.641394675
 20
13.533996815
 30
0.0
 10
15.6258789015
 20
13.4867416394
 30
0.0
 10
15.6183845331
 20
13.4624898543
 30
0.0
  0
SPLINE
  5
2D0
100
AcDbEntity
  8
02___PRT_ALL_AXES
100
AcDbSpline
 62
7
  6
CONTINUOUS
 70
0
 71
3
 72
17
 73
13
 74
0
 42
0.0000001
 43
0.0000001
 44
0.0000000001
 40
0.0
 40
0.0
 40
0.0
 40
0.0
 40
0.1616873125
 40
0.3123520557
 40
0.4518309747
 40
0.5802418542
 40
0.6980536076
 40
0.7532817137
 40
0.806247135
 40
0.9061474503
 40
0.9536861219
 40
1.0
 40
1.0
 40
1.0
 40
1.0
 10
16.5326688507
 20
11.3766290584
 30
0.0
 10
16.5213190994
 20
11.3506815461
 30
0.0
 10
16.4979648749
 20
11.3011587657
 30
0.0
 10
16.4594652012
 20
11.2319368602
 30
0.0
 10
16.4189262776
 20
11.1707451837
 30
0.0
 10
16.3765869098
 20
11.1179654666
 30
0.0
 10
16.339208297
 20
11.0804766749
 30
0.0
 10
16.3086097958
 20
11.0553101591
 30
0.0
 10
16.27888813
 20
11.0341776391
 30
0.0
 10
16.248011588
 20
11.0170791263
 30
0.0
 10
16.2163461289
 20
11.004763626
 30
0.0
 10
16.2005049995
 20
11.0002552365
 30
0.0
 10
16.1926020225
 20
10.9984240562
 30
0.0
  0
SPLINE
  5
2D1
100
AcDbEntity
  8
02___PRT_ALL_AXES
100
AcDbSpline
 62
7
  6
CONTINUOUS
 70
0
 71
3
 72
17
 73
13
 74
0
 42
0.0000001
 43
0.0000001
 44
0.0000000001
 40
0.0
 40
0.0
 40
0.0
 40
0.0
 40
0.1615521682
 40
0.3121074515
 40
0.4515137372
 40
0.5798954313
 40
0.6977266462
 40
0.7529829622
 40
0.8059887506
 40
0.9060026303
 40
0.953610829
 40
1.0
 40
1.0
 40
1.0
 40
1.0
 10
16.5312597763
 20
13.6481919298
 30
0.0
 10
16.5199344634
 20
13.6739182358
 30
0.0
 10
16.4966378648
 20
13.7230172442
 30
0.0
 10
16.4582593487
 20
13.7916386244
 30
0.0
 10
16.4178691326
 20
13.8522971418
 30
0.0
 10
16.3757023769
 20
13.9046179722
 30
0.0
 10
16.3384926488
 20
13.9417802453
 30
0.0
 10
16.3080397727
 20
13.9667316093
 30
0.0
 10
16.2784556842
 20
13.987692441
 30
0.0
 10
16.2477301041
 20
14.0046552587
 30
0.0
 10
16.2162256663
 20
14.0168828062
 30
0.0
 10
16.2004650452
 20
14.0213639455
 30
0.0
 10
16.1926020225
 20
14.0231859286
 30
0.0
  0
SPLINE
  5
2D2
100
AcDbEntity
  8
02___PRT_ALL_AXES
100
AcDbSpline
 62
7
  6
CONTINUOUS
 70
0
 71
3
 72
43
 73
39
 74
0
 42
0.0000001
 43
0.0000001
 44
0.0000000001
 40
0.0
 40
0.0
 40
0.0
 40
0.0
 40
0.0079529206
 40
0.0158211903
 40
0.0236621487
 40
0.031533873
 40
0.0394936357
 40
0.0475963302
 40
0.0558933321
 40
0.064431514
 40
0.0823817816
 40
0.1017318666
 40
0.1226720338
 40
0.1453226254
 40
0.1697464057
 40
0.1959596547
 40
0.2239412369
 40
0.2536396194
 40
0.2849782721
 40
0.3178598629
 40
0.3521695728
 40
0.3877778075
 40
0.4245425439
 40
0.4623113327
 40
0.5009230837
 40
0.5402097063
 40
0.5799976465
 40
0.6201093726
 40
0.6603648375
 40
0.7005828895
 40
0.7405826616
 40
0.780184979
 40
0.8192137758
 40
0.8574975052
 40
0.8948710601
 40
0.931175785
 40
0.9662655761
 40
1.0
 40
1.0
 40
1.0
 40
1.0
 10
16.1389825664
 20
10.9859999797
 30
0.0
 10
16.1318290319
 20
10.9843425166
 30
0.0
 10
16.1174422752
 20
10.9816765263
 30
0.0
 10
16.0956547503
 20
10.979690852
 30
0.0
 10
16.0738499047
 20
10.9797524536
 30
0.0
 10
16.0520630237
 20
10.9818597972
 30
0.0
 10
16.0303264596
 20
10.986010639
 30
0.0
 10
16.0086721059
 20
10.9921949103
 30
0.0
 10
15.9871298427
 20
11.0004027632
 30
0.0
 10
15.9581180496
 20
11.0142524975
 30
0.0
 10
15.922167642
 20
11.0368913176
 30
0.0
 10
15.8807503132
 20
11.0713874457
 30
0.0
 10
15.8404992884
 20
11.1134529487
 30
0.0
 10
15.8015992116
 20
11.1628572508
 30
0.0
 10
15.7642261914
 20
11.2193469094
 30
0.0
 10
15.7285622604
 20
11.2826325964
 30
0.0
 10
15.6947862336
 20
11.3523893014
 30
0.0
 10
15.6630717368
 20
11.4282561543
 30
0.0
 10
15.6335840737
 20
11.509838268
 30
0.0
 10
15.6064783884
 20
11.5967088964
 30
0.0
 10
15.5818980788
 20
11.6884119204
 30
0.0
 10
15.5599735076
 20
11.7844645131
 30
0.0
 10
15.5408212404
 20
11.8843600178
 30
0.0
 10
15.5245432466
 20
11.9875708414
 30
0.0
 10
15.5112262838
 20
12.0935513856
 30
0.0
 10
15.5009413956
 20
12.2017410282
 30
0.0
 10
15.4937434845
 20
12.3115671653
 30
0.0
 10
15.4896708718
 20
12.4224483322
 30
0.0
 10
15.4887452477
 20
12.533797388
 30
0.0
 10
15.490971541
 20
12.6450246856
 30
0.0
 10
15.4963378883
 20
12.755541234
 30
0.0
 10
15.5048157011
 20
12.8647618651
 30
0.0
 10
15.5163598604
 20
12.9721083126
 30
0.0
 10
15.5309086207
 20
13.0770128239
 30
0.0
 10
15.5483846558
 20
13.1789197129
 30
0.0
 10
15.5686944716
 20
13.2772927493
 30
0.0
 10
15.5917302608
 20
13.3716082828
 30
0.0
 10
15.6091883291
 20
13.4327309272
 30
0.0
 10
15.6183845331
 20
13.4624898543
 30
0.0
  0
SPLINE
  5
2D3
100
AcDbEntity
  8
02___PRT_ALL_AXES
100
AcDbSpline
 62
7
  6
CONTINUOUS
 70
0
 71
3
 72
23
 73
19
 74
0
 42
0.0000001
 43
0.0000001
 44
0.0000000001
 40
0.0
 40
0.0
 40
0.0
 40
0.0
 40
0.0485955655
 40
0.096658923
 40
0.1448668585
 40
0.1938886867
 40
0.2443536084
 40
0.2968249575
 40
0.3517852486
 40
0.4096319328
 40
0.4706780847
 40
0.5351617303
 40
0.6032512731
 40
0.6750574193
 40
0.7506384468
 40
0.8300098439
 40
0.9131496391
 40
1.0
 40
1.0
 40
1.0
 40
1.0
 10
16.1926020225
 20
14.0231859286
 30
0.0
 10
16.1828217148
 20
14.025452176
 30
0.0
 10
16.1630662646
 20
14.0287678151
 30
0.0
 10
16.1330783937
 20
14.0298897611
 30
0.0
 10
16.1031066445
 20
14.0271065432
 30
0.0
 10
16.0732521038
 20
14.0204331576
 30
0.0
 10
16.0436018574
 20
14.0099001752
 30
0.0
 10
16.0142361567
 20
13.9955509949
 30
0.0
 10
15.9852265156
 20
13.9774370164
 30
0.0
 10
15.9566411032
 20
13.9556131981
 30
0.0
 10
15.9285434481
 20
13.930142266
 30
0.0
 10
15.9009990342
 20
13.901089878
 30
0.0
 10
15.8740701354
 20
13.8685313093
 30
0.0
 10
15.8478215131
 20
13.8325472748
 30
0.0
 10
15.8223153831
 20
13.79322808
 30
0.0
 10
15.7976140056
 20
13.750671088
 30
0.0
 10
15.7737791543
 20
13.7049833146
 30
0.0
 10
15.7588263595
 20
13.6731953424
 30
0.0
 10
15.7514912497
 20
13.6568206201
 30
0.0
  0
SPLINE
  5
2D4
100
AcDbEntity
  8
02___PRT_ALL_AXES
100
AcDbSpline
 62
7
  6
CONTINUOUS
 70
0
 71
3
 72
9
 73
5
 74
0
 42
0.0000001
 43
0.0000001
 44
0.0000000001
 40
0.0
 40
0.0
 40
0.0
 40
0.0
 40
0.4853583339
 40
1.0
 40
1.0
 40
1.0
 40
1.0
 10
15.7514912497
 20
13.6568206201
 30
0.0
 10
15.7391009042
 20
13.6291607117
 30
0.0
 10
15.715348235
 20
13.5713669848
 30
0.0
 10
15.6947189472
 20
13.5123975454
 30
0.0
 10
15.6848165181
 20
13.4818243482
 30
0.0
  0
SPLINE
  5
2D5
100
AcDbEntity
  8
02___PRT_ALL_AXES
100
AcDbSpline
 62
7
  6
CONTINUOUS
 70
0
 71
3
 72
23
 73
19
 74
0
 42
0.0000001
 43
0.0000001
 44
0.0000000001
 40
0.0
 40
0.0
 40
0.0
 40
0.0
 40
0.0843302066
 40
0.1649939972
 40
0.2420026146
 40
0.3154001274
 40
0.3852718752
 40
0.4517468098
 40
0.5150072086
 40
0.5752917673
 40
0.6329046432
 40
0.6882164587
 40
0.7416674617
 40
0.7937603317
 40
0.8450502025
 40
0.896124779
 40
0.9475810196
 40
1.0
 40
1.0
 40
1.0
 40
1.0
 10
16.4282760239
 20
13.6544339929
 30
0.0
 10
16.4216210098
 20
13.6664285073
 30
0.0
 10
16.4081247216
 20
13.6896370226
 30
0.0
 10
16.3868188538
 20
13.7227530419
 30
0.0
 10
16.3649424751
 20
13.7533367138
 30
0.0
 10
16.3425387619
 20
13.7813232872
 30
0.0
 10
16.3196533819
 20
13.8066557733
 30
0.0
 10
16.2963298278
 20
13.8292800209
 30
0.0
 10
16.272614469
 20
13.8491489702
 30
0.0
 10
16.2485513927
 20
13.8662171851
 30
0.0
 10
16.2241881097
 20
13.8804462232
 30
0.0
 10
16.1995714183
 20
13.8917977367
 30
0.0
 10
16.1747533301
 20
13.9002413709
 30
0.0
 10
16.1497881494
 20
13.9057475527
 30
0.0
 10
16.1247365756
 20
13.908299082
 30
0.0
 10
16.0996608703
 20
13.9078831945
 30
0.0
 10
16.0746292765
 20
13.9045053175
 30
0.0
 10
16.058212847
 20
13.9003358352
 30
0.0
 10
16.0500734797
 20
13.8977960738
 30
0.0
  0
SPLINE
  5
2D6
100
AcDbEntity
  8
02___PRT_ALL_AXES
100
AcDbSpline
 62
7
  6
CONTINUOUS
 70
0
 71
3
 72
10
 73
6
 74
0
 42
0.0000001
 43
0.0000001
 44
0.0000000001
 40
0.0
 40
0.0
 40
0.0
 40
0.0
 40
0.2364764973
 40
0.4809923763
 40
1.0
 40
1.0
 40
1.0
 40
1.0
 10
16.0500734797
 20
13.8977960738
 30
0.0
 10
16.0422639856
 20
13.8953592441
 30
0.0
 10
16.0266244533
 20
13.8895789325
 30
0.0
 10
15.9954377732
 20
13.8745205699
 30
0.0
 10
15.9732939207
 20
13.8598280607
 30
0.0
 10
15.9590807257
 20
13.8488569425
 30
0.0
  0
SPLINE
  5
2D7
100
AcDbEntity
  8
02___PRT_ALL_AXES
100
AcDbSpline
 62
7
  6
CONTINUOUS
 70
0
 71
3
 72
10
 73
6
 74
0
 42
0.0000001
 43
0.0000001
 44
0.0000000001
 40
0.0
 40
0.0
 40
0.0
 40
0.0
 40
0.476937356
 40
0.7325064018
 40
1.0
 40
1.0
 40
1.0
 40
1.0
 10
15.9572171949
 20
13.8474091518
 30
0.0
 10
15.9418572841
 20
13.8353988795
 30
0.0
 10
15.9196582015
 20
13.8151234785
 30
0.0
 10
15.8920528828
 20
13.7849578386
 30
0.0
 10
15.8785112076
 20
13.7683897517
 30
0.0
 10
15.8718041316
 20
13.7597524676
 30
0.0
  0
SPLINE
  5
2D8
100
AcDbEntity
  8
02___PRT_ALL_AXES
100
AcDbSpline
 62
7
  6
CONTINUOUS
 70
0
 71
3
 72
11
 73
7
 74
0
 42
0.0000001
 43
0.0000001
 44
0.0000000001
 40
0.0
 40
0.0
 40
0.0
 40
0.0
 40
0.2320092827
 40
0.475999442
 40
0.7320178348
 40
1.0
 40
1.0
 40
1.0
 40
1.0
 10
15.8718041316
 20
13.7597524676
 30
0.0
 10
15.8635729687
 20
13.7491524846
 30
0.0
 10
15.847348025
 20
13.72688466
 30
0.0
 10
15.8242808438
 20
13.6913551003
 30
0.0
 10
15.8019266327
 20
13.652946555
 30
0.0
 10
15.7878534525
 20
13.6260889398
 30
0.0
 10
15.7809330054
 20
13.6122180558
 30
0.0
  0
SPLINE
  5
2D9
100
AcDbEntity
  8
02___PRT_ALL_AXES
100
AcDbSpline
 62
7
  6
CONTINUOUS
 70
0
 71
3
 72
9
 73
5
 74
0
 42
0.0000001
 43
0.0000001
 44
0.0000000001
 40
0.0
 40
0.0
 40
0.0
 40
0.0
 40
0.4833568692
 40
1.0
 40
1.0
 40
1.0
 40
1.0
 10
15.7809330054
 20
13.6122180558
 30
0.0
 10
15.7682445853
 20
13.58678623
 30
0.0
 10
15.7438995543
 20
13.5332089764
 30
0.0
 10
15.722862289
 20
13.4782646432
 30
0.0
 10
15.7127426462
 20
13.4496211158
 30
0.0
  0
SPLINE
  5
2DA
100
AcDbEntity
  8
02___PRT_ALL_AXES
100
AcDbSpline
 62
7
  6
CONTINUOUS
 70
0
 71
3
 72
23
 73
19
 74
0
 42
0.0000001
 43
0.0000001
 44
0.0000000001
 40
0.0
 40
0.0
 40
0.0
 40
0.0
 40
0.0854180514
 40
0.1663743867
 40
0.2428981918
 40
0.3150808227
 40
0.3830900196
 40
0.4471794118
 40
0.5077049227
 40
0.5651345217
 40
0.62005534
 40
0.6731703586
 40
0.7252775196
 40
0.7772339355
 40
0.8299057587
 40
0.884116613
 40
0.9406050361
 40
1.0
 40
1.0
 40
1.0
 40
1.0
 10
16.4286405951
 20
11.3678333792
 30
0.0
 10
16.4207110214
 20
11.3535170308
 30
0.0
 10
16.4045932834
 20
11.3259961891
 30
0.0
 10
16.37890236
 20
11.2871621172
 30
0.0
 10
16.3524142314
 20
11.2519870369
 30
0.0
 10
16.3252029183
 20
11.2205766979
 30
0.0
 10
16.2973440546
 20
11.1930234944
 30
0.0
 10
16.2689108075
 20
11.1694132272
 30
0.0
 10
16.239978904
 20
11.1498219922
 30
0.0
 10
16.210625088
 20
11.1343208648
 30
0.0
 10
16.1809320461
 20
11.1229761379
 30
0.0
 10
16.150993878
 20
11.1158433107
 30
0.0
 10
16.120917007
 20
11.1129670932
 30
0.0
 10
16.0908193467
 20
11.1143646447
 30
0.0
 10
16.0608204023
 20
11.1200273423
 30
0.0
 10
16.0310309057
 20
11.1299207941
 30
0.0
 10
16.0015518292
 20
11.1439881054
 30
0.0
 10
15.9826830772
 20
11.155784269
 30
0.0
 10
15.9733434978
 20
11.1622859593
 30
0.0
  0
SPLINE
  5
2DB
100
AcDbEntity
  8
02___PRT_ALL_AXES
100
AcDbSpline
 62
7
  6
CONTINUOUS
 70
0
 71
3
 72
10
 73
6
 74
0
 42
0.0000001
 43
0.0000001
 44
0.0000000001
 40
0.0
 40
0.0
 40
0.0
 40
0.0
 40
0.4768359415
 40
0.732370459
 40
1.0
 40
1.0
 40
1.0
 40
1.0
 10
15.9725711329
 20
11.1628252023
 30
0.0
 10
15.9570016353
 20
11.1737269557
 30
0.0
 10
15.9344357941
 20
11.1924549745
 30
0.0
 10
15.9063368556
 20
11.2207402312
 30
0.0
 10
15.8925402305
 20
11.2363986717
 30
0.0
 10
15.8857035707
 20
11.2445877694
 30
0.0
  0
SPLINE
  5
2DC
100
AcDbEntity
  8
02___PRT_ALL_AXES
100
AcDbSpline
 62
7
  6
CONTINUOUS
 70
0
 71
3
 72
11
 73
7
 74
0
 42
0.0000001
 43
0.0000001
 44
0.0000000001
 40
0.0
 40
0.0
 40
0.0
 40
0.0
 40
0.2315460255
 40
0.4753337337
 40
0.7314852962
 40
1.0
 40
1.0
 40
1.0
 40
1.0
 10
15.8857035707
 20
11.2445877694
 30
0.0
 10
15.8773469367
 20
11.2545975249
 30
0.0
 10
15.8608573612
 20
11.27570866
 30
0.0
 10
15.8373847164
 20
11.3095834686
 30
0.0
 10
15.8145949526
 20
11.3463920838
 30
0.0
 10
15.8002303621
 20
11.3722248805
 30
0.0
 10
15.7931592558
 20
11.3855911
 30
0.0
  0
SPLINE
  5
2DD
100
AcDbEntity
  8
02___PRT_ALL_AXES
100
AcDbSpline
 62
7
  6
CONTINUOUS
 70
0
 71
3
 72
9
 73
5
 74
0
 42
0.0000001
 43
0.0000001
 44
0.0000000001
 40
0.0
 40
0.0
 40
0.0
 40
0.0
 40
0.4827969378
 40
1.0
 40
1.0
 40
1.0
 40
1.0
 10
15.7931592558
 20
11.3855911
 30
0.0
 10
15.7802496036
 20
11.409993681
 30
0.0
 10
15.7554267999
 20
11.4615638268
 30
0.0
 10
15.7339220009
 20
11.5145857742
 30
0.0
 10
15.7235492518
 20
11.5422814245
 30
0.0
  0
SPLINE
  5
2DE
100
AcDbEntity
  8
02___PRT_ALL_AXES
100
AcDbSpline
 62
7
  6
CONTINUOUS
 70
0
 71
3
 72
9
 73
5
 74
0
 42
0.0000001
 43
0.0000001
 44
0.0000000001
 40
0.0
 40
0.0
 40
0.0
 40
0.0
 40
0.4865167057
 40
1.0
 40
1.0
 40
1.0
 40
1.0
 10
15.7226007564
 20
11.5448203328
 30
0.0
 10
15.7113726355
 20
11.5749513026
 30
0.0
 10
15.690098265
 20
11.6375647672
 30
0.0
 10
15.6720096944
 20
11.7011620616
 30
0.0
 10
15.6634554169
 20
11.734003587
 30
0.0
  0
SPLINE
  5
2DF
100
AcDbEntity
  8
02___PRT_ALL_AXES
100
AcDbSpline
 62
7
  6
CONTINUOUS
 70
0
 71
3
 72
23
 73
19
 74
0
 42
0.0000001
 43
0.0000001
 44
0.0000000001
 40
0.0
 40
0.0
 40
0.0
 40
0.0
 40
0.0579600309
 40
0.1180298218
 40
0.1799200415
 40
0.2433228845
 40
0.3079158285
 40
0.3733651449
 40
0.439329208
 40
0.5054617062
 40
0.5714147891
 40
0.6368422133
 40
0.7014025557
 40
0.764762267
 40
0.8265997868
 40
0.8866063183
 40
0.9444968262
 40
1.0
 40
1.0
 40
1.0
 40
1.0
 10
15.6634554169
 20
11.734003587
 30
0.0
 10
15.6553531558
 20
11.765109734
 30
0.0
 10
15.6401913987
 20
11.8288090553
 30
0.0
 10
15.6208203381
 20
11.9267142875
 30
0.0
 10
15.6044985356
 20
12.028232191
 30
0.0
 10
15.5913283049
 20
12.1327336975
 30
0.0
 10
15.581391544
 20
12.239573694
 30
0.0
 10
15.5747502622
 20
12.3480914332
 30
0.0
 10
15.5714458718
 20
12.4576157944
 30
0.0
 10
15.5714990086
 20
12.5674692299
 30
0.0
 10
15.5749093698
 20
12.6769721093
 30
0.0
 10
15.5816557227
 20
12.7854470163
 30
0.0
 10
15.5916960001
 20
12.8922229388
 30
0.0
 10
15.6049673747
 20
12.9966400411
 30
0.0
 10
15.6213873911
 20
13.0980522283
 30
0.0
 10
15.6408532869
 20
13.1958358106
 30
0.0
 10
15.6632441827
 20
13.289383197
 30
0.0
 10
15.6804149102
 20
13.3499052778
 30
0.0
 10
15.6895030636
 20
13.379314553
 30
0.0
  0
SPLINE
  5
2E0
100
AcDbEntity
  8
02___PRT_ALL_AXES
100
AcDbSpline
 62
7
  6
CONTINUOUS
 70
0
 71
3
 72
24
 73
20
 74
0
 42
0.0000001
 43
0.0000001
 44
0.0000000001
 40
0.0
 40
0.0
 40
0.0
 40
0.0
 40
0.0453381197
 40
0.0902181282
 40
0.1355003183
 40
0.1820174631
 40
0.2305223994
 40
0.2816550553
 40
0.3083818729
 40
0.3359476237
 40
0.3937543708
 40
0.4553729462
 40
0.5209866275
 40
0.5906962644
 40
0.6645350526
 40
0.742478401
 40
0.8244524936
 40
0.9103430823
 40
1.0
 40
1.0
 40
1.0
 40
1.0
 10
16.1926020225
 20
10.9984240562
 30
0.0
 10
16.1812140538
 20
10.9957853766
 30
0.0
 10
16.158136699
 20
10.9921527375
 30
0.0
 10
16.1230717924
 20
10.9919793079
 30
0.0
 10
16.0880772286
 20
10.9971369017
 30
0.0
 10
16.0533195024
 20
11.0075880009
 30
0.0
 10
16.0189348178
 20
11.0232584428
 30
0.0
 10
15.9911006961
 20
11.0403422355
 30
0.0
 10
15.9691514619
 20
11.0563926983
 30
0.0
 10
15.946721341
 20
11.0746394852
 30
0.0
 10
15.9191183384
 20
11.1006934826
 30
0.0
 10
15.8872949725
 20
11.1363029885
 30
0.0
 10
15.8563561645
 20
11.1766205245
 30
0.0
 10
15.8264017412
 20
11.2215068866
 30
0.0
 10
15.7975287832
 20
11.2708121974
 30
0.0
 10
15.769833338
 20
11.3243699991
 30
0.0
 10
15.7434075514
 20
11.381999113
 30
0.0
 10
15.7183419349
 20
11.4435030558
 30
0.0
 10
15.702914754
 20
11.4860681213
 30
0.0
 10
15.6954245179
 20
11.5079375153
 30
0.0
  0
SPLINE
  5
2E1
100
AcDbEntity
  8
02___PRT_ALL_AXES
100
AcDbSpline
 62
7
  6
CONTINUOUS
 70
0
 71
3
 72
9
 73
5
 74
0
 42
0.0000001
 43
0.0000001
 44
0.0000000001
 40
0.0
 40
0.0
 40
0.0
 40
0.0
 40
0.4881058891
 40
1.0
 40
1.0
 40
1.0
 40
1.0
 10
15.6946114429
 20
11.5103164602
 30
0.0
 10
15.6836735192
 20
11.5423866448
 30
0.0
 10
15.6629607635
 20
11.6086764299
 30
0.0
 10
15.6452830969
 20
11.6758320991
 30
0.0
 10
15.6369396004
 20
11.7103742257
 30
0.0
  0
SPLINE
  5
2E2
100
AcDbEntity
  8
02___PRT_ALL_AXES
100
AcDbSpline
 62
7
  6
CONTINUOUS
 70
0
 71
3
 72
9
 73
5
 74
0
 42
0.0000001
 43
0.0000001
 44
0.0000000001
 40
0.0
 40
0.0
 40
0.0
 40
0.0
 40
0.4912222141
 40
1.0
 40
1.0
 40
1.0
 40
1.0
 10
15.6367121239
 20
11.7113167477
 30
0.0
 10
15.6277468761
 20
11.7484934922
 30
0.0
 10
15.6111534536
 20
11.8245823369
 30
0.0
 10
15.5975991201
 20
11.9012664208
 30
0.0
 10
15.5914238025
 20
11.9403912682
 30
0.0
  0
LINE
  5
2E3
100
AcDbEntity
  8
02___PRT_ALL_AXES
100
AcDbLine
 62
7
  6
CONTINUOUS
 10
15.5845310279
 20
13.0354369441
 11
15.5852889134
 21
13.0406933134
  0
SPLINE
  5
2E4
100
AcDbEntity
  8
02___PRT_ALL_AXES
100
AcDbSpline
 62
7
  6
CONTINUOUS
 70
0
 71
3
 72
9
 73
5
 74
0
 42
0.0000001
 43
0.0000001
 44
0.0000000001
 40
0.0
 40
0.0
 40
0.0
 40
0.0
 40
0.5097416249
 40
1.0
 40
1.0
 40
1.0
 40
1.0
 10
15.628333703
 20
13.2744580319
 30
0.0
 10
15.6353385945
 20
13.3053752312
 30
0.0
 10
15.6501421951
 20
13.3657934361
 30
0.0
 10
15.6672440131
 20
13.4256054833
 30
0.0
 10
15.6762458554
 20
13.4547354556
 30
0.0
  0
LINE
  5
2E5
100
AcDbEntity
  8
0
100
AcDbLine
 62
7
  6
CONTINUOUS
 10
14.1790001601
 20
12.7912331074
 11
14.1801852687
 21
12.7921733577
  0
SPLINE
  5
2E6
100
AcDbEntity
  8
0
100
AcDbSpline
 62
7
  6
CONTINUOUS
 70
0
 71
3
 72
15
 73
11
 74
0
 42
0.0000001
 43
0.0000001
 44
0.0000000001
 40
0.0
 40
0.0
 40
0.0
 40
0.0
 40
0.0771678286
 40
0.1625295806
 40
0.2616830726
 40
0.3773746636
 40
0.5102874035
 40
0.6597518445
 40
0.8240177975
 40
1.0
 40
1.0
 40
1.0
 40
1.0
 10
14.1933450474
 20
11.9392518335
 30
0.0
 10
14.1926575995
 20
11.939252206
 30
0.0
 10
14.1911993064
 20
11.9395376248
 30
0.0
 10
14.189169921
 20
11.9407503835
 30
0.0
 10
14.1872728034
 20
11.9426634685
 30
0.0
 10
14.1855189765
 20
11.945232189
 30
0.0
 10
14.183929064
 20
11.9484111363
 30
0.0
 10
14.182531685
 20
11.9521429786
 30
0.0
 10
14.1813583047
 20
11.9563492692
 30
0.0
 10
14.1807554928
 20
11.9593226071
 30
0.0
 10
14.1804932072
 20
11.9608682447
 30
0.0
  0
SPLINE
  5
2E7
100
AcDbEntity
  8
0
100
AcDbSpline
 62
7
  6
CONTINUOUS
 70
0
 71
3
 72
14
 73
10
 74
0
 42
0.0000001
 43
0.0000001
 44
0.0000000001
 40
0.0
 40
0.0
 40
0.0
 40
0.0
 40
0.0834895063
 40
0.1732381466
 40
0.2740983868
 40
0.3890346901
 40
0.5193760061
 40
0.6654582717
 40
1.0
 40
1.0
 40
1.0
 40
1.0
 10
14.2432282534
 20
11.7097728233
 30
0.0
 10
14.2426598546
 20
11.7097726234
 30
0.0
 10
14.2414739979
 20
11.7099648199
 30
0.0
 10
14.2397774709
 20
11.7107897491
 30
0.0
 10
14.2381570797
 20
11.7121175522
 30
0.0
 10
14.2366247239
 20
11.7139201042
 30
0.0
 10
14.2351893604
 20
11.7161728005
 30
0.0
 10
14.2333515797
 20
11.7199107329
 30
0.0
 10
14.2323108606
 20
11.7230309475
 30
0.0
 10
14.2317159254
 20
11.7252294411
 30
0.0
  0
SPLINE
  5
2E8
100
AcDbEntity
  8
0
100
AcDbSpline
 62
7
  6
CONTINUOUS
 70
0
 71
3
 72
13
 73
9
 74
0
 42
0.0000001
 43
0.0000001
 44
0.0000000001
 40
0.0
 40
0.0
 40
0.0
 40
0.0
 40
0.0915626504
 40
0.1876292986
 40
0.2919932978
 40
0.4073717493
 40
0.6769432579
 40
1.0
 40
1.0
 40
1.0
 40
1.0
 10
14.3095866951
 20
11.5096965686
 30
0.0
 10
14.3091360829
 20
11.5096964828
 30
0.0
 10
14.3082089833
 20
11.509812887
 30
0.0
 10
14.3068557592
 20
11.5103291383
 30
0.0
 10
14.3055389788
 20
11.5111717547
 30
0.0
 10
14.3037512266
 20
11.5127987468
 30
0.0
 10
14.3017088951
 20
11.5156635244
 30
0.0
 10
14.300451724
 20
11.5183056928
 30
0.0
 10
14.2998563057
 20
11.5197798654
 30
0.0
  0
SPLINE
  5
2E9
100
AcDbEntity
  8
0
100
AcDbSpline
 62
7
  6
CONTINUOUS
 70
0
 71
3
 72
11
 73
7
 74
0
 42
0.0000001
 43
0.0000001
 44
0.0000000001
 40
0.0
 40
0.0
 40
0.0
 40
0.0
 40
0.205195653
 40
0.4318824552
 40
0.6948241825
 40
1.0
 40
1.0
 40
1.0
 40
1.0
 10
14.3898702843
 20
11.3467081581
 30
0.0
 10
14.3891947702
 20
11.3467084054
 30
0.0
 10
14.3877632681
 20
11.3469853329
 30
0.0
 10
14.385762976
 20
11.3481588216
 30
0.0
 10
14.3838920152
 20
11.3500150763
 30
0.0
 10
14.3828167309
 20
11.3515558128
 30
0.0
 10
14.3822957515
 20
11.3524148295
 30
0.0
  0
SPLINE
  5
2EA
100
AcDbEntity
  8
0
100
AcDbSpline
 62
7
  6
CONTINUOUS
 70
0
 71
3
 72
11
 73
7
 74
0
 42
0.0000001
 43
0.0000001
 44
0.0000000001
 40
0.0
 40
0.0
 40
0.0
 40
0.0
 40
0.2260155429
 40
0.4628164592
 40
0.7188130353
 40
1.0
 40
1.0
 40
1.0
 40
1.0
 10
14.4809937353
 20
11.2270714866
 30
0.0
 10
14.4805533172
 20
11.2270714018
 30
0.0
 10
14.4796480807
 20
11.227184032
 30
0.0
 10
14.4783261078
 20
11.2276779198
 30
0.0
 10
14.4770392066
 20
11.2284801213
 30
0.0
 10
14.4762518319
 20
11.2291768724
 30
0.0
 10
14.475866161
 20
11.229566078
 30
0.0
  0
SPLINE
  5
2EB
100
AcDbEntity
  8
0
100
AcDbSpline
 62
7
  6
CONTINUOUS
 70
0
 71
3
 72
15
 73
11
 74
0
 42
0.0000001
 43
0.0000001
 44
0.0000000001
 40
0.0
 40
0.0
 40
0.0
 40
0.0
 40
0.077643402
 40
0.1634345778
 40
0.262758321
 40
0.3783135126
 40
0.510828336
 40
0.6597241682
 40
0.823525829
 40
1.0
 40
1.0
 40
1.0
 40
1.0
 10
14.6795652568
 20
11.1343229673
 30
0.0
 10
14.6788934246
 20
11.1343233525
 30
0.0
 10
14.6774705455
 20
11.13460103
 30
0.0
 10
14.6754779841
 20
11.1357581439
 30
0.0
 10
14.6736111801
 20
11.1375987884
 30
0.0
 10
14.6718806748
 20
11.1400709622
 30
0.0
 10
14.6703065047
 20
11.143132987
 30
0.0
 10
14.668914601
 20
11.1467311973
 30
0.0
 10
14.6677311088
 20
11.1507995225
 30
0.0
 10
14.6671181955
 20
11.1536821
 30
0.0
 10
14.6668468631
 20
11.1551847947
 30
0.0
  0
LINE
  5
2EC
100
AcDbEntity
  8
0
100
AcDbLine
 62
7
  6
CONTINUOUS
 10
14.2317159254
 20
11.7252294411
 11
14.2306019834
 21
11.7293619236
  0
LINE
  5
2ED
100
AcDbEntity
  8
0
100
AcDbLine
 62
7
  6
CONTINUOUS
 10
14.1804932072
 20
11.9608682447
 11
14.1797146212
 21
11.965479384
  0
LINE
  5
2EE
100
AcDbEntity
  8
0
100
AcDbLine
 62
7
  6
CONTINUOUS
 10
14.1481566113
 20
12.2176408092
 11
14.147743302
 21
12.2225534018
  0
LINE
  5
2EF
100
AcDbEntity
  8
0
100
AcDbLine
 62
7
  6
CONTINUOUS
 10
14.1359488151
 20
12.4856795088
 11
14.1359166657
 21
12.4907047665
  0
LINE
  5
2F0
100
AcDbEntity
  8
0
100
AcDbLine
 62
7
  6
CONTINUOUS
 10
14.1443389573
 20
12.7546837667
 11
14.1446892032
 21
12.7596285717
  0
LINE
  5
2F1
100
AcDbEntity
  8
0
100
AcDbLine
 62
7
  6
CONTINUOUS
 10
14.1730046095
 20
13.0143159001
 11
14.173723791
 21
13.0189902262
  0
LINE
  5
2F2
100
AcDbEntity
  8
0
100
AcDbLine
 62
7
  6
CONTINUOUS
 10
14.2208441667
 20
13.2545983916
 11
14.221904646
 21
13.2588226073
  0
SPLINE
  5
2F3
100
AcDbEntity
  8
0
100
AcDbSpline
 62
7
  6
CONTINUOUS
 70
0
 71
3
 72
15
 73
11
 74
0
 42
0.0000001
 43
0.0000001
 44
0.0000000001
 40
0.0
 40
0.0
 40
0.0
 40
0.0
 40
0.1760167626
 40
0.3406624067
 40
0.4906287296
 40
0.624005964
 40
0.7399310027
 40
0.8389613308
 40
0.9237515548
 40
1.0
 40
1.0
 40
1.0
 40
1.0
 10
14.173723791
 20
13.0189902262
 30
0.0
 10
14.1739733858
 20
13.0206038441
 30
0.0
 10
14.1745571094
 20
13.0237125081
 30
0.0
 10
14.1757177209
 20
13.028117956
 30
0.0
 10
14.1771200251
 20
13.0320364921
 30
0.0
 10
14.1787293941
 20
13.0353817964
 30
0.0
 10
14.1805164036
 20
13.0380892131
 30
0.0
 10
14.1824565352
 20
13.040110097
 30
0.0
 10
14.184540923
 20
13.0413930784
 30
0.0
 10
14.1860453474
 20
13.0416980616
 30
0.0
 10
14.1867526604
 20
13.0416988743
 30
0.0
  0
SPLINE
  5
2F4
100
AcDbEntity
  8
0
100
AcDbSpline
 62
7
  6
CONTINUOUS
 70
0
 71
3
 72
15
 73
11
 74
0
 42
0.0000001
 43
0.0000001
 44
0.0000000001
 40
0.0
 40
0.0
 40
0.0
 40
0.0
 40
0.098606685
 40
0.2097664709
 40
0.3312821494
 40
0.4606700838
 40
0.5952490404
 40
0.7321206959
 40
0.8682134168
 40
1.0
 40
1.0
 40
1.0
 40
1.0
 10
14.1777043372
 20
12.9722270858
 30
0.0
 10
14.1770480366
 20
12.973476276
 30
0.0
 10
14.1758490531
 20
12.9762381052
 30
0.0
 10
14.1744216093
 20
12.9807652096
 30
0.0
 10
14.1732985521
 20
12.9858292751
 30
0.0
 10
14.1725046347
 20
12.9912927199
 30
0.0
 10
14.172064397
 20
12.9970160385
 30
0.0
 10
14.1719865858
 20
13.0028516034
 30
0.0
 10
14.1722789187
 20
13.0086400569
 30
0.0
 10
14.1727193165
 20
13.0124516851
 30
0.0
 10
14.1730046095
 20
13.0143159001
 30
0.0
  0
SPLINE
  5
2F5
100
AcDbEntity
  8
0
100
AcDbSpline
 62
7
  6
CONTINUOUS
 70
0
 71
3
 72
9
 73
5
 74
0
 42
0.0000001
 43
0.0000001
 44
0.0000000001
 40
0.0
 40
0.0
 40
0.0
 40
0.0
 40
0.2589774415
 40
1.0
 40
1.0
 40
1.0
 40
1.0
 10
14.1777043372
 20
12.9722270858
 30
0.0
 10
14.1789766095
 20
12.9698054667
 30
0.0
 10
14.1839893062
 20
12.96050805
 30
0.0
 10
14.1894135541
 20
12.9514295232
 30
0.0
 10
14.1936973165
 20
12.9448786442
 30
0.0
  0
SPLINE
  5
2F6
100
AcDbEntity
  8
0
100
AcDbSpline
 62
7
  6
CONTINUOUS
 70
0
 71
3
 72
9
 73
5
 74
0
 42
0.0000001
 43
0.0000001
 44
0.0000000001
 40
0.0
 40
0.0
 40
0.0
 40
0.0
 40
0.5381192991
 40
1.0
 40
1.0
 40
1.0
 40
1.0
 10
14.1964592708
 20
12.9385524024
 30
0.0
 10
14.1961061065
 20
12.9397424118
 30
0.0
 10
14.1953396558
 20
12.9419234161
 30
0.0
 10
14.1942804278
 20
12.94398693
 30
0.0
 10
14.1936973165
 20
12.9448786442
 30
0.0
  0
SPLINE
  5
2F7
100
AcDbEntity
  8
0
100
AcDbSpline
 62
7
  6
CONTINUOUS
 70
0
 71
3
 72
15
 73
11
 74
0
 42
0.0000001
 43
0.0000001
 44
0.0000000001
 40
0.0
 40
0.0
 40
0.0
 40
0.0
 40
0.1700310381
 40
0.3324265207
 40
0.4830726049
 40
0.6191908339
 40
0.7387891379
 40
0.8410720762
 40
0.9269022655
 40
1.0
 40
1.0
 40
1.0
 40
1.0
 10
14.1446892032
 20
12.7596285717
 30
0.0
 10
14.144824754
 20
12.7615226457
 30
0.0
 10
14.1452099624
 20
12.7652184017
 30
0.0
 10
14.1461371863
 20
12.7705378582
 30
0.0
 10
14.1473883221
 20
12.7754017895
 30
0.0
 10
14.1489230178
 20
12.7796812856
 30
0.0
 10
14.1507062841
 20
12.783272217
 30
0.0
 10
14.1526985877
 20
12.7860958877
 30
0.0
 10
14.1548751707
 20
12.7880818739
 30
0.0
 10
14.1565349507
 20
12.7888337507
 30
0.0
 10
14.157333859
 20
12.7890016494
 30
0.0
  0
SPLINE
  5
2F8
100
AcDbEntity
  8
0
100
AcDbSpline
 62
7
  6
CONTINUOUS
 70
0
 71
3
 72
15
 73
11
 74
0
 42
0.0000001
 43
0.0000001
 44
0.0000000001
 40
0.0
 40
0.0
 40
0.0
 40
0.0
 40
0.0875376483
 40
0.1896542219
 40
0.3051357696
 40
0.4320309584
 40
0.567958759
 40
0.710121347
 40
0.8554080214
 40
1.0
 40
1.0
 40
1.0
 40
1.0
 10
14.152145942
 20
12.715758141
 30
0.0
 10
14.1513958033
 20
12.7166685481
 30
0.0
 10
14.149989152
 20
12.7188212728
 30
0.0
 10
14.1482503511
 20
12.7225570761
 30
0.0
 10
14.146770433
 20
12.7269658519
 30
0.0
 10
14.1455826037
 20
12.7319290911
 30
0.0
 10
14.1447214635
 20
12.7373230259
 30
0.0
 10
14.1442068627
 20
12.7430093253
 30
0.0
 10
14.14405881
 20
12.7488332262
 30
0.0
 10
14.1442027083
 20
12.7527400444
 30
0.0
 10
14.1443389573
 20
12.7546837667
 30
0.0
  0
SPLINE
  5
2F9
100
AcDbEntity
  8
0
100
AcDbSpline
 62
7
  6
CONTINUOUS
 70
0
 71
3
 72
9
 73
5
 74
0
 42
0.0000001
 43
0.0000001
 44
0.0000000001
 40
0.0
 40
0.0
 40
0.0
 40
0.0
 40
0.2604050468
 40
1.0
 40
1.0
 40
1.0
 40
1.0
 10
14.152145942
 20
12.715758141
 30
0.0
 10
14.1535747042
 20
12.7140241214
 30
0.0
 10
14.159165731
 20
12.7074527757
 30
0.0
 10
14.1651910132
 20
12.7012437349
 30
0.0
 10
14.1699093296
 20
12.6969473351
 30
0.0
  0
SPLINE
  5
2FA
100
AcDbEntity
  8
0
100
AcDbSpline
 62
7
  6
CONTINUOUS
 70
0
 71
3
 72
9
 73
5
 74
0
 42
0.0000001
 43
0.0000001
 44
0.0000000001
 40
0.0
 40
0.0
 40
0.0
 40
0.0
 40
0.5475883768
 40
1.0
 40
1.0
 40
1.0
 40
1.0
 10
14.1730988294
 20
12.6921263308
 30
0.0
 10
14.1726708146
 20
12.6930966631
 30
0.0
 10
14.1717768747
 20
12.6948227537
 30
0.0
 10
14.1705571889
 20
12.6963574079
 30
0.0
 10
14.1699093296
 20
12.6969473351
 30
0.0
  0
SPLINE
  5
2FB
100
AcDbEntity
  8
0
100
AcDbSpline
 62
7
  6
CONTINUOUS
 70
0
 71
3
 72
9
 73
5
 74
0
 42
0.0000001
 43
0.0000001
 44
0.0000000001
 40
0.0
 40
0.0
 40
0.0
 40
0.0
 40
0.448816226
 40
1.0
 40
1.0
 40
1.0
 40
1.0
 10
14.1648056554
 20
12.5369834139
 30
0.0
 10
14.165473258
 20
12.5372905387
 30
0.0
 10
14.1668023398
 20
12.5383134625
 30
0.0
 10
14.167781838
 20
12.5396404838
 30
0.0
 10
14.1682581998
 20
12.5404069888
 30
0.0
  0
SPLINE
  5
2FC
100
AcDbEntity
  8
0
100
AcDbSpline
 62
7
  6
CONTINUOUS
 70
0
 71
3
 72
9
 73
5
 74
0
 42
0.0000001
 43
0.0000001
 44
0.0000000001
 40
0.0
 40
0.0
 40
0.0
 40
0.0
 40
0.2413732991
 40
1.0
 40
1.0
 40
1.0
 40
1.0
 10
14.1648056554
 20
12.5369834139
 30
0.0
 10
14.1632120861
 20
12.5362503059
 30
0.0
 10
14.1566948787
 20
12.5330295533
 30
0.0
 10
14.1505335815
 20
12.5291071049
 30
0.0
 10
14.1460868338
 20
12.5258481529
 30
0.0
  0
SPLINE
  5
2FD
100
AcDbEntity
  8
0
100
AcDbSpline
 62
7
  6
CONTINUOUS
 70
0
 71
3
 72
15
 73
11
 74
0
 42
0.0000001
 43
0.0000001
 44
0.0000000001
 40
0.0
 40
0.0
 40
0.0
 40
0.0
 40
0.1559808957
 40
0.3091984647
 40
0.4556440745
 40
0.5922636636
 40
0.7164755235
 40
0.8263620263
 40
0.9207841336
 40
1.0
 40
1.0
 40
1.0
 40
1.0
 10
14.1359166657
 20
12.4907047665
 30
0.0
 10
14.1359055635
 20
12.4926571152
 30
0.0
 10
14.1360073122
 20
12.4965289904
 30
0.0
 10
14.136518219
 20
12.5022132277
 30
0.0
 10
14.1373818606
 20
12.507610147
 30
0.0
 10
14.1385684128
 20
12.512573913
 30
0.0
 10
14.140049723
 20
12.5169787647
 30
0.0
 10
14.1417857264
 20
12.5207194072
 30
0.0
 10
14.1437394271
 20
12.523698031
 30
0.0
 10
14.1452870891
 20
12.5252620325
 30
0.0
 10
14.1460868338
 20
12.5258481529
 30
0.0
  0
SPLINE
  5
2FE
100
AcDbEntity
  8
0
100
AcDbSpline
 62
7
  6
CONTINUOUS
 70
0
 71
3
 72
15
 73
11
 74
0
 42
0.0000001
 43
0.0000001
 44
0.0000000001
 40
0.0
 40
0.0
 40
0.0
 40
0.0
 40
0.0777774815
 40
0.1706690202
 40
0.2793525138
 40
0.4029224833
 40
0.5395934624
 40
0.686850355
 40
0.8416652948
 40
1.0
 40
1.0
 40
1.0
 40
1.0
 10
14.1465630386
 20
12.4514129617
 30
0.0
 10
14.1457580445
 20
12.4519301387
 30
0.0
 10
14.1441861283
 20
12.4533667459
 30
0.0
 10
14.1421935159
 20
12.456184932
 30
0.0
 10
14.1404108368
 20
12.4597799012
 30
0.0
 10
14.1388750216
 20
12.4640586154
 30
0.0
 10
14.1376266687
 20
12.4689199948
 30
0.0
 10
14.1366954235
 20
12.4742413782
 30
0.0
 10
14.1361129874
 20
12.479879287
 30
0.0
 10
14.1359626611
 20
12.4837317396
 30
0.0
 10
14.1359488151
 20
12.4856795088
 30
0.0
  0
SPLINE
  5
2FF
100
AcDbEntity
  8
0
100
AcDbSpline
 62
7
  6
CONTINUOUS
 70
0
 71
3
 72
9
 73
5
 74
0
 42
0.0000001
 43
0.0000001
 44
0.0000000001
 40
0.0
 40
0.0
 40
0.0
 40
0.0
 40
0.258712451
 40
1.0
 40
1.0
 40
1.0
 40
1.0
 10
14.1465630386
 20
12.4514129617
 30
0.0
 10
14.1480978832
 20
12.4504268845
 30
0.0
 10
14.1541200736
 20
12.4467584812
 30
0.0
 10
14.1605173394
 20
12.4436913878
 30
0.0
 10
14.1654141976
 20
12.4418626802
 30
0.0
  0
SPLINE
  5
300
100
AcDbEntity
  8
0
100
AcDbSpline
 62
7
  6
CONTINUOUS
 70
0
 71
3
 72
9
 73
5
 74
0
 42
0.0000001
 43
0.0000001
 44
0.0000000001
 40
0.0
 40
0.0
 40
0.0
 40
0.0
 40
0.550720621
 40
1.0
 40
1.0
 40
1.0
 40
1.0
 10
14.1689086722
 20
12.4387321818
 30
0.0
 10
14.1684239336
 20
12.4394563417
 30
0.0
 10
14.1674272981
 20
12.4407032845
 30
0.0
 10
14.1660801829
 20
12.4416139712
 30
0.0
 10
14.1654141976
 20
12.4418626802
 30
0.0
  0
SPLINE
  5
301
100
AcDbEntity
  8
0
100
AcDbSpline
 62
7
  6
CONTINUOUS
 70
0
 71
3
 72
9
 73
5
 74
0
 42
0.0000001
 43
0.0000001
 44
0.0000000001
 40
0.0
 40
0.0
 40
0.0
 40
0.0
 40
0.4538139827
 40
1.0
 40
1.0
 40
1.0
 40
1.0
 10
14.1725613281
 20
12.2824155884
 30
0.0
 10
14.1732007614
 20
12.2830593116
 30
0.0
 10
14.1743956522
 20
12.2846886238
 30
0.0
 10
14.1752706467
 20
12.2864936814
 30
0.0
 10
14.1756874378
 20
12.2875030318
 30
0.0
  0
SPLINE
  5
302
100
AcDbEntity
  8
0
100
AcDbSpline
 62
7
  6
CONTINUOUS
 70
0
 71
3
 72
9
 73
5
 74
0
 42
0.0000001
 43
0.0000001
 44
0.0000000001
 40
0.0
 40
0.0
 40
0.0
 40
0.0
 40
0.2399548778
 40
1.0
 40
1.0
 40
1.0
 40
1.0
 10
14.1725613281
 20
12.2824155884
 30
0.0
 10
14.1710494599
 20
12.2808935773
 30
0.0
 10
14.1648682206
 20
12.2744323843
 30
0.0
 10
14.1591543237
 20
12.267530671
 30
0.0
 10
14.1550481486
 20
12.2621165562
 30
0.0
  0
SPLINE
  5
303
100
AcDbEntity
  8
0
100
AcDbSpline
 62
7
  6
CONTINUOUS
 70
0
 71
3
 72
15
 73
11
 74
0
 42
0.0000001
 43
0.0000001
 44
0.0000000001
 40
0.0
 40
0.0
 40
0.0
 40
0.0
 40
0.1423830935
 40
0.2861014236
 40
0.4273808229
 40
0.5631104927
 40
0.6904663754
 40
0.8070025633
 40
0.9106541777
 40
1.0
 40
1.0
 40
1.0
 40
1.0
 10
14.147743302
 20
12.2225534018
 30
0.0
 10
14.1475818897
 20
12.2244890591
 30
0.0
 10
14.1473882241
 20
12.2283903863
 30
0.0
 10
14.1474625366
 20
12.2342238589
 30
0.0
 10
14.1479049964
 20
12.2399504416
 30
0.0
 10
14.148697632
 20
12.2454141394
 30
0.0
 10
14.1498223831
 20
12.2504746341
 30
0.0
 10
14.1512461521
 20
12.2550050258
 30
0.0
 10
14.1529369477
 20
12.2588832065
 30
0.0
 10
14.1543116177
 20
12.261145418
 30
0.0
 10
14.1550481486
 20
12.2621165562
 30
0.0
  0
SPLINE
  5
304
100
AcDbEntity
  8
0
100
AcDbSpline
 62
7
  6
CONTINUOUS
 70
0
 71
3
 72
15
 73
11
 74
0
 42
0.0000001
 43
0.0000001
 44
0.0000000001
 40
0.0
 40
0.0
 40
0.0
 40
0.0
 40
0.0729038433
 40
0.157543033
 40
0.2584699052
 40
0.3770708553
 40
0.5128437476
 40
0.6639553271
 40
0.8277101783
 40
1.0
 40
1.0
 40
1.0
 40
1.0
 10
14.161170175
 20
12.1893501848
 30
0.0
 10
14.1603791911
 20
12.1894493942
 30
0.0
 10
14.1587122635
 20
12.1900535986
 30
0.0
 10
14.1564983099
 20
12.1918645336
 30
0.0
 10
14.1544678674
 20
12.1945253354
 30
0.0
 10
14.1526396012
 20
12.1979672567
 30
0.0
 10
14.1510519751
 20
12.2021163611
 30
0.0
 10
14.1497403343
 20
12.2068727647
 30
0.0
 10
14.148746598
 20
12.2121111006
 30
0.0
 10
14.1483159413
 20
12.2157636219
 30
0.0
 10
14.1481566113
 20
12.2176408092
 30
0.0
  0
SPLINE
  5
305
100
AcDbEntity
  8
0
100
AcDbSpline
 62
7
  6
CONTINUOUS
 70
0
 71
3
 72
9
 73
5
 74
0
 42
0.0000001
 43
0.0000001
 44
0.0000000001
 40
0.0
 40
0.0
 40
0.0
 40
0.0
 40
0.463575103
 40
1.0
 40
1.0
 40
1.0
 40
1.0
 10
14.1995079408
 20
12.0366246397
 30
0.0
 10
14.2000775009
 20
12.0375620474
 30
0.0
 10
14.2011070248
 20
12.0397053319
 30
0.0
 10
14.2018486171
 20
12.0419572703
 30
0.0
 10
14.2021874813
 20
12.0431804439
 30
0.0
  0
SPLINE
  5
306
100
AcDbEntity
  8
0
100
AcDbSpline
 62
7
  6
CONTINUOUS
 70
0
 71
3
 72
9
 73
5
 74
0
 42
0.0000001
 43
0.0000001
 44
0.0000000001
 40
0.0
 40
0.0
 40
0.0
 40
0.0
 40
0.2413633283
 40
1.0
 40
1.0
 40
1.0
 40
1.0
 10
14.1995079408
 20
12.0366246397
 30
0.0
 10
14.1981429602
 20
12.034378093
 30
0.0
 10
14.1926037282
 20
12.0250000196
 30
0.0
 10
14.1875139033
 20
12.0153590682
 30
0.0
 10
14.1838734252
 20
12.0079419166
 30
0.0
  0
SPLINE
  5
307
100
AcDbEntity
  8
0
100
AcDbSpline
 62
7
  6
CONTINUOUS
 70
0
 71
3
 72
15
 73
11
 74
0
 42
0.0000001
 43
0.0000001
 44
0.0000000001
 40
0.0
 40
0.0
 40
0.0
 40
0.0
 40
0.1297289081
 40
0.2643233775
 40
0.4003107334
 40
0.5346340758
 40
0.6643892374
 40
0.7868611417
 40
0.8995035753
 40
1.0
 40
1.0
 40
1.0
 40
1.0
 10
14.1797146212
 20
11.965479384
 30
0.0
 10
14.1794048812
 20
11.9673230184
 30
0.0
 10
14.1789154602
 20
11.9711041692
 30
0.0
 10
14.1785500809
 20
11.9768650292
 30
0.0
 10
14.1785540455
 20
11.9827039334
 30
0.0
 10
14.1789216995
 20
11.9884613988
 30
0.0
 10
14.1796462305
 20
11.9939888475
 30
0.0
 10
14.1807049624
 20
11.9991448264
 30
0.0
 10
14.1820747831
 20
12.0037891233
 30
0.0
 10
14.1832353304
 20
12.006641855
 30
0.0
 10
14.1838734252
 20
12.0079419166
 30
0.0
  0
SPLINE
  5
308
100
AcDbEntity
  8
0
100
AcDbSpline
 62
7
  6
CONTINUOUS
 70
0
 71
3
 72
9
 73
5
 74
0
 42
0.0000001
 43
0.0000001
 44
0.0000000001
 40
0.0
 40
0.0
 40
0.0
 40
0.0
 40
0.4734394777
 40
1.0
 40
1.0
 40
1.0
 40
1.0
 10
14.2446099504
 20
11.8090561761
 30
0.0
 10
14.2450875667
 20
11.8102367272
 30
0.0
 10
14.2459236077
 20
11.8128009379
 30
0.0
 10
14.2464960115
 20
11.8154331725
 30
0.0
 10
14.2467399483
 20
11.8168284052
 30
0.0
  0
SPLINE
  5
309
100
AcDbEntity
  8
0
100
AcDbSpline
 62
7
  6
CONTINUOUS
 70
0
 71
3
 72
9
 73
5
 74
0
 42
0.0000001
 43
0.0000001
 44
0.0000000001
 40
0.0
 40
0.0
 40
0.0
 40
0.0
 40
0.2433243617
 40
1.0
 40
1.0
 40
1.0
 40
1.0
 10
14.2446099504
 20
11.8090561761
 30
0.0
 10
14.2434449564
 20
11.8061765948
 30
0.0
 10
14.2387619299
 20
11.7942999969
 30
0.0
 10
14.2344862351
 20
11.7822639154
 30
0.0
 10
14.2314549243
 20
11.773092023
 30
0.0
  0
SPLINE
  5
30A
100
AcDbEntity
  8
0
100
AcDbSpline
 62
7
  6
CONTINUOUS
 70
0
 71
3
 72
15
 73
11
 74
0
 42
0.0000001
 43
0.0000001
 44
0.0000000001
 40
0.0
 40
0.0
 40
0.0
 40
0.0
 40
0.11780432
 40
0.2436103083
 40
0.3743123576
 40
0.506985269
 40
0.6387387512
 40
0.7667193396
 40
0.8881003698
 40
1.0
 40
1.0
 40
1.0
 40
1.0
 10
14.2306019834
 20
11.7293619236
 30
0.0
 10
14.2301512995
 20
11.731040402
 30
0.0
 10
14.2293770704
 20
11.7345546654
 30
0.0
 10
14.2285862193
 20
11.7400240256
 30
0.0
 10
14.2281516418
 20
11.7457532481
 30
0.0
 10
14.228079803
 20
11.751585857
 30
0.0
 10
14.2283756956
 20
11.7573712562
 30
0.0
 10
14.2290282609
 20
11.7629602701
 30
0.0
 10
14.2300251139
 20
11.768200377
 30
0.0
 10
14.2309368873
 20
11.7715245892
 30
0.0
 10
14.2314549243
 20
11.773092023
 30
0.0
  0
SPLINE
  5
30B
100
AcDbEntity
  8
0
100
AcDbSpline
 62
7
  6
CONTINUOUS
 70
0
 71
3
 72
9
 73
5
 74
0
 42
0.0000001
 43
0.0000001
 44
0.0000000001
 40
0.0
 40
0.0
 40
0.0
 40
0.0
 40
0.4825357478
 40
1.0
 40
1.0
 40
1.0
 40
1.0
 10
14.3061341119
 20
11.6084555259
 30
0.0
 10
14.3065055724
 20
11.6098257775
 30
0.0
 10
14.3071248334
 20
11.6127071562
 30
0.0
 10
14.3074971553
 20
11.6156290699
 30
0.0
 10
14.3076327126
 20
11.6171454976
 30
0.0
  0
SPLINE
  5
30C
100
AcDbEntity
  8
0
100
AcDbSpline
 62
7
  6
CONTINUOUS
 70
0
 71
3
 72
15
 73
11
 74
0
 42
0.0000001
 43
0.0000001
 44
0.0000000001
 40
0.0
 40
0.0
 40
0.0
 40
0.0
 40
0.1062857598
 40
0.2234027592
 40
0.3487199667
 40
0.4795309948
 40
0.6130379841
 40
0.7463339642
 40
0.8764197355
 40
1.0
 40
1.0
 40
1.0
 40
1.0
 10
14.2984498159
 20
11.5232748821
 30
0.0
 10
14.2978706932
 20
11.5247192224
 30
0.0
 10
14.2968331054
 20
11.5278280654
 30
0.0
 10
14.2956476501
 20
11.5327992585
 30
0.0
 10
14.2947917395
 20
11.5382014456
 30
0.0
 10
14.2942831919
 20
11.5438874005
 30
0.0
 10
14.2941388382
 20
11.5497109051
 30
0.0
 10
14.2943595105
 20
11.5555215644
 30
0.0
 10
14.2949446248
 20
11.5611606309
 30
0.0
 10
14.2955812796
 20
11.5648236667
 30
0.0
 10
14.2959641155
 20
11.5665920252
 30
0.0
  0
SPLINE
  5
30D
100
AcDbEntity
  8
0
100
AcDbSpline
 62
7
  6
CONTINUOUS
 70
0
 71
3
 72
9
 73
5
 74
0
 42
0.0000001
 43
0.0000001
 44
0.0000000001
 40
0.0
 40
0.0
 40
0.0
 40
0.0
 40
0.242352108
 40
1.0
 40
1.0
 40
1.0
 40
1.0
 10
14.3817160863
 20
11.4425316598
 30
0.0
 10
14.3818422512
 20
11.4432734646
 30
0.0
 10
14.3822956556
 20
11.446345522
 30
0.0
 10
14.3824988576
 20
11.4494532235
 30
0.0
 10
14.3825256995
 20
11.4518054232
 30
0.0
  0
SPLINE
  5
30E
100
AcDbEntity
  8
0
100
AcDbSpline
 62
7
  6
CONTINUOUS
 70
0
 71
3
 72
15
 73
11
 74
0
 42
0.0000001
 43
0.0000001
 44
0.0000000001
 40
0.0
 40
0.0
 40
0.0
 40
0.0
 40
0.0949797947
 40
0.2032544482
 40
0.3228865548
 40
0.4515309366
 40
0.5865829521
 40
0.725163386
 40
0.8641783192
 40
1.0
 40
1.0
 40
1.0
 40
1.0
 10
14.3806507644
 20
11.3551380689
 30
0.0
 10
14.3799611503
 20
11.3562842913
 30
0.0
 10
14.3786908677
 20
11.3588615197
 30
0.0
 10
14.3771565539
 20
11.3631494731
 30
0.0
 10
14.3759128721
 20
11.36802128
 30
0.0
 10
14.3749875841
 20
11.3733448874
 30
0.0
 10
14.3744087147
 20
11.3789850959
 30
0.0
 10
14.3741886923
 20
11.3847966033
 30
0.0
 10
14.3743392215
 20
11.3906208126
 30
0.0
 10
14.3746843295
 20
11.3944795243
 30
0.0
 10
14.3749219469
 20
11.3963776022
 30
0.0
  0
SPLINE
  5
30F
100
AcDbEntity
  8
0
100
AcDbSpline
 62
7
  6
CONTINUOUS
 70
0
 71
3
 72
15
 73
11
 74
0
 42
0.0000001
 43
0.0000001
 44
0.0000000001
 40
0.0
 40
0.0
 40
0.0
 40
0.0
 40
0.0841440831
 40
0.1832797663
 40
0.2966640625
 40
0.4226046004
 40
0.5588685277
 40
0.7027228329
 40
0.851066464
 40
1.0
 40
1.0
 40
1.0
 40
1.0
 10
14.4740458927
 20
11.2314128876
 30
0.0
 10
14.4732725411
 20
11.2322017094
 30
0.0
 10
14.4718075027
 20
11.2341348226
 30
0.0
 10
14.46998075
 20
11.2375859807
 30
0.0
 10
14.4683968387
 20
11.2417475916
 30
0.0
 10
14.4670909902
 20
11.2465085928
 30
0.0
 10
14.4661003849
 20
11.2517518285
 30
0.0
 10
14.4654482282
 20
11.2573433023
 30
0.0
 10
14.4651584109
 20
11.2631311592
 30
0.0
 10
14.465206489
 20
11.2670367035
 30
0.0
 10
14.4652941133
 20
11.2689899988
 30
0.0
  0
SPLINE
  5
310
100
AcDbEntity
  8
0
100
AcDbSpline
 62
7
  6
CONTINUOUS
 70
0
 71
3
 72
15
 73
11
 74
0
 42
0.0000001
 43
0.0000001
 44
0.0000000001
 40
0.0
 40
0.0
 40
0.0
 40
0.0
 40
0.0753809307
 40
0.1653859468
 40
0.2716670638
 40
0.3938673269
 40
0.5305097943
 40
0.6792389902
 40
0.8370970566
 40
1.0
 40
1.0
 40
1.0
 40
1.0
 10
14.5750460783
 20
11.1568540273
 30
0.0
 10
14.5742367474
 20
11.1572359701
 30
0.0
 10
14.5726230546
 20
11.1584173397
 30
0.0
 10
14.5705581003
 20
11.1609194398
 30
0.0
 10
14.5686897944
 20
11.1642238742
 30
0.0
 10
14.5670532936
 20
11.1682472086
 30
0.0
 10
14.5656895422
 20
11.1728968152
 30
0.0
 10
14.5646307755
 20
11.1780566109
 30
0.0
 10
14.5639121962
 20
11.1835881977
 30
0.0
 10
14.5636692684
 20
11.1873916341
 30
0.0
 10
14.563607663
 20
11.1893246492
 30
0.0
  0
SPLINE
  5
311
100
AcDbEntity
  8
0
100
AcDbSpline
 62
7
  6
CONTINUOUS
 70
0
 71
3
 72
9
 73
5
 74
0
 42
0.0000001
 43
0.0000001
 44
0.0000000001
 40
0.0
 40
0.0
 40
0.0
 40
0.0
 40
0.4918002232
 40
1.0
 40
1.0
 40
1.0
 40
1.0
 10
14.450586332
 20
13.6503907165
 30
0.0
 10
14.4513339203
 20
13.6546593513
 30
0.0
 10
14.4525628446
 20
13.6633915396
 30
0.0
 10
14.4532746572
 20
13.6721798436
 30
0.0
 10
14.4535097738
 20
13.6766517803
 30
0.0
  0
SPLINE
  5
312
100
AcDbEntity
  8
0
100
AcDbSpline
 62
7
  6
CONTINUOUS
 70
0
 71
3
 72
11
 73
7
 74
0
 42
0.0000001
 43
0.0000001
 44
0.0000000001
 40
0.0
 40
0.0
 40
0.0
 40
0.0
 40
0.2290058354
 40
0.4763966367
 40
0.7359315238
 40
1.0
 40
1.0
 40
1.0
 40
1.0
 10
14.3613615223
 20
13.4804242922
 30
0.0
 10
14.362807933
 20
13.4851791689
 30
0.0
 10
14.365287765
 20
13.4952351348
 30
0.0
 10
14.3677853056
 20
13.5110258001
 30
0.0
 10
14.3691481403
 20
13.5277171518
 30
0.0
 10
14.3692743171
 20
13.5390909092
 30
0.0
 10
14.3691354778
 20
13.5448201808
 30
0.0
  0
SPLINE
  5
313
100
AcDbEntity
  8
0
100
AcDbSpline
 62
7
  6
CONTINUOUS
 70
0
 71
3
 72
15
 73
11
 74
0
 42
0.0000001
 43
0.0000001
 44
0.0000000001
 40
0.0
 40
0.0
 40
0.0
 40
0.0
 40
0.1004867576
 40
0.2117237718
 40
0.332194612
 40
0.4600153731
 40
0.5930194388
 40
0.7289725257
 40
0.865547012
 40
1.0
 40
1.0
 40
1.0
 40
1.0
 10
14.2836820721
 20
13.2746621922
 30
0.0
 10
14.285160767
 20
13.277686085
 30
0.0
 10
14.2878881563
 20
13.2842496875
 30
0.0
 10
14.2912014715
 20
13.2948846802
 30
0.0
 10
14.2938926546
 20
13.3066344464
 30
0.0
 10
14.2959051023
 20
13.319256034
 30
0.0
 10
14.2971958736
 20
13.3324920507
 30
0.0
 10
14.2977383661
 20
13.3460729639
 30
0.0
 10
14.2975160423
 20
13.3597107663
 30
0.0
 10
14.2968592026
 20
13.3687717787
 30
0.0
 10
14.2963978875
 20
13.3732519575
 30
0.0
  0
SPLINE
  5
314
100
AcDbEntity
  8
0
100
AcDbSpline
 62
7
  6
CONTINUOUS
 70
0
 71
3
 72
23
 73
19
 74
0
 42
0.0000001
 43
0.0000001
 44
0.0000000001
 40
0.0
 40
0.0
 40
0.0
 40
0.0
 40
0.0417612192
 40
0.0884309661
 40
0.1399203213
 40
0.1959411009
 40
0.2560739701
 40
0.3197825389
 40
0.3864542679
 40
0.4554119443
 40
0.5259325165
 40
0.5972640692
 40
0.6686400454
 40
0.7392897385
 40
0.8084459179
 40
0.8753934548
 40
0.9394768867
 40
1.0
 40
1.0
 40
1.0
 40
1.0
 10
16.4577496632
 20
12.2705412416
 30
0.0
 10
16.454016993
 20
12.2750123589
 30
0.0
 10
16.4468295291
 20
12.2850855281
 30
0.0
 10
16.4373413543
 20
12.3021717155
 30
0.0
 10
16.428659979
 20
12.3218731988
 30
0.0
 10
16.420887883
 20
12.3439448213
 30
0.0
 10
16.414125832
 20
12.3681179992
 30
0.0
 10
16.4084562644
 20
12.39409036
 30
0.0
 10
16.4039529424
 20
12.4215365624
 30
0.0
 10
16.4006740488
 20
12.4501111663
 30
0.0
 10
16.398659699
 20
12.4794534936
 30
0.0
 10
16.3979405236
 20
12.5091931338
 30
0.0
 10
16.3985204391
 20
12.5389537692
 30
0.0
 10
16.4003947196
 20
12.5683573289
 30
0.0
 10
16.4035384387
 20
12.5970316537
 30
0.0
 10
16.4079142955
 20
12.624618545
 30
0.0
 10
16.4134615418
 20
12.6507644416
 30
0.0
 10
16.4180335011
 20
12.6675445187
 30
0.0
 10
16.4205257183
 20
12.6756093357
 30
0.0
  0
SPLINE
  5
315
100
AcDbEntity
  8
0
100
AcDbSpline
 62
7
  6
CONTINUOUS
 70
0
 71
3
 72
9
 73
5
 74
0
 42
0.0000001
 43
0.0000001
 44
0.0000000001
 40
0.0
 40
0.0
 40
0.0
 40
0.0
 40
0.2573461033
 40
1.0
 40
1.0
 40
1.0
 40
1.0
 10
16.4508843256
 20
12.7424952058
 30
0.0
 10
16.4514138076
 20
12.7430482996
 30
0.0
 10
16.4534981596
 20
12.7451714811
 30
0.0
 10
16.4556929667
 20
12.7471873535
 30
0.0
 10
16.4573870481
 20
12.7486059657
 30
0.0
  0
SPLINE
  5
316
100
AcDbEntity
  8
0
100
AcDbSpline
 62
7
  6
CONTINUOUS
 70
0
 71
3
 72
11
 73
7
 74
0
 42
0.0000001
 43
0.0000001
 44
0.0000000001
 40
0.0
 40
0.0
 40
0.0
 40
0.0
 40
0.2727278412
 40
0.5266370474
 40
0.7669102432
 40
1.0
 40
1.0
 40
1.0
 40
1.0
 10
16.4586727843
 20
12.7496573241
 30
0.0
 10
16.4609181515
 20
12.7514493958
 30
0.0
 10
16.4654773169
 20
12.7546461982
 30
0.0
 10
16.4727447239
 20
12.7582528806
 30
0.0
 10
16.4801295591
 20
12.7604386358
 30
0.0
 10
16.485128435
 20
12.7609288548
 30
0.0
 10
16.4875837361
 20
12.7609290416
 30
0.0
  0
SPLINE
  5
317
100
AcDbEntity
  8
0
100
AcDbSpline
 62
7
  6
CONTINUOUS
 70
0
 71
3
 72
16
 73
12
 74
0
 42
0.0000001
 43
0.0000001
 44
0.0000000001
 40
0.0
 40
0.0
 40
0.0
 40
0.0
 40
0.1491231505
 40
0.2896557479
 40
0.4221595733
 40
0.4856598341
 40
0.5474676798
 40
0.666504143
 40
0.7805757395
 40
0.891181397
 40
1.0
 40
1.0
 40
1.0
 40
1.0
 10
16.6756889051
 20
11.4754421659
 30
0.0
 10
16.6685686901
 20
11.4669122034
 30
0.0
 10
16.6541698339
 20
11.4508040798
 30
0.0
 10
16.6314072731
 20
11.4290461524
 30
0.0
 10
16.6117850283
 20
11.4133676874
 30
0.0
 10
16.5959077393
 20
11.4025405862
 30
0.0
 10
16.5803419633
 20
11.3930845755
 30
0.0
 10
16.5606400601
 20
11.3832339739
 30
0.0
 10
16.5364411079
 20
11.3746412768
 30
0.0
 10
16.5120639362
 20
11.3694606591
 30
0.0
 10
16.4956920445
 20
11.3683055432
 30
0.0
 10
16.4875839798
 20
11.3683059492
 30
0.0
  0
SPLINE
  5
318
100
AcDbEntity
  8
0
100
AcDbSpline
 62
7
  6
CONTINUOUS
 70
0
 71
3
 72
28
 73
24
 74
0
 42
0.0000001
 43
0.0000001
 44
0.0000000001
 40
0.0
 40
0.0
 40
0.0
 40
0.0
 40
0.0202801806
 40
0.0417792771
 40
0.0645088331
 40
0.0884625615
 40
0.1136230474
 40
0.1399587967
 40
0.1674293296
 40
0.1959860007
 40
0.2561135256
 40
0.3198186817
 40
0.3864870666
 40
0.4554409842
 40
0.5259571786
 40
0.5972830556
 40
0.6686507417
 40
0.7392912853
 40
0.8084503573
 40
0.8753956628
 40
0.9394566987
 40
0.9702115039
 40
1.0
 40
1.0
 40
1.0
 40
1.0
 10
16.6870352674
 20
13.5325740068
 30
0.0
 10
16.6947435012
 20
13.5233387816
 30
0.0
 10
16.7099202811
 20
13.5037188083
 30
0.0
 10
16.7313580933
 20
13.4719979896
 30
0.0
 10
16.7520622102
 20
13.437232916
 30
0.0
 10
16.7719717104
 20
13.3995359962
 30
0.0
 10
16.7910199904
 20
13.3590220215
 30
0.0
 10
16.8091514656
 20
13.3158201127
 30
0.0
 10
16.8263082873
 20
13.2700651462
 30
0.0
 10
16.8481848411
 20
13.2047194009
 30
0.0
 10
16.872554563
 20
13.1176080522
 30
0.0
 10
16.896664754
 20
13.0071575041
 30
0.0
 10
16.915815049
 20
12.8904346335
 30
0.0
 10
16.9297597407
 20
12.7689143709
 30
0.0
 10
16.9383202386
 20
12.6441298512
 30
0.0
 10
16.9413864364
 20
12.5176589338
 30
0.0
 10
16.9389187413
 20
12.391101127
 30
0.0
 10
16.9309477653
 20
12.266057302
 30
0.0
 10
16.9175769081
 20
12.1441102478
 30
0.0
 10
16.8989793442
 20
12.0267984117
 30
0.0
 10
16.8790593406
 20
11.9328841226
 30
0.0
 10
16.8605845407
 20
11.8613109048
 30
0.0
 10
16.850551475
 20
11.8268214125
 30
0.0
 10
16.8453346478
 20
11.8099397537
 30
0.0
  0
SPLINE
  5
319
100
AcDbEntity
  8
0
100
AcDbSpline
 62
7
  6
CONTINUOUS
 70
0
 71
3
 72
11
 73
7
 74
0
 42
0.0000001
 43
0.0000001
 44
0.0000000001
 40
0.0
 40
0.0
 40
0.0
 40
0.0
 40
0.2354248703
 40
0.4770036925
 40
0.7303165327
 40
1.0
 40
1.0
 40
1.0
 40
1.0
 10
16.487583736
 20
12.2606809442
 30
0.0
 10
16.4853330791
 20
12.260680773
 30
0.0
 10
16.480762985
 20
12.2610903582
 30
0.0
 10
16.4739933959
 20
12.2629242563
 30
0.0
 10
16.4673109023
 20
12.265953636
 30
0.0
 10
16.4630846134
 20
12.2686575014
 30
0.0
 10
16.4610007661
 20
12.2701755702
 30
0.0
  0
SPLINE
  5
31A
100
AcDbEntity
  8
0
100
AcDbSpline
 62
7
  6
CONTINUOUS
 70
0
 71
3
 72
9
 73
5
 74
0
 42
0.0000001
 43
0.0000001
 44
0.0000000001
 40
0.0
 40
0.0
 40
0.0
 40
0.0
 40
0.2420686385
 40
1.0
 40
1.0
 40
1.0
 40
1.0
 10
16.4590781423
 20
12.2716313852
 30
0.0
 10
16.4584538013
 20
12.2721221603
 30
0.0
 10
16.4559101332
 20
12.2741946173
 30
0.0
 10
16.4535074484
 20
12.2764380727
 30
0.0
 10
16.45176284
 20
12.2782098113
 30
0.0
  0
SPLINE
  5
31B
100
AcDbEntity
  8
0
100
AcDbSpline
 62
7
  6
CONTINUOUS
 70
0
 71
3
 72
16
 73
12
 74
0
 42
0.0000001
 43
0.0000001
 44
0.0000000001
 40
0.0
 40
0.0
 40
0.0
 40
0.0
 40
0.1742625268
 40
0.3391363705
 40
0.4905285693
 40
0.6258352692
 40
0.7433936542
 40
0.8430135212
 40
0.9266340182
 40
0.9641470356
 40
1.0
 40
1.0
 40
1.0
 40
1.0
 10
14.6488141975
 20
13.8599440758
 30
0.0
 10
14.6489953821
 20
13.8618037725
 30
0.0
 10
14.6494676788
 20
13.8654126773
 30
0.0
 10
14.6505222358
 20
13.8705706258
 30
0.0
 10
14.6518890349
 20
13.8752226112
 30
0.0
 10
14.6535239463
 20
13.8792467897
 30
0.0
 10
14.6553941592
 20
13.8825472466
 30
0.0
 10
14.65745497
 20
13.8850547059
 30
0.0
 10
14.6594034532
 20
13.8864714188
 30
0.0
 10
14.6609903257
 20
13.8870602521
 30
0.0
 10
14.6617742135
 20
13.887182684
 30
0.0
 10
14.6621582194
 20
13.8872006848
 30
0.0
  0
LINE
  5
31C
100
AcDbEntity
  8
0
100
AcDbLine
 62
7
  6
CONTINUOUS
 10
14.6488141975
 20
13.8599440758
 11
14.6486000197
 21
13.8577237306
  0
SPLINE
  5
31D
100
AcDbEntity
  8
0
100
AcDbSpline
 62
7
  6
CONTINUOUS
 70
0
 71
3
 72
15
 73
11
 74
0
 42
0.0000001
 43
0.0000001
 44
0.0000000001
 40
0.0
 40
0.0
 40
0.0
 40
0.0
 40
0.1605339758
 40
0.3168242823
 40
0.4648085305
 40
0.6014891057
 40
0.7244222427
 40
0.8319614849
 40
0.9234479839
 40
1.0
 40
1.0
 40
1.0
 40
1.0
 10
14.5467621453
 20
13.8224339361
 30
0.0
 10
14.5467990757
 20
13.8243755657
 30
0.0
 10
14.5469942266
 20
13.828206286
 30
0.0
 10
14.5476425986
 20
13.8337957271
 30
0.0
 10
14.548635795
 20
13.8390418211
 30
0.0
 10
14.5499404063
 20
13.8438034498
 30
0.0
 10
14.551525483
 20
13.8479610221
 30
0.0
 10
14.5533501439
 20
13.8514174859
 30
0.0
 10
14.5553779868
 20
13.8540843937
 30
0.0
 10
14.5569709464
 20
13.8553996006
 30
0.0
 10
14.5577790334
 20
13.8558518887
 30
0.0
  0
SPLINE
  5
31E
100
AcDbEntity
  8
0
100
AcDbSpline
 62
7
  6
CONTINUOUS
 70
0
 71
3
 72
11
 73
7
 74
0
 42
0.0000001
 43
0.0000001
 44
0.0000000001
 40
0.0
 40
0.0
 40
0.0
 40
0.0
 40
0.2853958773
 40
0.5424632622
 40
0.7774994612
 40
1.0
 40
1.0
 40
1.0
 40
1.0
 10
14.4595827492
 20
13.774813051
 30
0.0
 10
14.4599947596
 20
13.7752695059
 30
0.0
 10
14.4608371526
 20
13.7760873893
 30
0.0
 10
14.4622290071
 20
13.7770372271
 30
0.0
 10
14.4636665583
 20
13.7776247788
 30
0.0
 10
14.4646567571
 20
13.7777583048
 30
0.0
 10
14.465136147
 20
13.7777580824
 30
0.0
  0
SPLINE
  5
31F
100
AcDbEntity
  8
0
100
AcDbSpline
 62
7
  6
CONTINUOUS
 70
0
 71
3
 72
15
 73
11
 74
0
 42
0.0000001
 43
0.0000001
 44
0.0000000001
 40
0.0
 40
0.0
 40
0.0
 40
0.0
 40
0.1466711033
 40
0.2934261977
 40
0.4364066958
 40
0.5725048855
 40
0.6989516567
 40
0.8134332723
 40
0.9141160007
 40
1.0
 40
1.0
 40
1.0
 40
1.0
 10
14.4495207057
 20
13.7345186317
 30
0.0
 10
14.4494078839
 20
13.7364679526
 30
0.0
 10
14.4493102093
 20
13.7403761073
 30
0.0
 10
14.4495266848
 20
13.7461855248
 30
0.0
 10
14.4501078642
 20
13.7518289262
 30
0.0
 10
14.4510318591
 20
13.7571528621
 30
0.0
 10
14.4522771848
 20
13.7620210073
 30
0.0
 10
14.4538079395
 20
13.7663126875
 30
0.0
 10
14.4555898852
 20
13.7699128964
 30
0.0
 10
14.4570252267
 20
13.7719611655
 30
0.0
 10
14.457787087
 20
13.7728136948
 30
0.0
  0
SPLINE
  5
320
100
AcDbEntity
  8
0
100
AcDbSpline
 62
7
  6
CONTINUOUS
 70
0
 71
3
 72
9
 73
5
 74
0
 42
0.0000001
 43
0.0000001
 44
0.0000000001
 40
0.0
 40
0.0
 40
0.0
 40
0.0
 40
0.2508373719
 40
1.0
 40
1.0
 40
1.0
 40
1.0
 10
14.4535097738
 20
13.6766517803
 30
0.0
 10
14.4535514598
 20
13.6774446533
 30
0.0
 10
14.4536574371
 20
13.6806083583
 30
0.0
 10
14.4535317446
 20
13.6837804421
 30
0.0
 10
14.4532987733
 20
13.6861402722
 30
0.0
  0
SPLINE
  5
321
100
AcDbEntity
  8
0
100
AcDbSpline
 62
7
  6
CONTINUOUS
 70
0
 71
3
 72
11
 73
7
 74
0
 42
0.0000001
 43
0.0000001
 44
0.0000000001
 40
0.0
 40
0.0
 40
0.0
 40
0.0
 40
0.3087343184
 40
0.5728997304
 40
0.7981174321
 40
1.0
 40
1.0
 40
1.0
 40
1.0
 10
14.3676342792
 20
13.6441377419
 30
0.0
 10
14.3681723258
 20
13.645090414
 30
0.0
 10
14.3692858978
 20
13.6467990235
 30
0.0
 10
14.3712434823
 20
13.6488693202
 30
0.0
 10
14.3733525393
 20
13.6501849567
 30
0.0
 10
14.374876777
 20
13.6504995816
 30
0.0
 10
14.3755922202
 20
13.6504998735
 30
0.0
  0
SPLINE
  5
322
100
AcDbEntity
  8
0
100
AcDbSpline
 62
7
  6
CONTINUOUS
 70
0
 71
3
 72
15
 73
11
 74
0
 42
0.0000001
 43
0.0000001
 44
0.0000000001
 40
0.0
 40
0.0
 40
0.0
 40
0.0
 40
0.1337199014
 40
0.2712153942
 40
0.4089100703
 40
0.5437205216
 40
0.6727562793
 40
0.7933710339
 40
0.9031447161
 40
1.0
 40
1.0
 40
1.0
 40
1.0
 10
14.3608268125
 20
13.5995766985
 30
0.0
 10
14.3605644177
 20
13.6014581971
 30
0.0
 10
14.3601698386
 20
13.6052944482
 30
0.0
 10
14.3599457206
 20
13.6111030154
 30
0.0
 10
14.3600921301
 20
13.6169298817
 30
0.0
 10
14.3605994285
 20
13.6226159704
 30
0.0
 10
14.3614570859
 20
13.6280146937
 30
0.0
 10
14.3626388625
 20
13.6329885305
 30
0.0
 10
14.3641185279
 20
13.6374024884
 30
0.0
 10
14.3653523494
 20
13.6400768565
 30
0.0
 10
14.3660250147
 20
13.6412772142
 30
0.0
  0
SPLINE
  5
323
100
AcDbEntity
  8
0
100
AcDbSpline
 62
7
  6
CONTINUOUS
 70
0
 71
3
 72
9
 73
5
 74
0
 42
0.0000001
 43
0.0000001
 44
0.0000000001
 40
0.0
 40
0.0
 40
0.0
 40
0.0
 40
0.2569295362
 40
1.0
 40
1.0
 40
1.0
 40
1.0
 10
14.3691354778
 20
13.5448201808
 30
0.0
 10
14.3691162807
 20
13.545612355
 30
0.0
 10
14.3689839116
 20
13.5486936508
 30
0.0
 10
14.3686257478
 20
13.5517673701
 30
0.0
 10
14.3682076742
 20
13.5540206472
 30
0.0
  0
SPLINE
  5
324
100
AcDbEntity
  8
0
100
AcDbSpline
 62
7
  6
CONTINUOUS
 70
0
 71
3
 72
15
 73
11
 74
0
 42
0.0000001
 43
0.0000001
 44
0.0000000001
 40
0.0
 40
0.0
 40
0.0
 40
0.0
 40
0.1088238227
 40
0.2194327729
 40
0.3335115824
 40
0.4525511637
 40
0.5778193158
 40
0.7103327397
 40
0.8508671147
 40
1.0
 40
1.0
 40
1.0
 40
1.0
 10
16.4875839797
 20
13.6533040366
 30
0.0
 10
16.4956920941
 20
13.6533036306
 30
0.0
 10
16.512063686
 20
13.6521475814
 30
0.0
 10
16.5364417855
 20
13.6469711973
 30
0.0
 10
16.5606401856
 20
13.6383738085
 30
0.0
 10
16.5845785346
 20
13.626407807
 30
0.0
 10
16.608187561
 20
13.6111180917
 30
0.0
 10
16.6314048157
 20
13.5925629316
 30
0.0
 10
16.6541714316
 20
13.5708067621
 30
0.0
 10
16.6685689877
 20
13.5546978667
 30
0.0
 10
16.6756889966
 20
13.5461673929
 30
0.0
  0
SPLINE
  5
325
100
AcDbEntity
  8
0
100
AcDbSpline
 62
7
  6
CONTINUOUS
 70
0
 71
3
 72
13
 73
9
 74
0
 42
0.0000001
 43
0.0000001
 44
0.0000000001
 40
0.0
 40
0.0
 40
0.0
 40
0.0
 40
0.3254629594
 40
0.5961646501
 40
0.7113806689
 40
0.8150413675
 40
0.9099132535
 40
1.0
 40
1.0
 40
1.0
 40
1.0
 10
14.2873802051
 20
13.4699090909
 30
0.0
 10
14.2879811402
 20
13.471497988
 30
0.0
 10
14.289257738
 20
13.4743464466
 30
0.0
 10
14.2913601746
 20
13.4774506804
 30
0.0
 10
14.2932169286
 20
13.4792206193
 30
0.0
 10
14.2945859158
 20
13.4801374042
 30
0.0
 10
14.2959971778
 20
13.4806997068
 30
0.0
 10
14.2969666548
 20
13.48082709
 30
0.0
 10
14.2974368587
 20
13.4808271221
 30
0.0
  0
SPLINE
  5
326
100
AcDbEntity
  8
0
100
AcDbSpline
 62
7
  6
CONTINUOUS
 70
0
 71
3
 72
15
 73
11
 74
0
 42
0.0000001
 43
0.0000001
 44
0.0000000001
 40
0.0
 40
0.0
 40
0.0
 40
0.0
 40
0.1215958362
 40
0.250216223
 40
0.3826282469
 40
0.5158558608
 40
0.6469957264
 40
0.7732286026
 40
0.891803822
 40
1.0
 40
1.0
 40
1.0
 40
1.0
 10
14.2840889224
 20
13.4227938791
 30
0.0
 10
14.2836826285
 20
13.4245334615
 30
0.0
 10
14.2829985109
 20
13.4281495454
 30
0.0
 10
14.2823424592
 20
13.4337364073
 30
0.0
 10
14.2820484386
 20
13.4395252224
 30
0.0
 10
14.2821190566
 20
13.4453578477
 30
0.0
 10
14.2825554642
 20
13.4510836481
 30
0.0
 10
14.2833427891
 20
13.4565552188
 30
0.0
 10
14.2844650337
 20
13.4616233643
 30
0.0
 10
14.2854604617
 20
13.4648092097
 30
0.0
 10
14.2860191815
 20
13.46629732
 30
0.0
  0
SPLINE
  5
327
100
AcDbEntity
  8
0
100
AcDbSpline
 62
7
  6
CONTINUOUS
 70
0
 71
3
 72
9
 73
5
 74
0
 42
0.0000001
 43
0.0000001
 44
0.0000000001
 40
0.0
 40
0.0
 40
0.0
 40
0.0
 40
0.5189326624
 40
1.0
 40
1.0
 40
1.0
 40
1.0
 10
14.2963978875
 20
13.3732519575
 30
0.0
 10
14.2962434369
 20
13.3747519438
 30
0.0
 10
14.2958358095
 20
13.3776324646
 30
0.0
 10
14.2951789445
 20
13.3804684498
 30
0.0
 10
14.2947889359
 20
13.3818108297
 30
0.0
  0
SPLINE
  5
328
100
AcDbEntity
  8
0
100
AcDbSpline
 62
7
  6
CONTINUOUS
 70
0
 71
3
 72
15
 73
11
 74
0
 42
0.0000001
 43
0.0000001
 44
0.0000000001
 40
0.0
 40
0.0
 40
0.0
 40
0.0
 40
0.174462295
 40
0.3360216295
 40
0.4826982416
 40
0.6134214151
 40
0.7283880316
 40
0.8288203983
 40
0.91769569
 40
1.0
 40
1.0
 40
1.0
 40
1.0
 10
14.221904646
 20
13.2588226073
 30
0.0
 10
14.2222094152
 20
13.2600317443
 30
0.0
 10
14.222869972
 20
13.2623430953
 30
0.0
 10
14.2240591958
 20
13.2655853909
 30
0.0
 10
14.2253951122
 20
13.2684297125
 30
0.0
 10
14.2268607181
 20
13.2708286721
 30
0.0
 10
14.2284328045
 20
13.2727516326
 30
0.0
 10
14.2301018196
 20
13.2741702312
 30
0.0
 10
14.2318546073
 20
13.2750550823
 30
0.0
 10
14.2330852848
 20
13.2752617391
 30
0.0
 10
14.2336735477
 20
13.2752610411
 30
0.0
  0
SPLINE
  5
329
100
AcDbEntity
  8
0
100
AcDbSpline
 62
7
  6
CONTINUOUS
 70
0
 71
3
 72
15
 73
11
 74
0
 42
0.0000001
 43
0.0000001
 44
0.0000000001
 40
0.0
 40
0.0
 40
0.0
 40
0.0
 40
0.1099777197
 40
0.2299059302
 40
0.3569838212
 40
0.4884226424
 40
0.621385547
 40
0.7529744975
 40
0.8802369084
 40
1.0
 40
1.0
 40
1.0
 40
1.0
 10
14.2222560295
 20
13.2109638384
 30
0.0
 10
14.2217167051
 20
13.2124910242
 30
0.0
 10
14.2207612215
 20
13.2157452437
 30
0.0
 10
14.2196988569
 20
13.2208987725
 30
0.0
 10
14.2189760937
 20
13.2264296625
 30
0.0
 10
14.218607204
 20
13.2321870371
 30
0.0
 10
14.218605227
 20
13.2380225531
 30
0.0
 10
14.2189671625
 20
13.2437855114
 30
0.0
 10
14.2196885354
 20
13.2493184903
 30
0.0
 10
14.2204163316
 20
13.2528873425
 30
0.0
 10
14.2208441667
 20
13.2545983916
 30
0.0
  0
SPLINE
  5
32A
100
AcDbEntity
  8
0
100
AcDbSpline
 62
7
  6
CONTINUOUS
 70
0
 71
3
 72
9
 73
5
 74
0
 42
0.0000001
 43
0.0000001
 44
0.0000000001
 40
0.0
 40
0.0
 40
0.0
 40
0.0
 40
0.2569368969
 40
1.0
 40
1.0
 40
1.0
 40
1.0
 10
14.2222560295
 20
13.2109638384
 30
0.0
 10
14.2233227364
 20
13.2079432825
 30
0.0
 10
14.227566945
 20
13.1962203305
 30
0.0
 10
14.2321891508
 20
13.1846328988
 30
0.0
 10
14.2358639992
 20
13.1761287463
 30
0.0
  0
SPLINE
  5
32B
100
AcDbEntity
  8
0
100
AcDbSpline
 62
7
  6
CONTINUOUS
 70
0
 71
3
 72
9
 73
5
 74
0
 42
0.0000001
 43
0.0000001
 44
0.0000000001
 40
0.0
 40
0.0
 40
0.0
 40
0.0
 40
0.528161832
 40
1.0
 40
1.0
 40
1.0
 40
1.0
 10
14.2380922677
 20
13.168540381
 30
0.0
 10
14.2378314005
 20
13.1699101606
 30
0.0
 10
14.2372283438
 20
13.1724845375
 30
0.0
 10
14.2363581338
 20
13.1749852445
 30
0.0
 10
14.2358639992
 20
13.1761287463
 30
0.0
  0
SPLINE
  5
32C
100
AcDbEntity
  8
0
100
AcDbSpline
 62
7
  6
CONTINUOUS
 70
0
 71
3
 72
17
 73
13
 74
0
 42
0.0000001
 43
0.0000001
 44
0.0000000001
 40
0.0
 40
0.0
 40
0.0
 40
0.0
 40
0.0420511453
 40
0.0883388744
 40
0.1388195736
 40
0.1933043592
 40
0.312960857
 40
0.4441891472
 40
0.5830169262
 40
0.7249631847
 40
0.8655368881
 40
1.0
 40
1.0
 40
1.0
 40
1.0
 10
14.2211148774
 20
13.0414670267
 30
0.0
 10
14.2222594788
 20
13.0429045501
 30
0.0
 10
14.2244735209
 20
13.0460780734
 30
0.0
 10
14.227445771
 20
13.0513743181
 30
0.0
 10
14.2302015637
 20
13.0573890461
 30
0.0
 10
14.2336622702
 20
13.066580922
 30
0.0
 10
14.2372029965
 20
13.0794768851
 30
0.0
 10
14.2401371503
 20
13.0962722569
 30
0.0
 10
14.2417621454
 20
13.1142216105
 30
0.0
 10
14.2420179087
 20
13.1326496656
 30
0.0
 10
14.2408880352
 20
13.1508526659
 30
0.0
 10
14.2391915183
 20
13.1627683597
 30
0.0
 10
14.2380922677
 20
13.168540381
 30
0.0
  0
SPLINE
  5
32D
100
AcDbEntity
  8
0
100
AcDbSpline
 62
7
  6
CONTINUOUS
 70
0
 71
3
 72
15
 73
11
 74
0
 42
0.0000001
 43
0.0000001
 44
0.0000000001
 40
0.0
 40
0.0
 40
0.0
 40
0.0
 40
0.1460029755
 40
0.2864841771
 40
0.4210832358
 40
0.5495512648
 40
0.6717394782
 40
0.7875502855
 40
0.8969557645
 40
1.0
 40
1.0
 40
1.0
 40
1.0
 10
16.8453346478
 20
11.8099397537
 30
0.0
 10
16.8401619414
 20
11.7932008695
 30
0.0
 10
16.8294694043
 20
11.7605202991
 30
0.0
 10
16.8120348951
 20
11.7130826197
 30
0.0
 10
16.7935596609
 20
11.6683062943
 30
0.0
 10
16.774108173
 20
11.6263511921
 30
0.0
 10
16.7537467974
 20
11.5873540534
 30
0.0
 10
16.7325358161
 20
11.5514410988
 30
0.0
 10
16.7105511597
 20
11.5187289169
 30
0.0
 10
16.6949590114
 20
11.4985282465
 30
0.0
 10
16.6870353166
 20
11.4890357204
 30
0.0
  0
SPLINE
  5
32E
100
AcDbEntity
  8
0
100
AcDbSpline
 62
7
  6
CONTINUOUS
 70
0
 71
3
 72
11
 73
7
 74
0
 42
0.0000001
 43
0.0000001
 44
0.0000000001
 40
0.0
 40
0.0
 40
0.0
 40
0.0
 40
0.286415617
 40
0.5495931023
 40
0.7876137878
 40
1.0
 40
1.0
 40
1.0
 40
1.0
 10
16.4205257183
 20
12.6756093357
 30
0.0
 10
16.4229110924
 20
12.6833284102
 30
0.0
 10
16.4279677237
 20
12.6979995251
 30
0.0
 10
16.4368193166
 20
12.7184062495
 30
0.0
 10
16.4465254726
 20
12.736076264
 30
0.0
 10
16.4539103041
 20
12.7464693127
 30
0.0
 10
16.4577497358
 20
12.7510683322
 30
0.0
  0
SPLINE
  5
32F
100
AcDbEntity
  8
0
100
AcDbSpline
 62
7
  6
CONTINUOUS
 70
0
 71
3
 72
19
 73
15
 74
0
 42
0.0000001
 43
0.0000001
 44
0.0000000001
 40
0.0
 40
0.0
 40
0.0
 40
0.0
 40
0.0392733066
 40
0.0836723224
 40
0.1331861259
 40
0.187599532
 40
0.2465561162
 40
0.3095546207
 40
0.4450268064
 40
0.588263573
 40
0.732787043
 40
0.8720858084
 40
0.9378732402
 40
1.0
 40
1.0
 40
1.0
 40
1.0
 10
14.1801852687
 20
12.7921733577
 30
0.0
 10
14.1816092261
 20
12.7935639504
 30
0.0
 10
14.1843702978
 20
12.7968088945
 30
0.0
 10
14.1880318664
 20
12.8024953739
 30
0.0
 10
14.191410311
 20
12.8092239783
 30
0.0
 10
14.1944629543
 20
12.8169025668
 30
0.0
 10
14.1971517247
 20
12.8254340727
 30
0.0
 10
14.2002790111
 20
12.8381070156
 30
0.0
 10
14.2029835594
 20
12.855246637
 30
0.0
 10
14.2043161348
 20
12.8766822971
 30
0.0
 10
14.2037350458
 20
12.89834501
 30
0.0
 10
14.2016454301
 20
12.9159710026
 30
0.0
 10
14.1989887661
 20
12.9292555401
 30
0.0
 10
14.1973550536
 20
12.9355340057
 30
0.0
 10
14.1964592708
 20
12.9385524024
 30
0.0
  0
SPLINE
  5
330
100
AcDbEntity
  8
0
100
AcDbSpline
 62
7
  6
CONTINUOUS
 70
0
 71
3
 72
21
 73
17
 74
0
 42
0.0000001
 43
0.0000001
 44
0.0000000001
 40
0.0
 40
0.0
 40
0.0
 40
0.0
 40
0.0466530963
 40
0.0982657398
 40
0.1544313829
 40
0.2146616879
 40
0.2784065421
 40
0.3450220318
 40
0.4838425342
 40
0.5545217672
 40
0.6249631906
 40
0.7618835914
 40
0.8268805035
 40
0.8886544733
 40
0.9465674783
 40
1.0
 40
1.0
 40
1.0
 40
1.0
 10
14.1682581998
 20
12.5404069888
 30
0.0
 10
14.1695387882
 20
12.5424675603
 30
0.0
 10
14.1719731822
 20
12.5469730227
 30
0.0
 10
14.1751331612
 20
12.5543649927
 30
0.0
 10
14.1779401602
 20
12.5626468031
 30
0.0
 10
14.1803570303
 20
12.5717034156
 30
0.0
 10
14.1823520879
 20
12.5814171228
 30
0.0
 10
14.184442077
 20
12.5952632383
 30
0.0
 10
14.1855355667
 20
12.6096053799
 30
0.0
 10
14.1856711572
 20
12.6241661623
 30
0.0
 10
14.1851492319
 20
12.6386191012
 30
0.0
 10
14.1836854907
 20
12.6527329667
 30
0.0
 10
14.1812228979
 20
12.6662280684
 30
0.0
 10
14.178972866
 20
12.675570947
 30
0.0
 10
14.1763188467
 20
12.6841797277
 30
0.0
 10
14.1742202347
 20
12.689584045
 30
0.0
 10
14.1730988294
 20
12.6921263308
 30
0.0
  0
SPLINE
  5
331
100
AcDbEntity
  8
0
100
AcDbSpline
 62
7
  6
CONTINUOUS
 70
0
 71
3
 72
20
 73
16
 74
0
 42
0.0000001
 43
0.0000001
 44
0.0000000001
 40
0.0
 40
0.0
 40
0.0
 40
0.0
 40
0.054848382
 40
0.1140567249
 40
0.1769695478
 40
0.2429235115
 40
0.3811441185
 40
0.5226380496
 40
0.6609558163
 40
0.7269923198
 40
0.7899567752
 40
0.8492249545
 40
0.904273116
 40
0.9546495079
 40
1.0
 40
1.0
 40
1.0
 40
1.0
 10
14.1756874378
 20
12.2875030318
 30
0.0
 10
14.1767734534
 20
12.2901330547
 30
0.0
 10
14.1787985576
 20
12.2956999037
 30
0.0
 10
14.1813420365
 20
12.3045272509
 30
0.0
 10
14.1834723561
 20
12.3140545994
 30
0.0
 10
14.1857582689
 20
12.3277261528
 30
0.0
 10
14.1873765282
 20
12.3456155937
 30
0.0
 10
14.1873904391
 20
12.367328295
 30
0.0
 10
14.1857915786
 20
12.3852287893
 30
0.0
 10
14.1835229508
 20
12.3989153948
 30
0.0
 10
14.1814056969
 20
12.4084557561
 30
0.0
 10
14.1788753262
 20
12.4173041432
 30
0.0
 10
14.1759648664
 20
12.4253458427
 30
0.0
 10
14.1727126877
 20
12.4324693771
 30
0.0
 10
14.1702173833
 20
12.4367770741
 30
0.0
 10
14.1689086722
 20
12.4387321818
 30
0.0
  0
SPLINE
  5
332
100
AcDbEntity
  8
0
100
AcDbSpline
 62
7
  6
CONTINUOUS
 70
0
 71
3
 72
19
 73
15
 74
0
 42
0.0000001
 43
0.0000001
 44
0.0000000001
 40
0.0
 40
0.0
 40
0.0
 40
0.0
 40
0.0636360654
 40
0.130773316
 40
0.2721875646
 40
0.4179410792
 40
0.5614607357
 40
0.6962806115
 40
0.7586314944
 40
0.816753391
 40
0.8701764716
 40
0.9185879081
 40
0.9618353827
 40
1.0
 40
1.0
 40
1.0
 40
1.0
 10
14.2021874813
 20
12.0431804439
 30
0.0
 10
14.2030425134
 20
12.0462667925
 30
0.0
 10
14.2045929144
 20
12.0526678398
 30
0.0
 10
14.2070750831
 20
12.0661447549
 30
0.0
 10
14.2089409534
 20
12.0839087277
 30
0.0
 10
14.2092507869
 20
12.1056092975
 30
0.0
 10
14.2076510766
 20
12.1269208714
 30
0.0
 10
14.204730213
 20
12.1438523714
 30
0.0
 10
14.2014377015
 20
12.1562790299
 30
0.0
 10
14.198642237
 20
12.1645800346
 30
0.0
 10
14.1954938365
 20
12.1719986963
 30
0.0
 10
14.1920311039
 20
12.1784419149
 30
0.0
 10
14.1882970598
 20
12.1838216868
 30
0.0
 10
14.1854908931
 20
12.1868379412
 30
0.0
 10
14.1840498245
 20
12.1881077505
 30
0.0
  0
SPLINE
  5
333
100
AcDbEntity
  8
0
100
AcDbSpline
 62
7
  6
CONTINUOUS
 70
0
 71
3
 72
17
 73
13
 74
0
 42
0.0000001
 43
0.0000001
 44
0.0000000001
 40
0.0
 40
0.0
 40
0.0
 40
0.0
 40
0.1349024806
 40
0.2751258874
 40
0.4162498544
 40
0.5541631447
 40
0.6847568898
 40
0.8043714041
 40
0.8591219038
 40
0.9100949626
 40
0.9570767794
 40
1.0
 40
1.0
 40
1.0
 40
1.0
 10
14.2467399483
 20
11.8168284052
 30
0.0
 10
14.2477213749
 20
11.8224418212
 30
0.0
 10
14.249222117
 20
11.8339814702
 30
0.0
 10
14.2501662653
 20
11.8515542445
 30
0.0
 10
14.2498253702
 20
11.8692772985
 30
0.0
 10
14.248217057
 20
11.8865232377
 30
0.0
 10
14.2453971405
 20
11.9026921763
 30
0.0
 10
14.2420333334
 20
11.9151538384
 30
0.0
 10
14.2387580834
 20
11.9240970744
 30
0.0
 10
14.2361489895
 20
11.9300025125
 30
0.0
 10
14.2333343278
 20
11.9352526604
 30
0.0
 10
14.231242362
 20
11.938431401
 30
0.0
 10
14.2301609162
 20
11.9398867531
 30
0.0
  0
SPLINE
  5
334
100
AcDbEntity
  8
0
100
AcDbSpline
 62
7
  6
CONTINUOUS
 70
0
 71
3
 72
15
 73
11
 74
0
 42
0.0000001
 43
0.0000001
 44
0.0000000001
 40
0.0
 40
0.0
 40
0.0
 40
0.0
 40
0.1339780617
 40
0.2695991331
 40
0.404447815
 40
0.5364972589
 40
0.6638347445
 40
0.7846065439
 40
0.8971136164
 40
1.0
 40
1.0
 40
1.0
 40
1.0
 10
14.3076327126
 20
11.6171454976
 30
0.0
 10
14.3080079784
 20
11.6213434499
 30
0.0
 10
14.3085284611
 20
11.6298133155
 30
0.0
 10
14.3086471763
 20
11.642541356
 30
0.0
 10
14.308100066
 20
11.6551979878
 30
0.0
 10
14.3069030121
 20
11.6675482438
 30
0.0
 10
14.3050741874
 20
11.6793735228
 30
0.0
 10
14.3026528039
 20
11.6904649794
 30
0.0
 10
14.2996763868
 20
11.7006218418
 30
0.0
 10
14.2972450267
 20
11.7069585462
 30
0.0
 10
14.2959280114
 20
11.7099150812
 30
0.0
  0
SPLINE
  5
335
100
AcDbEntity
  8
0
100
AcDbSpline
 62
7
  6
CONTINUOUS
 70
0
 71
3
 72
11
 73
7
 74
0
 42
0.0000001
 43
0.0000001
 44
0.0000000001
 40
0.0
 40
0.0
 40
0.0
 40
0.0
 40
0.2628058651
 40
0.5211014948
 40
0.7685295886
 40
1.0
 40
1.0
 40
1.0
 40
1.0
 10
14.3825256995
 20
11.4518054232
 30
0.0
 10
14.3825846465
 20
11.4569710539
 30
0.0
 10
14.3823754997
 20
11.4672202485
 30
0.0
 10
14.3811053064
 20
11.4822843726
 30
0.0
 10
14.3789052613
 20
11.4966189175
 30
0.0
 10
14.3767757258
 20
11.5058016345
 30
0.0
 10
14.3755446289
 20
11.5101819272
 30
0.0
  0
SPLINE
  5
336
100
AcDbEntity
  8
0
100
AcDbSpline
 62
7
  6
CONTINUOUS
 70
0
 71
3
 72
9
 73
5
 74
0
 42
0.0000001
 43
0.0000001
 44
0.0000000001
 40
0.0
 40
0.0
 40
0.0
 40
0.0
 40
0.2540738633
 40
1.0
 40
1.0
 40
1.0
 40
1.0
 10
14.4685408133
 20
11.3271621084
 30
0.0
 10
14.4684306194
 20
11.3288402061
 30
0.0
 10
14.4679251555
 20
11.3354399588
 30
0.0
 10
14.4671356334
 20
11.3420187653
 30
0.0
 10
14.4663703612
 20
11.3468963726
 30
0.0
  0
SPLINE
  5
337
100
AcDbEntity
  8
0
100
AcDbSpline
 62
7
  6
CONTINUOUS
 70
0
 71
3
 72
24
 73
20
 74
0
 42
0.0000001
 43
0.0000001
 44
0.0000000001
 40
0.0
 40
0.0
 40
0.0
 40
0.0
 40
0.0879445648
 40
0.17266806
 40
0.2539638362
 40
0.331684692
 40
0.4057438114
 40
0.476081125
 40
0.542674408
 40
0.6055394832
 40
0.6647517522
 40
0.7204568517
 40
0.7728710775
 40
0.7979465589
 40
0.8223247184
 40
0.8691905625
 40
0.9140006133
 40
0.9573719078
 40
1.0
 40
1.0
 40
1.0
 40
1.0
 10
16.1390736956
 20
13.2209943817
 30
0.0
 10
16.1441655615
 20
13.2374716656
 30
0.0
 10
16.1546815005
 20
13.2696657517
 30
0.0
 10
16.171789637
 20
13.3164490174
 30
0.0
 10
16.1898964728
 20
13.3606980995
 30
0.0
 10
16.2089431991
 20
13.4022625823
 30
0.0
 10
16.228865698
 20
13.4410154581
 30
0.0
 10
16.2496074056
 20
13.4768384592
 30
0.0
 10
16.2711009999
 20
13.5096238256
 30
0.0
 10
16.2932849585
 20
13.5392674588
 30
0.0
 10
16.3160956576
 20
13.5656756195
 30
0.0
 10
16.3394607494
 20
13.588767917
 30
0.0
 10
16.3596373891
 20
13.6054241837
 30
0.0
 10
16.3759788047
 20
13.6169291226
 30
0.0
 10
16.3919878447
 20
13.6269668899
 30
0.0
 10
16.4122629741
 20
13.6374297044
 30
0.0
 10
16.4372004745
 20
13.6465653119
 30
0.0
 10
16.4623351556
 20
13.652075291
 30
0.0
 10
16.4792245278
 20
13.6533044552
 30
0.0
 10
16.4875839797
 20
13.6533040366
 30
0.0
  0
SPLINE
  5
338
100
AcDbEntity
  8
AXIS
100
AcDbSpline
 62
7
  6
CONTINUOUS
 70
0
 71
3
 72
23
 73
19
 74
0
 42
0.0000001
 43
0.0000001
 44
0.0000000001
 40
0.0
 40
0.0
 40
0.0
 40
0.0
 40
0.087955162
 40
0.1726823179
 40
0.2539751707
 40
0.3316952489
 40
0.4057554635
 40
0.4760959322
 40
0.5426903065
 40
0.6055539203
 40
0.6647671897
 40
0.7204708348
 40
0.772886593
 40
0.822323083
 40
0.8691889342
 40
0.9140002756
 40
0.9573713449
 40
1.0
 40
1.0
 40
1.0
 40
1.0
 10
15.7844652129
 20
13.2209943817
 30
0.0
 10
15.7895576036
 20
13.237473364
 30
0.0
 10
15.800074517
 20
13.269669458
 30
0.0
 10
15.8171839854
 20
13.3164536917
 30
0.0
 10
15.8352914748
 20
13.3607015689
 30
0.0
 10
15.8543363483
 20
13.402265457
 30
0.0
 10
15.8742589225
 20
13.4410182202
 30
0.0
 10
15.8950002146
 20
13.4768418199
 30
0.0
 10
15.9164936165
 20
13.5096271999
 30
0.0
 10
15.9386793868
 20
13.539268888
 30
0.0
 10
15.96148701
 20
13.5656778447
 30
0.0
 10
15.984855131
 20
13.5887688617
 30
0.0
 10
16.0087161117
 20
13.6084691033
 30
0.0
 10
16.0330050758
 20
13.624710764
 30
0.0
 10
16.0576550423
 20
13.6374279944
 30
0.0
 10
16.0825919104
 20
13.6465680978
 30
0.0
 10
16.1077273171
 20
13.6520732543
 30
0.0
 10
16.1246161289
 20
13.6533044938
 30
0.0
 10
16.1329755456
 20
13.6533048251
 30
0.0
  0
SPLINE
  5
339
100
AcDbEntity
  8
AXIS
100
AcDbSpline
 62
7
  6
CONTINUOUS
 70
0
 71
3
 72
36
 73
32
 74
0
 42
0.0000001
 43
0.0000001
 44
0.0000000001
 40
0.0
 40
0.0
 40
0.0
 40
0.0
 40
0.0327652361
 40
0.0667958543
 40
0.1019541275
 40
0.1381146376
 40
0.1751468101
 40
0.2129065182
 40
0.2900036259
 40
0.3681885664
 40
0.4462045138
 40
0.522799625
 40
0.596762012
 40
0.6324020403
 40
0.6669665497
 40
0.7003332096
 40
0.7323884376
 40
0.7630323877
 40
0.7921776942
 40
0.8197553897
 40
0.8457147943
 40
0.8700304748
 40
0.8927047548
 40
0.9137762561
 40
0.9333265194
 40
0.9514902179
 40
0.9684644081
 40
0.9765918915
 40
0.984527338
 40
0.9923144648
 40
1.0
 40
1.0
 40
1.0
 40
1.0
 10
15.7844652129
 20
13.2209943817
 30
0.0
 10
15.7779815533
 20
13.2000132515
 30
0.0
 10
15.7656334758
 20
13.1569680087
 30
0.0
 10
15.7492096275
 20
13.0906251221
 30
0.0
 10
15.734601089
 20
13.0215314596
 30
0.0
 10
15.7218752575
 20
12.9500237095
 30
0.0
 10
15.7110930716
 20
12.8764347553
 30
0.0
 10
15.6992945252
 20
12.7753089018
 30
0.0
 10
15.6897951713
 20
12.6462039181
 30
0.0
 10
15.6867438038
 20
12.489799584
 30
0.0
 10
15.6920249063
 20
12.3337866152
 30
0.0
 10
15.7055359306
 20
12.1811117869
 30
0.0
 10
15.7236522587
 20
12.0575553843
 30
0.0
 10
15.7422029624
 20
11.9627135191
 30
0.0
 10
15.7577940519
 20
11.8950566284
 30
0.0
 10
15.7751545461
 20
11.8303153781
 30
0.0
 10
15.7942072318
 20
11.7687952807
 30
0.0
 10
15.81485693
 20
11.7107849709
 30
0.0
 10
15.8370111098
 20
11.6565576968
 30
0.0
 10
15.8605614291
 20
11.6063654738
 30
0.0
 10
15.8854031631
 20
11.5604430939
 30
0.0
 10
15.9114194064
 20
11.519001165
 30
0.0
 10
15.9384981913
 20
11.4822317482
 30
0.0
 10
15.966520941
 20
11.4503028851
 30
0.0
 10
15.9953775111
 20
11.4233652978
 30
0.0
 10
16.0249486324
 20
11.4015560229
 30
0.0
 10
16.0504708888
 20
11.3875599982
 30
0.0
 10
16.071001741
 20
11.3792140329
 30
0.0
 10
16.0862616491
 20
11.3743925747
 30
0.0
 10
16.1015808649
 20
11.3709262229
 30
0.0
 10
16.1118703909
 20
11.3695155164
 30
0.0
 10
16.1169996235
 20
11.3690420254
 30
0.0
  0
SPLINE
  5
33A
100
AcDbEntity
  8
0
100
AcDbSpline
 62
7
  6
CONTINUOUS
 70
0
 71
3
 72
10
 73
6
 74
0
 42
0.0000001
 43
0.0000001
 44
0.0000000001
 40
0.0
 40
0.0
 40
0.0
 40
0.0
 40
0.2757708404
 40
0.5334139276
 40
1.0
 40
1.0
 40
1.0
 40
1.0
 10
16.4577497358
 20
12.7510683322
 30
0.0
 10
16.4596361946
 20
12.7533280052
 30
0.0
 10
16.4634582592
 20
12.7575620974
 30
0.0
 10
16.4713059149
 20
12.7648038514
 30
0.0
 10
16.4777992699
 20
12.7691743463
 30
0.0
 10
16.4822820826
 20
12.7713443094
 30
0.0
  0
SPLINE
  5
33B
100
AcDbEntity
  8
0
100
AcDbSpline
 62
7
  6
CONTINUOUS
 70
0
 71
3
 72
31
 73
27
 74
0
 42
0.0000001
 43
0.0000001
 44
0.0000000001
 40
0.0
 40
0.0
 40
0.0
 40
0.0
 40
0.016929384
 40
0.0331421641
 40
0.0491233845
 40
0.0653819913
 40
0.082397076
 40
0.10056997
 40
0.1202118868
 40
0.1415350085
 40
0.1646736387
 40
0.1896978115
 40
0.2166183488
 40
0.2454114881
 40
0.2760141511
 40
0.3083356677
 40
0.3422669797
 40
0.3776728585
 40
0.4522964799
 40
0.5308895591
 40
0.6119745267
 40
0.6939871505
 40
0.7753301848
 40
0.8544119429
 40
0.929768513
 40
1.0
 40
1.0
 40
1.0
 40
1.0
 10
16.4822820826
 20
12.7713443094
 30
0.0
 10
16.4847712049
 20
12.772549201
 30
0.0
 10
16.4898454519
 20
12.7745264523
 30
0.0
 10
16.4977766472
 20
12.7760255378
 30
0.0
 10
16.505742765
 20
12.7759553673
 30
0.0
 10
16.5136685013
 20
12.7743116664
 30
0.0
 10
16.5214888789
 20
12.771123106
 30
0.0
 10
16.5291589717
 20
12.7664334565
 30
0.0
 10
16.536638733
 20
12.7602783809
 30
0.0
 10
16.5438989259
 20
12.7527043635
 30
0.0
 10
16.5509049016
 20
12.7437536165
 30
0.0
 10
16.5576201758
 20
12.733475403
 30
0.0
 10
16.5640136441
 20
12.7219286182
 30
0.0
 10
16.5700463475
 20
12.7091753604
 30
0.0
 10
16.5756870225
 20
12.695288294
 30
0.0
 10
16.5809042365
 20
12.68034569
 30
0.0
 10
16.5856654131
 20
12.6644314802
 30
0.0
 10
16.5914750156
 20
12.6416388042
 30
0.0
 10
16.5973515097
 20
12.6113632385
 30
0.0
 10
16.6021319432
 20
12.5733650881
 30
0.0
 10
16.6046445027
 20
12.5339408983
 30
0.0
 10
16.6048284537
 20
12.4939891449
 30
0.0
 10
16.6026834142
 20
12.4544219252
 30
0.0
 10
16.5982564675
 20
12.4161358987
 30
0.0
 10
16.5916503851
 20
12.3800086785
 30
0.0
 10
16.5856613329
 20
12.3569615187
 30
0.0
 10
16.582274168
 20
12.3460006501
 30
0.0
  0
SPLINE
  5
33C
100
AcDbEntity
  8
0
100
AcDbSpline
 62
7
  6
CONTINUOUS
 70
0
 71
3
 72
47
 73
43
 74
0
 42
0.0000001
 43
0.0000001
 44
0.0000000001
 40
0.0
 40
0.0
 40
0.0
 40
0.0
 40
0.0215863506
 40
0.0316814955
 40
0.0413506787
 40
0.0506351298
 40
0.0595838064
 40
0.0682545363
 40
0.0767126811
 40
0.085029755
 40
0.0932821773
 40
0.1015486102
 40
0.1099070759
 40
0.1184327518
 40
0.1271951506
 40
0.1456554754
 40
0.1554716994
 40
0.1657266349
 40
0.1876603322
 40
0.1993911141
 40
0.2116456829
 40
0.2377475925
 40
0.2659832695
 40
0.2963098492
 40
0.3286389396
 40
0.3628495511
 40
0.3987907053
 40
0.4362887401
 40
0.4751508293
 40
0.5151675139
 40
0.5561177204
 40
0.5977693284
 40
0.6398839739
 40
0.6822180572
 40
0.7245260836
 40
0.7665623586
 40
0.8080850321
 40
0.8488561319
 40
0.8886434912
 40
0.9272309835
 40
0.9644205567
 40
1.0
 40
1.0
 40
1.0
 40
1.0
 10
16.6749730334
 20
11.4751487607
 30
0.0
 10
16.6643409527
 20
11.4633983528
 30
0.0
 10
16.6477773402
 20
11.4469567204
 30
0.0
 10
16.6241182478
 20
11.4279051181
 30
0.0
 10
16.6065475451
 20
11.4157826954
 30
0.0
 10
16.5887864042
 20
11.4055321238
 30
0.0
 10
16.570860835
 20
11.3971769928
 30
0.0
 10
16.5528025711
 20
11.3907344545
 30
0.0
 10
16.5346441259
 20
11.3862175605
 30
0.0
 10
16.5164188334
 20
11.3836406283
 30
0.0
 10
16.4981630191
 20
11.3830132478
 30
0.0
 10
16.4799139392
 20
11.3843330077
 30
0.0
 10
16.4617080381
 20
11.3875961785
 30
0.0
 10
16.4435805349
 20
11.3927987824
 30
0.0
 10
16.4191448298
 20
11.4024613415
 30
0.0
 10
16.3953559805
 20
11.4159500961
 30
0.0
 10
16.3725054446
 20
11.4326480462
 30
0.0
 10
16.3489557477
 20
11.4525922033
 30
0.0
 10
16.3264995458
 20
11.4758554355
 30
0.0
 10
16.3050973264
 20
11.5019096081
 30
0.0
 10
16.2832036105
 20
11.5314685055
 30
0.0
 10
16.2569029092
 20
11.5727528316
 30
0.0
 10
16.2276471908
 20
11.6276460854
 30
0.0
 10
16.20025703
 20
11.6885366761
 30
0.0
 10
16.1749090343
 20
11.7550129253
 30
0.0
 10
16.1517786324
 20
11.8266319647
 30
0.0
 10
16.1310206282
 20
11.9029097161
 30
0.0
 10
16.112776951
 20
11.9833298146
 30
0.0
 10
16.0971753674
 20
12.0673464866
 30
0.0
 10
16.0843188541
 20
12.1543876203
 30
0.0
 10
16.0743008955
 20
12.2438605793
 30
0.0
 10
16.0671859811
 20
12.3351550197
 30
0.0
 10
16.0630259983
 20
12.4276481785
 30
0.0
 10
16.0618488408
 20
12.5207089881
 30
0.0
 10
16.0636610628
 20
12.6137021128
 30
0.0
 10
16.0684538363
 20
12.7059931717
 30
0.0
 10
16.076189622
 20
12.7969525764
 30
0.0
 10
16.0868193739
 20
12.8859579085
 30
0.0
 10
16.1002656042
 20
12.9724026624
 30
0.0
 10
16.1164401331
 20
13.0557044585
 30
0.0
 10
16.1352308817
 20
13.1352849118
 30
0.0
 10
16.1497537049
 20
13.1867157004
 30
0.0
 10
16.1574652385
 20
13.2116702321
 30
0.0
  0
SPLINE
  5
33D
100
AcDbEntity
  8
0
100
AcDbSpline
 62
7
  6
CONTINUOUS
 70
0
 71
3
 72
39
 73
35
 74
0
 42
0.0000001
 43
0.0000001
 44
0.0000000001
 40
0.0
 40
0.0
 40
0.0
 40
0.0
 40
0.007695071
 40
0.0154425817
 40
0.0232937471
 40
0.03129743
 40
0.0479263151
 40
0.0656544753
 40
0.0847196842
 40
0.1052901272
 40
0.1274735318
 40
0.1513272957
 40
0.1768684805
 40
0.2040803894
 40
0.2329200738
 40
0.2633211319
 40
0.2951996021
 40
0.3284543899
 40
0.3629723624
 40
0.3986275323
 40
0.4352856693
 40
0.4728030135
 40
0.5110304228
 40
0.5498122
 40
0.6283928157
 40
0.70725163
 40
0.7463790975
 40
0.7850871634
 40
0.8232167431
 40
0.8606122598
 40
0.8971237665
 40
0.9326161899
 40
0.9669566677
 40
1.0
 40
1.0
 40
1.0
 40
1.0
 10
16.4875839798
 20
11.3683059492
 30
0.0
 10
16.4823854592
 20
11.3683062096
 30
0.0
 10
16.4719469887
 20
11.36877745
 30
0.0
 10
16.4563335875
 20
11.3708920653
 30
0.0
 10
16.4407611877
 20
11.374413651
 30
0.0
 10
16.4198234655
 20
11.3810600124
 30
0.0
 10
16.3937062113
 20
11.3930633413
 30
0.0
 10
16.3633493381
 20
11.4127756929
 30
0.0
 10
16.3336798
 20
11.4378430979
 30
0.0
 10
16.3048224263
 20
11.4681274379
 30
0.0
 10
16.2768920771
 20
11.5034779539
 30
0.0
 10
16.2500094185
 20
11.5437258169
 30
0.0
 10
16.2242960587
 20
11.5886804989
 30
0.0
 10
16.1998703613
 20
11.6381277332
 30
0.0
 10
16.1768501189
 20
11.6918313336
 30
0.0
 10
16.1553439974
 20
11.7495322011
 30
0.0
 10
16.1354590726
 20
11.8109517714
 30
0.0
 10
16.1172895338
 20
11.8757914554
 30
0.0
 10
16.1009276902
 20
11.9437361811
 30
0.0
 10
16.0864503693
 20
12.0144543418
 30
0.0
 10
16.073932548
 20
12.0876010539
 30
0.0
 10
16.063431939
 20
12.1628184763
 30
0.0
 10
16.0550040302
 20
12.2397395442
 30
0.0
 10
16.0465457981
 20
12.3445216562
 30
0.0
 10
16.0414263108
 20
12.4770541414
 30
0.0
 10
16.0434957254
 20
12.6099016225
 30
0.0
 10
16.0495111783
 20
12.7155992773
 30
0.0
 10
16.0561499524
 20
12.7936704029
 30
0.0
 10
16.0648990106
 20
12.8703556895
 30
0.0
 10
16.0757076004
 20
12.9452797235
 30
0.0
 10
16.0885275838
 20
13.0180783303
 30
0.0
 10
16.1032946539
 20
13.0884010256
 30
0.0
 10
16.1199411295
 20
13.1558920107
 30
0.0
 10
16.1324829127
 20
13.1996666003
 30
0.0
 10
16.1390736956
 20
13.2209943817
 30
0.0
  0
SPLINE
  5
33E
100
AcDbEntity
  8
0
100
AcDbSpline
 62
7
  6
CONTINUOUS
 70
0
 71
3
 72
29
 73
25
 74
0
 42
0.0000001
 43
0.0000001
 44
0.0000000001
 40
0.0
 40
0.0
 40
0.0
 40
0.0
 40
0.0154293256
 40
0.0312720098
 40
0.0479025974
 40
0.065631491
 40
0.0846995345
 40
0.1052719033
 40
0.1274569011
 40
0.1513146196
 40
0.1768579594
 40
0.204072735
 40
0.2329166037
 40
0.2633204223
 40
0.3284487574
 40
0.3986181977
 40
0.4727915484
 40
0.5498011271
 40
0.6283909116
 40
0.7072613654
 40
0.7851007467
 40
0.8606171172
 40
0.9326344303
 40
1.0
 40
1.0
 40
1.0
 40
1.0
 10
16.4875837361
 20
12.7609290416
 30
0.0
 10
16.4898654892
 20
12.7609292152
 30
0.0
 10
16.4945005203
 20
12.7605080088
 30
0.0
 10
16.5013631435
 20
12.7586228485
 30
0.0
 10
16.508135438
 20
12.755509112
 30
0.0
 10
16.5147830679
 20
12.7511946431
 30
0.0
 10
16.5212771975
 20
12.7457055018
 30
0.0
 10
16.5275953442
 20
12.7390759527
 30
0.0
 10
16.5337106507
 20
12.7313370683
 30
0.0
 10
16.5395950038
 20
12.7225250125
 30
0.0
 10
16.5452252109
 20
12.7126835533
 30
0.0
 10
16.5505726456
 20
12.7018580729
 30
0.0
 10
16.5556119833
 20
12.6901004841
 30
0.0
 10
16.5620378234
 20
12.6728599416
 30
0.0
 10
16.569056703
 20
12.6493512682
 30
0.0
 10
16.5757380614
 20
12.6190799355
 30
0.0
 10
16.5807257809
 20
12.5867064704
 30
0.0
 10
16.5839190483
 20
12.5528588295
 30
0.0
 10
16.585260172
 20
12.5181931786
 30
0.0
 10
16.5847195013
 20
12.4833830317
 30
0.0
 10
16.5823004975
 20
12.4491081665
 30
0.0
 10
16.5780691291
 20
12.4160287859
 30
0.0
 10
16.5720927854
 20
12.3847945386
 30
0.0
 10
16.5668239681
 20
12.3648429906
 30
0.0
 10
16.5638826251
 20
12.3553247996
 30
0.0
  0
SPLINE
  5
33F
100
AcDbEntity
  8
0
100
AcDbSpline
 62
7
  6
CONTINUOUS
 70
0
 71
3
 72
27
 73
23
 74
0
 42
0.0000001
 43
0.0000001
 44
0.0000000001
 40
0.0
 40
0.0
 40
0.0
 40
0.0
 40
0.0939462866
 40
0.182806175
 40
0.2662077662
 40
0.3439548384
 40
0.4159564795
 40
0.4822452521
 40
0.543040176
 40
0.5987829615
 40
0.6501995401
 40
0.6746223023
 40
0.6983824631
 40
0.7216588863
 40
0.7446447629
 40
0.7675433392
 40
0.7905601818
 40
0.8138970908
 40
0.8377463957
 40
0.8876205814
 40
0.9414207772
 40
1.0
 40
1.0
 40
1.0
 40
1.0
 10
16.1574652385
 20
13.2116702321
 30
0.0
 10
16.1645801702
 20
13.2346941596
 30
0.0
 10
16.1794412831
 20
13.2791914568
 30
0.0
 10
16.2043765976
 20
13.3427957084
 30
0.0
 10
16.2312157941
 20
13.4010841375
 30
0.0
 10
16.2597853331
 20
13.453681043
 30
0.0
 10
16.2899122868
 20
13.5002672704
 30
0.0
 10
16.3214245702
 20
13.5405540524
 30
0.0
 10
16.3541492427
 20
13.5742947006
 30
0.0
 10
16.3879188265
 20
13.601256218
 30
0.0
 10
16.417308791
 20
13.6181936846
 30
0.0
 10
16.440982243
 20
13.6278848235
 30
0.0
 10
16.4585466793
 20
13.6332262879
 30
0.0
 10
16.4761895683
 20
13.6367500094
 30
0.0
 10
16.4938804155
 20
13.6384437442
 30
0.0
 10
16.5115852871
 20
13.6383045563
 30
0.0
 10
16.5292707559
 20
13.6363355732
 30
0.0
 10
16.5469050602
 20
13.6325392989
 30
0.0
 10
16.5706502876
 20
13.6249424749
 30
0.0
 10
16.600260754
 20
13.6106100821
 30
0.0
 10
16.6344211234
 20
13.5865868262
 30
0.0
 10
16.6555895392
 20
13.566889533
 30
0.0
 10
16.6660121481
 20
13.5560656978
 30
0.0
  0
SPLINE
  5
340
100
AcDbEntity
  8
0
100
AcDbSpline
 62
7
  6
CONTINUOUS
 70
0
 71
3
 72
23
 73
19
 74
0
 42
0.0000001
 43
0.0000001
 44
0.0000000001
 40
0.0
 40
0.0
 40
0.0
 40
0.0
 40
0.0937948534
 40
0.1823377122
 40
0.265196063
 40
0.3421337689
 40
0.4130762298
 40
0.4781071181
 40
0.5375184705
 40
0.5918517241
 40
0.6420004019
 40
0.6892093567
 40
0.7350624714
 40
0.7813153534
 40
0.8296728579
 40
0.8815723347
 40
0.9381076864
 40
1.0
 40
1.0
 40
1.0
 40
1.0
 10
16.582274168
 20
12.3460006501
 30
0.0
 10
16.5805359198
 20
12.340375676
 30
0.0
 10
16.5768976015
 20
12.3295181041
 30
0.0
 10
16.5707688303
 20
12.3140319861
 30
0.0
 10
16.5641583015
 20
12.2999028771
 30
0.0
 10
16.5571139401
 20
12.2872326153
 30
0.0
 10
16.5496799508
 20
12.2761057523
 30
0.0
 10
16.5418992398
 20
12.266596726
 30
0.0
 10
16.5338208787
 20
12.2587651104
 30
0.0
 10
16.5254813231
 20
12.2526747546
 30
0.0
 10
16.5169276811
 20
12.2483776066
 30
0.0
 10
16.5082101477
 20
12.2459406963
 30
0.0
 10
16.499412574
 20
12.2454132767
 30
0.0
 10
16.49063885
 20
12.2468068743
 30
0.0
 10
16.4819879912
 20
12.250092155
 30
0.0
 10
16.4735242849
 20
12.2552035176
 30
0.0
 10
16.4652999597
 20
12.2620874491
 30
0.0
 10
16.4602393885
 20
12.2675589654
 30
0.0
 10
16.4577496632
 20
12.2705412416
 30
0.0
  0
SPLINE
  5
341
100
AcDbEntity
  8
AXIS
100
AcDbSpline
 62
7
  6
CONTINUOUS
 70
0
 71
3
 72
34
 73
30
 74
0
 42
0.0000001
 43
0.0000001
 44
0.0000000001
 40
0.0
 40
0.0
 40
0.0
 40
0.0
 40
0.0327495021
 40
0.0667627296
 40
0.1019022609
 40
0.1380429669
 40
0.1750546335
 40
0.2127935057
 40
0.2898494585
 40
0.3679964645
 40
0.445980725
 40
0.522553239
 40
0.5965046229
 40
0.6321441265
 40
0.6667117069
 40
0.7000851629
 40
0.73215098
 40
0.7628093203
 40
0.7919726991
 40
0.819571978
 40
0.8455560829
 40
0.8698991157
 40
0.8926025807
 40
0.9137041335
 40
0.9332838315
 40
0.951474594
 40
0.9684711391
 40
0.9845363689
 40
1.0
 40
1.0
 40
1.0
 40
1.0
 10
15.7827874827
 20
13.2244132365
 30
0.0
 10
15.7762789562
 20
13.2033516372
 30
0.0
 10
15.7638828723
 20
13.1601422483
 30
0.0
 10
15.7473930494
 20
13.0935476951
 30
0.0
 10
15.7327236692
 20
13.024193757
 30
0.0
 10
15.7199422688
 20
12.9524177759
 30
0.0
 10
15.7091099657
 20
12.8785532404
 30
0.0
 10
15.6972514949
 20
12.7770477481
 30
0.0
 10
15.687692164
 20
12.6474543371
 30
0.0
 10
15.6845930212
 20
12.4904501362
 30
0.0
 10
15.6898508111
 20
12.3338243158
 30
0.0
 10
15.703363631
 20
12.1805296336
 30
0.0
 10
15.7215022631
 20
12.0564550797
 30
0.0
 10
15.7400836068
 20
11.9611999261
 30
0.0
 10
15.755704496
 20
11.893235891
 30
0.0
 10
15.7731012938
 20
11.8281905764
 30
0.0
 10
15.7921967773
 20
11.7663703516
 30
0.0
 10
15.8128956705
 20
11.708064721
 30
0.0
 10
15.8351055054
 20
11.6535478462
 30
0.0
 10
15.8587176734
 20
11.6030725899
 30
0.0
 10
15.8836275741
 20
11.5568747401
 30
0.0
 10
15.909717873
 20
11.515165663
 30
0.0
 10
15.9368766163
 20
11.4781385475
 30
0.0
 10
15.9649850543
 20
11.4459618571
 30
0.0
 10
15.993931422
 20
11.4187878857
 30
0.0
 10
16.023601594
 20
11.3967521633
 30
0.0
 10
16.0538861327
 20
11.3799829264
 30
0.0
 10
16.0846448428
 20
11.3686068228
 30
0.0
 10
16.1056221572
 20
11.3646474328
 30
0.0
 10
16.1159816675
 20
11.363634993
 30
0.0
  0
SPLINE
  5
342
100
AcDbEntity
  8
0
100
AcDbSpline
 62
7
  6
CONTINUOUS
 70
0
 71
3
 72
18
 73
14
 74
0
 42
0.0000001
 43
0.0000001
 44
0.0000000001
 40
0.0
 40
0.0
 40
0.0
 40
0.0
 40
0.1726259667
 40
0.3317088498
 40
0.4761187324
 40
0.605544628
 40
0.6647769943
 40
0.7205045421
 40
0.8222615752
 40
0.8691473179
 40
0.9139758226
 40
0.9573596719
 40
1.0
 40
1.0
 40
1.0
 40
1.0
 10
16.5638826251
 20
12.3553247996
 30
0.0
 10
16.5616951723
 20
12.3482462008
 30
0.0
 10
16.5570669365
 20
12.3347692339
 30
0.0
 10
16.5489948818
 20
12.3159720974
 30
0.0
 10
16.5401457179
 20
12.2996024187
 30
0.0
 10
16.5319898239
 20
12.2878127326
 30
0.0
 10
16.5251276005
 20
12.279866046
 30
0.0
 10
16.5185102132
 20
12.27332313
 30
0.0
 10
16.5114689305
 20
12.2679725604
 30
0.0
 10
16.5040741957
 20
12.2641565331
 30
0.0
 10
16.4986142753
 20
12.2621547701
 30
0.0
 10
16.4931111933
 20
12.2609502605
 30
0.0
 10
16.4894138031
 20
12.2606810834
 30
0.0
 10
16.487583736
 20
12.2606809442
 30
0.0
  0
SPLINE
  5
343
100
AcDbEntity
  8
AXIS
100
AcDbSpline
 62
7
  6
CONTINUOUS
 70
0
 71
3
 72
23
 73
19
 74
0
 42
0.0000001
 43
0.0000001
 44
0.0000000001
 40
0.0
 40
0.0
 40
0.0
 40
0.0
 40
0.0877557296
 40
0.1723168171
 40
0.2534800168
 40
0.3311078097
 40
0.4051139764
 40
0.4754385813
 40
0.5420543959
 40
0.6049737691
 40
0.6642722734
 40
0.7200840661
 40
0.7726208613
 40
0.8221792208
 40
0.8691514096
 40
0.9140354326
 40
0.9574253779
 40
1.0
 40
1.0
 40
1.0
 40
1.0
 10
15.7827874827
 20
13.2244132365
 30
0.0
 10
15.7878669155
 20
13.2408502873
 30
0.0
 10
15.7983548697
 20
13.2729704278
 30
0.0
 10
15.8154077746
 20
13.3196570441
 30
0.0
 10
15.8334493889
 20
13.3638350674
 30
0.0
 10
15.8524203467
 20
13.4053589897
 30
0.0
 10
15.8722617282
 20
13.444103668
 30
0.0
 10
15.892916014
 20
13.4799527563
 30
0.0
 10
15.9143174705
 20
13.5127989078
 30
0.0
 10
15.9364075362
 20
13.5425379717
 30
0.0
 10
15.9591170653
 20
13.5690816669
 30
0.0
 10
15.9823851185
 20
13.5923462333
 30
0.0
 10
16.0061459488
 20
13.612258791
 30
0.0
 10
16.0303347509
 20
13.6287534652
 30
0.0
 10
16.0548868431
 20
13.6417641439
 30
0.0
 10
16.0797293645
 20
13.6512397298
 30
0.0
 10
16.1047771445
 20
13.657122439
 30
0.0
 10
16.1216301209
 20
13.6586346436
 30
0.0
 10
16.1299753772
 20
13.6587788434
 30
0.0
  0
ENDSEC
  0
SECTION
  2
OBJECTS
  0
DICTIONARY
  5
C
100
AcDbDictionary
280
0
281
1
  3
ACAD_GROUP
350
D
  3
ACAD_MLINESTYLE
350
17
  3
ACAD_LAYOUT
350
1A
  3
ACAD_PLOTSETTINGS
350
19
  3
ACAD_PLOTSTYLENAME
350
E
  0
DICTIONARY
  5
D
102
{ACAD_REACTORS
330
C
102
}
100
AcDbDictionary
280
0
281
1
  0
ACDBDICTIONARYWDFLT
  5
E
102
{ACAD_REACTORS
330
C
102
}
100
AcDbDictionary
281
1
  3
Normal
350
F
100
AcDbDictionaryWithDefault
340
F
  0
DICTIONARY
  5
17
102
{ACAD_REACTORS
330
C
102
}
100
AcDbDictionary
280
0
281
1
  3
Standard
350
18
  0
DICTIONARY
  5
19
102
{ACAD_REACTORS
330
C
102
}
100
AcDbDictionary
281
1
  0
DICTIONARY
  5
1A
102
{ACAD_REACTORS
330
C
102
}
100
AcDbDictionary
281
1
  3
Model
350
344
  3
Layout1
350
345
  0
ACDBPLACEHOLDER
  5
F
102
{ACAD_REACTORS
330
E
102
}
  0
MLINESTYLE
  5
18
102
{ACAD_REACTORS
330
17
102
}
100
AcDbMlineStyle
  2
STANDARD
 70
0
  3

 62
256
 51
90.0
 52
90.0
 71
2
 49
0.5
 62
256
  6
BYLAYER
 49
-0.5
 62
256
  6
BYLAYER
  0
LAYOUT
  5
344
102
{ACAD_REACTORS
330
1A
102
}
100
AcDbPlotSettings
  1

  2
none_device
  4
ANSI_C_(22.00_x_17.00_Inches)
  6

 40
0.0
 41
0.0
 42
0.0
 43
0.0
 44
558.8
 45
431.8
 46
0.0
 47
0.0
 48
0.0
 49
0.0
140
0.0
141
0.0
142
1.0
143
1.0
 70
1024
 72
0
 73
0
 74
0
  7

 75
0
147
1.0
148
0.0
149
0.0
100
AcDbLayout
  1
Model
 70
0
 71
0
 10
0.0
 20
0.0
 11
22.0
 21
17.0
 12
0.0
 22
0.0
 32
0.0
 14
0.0
 24
0.0
 34
0.0
 15
0.0
 25
0.0
 35
0.0
146
0.0
 13
0.0
 23
0.0
 33
0.0
 16
1.0
 26
0.0
 36
0.0
 17
0.0
 27
1.0
 37
0.0
 76
0
330
224
345
0
346
0
  0
LAYOUT
  5
345
102
{ACAD_REACTORS
330
1A
102
}
100
AcDbPlotSettings
  1

  2
none_device
  4
ANSI_C_(22.00_x_17.00_Inches)
  6

 40
0.0
 41
0.0
 42
0.0
 43
0.0
 44
558.8
 45
431.8
 46
0.0
 47
0.0
 48
0.0
 49
0.0
140
0.0
141
0.0
142
1.0
143
1.0
 70
0
 72
0
 73
0
 74
0
  7

 75
0
147
1.0
148
0.0
149
0.0
100
AcDbLayout
  1
Layout1
 70
0
 71
1
 10
0.0
 20
0.0
 11
22.0
 21
17.0
 12
0.0
 22
0.0
 32
0.0
 14
0.0
 24
0.0
 34
0.0
 15
0.0
 25
0.0
 35
0.0
146
0.0
 13
0.0
 23
0.0
 33
0.0
 16
1.0
 26
0.0
 36
0.0
 17
0.0
 27
1.0
 37
0.0
 76
0
330
225
345
0
346
0
  0
ENDSEC
  0
EOF