999
DXF file: _cgs_temp_output.dxf
999
Pro/ENGINEER 2015110 by Parametric Technology Corporation
  0
SECTION
  2
HEADER
  9
$ACADVER
  1
AC1021
  9
$DWGCODEPAGE
  3
ANSI_1252
  9
$EXTMAX
 10
22.0
 20
17.0
 30
0.0
  9
$EXTMIN
 10
0.0
 20
0.0
 30
0.0
  9
$LIMMIN
 10
0.0
 20
0.0
  9
$LIMMAX
 10
22.0
 20
17.0
  9
$VIEWCTR
 10
11.0
 20
8.5
  9
$VIEWSIZE
 40
17.0
  9
$CLAYER
  8
0
  9
$LTSCALE
 40
1.21
  9
$CELTYPE
  6
BYLAYER
  9
$DIMSCALE
 40
1.0
  9
$DIMASZ
 40
0.1875
  9
$DIMEXO
 40
0.0625
  9
$DIMDLI
 40
0.836
  9
$DIMEXE
 40
0.125
  9
$DIMCEN
 40
0.198
  9
$DIMLFAC
 40
1.0
  9
$DIMBLK
  1
_CLOSED
  9
$DIMALT
 70
0
  9
$DIMALTF
 40
25.4
  9
$DIMTXT
 40
0.15625
  9
$DIMTOL
 70
0
  9
$DIMLIM
 70
0
  9
$DIMTFAC
 40
1.0
  9
$DIMGAP
 40
0.09
  9
$DIMDSEP
 70
46
  9
$AUNITS
 70
0
  9
$PDMODE
 70
3
  9
$PDSIZE
 40
0.3125
  9
$HANDSEED
  5
30C
  9
$TILEMODE
 70
1
  9
$MEASUREMENT
 70
0
  9
$INSUNITS
 70
1
  0
ENDSEC
  0
SECTION
  2
CLASSES
  0
CLASS
  1
ACDBDICTIONARYWDFLT
  2
AcDbDictionaryWithDefault
  3
AutoCAD 2000
 90
0
 91
1
280
0
281
0
  0
CLASS
  1
ACDBPLACEHOLDER
  2
AcDbPlaceHolder
  3
AutoCAD 2000
 90
0
 91
1
280
0
281
0
  0
CLASS
  1
LAYOUT
  2
AcDbLayout
  3
AutoCAD 2000
 90
0
 91
0
280
0
281
0
  0
ENDSEC
  0
SECTION
  2
TABLES
  0
TABLE
  2
VPORT
  5
8
100
AcDbSymbolTable
 70
2
  0
VPORT
  5
1F4
100
AcDbSymbolTableRecord
100
AcDbViewportTableRecord
  2
*ACTIVE
 70
0
 10
0.0
 20
0.0
 11
1.0
 21
1.0
 12
11.0
 22
8.5
 13
0.0
 23
0.0
 14
1.0
 24
1.0
 15
0.0
 25
0.0
 16
0.0
 26
0.0
 36
1.0
 17
0.0
 27
0.0
 37
0.0
 40
17.0
 41
1.2941176471
 42
50.0
 43
0.0
 44
0.0
 50
0.0
 51
0.0
 71
0
 72
100
 73
1
 74
1
 75
0
 76
0
 77
0
 78
0
  0
ENDTAB
  0
TABLE
  2
LTYPE
  5
5
100
AcDbSymbolTable
 70
6
  0
LTYPE
  5
14
100
AcDbSymbolTableRecord
100
AcDbLinetypeTableRecord
  2
BYBLOCK
 70
0
  3

 72
65
 73
0
 40
0.0
  0
LTYPE
  5
15
100
AcDbSymbolTableRecord
100
AcDbLinetypeTableRecord
  2
BYLAYER
 70
0
  3

 72
65
 73
0
 40
0.0
  0
LTYPE
  5
16
100
AcDbSymbolTableRecord
100
AcDbLinetypeTableRecord
  2
CONTINUOUS
 70
64
  3
Solid line
 72
65
 73
0
 40
0.0
  0
LTYPE
  5
1F5
100
AcDbSymbolTableRecord
100
AcDbLinetypeTableRecord
  2
CENTER
 70
64
  3
____ _ ____ _ ____ _ ____ _ ____ _ ____ _ ____
 72
65
 73
4
 40
0.6
 49
0.375
 74
0
 49
-0.075
 74
0
 49
0.075
 74
0
 49
-0.075
 74
0
  0
LTYPE
  5
1F6
100
AcDbSymbolTableRecord
100
AcDbLinetypeTableRecord
  2
HIDDEN
 70
64
  3
- - - - - - - - - - - - - - - - - - - -
 72
65
 73
2
 40
0.2
 49
0.1
 74
0
 49
-0.1
 74
0
  0
LTYPE
  5
1F7
100
AcDbSymbolTableRecord
100
AcDbLinetypeTableRecord
  2
PHANTOM
 70
64
  3
_____ _ _ _____ _ _ _____ _ _ _____
 72
65
 73
6
 40
0.8
 49
0.45
 74
0
 49
-0.05
 74
0
 49
0.1
 74
0
 49
-0.05
 74
0
 49
0.1
 74
0
 49
-0.05
 74
0
  0
LTYPE
  5
1F8
100
AcDbSymbolTableRecord
100
AcDbLinetypeTableRecord
  2
DOT
 70
64
  3
. . . . . . . . . . . . . . . . . . . .
 72
65
 73
2
 40
0.2
 49
0.1
 74
0
 49
-0.1
 74
0
  0
LTYPE
  5
1F9
100
AcDbSymbolTableRecord
100
AcDbLinetypeTableRecord
  2
DASHED
 70
64
  3
- - - - - - - - - - - - - - - - - - - -
 72
65
 73
2
 40
0.2
 49
0.1
 74
0
 49
-0.1
 74
0
  0
ENDTAB
  0
TABLE
  2
LAYER
  5
2
100
AcDbSymbolTable
 70
36
  0
LAYER
  5
10
100
AcDbSymbolTableRecord
100
AcDbLayerTableRecord
  2
0
 70
0
 62
7
  6
CONTINUOUS
370
-3
390
F
  0
LAYER
  5
1FA
100
AcDbSymbolTableRecord
100
AcDbLayerTableRecord
  2
DEFAULT_1
 70
0
 62
7
  6
CENTER
370
-3
390
F
  0
LAYER
  5
1FB
100
AcDbSymbolTableRecord
100
AcDbLayerTableRecord
  2
DEFAULT_2
 70
0
 62
8
  6
HIDDEN
370
-3
390
F
  0
LAYER
  5
1FC
100
AcDbSymbolTableRecord
100
AcDbLayerTableRecord
  2
DEFAULT_3
 70
0
 62
7
  6
PHANTOM
370
-3
390
F
  0
LAYER
  5
1FD
100
AcDbSymbolTableRecord
100
AcDbLayerTableRecord
  2
01_ALL_DTM_PLN
 70
0
 62
7
  6
CONTINUOUS
370
-3
390
F
  0
LAYER
  5
1FE
100
AcDbSymbolTableRecord
100
AcDbLayerTableRecord
  2
01__ASM_ALL_DTM_PLN
 70
0
 62
7
  6
CONTINUOUS
370
-3
390
F
  0
LAYER
  5
1FF
100
AcDbSymbolTableRecord
100
AcDbLayerTableRecord
  2
01__ASM_DEF_DTM_PLN
 70
0
 62
7
  6
CONTINUOUS
370
-3
390
F
  0
LAYER
  5
200
100
AcDbSymbolTableRecord
100
AcDbLayerTableRecord
  2
01___PRT_ALL_DTM_PLN
 70
0
 62
7
  6
CONTINUOUS
370
-3
390
F
  0
LAYER
  5
201
100
AcDbSymbolTableRecord
100
AcDbLayerTableRecord
  2
01___PRT_DEF_DTM_PLN
 70
0
 62
7
  6
CONTINUOUS
370
-3
390
F
  0
LAYER
  5
202
100
AcDbSymbolTableRecord
100
AcDbLayerTableRecord
  2
02_ALL_AXES
 70
0
 62
7
  6
CONTINUOUS
370
-3
390
F
  0
LAYER
  5
203
100
AcDbSymbolTableRecord
100
AcDbLayerTableRecord
  2
02__ASM_ALL_AXES
 70
0
 62
7
  6
CONTINUOUS
370
-3
390
F
  0
LAYER
  5
204
100
AcDbSymbolTableRecord
100
AcDbLayerTableRecord
  2
02___PRT_ALL_AXES
 70
0
 62
7
  6
CONTINUOUS
370
-3
390
F
  0
LAYER
  5
205
100
AcDbSymbolTableRecord
100
AcDbLayerTableRecord
  2
03_ALL_CURVES
 70
0
 62
7
  6
CONTINUOUS
370
-3
390
F
  0
LAYER
  5
206
100
AcDbSymbolTableRecord
100
AcDbLayerTableRecord
  2
03__ASM_ALL_CURVES
 70
0
 62
7
  6
CONTINUOUS
370
-3
390
F
  0
LAYER
  5
207
100
AcDbSymbolTableRecord
100
AcDbLayerTableRecord
  2
03___PRT_ALL_CURVES
 70
0
 62
7
  6
CONTINUOUS
370
-3
390
F
  0
LAYER
  5
208
100
AcDbSymbolTableRecord
100
AcDbLayerTableRecord
  2
04_ALL_DTM_PNT
 70
0
 62
7
  6
CONTINUOUS
370
-3
390
F
  0
LAYER
  5
209
100
AcDbSymbolTableRecord
100
AcDbLayerTableRecord
  2
04__ASM_ALL_DTM_PNT
 70
0
 62
7
  6
CONTINUOUS
370
-3
390
F
  0
LAYER
  5
20A
100
AcDbSymbolTableRecord
100
AcDbLayerTableRecord
  2
04___PRT_ALL_DTM_PNT
 70
0
 62
7
  6
CONTINUOUS
370
-3
390
F
  0
LAYER
  5
20B
100
AcDbSymbolTableRecord
100
AcDbLayerTableRecord
  2
05_ALL_DTM_CSYS
 70
0
 62
7
  6
CONTINUOUS
370
-3
390
F
  0
LAYER
  5
20C
100
AcDbSymbolTableRecord
100
AcDbLayerTableRecord
  2
05__ASM_ALL_DTM_CSYS
 70
0
 62
7
  6
CONTINUOUS
370
-3
390
F
  0
LAYER
  5
20D
100
AcDbSymbolTableRecord
100
AcDbLayerTableRecord
  2
05__ASM_DEF_DTM_CSYS
 70
0
 62
7
  6
CONTINUOUS
370
-3
390
F
  0
LAYER
  5
20E
100
AcDbSymbolTableRecord
100
AcDbLayerTableRecord
  2
05___PRT_ALL_DTM_CSYS
 70
0
 62
7
  6
CONTINUOUS
370
-3
390
F
  0
LAYER
  5
20F
100
AcDbSymbolTableRecord
100
AcDbLayerTableRecord
  2
05___PRT_DEF_DTM_CSYS
 70
0
 62
7
  6
CONTINUOUS
370
-3
390
F
  0
LAYER
  5
210
100
AcDbSymbolTableRecord
100
AcDbLayerTableRecord
  2
06_ALL_SURFS
 70
0
 62
7
  6
CONTINUOUS
370
-3
390
F
  0
LAYER
  5
211
100
AcDbSymbolTableRecord
100
AcDbLayerTableRecord
  2
06__ASM_ALL_SURFS
 70
0
 62
7
  6
CONTINUOUS
370
-3
390
F
  0
LAYER
  5
212
100
AcDbSymbolTableRecord
100
AcDbLayerTableRecord
  2
06___PRT_ALL_SURFS
 70
0
 62
7
  6
CONTINUOUS
370
-3
390
F
  0
LAYER
  5
213
100
AcDbSymbolTableRecord
100
AcDbLayerTableRecord
  2
07__ASM_ALL_SKELETONS
 70
0
 62
7
  6
CONTINUOUS
370
-3
390
F
  0
LAYER
  5
214
100
AcDbSymbolTableRecord
100
AcDbLayerTableRecord
  2
LAYER_AXIS
 70
0
 62
7
  6
CONTINUOUS
370
-3
390
F
  0
LAYER
  5
215
100
AcDbSymbolTableRecord
100
AcDbLayerTableRecord
  2
LAYER_CHAMFER_FEAT
 70
0
 62
7
  6
CONTINUOUS
370
-3
390
F
  0
LAYER
  5
216
100
AcDbSymbolTableRecord
100
AcDbLayerTableRecord
  2
LAYER_CUT_FEAT
 70
0
 62
7
  6
CONTINUOUS
370
-3
390
F
  0
LAYER
  5
217
100
AcDbSymbolTableRecord
100
AcDbLayerTableRecord
  2
LAYER_DATUM
 70
0
 62
7
  6
CONTINUOUS
370
-3
390
F
  0
LAYER
  5
218
100
AcDbSymbolTableRecord
100
AcDbLayerTableRecord
  2
LAYER_DIM
 70
0
 62
7
  6
CONTINUOUS
370
-3
390
F
  0
LAYER
  5
219
100
AcDbSymbolTableRecord
100
AcDbLayerTableRecord
  2
LAYER_FEATURE
 70
0
 62
7
  6
CONTINUOUS
370
-3
390
F
  0
LAYER
  5
21A
100
AcDbSymbolTableRecord
100
AcDbLayerTableRecord
  2
LAYER_GEOM_FEAT
 70
0
 62
7
  6
CONTINUOUS
370
-3
390
F
  0
LAYER
  5
21B
100
AcDbSymbolTableRecord
100
AcDbLayerTableRecord
  2
LAYER_NOGEOM_FEAT
 70
0
 62
7
  6
CONTINUOUS
370
-3
390
F
  0
LAYER
  5
21C
100
AcDbSymbolTableRecord
100
AcDbLayerTableRecord
  2
LAYER_PARAMETER_DIM
 70
0
 62
7
  6
CONTINUOUS
370
-3
390
F
  0
LAYER
  5
21D
100
AcDbSymbolTableRecord
100
AcDbLayerTableRecord
  2
LAYER_PROTRUSION_FEAT
 70
0
 62
7
  6
CONTINUOUS
370
-3
390
F
  0
LAYER
  5
21E
100
AcDbSymbolTableRecord
100
AcDbLayerTableRecord
  2
LAYER_QUILT
 70
0
 62
7
  6
CONTINUOUS
370
-3
390
F
  0
LAYER
  5
21F
100
AcDbSymbolTableRecord
100
AcDbLayerTableRecord
  2
LAYER_ROUND_FEAT
 70
0
 62
7
  6
CONTINUOUS
370
-3
390
F
  0
ENDTAB
  0
TABLE
  2
STYLE
  5
3
100
AcDbSymbolTable
 70
1
  0
STYLE
  5
11
100
AcDbSymbolTableRecord
100
AcDbTextStyleTableRecord
  2
STANDARD
 70
0
 40
0.0
 41
0.8
 50
0.0
 71
0
 42
0.2
  3
txt
  4

  0
STYLE
  5
220
100
AcDbSymbolTableRecord
100
AcDbTextStyleTableRecord
  2
TEXTSTYLE_1
 70
0
 40
0.0
 41
0.8
 50
0.0
 71
0
 42
0.2
  3
gdt
  4

  0
ENDTAB
  0
TABLE
  2
VIEW
  5
6
100
AcDbSymbolTable
 70
0
  0
ENDTAB
  0
TABLE
  2
UCS
  5
7
100
AcDbSymbolTable
 70
0
  0
ENDTAB
  0
TABLE
  2
APPID
  5
9
100
AcDbSymbolTable
 70
1
  0
APPID
  5
221
100
AcDbSymbolTableRecord
100
AcDbRegAppTableRecord
  2
ACAD
 70
0
  0
ENDTAB
  0
TABLE
  2
BLOCK_RECORD
  5
1
100
AcDbSymbolTable
 70
0
  0
BLOCK_RECORD
  5
222
100
AcDbSymbolTableRecord
100
AcDbBlockTableRecord
  2
*Model_Space
  0
BLOCK_RECORD
  5
223
100
AcDbSymbolTableRecord
100
AcDbBlockTableRecord
  2
*Paper_Space
  0
ENDTAB
  0
TABLE
  2
DIMSTYLE
  5
A
100
AcDbSymbolTable
 70
1
100
AcDbDimStyleTable
 71
0
  0
DIMSTYLE
105
224
100
AcDbSymbolTableRecord
100
AcDbDimStyleTableRecord
  2
STANDARD
 70
0
  3

  4

 40
1.0
 41
0.1875
 42
0.0625
 43
0.38
 44
0.125
 45
0.0
 46
0.0
 47
0.0001
 48
0.0001
140
0.15625
141
0.09
142
0.0
143
25.4
144
1.0
145
0.0
146
1.0
147
0.09
 71
0.0
 72
0.0
 73
1
 74
1
 75
0
 76
0
 77
0
 78
4
170
0
171
2
172
0
173
0
174
0
175
0
176
0
177
0
178
0
270
2
271
4
272
4
273
2
274
2
275
0
280
0
281
0
282
0
283
1
284
4
285
0
286
0
287
3
288
0
340
11
278
46
  0
ENDTAB
  0
ENDSEC
  0
SECTION
  2
BLOCKS
  0
BLOCK
  5
20
100
AcDbEntity
  8
0
100
AcDbBlockBegin
  2
*Model_Space
 70
0
 10
0.0
 20
0.0
 30
0.0
  3
*Model_Space
  1

  0
ENDBLK
  5
21
100
AcDbEntity
  8
0
100
AcDbBlockEnd
  0
BLOCK
  5
1C
100
AcDbEntity
  8
0
100
AcDbBlockBegin
  2
*Paper_Space
 70
0
 10
0.0
 20
0.0
 30
0.0
  3
*Paper_Space
  1

  0
ENDBLK
  5
1D
100
AcDbEntity
  8
0
100
AcDbBlockEnd
  0
ENDSEC
  0
SECTION
  2
ENTITIES
  0
MTEXT
  5
225
100
AcDbEntity
  8
0
100
AcDbMText
 62
7
  6
CONTINUOUS
  7
STANDARD
 71
1
 72
1
 10
15.9560215477
 20
0.9479130325
 30
0.0
 11
1.0
 21
0.0
 31
0.0
 44
0.9
  1
SCALE: 1:2.000
 40
0.3
 41
3.36
  0
LINE
  5
226
100
AcDbEntity
  8
0
100
AcDbLine
 62
7
  6
CONTINUOUS
 10
0.0
 20
0.0
 11
0.0
 21
17.0
  0
LINE
  5
227
100
AcDbEntity
  8
0
100
AcDbLine
 62
7
  6
CONTINUOUS
 10
0.0
 20
0.0
 11
22.0
 21
0.0
  0
LINE
  5
228
100
AcDbEntity
  8
0
100
AcDbLine
 62
7
  6
CONTINUOUS
 10
0.0
 20
17.0
 11
22.0
 21
17.0
  0
LINE
  5
229
100
AcDbEntity
  8
0
100
AcDbLine
 62
7
  6
CONTINUOUS
 10
22.0
 20
0.0
 11
22.0
 21
17.0
  0
LINE
  5
22A
100
AcDbEntity
  8
LAYER_FEATURE
100
AcDbLine
 62
7
  6
CONTINUOUS
 10
5.9991672762
 20
6.0831198968
 11
5.9781977149
 21
6.0621503355
  0
LINE
  5
22B
100
AcDbEntity
  8
LAYER_FEATURE
100
AcDbLine
 62
7
  6
CONTINUOUS
 10
6.6933672762
 20
5.3889198968
 11
6.6723977149
 21
5.3679503355
  0
LINE
  5
22C
100
AcDbEntity
  8
LAYER_FEATURE
100
AcDbLine
 62
7
  6
CONTINUOUS
 10
6.2615672762
 20
6.0831198968
 11
6.2825368375
 21
6.0621503355
  0
LINE
  5
22D
100
AcDbEntity
  8
LAYER_FEATURE
100
AcDbLine
 62
7
  6
CONTINUOUS
 10
6.6933672762
 20
5.6513198968
 11
6.6723977149
 21
5.672289458
  0
LINE
  5
22E
100
AcDbEntity
  8
LAYER_FEATURE
100
AcDbLine
 62
7
  6
CONTINUOUS
 10
6.6933672762
 20
5.6513198968
 11
6.6933672762
 21
5.3889198968
  0
LINE
  5
22F
100
AcDbEntity
  8
LAYER_FEATURE
100
AcDbLine
 62
7
  6
CONTINUOUS
 10
5.9991672762
 20
6.0831198968
 11
6.2615672762
 21
6.0831198968
  0
LINE
  5
230
100
AcDbEntity
  8
LAYER_FEATURE
100
AcDbLine
 62
7
  6
CONTINUOUS
 10
5.0078720839
 20
12.2860477814
 11
5.0078720839
 21
12.3660477814
  0
LINE
  5
231
100
AcDbEntity
  8
LAYER_FEATURE
100
AcDbLine
 62
7
  6
CONTINUOUS
 10
5.0078720839
 20
13.3320477814
 11
5.0078720839
 21
13.4120477814
  0
LINE
  5
232
100
AcDbEntity
  8
LAYER_CUT_FEAT
100
AcDbLine
 62
7
  6
CONTINUOUS
 10
5.2637087272
 20
13.2790477814
 11
5.2637087272
 21
12.4190477814
  0
LINE
  5
233
100
AcDbEntity
  8
02___PRT_ALL_AXES
100
AcDbLine
 62
7
  6
CONTINUOUS
 10
5.5078720839
 20
11.7880477814
 11
6.6338720839
 21
11.7880477814
  0
LINE
  5
234
100
AcDbEntity
  8
LAYER_CUT_FEAT
100
AcDbLine
 62
7
  6
CONTINUOUS
 10
5.2943004909
 20
13.2790477814
 11
5.2943004909
 21
12.4190477814
  0
LINE
  5
235
100
AcDbEntity
  8
LAYER_CUT_FEAT
100
AcDbLine
 62
7
  6
CONTINUOUS
 10
6.0235293618
 20
11.9550477814
 11
6.1182148059
 21
11.9550477814
  0
LINE
  5
236
100
AcDbEntity
  8
LAYER_CUT_FEAT
100
AcDbLine
 62
7
  6
CONTINUOUS
 10
5.4782711752
 20
13.2790477814
 11
5.4782711752
 21
12.4190477814
  0
LINE
  5
237
100
AcDbEntity
  8
02___PRT_ALL_AXES
100
AcDbLine
 62
7
  6
CONTINUOUS
 10
5.5078720839
 20
11.7880477814
 11
5.5078720839
 21
12.2860477814
  0
LINE
  5
238
100
AcDbEntity
  8
LAYER_CUT_FEAT
100
AcDbLine
 62
7
  6
CONTINUOUS
 10
6.1182148059
 20
12.1190477814
 11
6.0235293618
 21
12.1190477814
  0
LINE
  5
239
100
AcDbEntity
  8
LAYER_CUT_FEAT
100
AcDbLine
 62
7
  6
CONTINUOUS
 10
5.9761866397
 20
12.0370477814
 11
6.0235293618
 21
11.9550477814
  0
LINE
  5
23A
100
AcDbEntity
  8
LAYER_CUT_FEAT
100
AcDbLine
 62
7
  6
CONTINUOUS
 10
5.7870033645
 20
13.2790477814
 11
5.7870033645
 21
12.4190477814
  0
LINE
  5
23B
100
AcDbEntity
  8
LAYER_FEATURE
100
AcDbLine
 62
7
  6
CONTINUOUS
 10
5.0078720839
 20
12.2860477814
 11
7.1338720839
 21
12.2860477814
  0
LINE
  5
23C
100
AcDbEntity
  8
LAYER_FEATURE
100
AcDbLine
 62
7
  6
CONTINUOUS
 10
5.0078720839
 20
12.3660477814
 11
5.076683603
 21
12.3983222107
  0
LINE
  5
23D
100
AcDbEntity
  8
LAYER_FEATURE
100
AcDbLine
 62
7
  6
CONTINUOUS
 10
7.0650605647
 20
13.299773352
 11
7.1338720839
 21
13.3320477814
  0
LINE
  5
23E
100
AcDbEntity
  8
LAYER_FEATURE
100
AcDbLine
 62
7
  6
CONTINUOUS
 10
5.0078720839
 20
12.3660477814
 11
7.1338720839
 21
12.3660477814
  0
LINE
  5
23F
100
AcDbEntity
  8
LAYER_FEATURE
100
AcDbLine
 62
7
  6
CONTINUOUS
 10
6.9720645934
 20
12.4190477814
 11
5.1696795743
 21
12.4190477814
  0
LINE
  5
240
100
AcDbEntity
  8
LAYER_CUT_FEAT
100
AcDbLine
 62
7
  6
CONTINUOUS
 10
6.165557528
 20
12.0370477814
 11
6.1182148059
 21
12.1190477814
  0
LINE
  5
241
100
AcDbEntity
  8
LAYER_FEATURE
100
AcDbLine
 62
7
  6
CONTINUOUS
 10
6.6268997013
 20
12.1752201639
 11
6.6338720839
 21
12.1682477814
  0
LINE
  5
242
100
AcDbEntity
  8
LAYER_CUT_FEAT
100
AcDbLine
 62
7
  6
CONTINUOUS
 10
6.0235293618
 20
12.1190477814
 11
5.9761866397
 21
12.0370477814
  0
LINE
  5
243
100
AcDbEntity
  8
LAYER_FEATURE
100
AcDbLine
 62
7
  6
CONTINUOUS
 10
5.076683603
 20
13.299773352
 11
5.0078720839
 21
13.3320477814
  0
LINE
  5
244
100
AcDbEntity
  8
LAYER_FEATURE
100
AcDbLine
 62
7
  6
CONTINUOUS
 10
7.1338720839
 20
12.3660477814
 11
7.0650605647
 21
12.3983222107
  0
LINE
  5
245
100
AcDbEntity
  8
LAYER_CUT_FEAT
100
AcDbLine
 62
7
  6
CONTINUOUS
 10
6.3547408032
 20
13.2790477814
 11
6.3547408032
 21
12.4190477814
  0
LINE
  5
246
100
AcDbEntity
  8
LAYER_CUT_FEAT
100
AcDbLine
 62
7
  6
CONTINUOUS
 10
6.1182148059
 20
11.9550477814
 11
6.165557528
 21
12.0370477814
  0
LINE
  5
247
100
AcDbEntity
  8
02___PRT_ALL_AXES
100
AcDbLine
 62
7
  6
CONTINUOUS
 10
6.6338720839
 20
11.7880477814
 11
6.6338720839
 21
11.8730477814
  0
LINE
  5
248
100
AcDbEntity
  8
LAYER_FEATURE
100
AcDbLine
 62
7
  6
CONTINUOUS
 10
6.6338720839
 20
11.9058478544
 11
6.6338720839
 21
12.1682477084
  0
LINE
  5
249
100
AcDbEntity
  8
02___PRT_ALL_AXES
100
AcDbLine
 62
7
  6
CONTINUOUS
 10
6.6338720839
 20
12.2010477814
 11
6.6338720839
 21
12.2860477814
  0
LINE
  5
24A
100
AcDbEntity
  8
LAYER_CUT_FEAT
100
AcDbLine
 62
7
  6
CONTINUOUS
 10
6.6634729926
 20
13.2790477814
 11
6.6634729926
 21
12.4190477814
  0
LINE
  5
24B
100
AcDbEntity
  8
LAYER_FEATURE
100
AcDbLine
 62
7
  6
CONTINUOUS
 10
6.9720645934
 20
13.2790477814
 11
5.1696795743
 21
13.2790477814
  0
LINE
  5
24C
100
AcDbEntity
  8
LAYER_CUT_FEAT
100
AcDbLine
 62
7
  6
CONTINUOUS
 10
6.8474436769
 20
13.2790477814
 11
6.8474436769
 21
12.4190477814
  0
LINE
  5
24D
100
AcDbEntity
  8
LAYER_CUT_FEAT
100
AcDbLine
 62
7
  6
CONTINUOUS
 10
6.8780354406
 20
13.2790477814
 11
6.8780354406
 21
12.4190477814
  0
LINE
  5
24E
100
AcDbEntity
  8
LAYER_FEATURE
100
AcDbLine
 62
7
  6
CONTINUOUS
 10
5.0078720839
 20
13.3320477814
 11
7.1338720839
 21
13.3320477814
  0
LINE
  5
24F
100
AcDbEntity
  8
LAYER_FEATURE
100
AcDbLine
 62
7
  6
CONTINUOUS
 10
5.0078720839
 20
13.4120477814
 11
7.1338720839
 21
13.4120477814
  0
LINE
  5
250
100
AcDbEntity
  8
LAYER_FEATURE
100
AcDbLine
 62
7
  6
CONTINUOUS
 10
6.6268997029
 20
11.8988754004
 11
6.6338720839
 21
11.9058477814
  0
LINE
  5
251
100
AcDbEntity
  8
LAYER_FEATURE
100
AcDbLine
 62
7
  6
CONTINUOUS
 10
7.1338720839
 20
12.2860477814
 11
7.1338720839
 21
12.3660477814
  0
LINE
  5
252
100
AcDbEntity
  8
LAYER_FEATURE
100
AcDbLine
 62
7
  6
CONTINUOUS
 10
7.1338720839
 20
13.3320477814
 11
7.1338720839
 21
13.4120477814
  0
LINE
  5
253
100
AcDbEntity
  8
LAYER_FEATURE
100
AcDbLine
 62
7
  6
CONTINUOUS
 10
16.3723552569
 20
4.3976247044
 11
16.2923552569
 21
4.3976247044
  0
LINE
  5
254
100
AcDbEntity
  8
LAYER_FEATURE
100
AcDbLine
 62
7
  6
CONTINUOUS
 10
15.3263552569
 20
4.3976247044
 11
15.2463552569
 21
4.3976247044
  0
LINE
  5
255
100
AcDbEntity
  8
LAYER_FEATURE
100
AcDbLine
 62
7
  6
CONTINUOUS
 10
14.8591856341
 20
6.0166550816
 11
14.8661552569
 21
6.0236247044
  0
LINE
  5
256
100
AcDbEntity
  8
02___PRT_ALL_AXES
100
AcDbLine
 62
7
  6
CONTINUOUS
 10
14.7483552569
 20
6.0236247044
 11
14.7483552569
 21
4.8976247044
  0
LINE
  5
257
100
AcDbEntity
  8
02___PRT_ALL_AXES
100
AcDbLine
 62
7
  6
CONTINUOUS
 10
15.3793552569
 20
4.6526247044
 11
16.2393552569
 21
4.6526247044
  0
LINE
  5
258
100
AcDbEntity
  8
LAYER_CUT_FEAT
100
AcDbLine
 62
7
  6
CONTINUOUS
 10
16.2393552569
 20
4.715436674
 11
15.3793552569
 21
4.715436674
  0
LINE
  5
259
100
AcDbEntity
  8
LAYER_CUT_FEAT
100
AcDbLine
 62
7
  6
CONTINUOUS
 10
14.9153552569
 20
5.5079674265
 11
14.9153552569
 21
5.4132819824
  0
LINE
  5
25A
100
AcDbEntity
  8
02___PRT_ALL_AXES
100
AcDbLine
 62
7
  6
CONTINUOUS
 10
15.2463552569
 20
4.8976247044
 11
14.7483552569
 21
4.8976247044
  0
LINE
  5
25B
100
AcDbEntity
  8
LAYER_CUT_FEAT
100
AcDbLine
 62
7
  6
CONTINUOUS
 10
16.2393552569
 20
4.9358914803
 11
15.3793552569
 21
4.9358914803
  0
LINE
  5
25C
100
AcDbEntity
  8
LAYER_CUT_FEAT
100
AcDbLine
 62
7
  6
CONTINUOUS
 10
15.0793552569
 20
5.4132819824
 11
15.0793552569
 21
5.5079674265
  0
LINE
  5
25D
100
AcDbEntity
  8
LAYER_CUT_FEAT
100
AcDbLine
 62
7
  6
CONTINUOUS
 10
14.9973552569
 20
5.5553101486
 11
14.9153552569
 21
5.5079674265
  0
LINE
  5
25E
100
AcDbEntity
  8
LAYER_CUT_FEAT
100
AcDbLine
 62
7
  6
CONTINUOUS
 10
14.9153552569
 20
5.4132819824
 11
14.9973552569
 21
5.3659392603
  0
LINE
  5
25F
100
AcDbEntity
  8
LAYER_FEATURE
100
AcDbLine
 62
7
  6
CONTINUOUS
 10
15.2463552569
 20
6.5236247044
 11
15.2463552569
 21
4.3976247044
  0
LINE
  5
260
100
AcDbEntity
  8
LAYER_FEATURE
100
AcDbLine
 62
7
  6
CONTINUOUS
 10
15.3263552569
 20
6.5236247044
 11
15.3263552569
 21
4.3976247044
  0
LINE
  5
261
100
AcDbEntity
  8
LAYER_FEATURE
100
AcDbLine
 62
7
  6
CONTINUOUS
 10
15.3793552569
 20
4.5594321949
 11
15.3793552569
 21
6.361817214
  0
LINE
  5
262
100
AcDbEntity
  8
LAYER_CUT_FEAT
100
AcDbLine
 62
7
  6
CONTINUOUS
 10
14.9973552569
 20
5.3659392603
 11
15.0793552569
 21
5.4132819824
  0
LINE
  5
263
100
AcDbEntity
  8
LAYER_CUT_FEAT
100
AcDbLine
 62
7
  6
CONTINUOUS
 10
15.0793552569
 20
5.5079674265
 11
14.9973552569
 21
5.5553101486
  0
LINE
  5
264
100
AcDbEntity
  8
LAYER_FEATURE
100
AcDbLine
 62
7
  6
CONTINUOUS
 10
15.1355248802
 20
6.0166550812
 11
15.1285552569
 21
6.0236247044
  0
LINE
  5
265
100
AcDbEntity
  8
LAYER_FEATURE
100
AcDbLine
 62
7
  6
CONTINUOUS
 10
16.2923552569
 20
6.5236247044
 11
16.2600808276
 21
6.4548131853
  0
LINE
  5
266
100
AcDbEntity
  8
LAYER_FEATURE
100
AcDbLine
 62
7
  6
CONTINUOUS
 10
15.3586296863
 20
4.4664362236
 11
15.3263552569
 21
4.3976247044
  0
LINE
  5
267
100
AcDbEntity
  8
LAYER_FEATURE
100
AcDbLine
 62
7
  6
CONTINUOUS
 10
16.2923552569
 20
4.3976247044
 11
16.2600808276
 21
4.4664362236
  0
LINE
  5
268
100
AcDbEntity
  8
LAYER_FEATURE
100
AcDbLine
 62
7
  6
CONTINUOUS
 10
15.3586296863
 20
6.4548131853
 11
15.3263552569
 21
6.5236247044
  0
LINE
  5
269
100
AcDbEntity
  8
LAYER_CUT_FEAT
100
AcDbLine
 62
7
  6
CONTINUOUS
 10
16.2393552569
 20
5.8298580648
 11
15.3793552569
 21
5.8298580648
  0
LINE
  5
26A
100
AcDbEntity
  8
02___PRT_ALL_AXES
100
AcDbLine
 62
7
  6
CONTINUOUS
 10
15.2463552569
 20
6.0236247044
 11
15.1613552569
 21
6.0236247044
  0
LINE
  5
26B
100
AcDbEntity
  8
02___PRT_ALL_AXES
100
AcDbLine
 62
7
  6
CONTINUOUS
 10
14.8333552569
 20
6.0236247044
 11
14.7483552569
 21
6.0236247044
  0
LINE
  5
26C
100
AcDbEntity
  8
LAYER_FEATURE
100
AcDbLine
 62
7
  6
CONTINUOUS
 10
14.8661553183
 20
6.0236247044
 11
15.1285551956
 21
6.0236247044
  0
LINE
  5
26D
100
AcDbEntity
  8
LAYER_FEATURE
100
AcDbLine
 62
7
  6
CONTINUOUS
 10
16.2393552569
 20
4.5594321949
 11
16.2393552569
 21
6.361817214
  0
LINE
  5
26E
100
AcDbEntity
  8
LAYER_CUT_FEAT
100
AcDbLine
 62
7
  6
CONTINUOUS
 10
16.2393552569
 20
6.1131517902
 11
15.3793552569
 21
6.1131517902
  0
LINE
  5
26F
100
AcDbEntity
  8
LAYER_FEATURE
100
AcDbLine
 62
7
  6
CONTINUOUS
 10
16.2923552569
 20
6.5236247044
 11
16.2923552569
 21
4.3976247044
  0
LINE
  5
270
100
AcDbEntity
  8
LAYER_FEATURE
100
AcDbLine
 62
7
  6
CONTINUOUS
 10
16.3723552569
 20
6.5236247044
 11
16.3723552569
 21
4.3976247044
  0
LINE
  5
271
100
AcDbEntity
  8
LAYER_CUT_FEAT
100
AcDbLine
 62
7
  6
CONTINUOUS
 10
16.2393552569
 20
6.2579556455
 11
15.3793552569
 21
6.2579556455
  0
LINE
  5
272
100
AcDbEntity
  8
LAYER_FEATURE
100
AcDbLine
 62
7
  6
CONTINUOUS
 10
16.3723552569
 20
6.5236247044
 11
16.2923552569
 21
6.5236247044
  0
LINE
  5
273
100
AcDbEntity
  8
LAYER_FEATURE
100
AcDbLine
 62
7
  6
CONTINUOUS
 10
15.3263552569
 20
6.5236247044
 11
15.2463552569
 21
6.5236247044
  0
LINE
  5
274
100
AcDbEntity
  8
LAYER_FEATURE
100
AcDbLine
 62
7
  6
CONTINUOUS
 10
14.319216771
 20
12.4232858071
 11
14.3385820768
 21
12.4859519599
  0
LINE
  5
275
100
AcDbEntity
  8
LAYER_FEATURE
100
AcDbLine
 62
7
  6
CONTINUOUS
 10
14.5724181452
 20
13.2426457546
 11
14.5917834511
 21
13.3053119073
  0
LINE
  5
276
100
AcDbEntity
  8
LAYER_CUT_FEAT
100
AcDbLine
 62
7
  6
CONTINUOUS
 10
14.796948629
 20
13.1011352052
 11
14.7004285141
 21
12.7887959991
  0
LINE
  5
277
100
AcDbEntity
  8
LAYER_CUT_FEAT
100
AcDbLine
 62
7
  6
CONTINUOUS
 10
14.8660263343
 20
13.2309710421
 11
14.7321005201
 21
12.7975869486
  0
LINE
  5
278
100
AcDbEntity
  8
LAYER_CUT_FEAT
100
AcDbLine
 62
7
  6
CONTINUOUS
 10
15.8219949781
 20
11.8555320348
 11
15.7706246564
 21
11.8555320348
  0
LINE
  5
279
100
AcDbEntity
  8
LAYER_CUT_FEAT
100
AcDbLine
 62
7
  6
CONTINUOUS
 10
14.7376911007
 20
12.2939674584
 11
14.7505206159
 21
12.3354837846
  0
LINE
  5
27A
100
AcDbEntity
  8
LAYER_CUT_FEAT
100
AcDbLine
 62
7
  6
CONTINUOUS
 10
15.0917070694
 20
13.3505492106
 11
14.9306050785
 21
12.8292229771
  0
LINE
  5
27B
100
AcDbEntity
  8
02___PRT_ALL_AXES
100
AcDbLine
 62
7
  6
CONTINUOUS
 10
14.676378164
 20
11.8855653204
 11
14.7969271931
 21
12.2756621214
  0
LINE
  5
27C
100
AcDbEntity
  8
LAYER_CUT_FEAT
100
AcDbLine
 62
7
  6
CONTINUOUS
 10
15.8274029043
 20
11.9491935493
 11
15.7628401133
 21
11.9491935493
  0
LINE
  5
27D
100
AcDbEntity
  8
LAYER_FEATURE
100
AcDbLine
 62
7
  6
CONTINUOUS
 10
15.7500560655
 20
13.2685435583
 11
15.7765880844
 21
13.2867938711
  0
LINE
  5
27E
100
AcDbEntity
  8
LAYER_CUT_FEAT
100
AcDbLine
 62
7
  6
CONTINUOUS
 10
15.0156049737
 20
12.2643558629
 11
15.0471258569
 21
12.2001230563
  0
LINE
  5
27F
100
AcDbEntity
  8
LAYER_CUT_FEAT
100
AcDbLine
 62
7
  6
CONTINUOUS
 10
15.0790599468
 20
12.3285886694
 11
15.1290868129
 21
12.2266446346
  0
LINE
  5
280
100
AcDbEntity
  8
LAYER_CUT_FEAT
100
AcDbLine
 62
7
  6
CONTINUOUS
 10
15.0156049737
 20
12.2643558629
 11
15.0393610698
 21
12.2001230563
  0
LINE
  5
281
100
AcDbEntity
  8
LAYER_CUT_FEAT
100
AcDbLine
 62
7
  6
CONTINUOUS
 10
15.1900271123
 20
12.2643558629
 11
15.1662710161
 21
12.3285886694
  0
LINE
  5
282
100
AcDbEntity
  8
LAYER_CUT_FEAT
100
AcDbLine
 62
7
  6
CONTINUOUS
 10
15.4176444152
 20
13.3672449288
 11
15.2477121708
 21
12.8173439846
  0
LINE
  5
283
100
AcDbEntity
  8
LAYER_CUT_FEAT
100
AcDbLine
 62
7
  6
CONTINUOUS
 10
15.0393610698
 20
12.2001230563
 11
15.1265721391
 21
12.2001230563
  0
LINE
  5
284
100
AcDbEntity
  8
LAYER_CUT_FEAT
100
AcDbLine
 62
7
  6
CONTINUOUS
 10
15.1527725518
 20
12.2266446346
 11
15.1290868129
 21
12.2266446346
  0
LINE
  5
285
100
AcDbEntity
  8
LAYER_CUT_FEAT
100
AcDbLine
 62
7
  6
CONTINUOUS
 10
15.0790599468
 20
12.3285886694
 11
15.0156049737
 21
12.2643558629
  0
LINE
  5
286
100
AcDbEntity
  8
LAYER_CUT_FEAT
100
AcDbLine
 62
7
  6
CONTINUOUS
 10
15.1662710161
 20
12.3285886694
 11
15.0790599468
 21
12.3285886694
  0
LINE
  5
287
100
AcDbEntity
  8
LAYER_CUT_FEAT
100
AcDbLine
 62
7
  6
CONTINUOUS
 10
15.1290868129
 20
12.2266446346
 11
15.1028864002
 21
12.2001230563
  0
LINE
  5
288
100
AcDbEntity
  8
LAYER_CUT_FEAT
100
AcDbLine
 62
7
  6
CONTINUOUS
 10
15.1265721391
 20
12.2001230563
 11
15.1900271123
 21
12.2643558629
  0
LINE
  5
289
100
AcDbEntity
  8
LAYER_FEATURE
100
AcDbLine
 62
7
  6
CONTINUOUS
 10
15.7899026761
 20
12.0630105447
 11
15.8147131721
 21
12.0332863259
  0
LINE
  5
28A
100
AcDbEntity
  8
LAYER_CUT_FEAT
100
AcDbLine
 62
7
  6
CONTINUOUS
 10
15.7588210027
 20
11.8795853521
 11
15.7877040273
 21
11.8207279362
  0
LINE
  5
28B
100
AcDbEntity
  8
LAYER_CUT_FEAT
100
AcDbLine
 62
7
  6
CONTINUOUS
 10
15.8274029043
 20
11.9491935493
 11
15.7985198797
 21
12.0080509653
  0
LINE
  5
28C
100
AcDbEntity
  8
LAYER_CUT_FEAT
100
AcDbLine
 62
7
  6
CONTINUOUS
 10
15.7642289289
 20
11.9732468667
 11
15.7588210027
 21
11.8795853521
  0
LINE
  5
28D
100
AcDbEntity
  8
LAYER_CUT_FEAT
100
AcDbLine
 62
7
  6
CONTINUOUS
 10
15.9609680439
 20
13.2026272944
 11
15.7909029091
 21
12.6522963165
  0
LINE
  5
28E
100
AcDbEntity
  8
LAYER_CUT_FEAT
100
AcDbLine
 62
7
  6
CONTINUOUS
 10
15.8219949781
 20
11.8555320348
 11
15.8274029043
 21
11.9491935493
  0
LINE
  5
28F
100
AcDbEntity
  8
02___PRT_ALL_AXES
100
AcDbLine
 62
7
  6
CONTINUOUS
 10
15.7521820347
 20
11.5531167801
 11
15.8727310637
 21
11.9432135811
  0
LINE
  5
290
100
AcDbEntity
  8
LAYER_FEATURE
100
AcDbLine
 62
7
  6
CONTINUOUS
 10
16.0482709138
 20
13.1113518373
 11
16.0897928849
 21
13.1163814326
  0
LINE
  5
291
100
AcDbEntity
  8
LAYER_FEATURE
100
AcDbLine
 62
7
  6
CONTINUOUS
 10
16.238111143
 20
12.9028282962
 11
16.2851108833
 21
12.8934849542
  0
LINE
  5
292
100
AcDbEntity
  8
LAYER_FEATURE
100
AcDbLine
 62
7
  6
CONTINUOUS
 10
14.9817094714
 20
13.2867938711
 11
15.0261533957
 21
13.2685435583
  0
LINE
  5
293
100
AcDbEntity
  8
LAYER_FEATURE
100
AcDbLine
 62
7
  6
CONTINUOUS
 10
15.2636234688
 20
13.3656828338
 11
15.2958714452
 21
13.33839273
  0
LINE
  5
294
100
AcDbEntity
  8
LAYER_FEATURE
100
AcDbLine
 62
7
  6
CONTINUOUS
 10
15.6169161209
 20
13.3349758099
 11
15.6295805265
 21
13.3048977492
  0
LINE
  5
295
100
AcDbEntity
  8
LAYER_CUT_FEAT
100
AcDbLine
 62
7
  6
CONTINUOUS
 10
16.2261410988
 20
13.0075605929
 11
16.0642959738
 21
12.4838295762
  0
LINE
  5
296
100
AcDbEntity
  8
LAYER_CUT_FEAT
100
AcDbLine
 62
7
  6
CONTINUOUS
 10
15.9319671561
 20
11.924908244
 11
15.9447966712
 21
11.9664245703
  0
LINE
  5
297
100
AcDbEntity
  8
LAYER_CUT_FEAT
100
AcDbLine
 62
7
  6
CONTINUOUS
 10
15.7985198797
 20
12.0080509653
 11
15.7642289289
 21
11.9732468667
  0
LINE
  5
298
100
AcDbEntity
  8
LAYER_CUT_FEAT
100
AcDbLine
 62
7
  6
CONTINUOUS
 10
16.3526976382
 20
12.7816927889
 11
16.2168188611
 21
12.3419889051
  0
LINE
  5
299
100
AcDbEntity
  8
LAYER_FEATURE
100
AcDbLine
 62
7
  6
CONTINUOUS
 10
15.7899026761
 20
11.7657683568
 11
15.8147131721
 21
11.7954925756
  0
LINE
  5
29A
100
AcDbEntity
  8
LAYER_CUT_FEAT
100
AcDbLine
 62
7
  6
CONTINUOUS
 10
15.7877040273
 20
11.8207279362
 11
15.8219949781
 21
11.8555320348
  0
LINE
  5
29B
100
AcDbEntity
  8
LAYER_CUT_FEAT
100
AcDbLine
 62
7
  6
CONTINUOUS
 10
16.342192088
 20
12.6341824654
 11
16.2425248663
 21
12.3116592177
  0
LINE
  5
29C
100
AcDbEntity
  8
LAYER_FEATURE
100
AcDbLine
 62
7
  6
CONTINUOUS
 10
15.3443941822
 20
13.3211652303
 11
15.3801693471
 21
13.3211652303
  0
LINE
  5
29D
100
AcDbEntity
  8
LAYER_FEATURE
100
AcDbLine
 62
7
  6
CONTINUOUS
 10
15.6668494363
 20
13.2770766243
 11
15.7040329089
 21
13.2658562963
  0
LINE
  5
29E
100
AcDbEntity
  8
LAYER_FEATURE
100
AcDbLine
 62
7
  6
CONTINUOUS
 10
15.9683091353
 20
13.1436906465
 11
15.9983826301
 21
13.1238204325
  0
LINE
  5
29F
100
AcDbEntity
  8
LAYER_FEATURE
100
AcDbLine
 62
7
  6
CONTINUOUS
 10
16.3504414858
 20
11.7955898953
 11
16.3698067917
 21
11.8582560481
  0
LINE
  5
2A0
100
AcDbEntity
  8
LAYER_FEATURE
100
AcDbLine
 62
7
  6
CONTINUOUS
 10
16.6036428601
 20
12.6149498428
 11
16.623008166
 21
12.6776159956
  0
CIRCLE
  5
2A1
100
AcDbEntity
  8
LAYER_FEATURE
100
AcDbCircle
 62
7
  6
CONTINUOUS
 10
6.1303672762
 20
5.5201198968
 40
1.063
  0
CIRCLE
  5
2A2
100
AcDbEntity
  8
LAYER_FEATURE
100
AcDbCircle
 62
7
  6
CONTINUOUS
 10
6.1303672762
 20
5.5201198968
 40
0.95
  0
CIRCLE
  5
2A3
100
AcDbEntity
  8
LAYER_CUT_FEAT
100
AcDbCircle
 62
7
  6
CONTINUOUS
 10
6.1303672762
 20
5.5201198968
 40
0.625
  0
CIRCLE
  5
2A4
100
AcDbEntity
  8
02___PRT_ALL_AXES
100
AcDbCircle
 62
7
  6
CONTINUOUS
 10
6.1303672762
 20
5.5201198968
 40
0.563
  0
CIRCLE
  5
2A5
100
AcDbEntity
  8
LAYER_CHAMFER_FEAT
100
AcDbCircle
 62
7
  6
CONTINUOUS
 10
6.1303672762
 20
5.5201198968
 40
0.2875
  0
CIRCLE
  5
2A6
100
AcDbEntity
  8
LAYER_CHAMFER_FEAT
100
AcDbCircle
 62
7
  6
CONTINUOUS
 10
6.1303672762
 20
5.5201198968
 40
0.25
  0
ARC
  5
2A7
100
AcDbEntity
  8
LAYER_FEATURE
100
AcDbCircle
 62
7
  6
CONTINUOUS
 10
6.9720645934
 20
12.2000477814
 40
0.219
100
AcDbArc
 50
64.8721758192
 51
90.0
  0
ARC
  5
2A8
100
AcDbEntity
  8
LAYER_FEATURE
100
AcDbCircle
 62
7
  6
CONTINUOUS
 10
5.1696795743
 20
12.2000477814
 40
0.219
100
AcDbArc
 50
90.0
 51
115.1278241808
  0
ARC
  5
2A9
100
AcDbEntity
  8
LAYER_FEATURE
100
AcDbCircle
 62
7
  6
CONTINUOUS
 10
6.9720645934
 20
13.4980477814
 40
0.219
100
AcDbArc
 50
270.0
 51
295.1278241808
  0
ARC
  5
2AA
100
AcDbEntity
  8
LAYER_FEATURE
100
AcDbCircle
 62
7
  6
CONTINUOUS
 10
5.1696795743
 20
13.4980477814
 40
0.219
100
AcDbArc
 50
244.8721758192
 51
270.0
  0
CIRCLE
  5
2AB
100
AcDbEntity
  8
02___PRT_ALL_AXES
100
AcDbCircle
 62
7
  6
CONTINUOUS
 10
6.0708720839
 20
12.0370477814
 40
0.164
  0
CIRCLE
  5
2AC
100
AcDbEntity
  8
LAYER_FEATURE
100
AcDbCircle
 62
7
  6
CONTINUOUS
 10
6.0708720839
 20
12.0370477814
 40
0.1312
  0
ARC
  5
2AD
100
AcDbEntity
  8
LAYER_FEATURE
100
AcDbCircle
 62
7
  6
CONTINUOUS
 10
15.1603552569
 20
4.5594321949
 40
0.219
100
AcDbArc
 50
334.8721758192
 51
360.0
  0
ARC
  5
2AE
100
AcDbEntity
  8
LAYER_FEATURE
100
AcDbCircle
 62
7
  6
CONTINUOUS
 10
15.1603552569
 20
6.361817214
 40
0.219
100
AcDbArc
 50
0.0
 51
25.1278241808
  0
ARC
  5
2AF
100
AcDbEntity
  8
LAYER_FEATURE
100
AcDbCircle
 62
7
  6
CONTINUOUS
 10
16.4583552569
 20
4.5594321949
 40
0.219
100
AcDbArc
 50
180.0
 51
205.1278241808
  0
ARC
  5
2B0
100
AcDbEntity
  8
LAYER_FEATURE
100
AcDbCircle
 62
7
  6
CONTINUOUS
 10
16.4583552569
 20
6.361817214
 40
0.219
100
AcDbArc
 50
154.8721758192
 51
180.0
  0
CIRCLE
  5
2B1
100
AcDbEntity
  8
02___PRT_ALL_AXES
100
AcDbCircle
 62
7
  6
CONTINUOUS
 10
14.9973552569
 20
5.4606247044
 40
0.164
  0
CIRCLE
  5
2B2
100
AcDbEntity
  8
LAYER_FEATURE
100
AcDbCircle
 62
7
  6
CONTINUOUS
 10
14.9973552569
 20
5.4606247044
 40
0.1312
  0
ARC
  5
2B3
100
AcDbEntity
  8
02___PRT_ALL_AXES
100
AcDbCircle
 62
7
  6
CONTINUOUS
 10
15.4695153041
 20
11.9176752423
 40
0.366510675
100
AcDbArc
 50
340.5021749777
 51
340.6422879479
  0
ARC
  5
2B4
100
AcDbEntity
  8
LAYER_FEATURE
100
AcDbCircle
 62
7
  6
CONTINUOUS
 10
15.1828463952
 20
12.2782835499
 40
0.0860199107
100
AcDbArc
 50
29.7375364763
 51
33.6015823697
  0
ARC
  5
2B5
100
AcDbEntity
  8
LAYER_FEATURE
100
AcDbCircle
 62
7
  6
CONTINUOUS
 10
15.042765248
 20
12.2095490939
 40
0.085946967
100
AcDbArc
 50
198.6630826808
 51
202.0553354721
  0
SPLINE
  5
2B6
100
AcDbEntity
  8
02___PRT_ALL_AXES
100
AcDbSpline
 62
7
  6
CONTINUOUS
 70
0
 71
3
 72
31
 73
27
 74
0
 42
0.0000001
 43
0.0000001
 44
0.0000000001
 40
0.0
 40
0.0
 40
0.0
 40
0.0
 40
0.0099556395
 40
0.0392468691
 40
0.0863039301
 40
0.148912882
 40
0.1852616885
 40
0.2245234957
 40
0.2663437834
 40
0.3103501554
 40
0.3561484929
 40
0.403320572
 40
0.451424628
 40
0.5000000006
 40
0.5485753731
 40
0.5966794291
 40
0.6438515083
 40
0.6896498457
 40
0.7336562176
 40
0.7754765053
 40
0.8147383124
 40
0.8510871187
 40
0.9136960705
 40
0.9607531313
 40
0.9900443606
 40
1.0
 40
1.0
 40
1.0
 40
1.0
 10
6.6338720839
 20
11.8730477814
 30
0.0
 10
6.633563271
 20
11.8741079112
 30
0.0
 10
6.6323558323
 20
11.8782900421
 30
0.0
 10
6.6297878806
 20
11.8875115926
 30
0.0
 10
6.6259347298
 20
11.9024355082
 30
0.0
 10
6.6223305668
 20
11.9182274833
 30
0.0
 10
6.6193206091
 20
11.9332601027
 30
0.0
 10
6.6170316043
 20
11.946082919
 30
0.0
 10
6.6149086339
 20
11.9597946127
 30
0.0
 10
6.6130353985
 20
11.9742742943
 30
0.0
 10
6.6114881816
 20
11.9893895113
 30
0.0
 10
6.610332142
 20
12.0049956726
 30
0.0
 10
6.6096173234
 20
12.0209367572
 30
0.0
 10
6.6093754688
 20
12.0370477816
 30
0.0
 10
6.6096173234
 20
12.0531588059
 30
0.0
 10
6.610332142
 20
12.0690998905
 30
0.0
 10
6.6114881816
 20
12.0847060518
 30
0.0
 10
6.6130353986
 20
12.0998212688
 30
0.0
 10
6.6149086339
 20
12.1143009504
 30
0.0
 10
6.6170316043
 20
12.1280126441
 30
0.0
 10
6.6193206091
 20
12.1408354603
 30
0.0
 10
6.6223305668
 20
12.1558680797
 30
0.0
 10
6.6259347298
 20
12.1716600547
 30
0.0
 10
6.6297878806
 20
12.1865839703
 30
0.0
 10
6.6323558323
 20
12.1958055207
 30
0.0
 10
6.633563271
 20
12.1999876515
 30
0.0
 10
6.6338720839
 20
12.2010477814
 30
0.0
  0
SPLINE
  5
2B7
100
AcDbEntity
  8
02___PRT_ALL_AXES
100
AcDbSpline
 62
7
  6
CONTINUOUS
 70
0
 71
3
 72
31
 73
27
 74
0
 42
0.0000001
 43
0.0000001
 44
0.0000000001
 40
0.0
 40
0.0
 40
0.0
 40
0.0
 40
0.0099556439
 40
0.0392468655
 40
0.0863039183
 40
0.1489128882
 40
0.185261703
 40
0.2245235118
 40
0.2663438168
 40
0.3103501768
 40
0.3561485286
 40
0.4033205907
 40
0.4514246419
 40
0.5
 40
0.5485753581
 40
0.5966794093
 40
0.6438514715
 40
0.6896498233
 40
0.7336561833
 40
0.7754764883
 40
0.8147382971
 40
0.8510871119
 40
0.9136960819
 40
0.9607531347
 40
0.9900443561
 40
1.0
 40
1.0
 40
1.0
 40
1.0
 10
15.1613552569
 20
6.0236247044
 30
0.0
 10
15.1602951268
 20
6.0233158908
 30
0.0
 10
15.1561129968
 20
6.0221084505
 30
0.0
 10
15.1468914472
 20
6.0195405001
 30
0.0
 10
15.1319675312
 20
6.0156873504
 30
0.0
 10
15.1161755544
 20
6.0120831854
 30
0.0
 10
15.1011429312
 20
6.009073231
 30
0.0
 10
15.088320113
 20
6.0067842194
 30
0.0
 10
15.074608417
 20
6.0046612594
 30
0.0
 10
15.0601287352
 20
6.002788008
 30
0.0
 10
15.0450135178
 20
6.0012408106
 30
0.0
 10
15.0294073587
 20
6.0000847533
 30
0.0
 10
15.0134662773
 20
5.9993699489
 30
0.0
 10
14.9973552569
 20
5.9991280848
 30
0.0
 10
14.9812442365
 20
5.9993699489
 30
0.0
 10
14.9653031552
 20
6.0000847533
 30
0.0
 10
14.9496969961
 20
6.0012408106
 30
0.0
 10
14.9345817787
 20
6.002788008
 30
0.0
 10
14.9201020968
 20
6.0046612594
 30
0.0
 10
14.9063904008
 20
6.0067842194
 30
0.0
 10
14.8935675826
 20
6.009073231
 30
0.0
 10
14.8785349594
 20
6.0120831854
 30
0.0
 10
14.8627429826
 20
6.0156873504
 30
0.0
 10
14.8478190666
 20
6.0195405001
 30
0.0
 10
14.8385975171
 20
6.0221084505
 30
0.0
 10
14.8344153871
 20
6.0233158908
 30
0.0
 10
14.8333552569
 20
6.0236247044
 30
0.0
  0
SPLINE
  5
2B8
100
AcDbEntity
  8
02___PRT_ALL_AXES
100
AcDbSpline
 62
7
  6
CONTINUOUS
 70
0
 71
3
 72
56
 73
52
 74
0
 42
0.0000001
 43
0.0000001
 44
0.0000000001
 40
0.0
 40
0.0
 40
0.0
 40
0.0
 40
0.0135237861
 40
0.0275618224
 40
0.0420922068
 40
0.0570941622
 40
0.0725449653
 40
0.0884205595
 40
0.1046961231
 40
0.1213461894
 40
0.1383447195
 40
0.1556652892
 40
0.1911653895
 40
0.2276339288
 40
0.2648598017
 40
0.3026365293
 40
0.340763832
 40
0.379048545
 40
0.4173049628
 40
0.4553550655
 40
0.4930287744
 40
0.5301645092
 40
0.5666102721
 40
0.6022252711
 40
0.6368821945
 40
0.6538177733
 40
0.6704736726
 40
0.6868389625
 40
0.702904077
 40
0.7186608333
 40
0.73410255
 40
0.7640161578
 40
0.7926270885
 40
0.8064471214
 40
0.8199444746
 40
0.8459817032
 40
0.8585419762
 40
0.8708052014
 40
0.8827815199
 40
0.894482508
 40
0.9059212684
 40
0.9171123876
 40
0.9280720041
 40
0.9388178393
 40
0.9493691892
 40
0.9597470145
 40
0.9699738843
 40
0.9800739889
 40
0.9850853021
 40
0.990074711
 40
1.0
 40
1.0
 40
1.0
 40
1.0
 10
15.7534130765
 20
11.7859238375
 30
0.0
 10
15.7527527614
 20
11.7872694182
 30
0.0
 10
15.7514321544
 20
11.7900241394
 30
0.0
 10
15.7494857724
 20
11.7942640782
 30
0.0
 10
15.7475397196
 20
11.7986837869
 30
0.0
 10
15.7455978741
 20
11.8032758256
 30
0.0
 10
15.7436642886
 20
11.8080326772
 30
0.0
 10
15.7417432545
 20
11.8129464825
 30
0.0
 10
15.7398392754
 20
11.8180091759
 30
0.0
 10
15.7379570165
 20
11.8232125286
 30
0.0
 10
15.7361012826
 20
11.828548188
 30
0.0
 10
15.7336489134
 20
11.8358876727
 30
0.0
 10
15.7306853688
 20
11.8453307254
 30
0.0
 10
15.7273443442
 20
11.8569639009
 30
0.0
 10
15.7242327647
 20
11.8689216113
 30
0.0
 10
15.7213939822
 20
11.8811359816
 30
0.0
 10
15.7188715089
 20
11.8935395755
 30
0.0
 10
15.7167085401
 20
11.9060651137
 30
0.0
 10
15.7149474034
 20
11.9186451343
 30
0.0
 10
15.7136288865
 20
11.9312115273
 30
0.0
 10
15.7127914049
 20
11.9436951126
 30
0.0
 10
15.7124699754
 20
11.956025291
 30
0.0
 10
15.7126950424
 20
11.9681300967
 30
0.0
 10
15.7134910774
 20
11.9799359339
 30
0.0
 10
15.7146534537
 20
11.9895367275
 30
0.0
 10
15.7158906948
 20
11.9969999313
 30
0.0
 10
15.7169612247
 20
12.0024331839
 30
0.0
 10
15.7181809789
 20
12.0077359748
 30
0.0
 10
15.7195487733
 20
12.0128995469
 30
0.0
 10
15.7210629754
 20
12.017915422
 30
0.0
 10
15.7232504944
 20
12.0243268465
 30
0.0
 10
15.726322925
 20
12.0319362089
 30
0.0
 10
15.7299136077
 20
12.0391165397
 30
0.0
 10
15.7330435294
 20
12.0444691813
 30
0.0
 10
15.7362546089
 20
12.0494364633
 30
0.0
 10
15.7397212961
 20
12.0540670291
 30
0.0
 10
15.7434322261
 20
12.058312848
 30
0.0
 10
15.7462725976
 20
12.0612425624
 30
0.0
 10
15.7491956088
 20
12.0639515534
 30
0.0
 10
15.7521937322
 20
12.0664364715
 30
0.0
 10
15.7552590799
 20
12.0686942735
 30
0.0
 10
15.7583837277
 20
12.0707221899
 30
0.0
 10
15.7615596034
 20
12.0725177753
 30
0.0
 10
15.7647785557
 20
12.074078873
 30
0.0
 10
15.7680323871
 20
12.0754035245
 30
0.0
 10
15.7713128561
 20
12.0764900962
 30
0.0
 10
15.7746115839
 20
12.0773370991
 30
0.0
 10
15.777376407
 20
12.0778436606
 30
0.0
 10
15.7795865962
 20
12.0781268137
 30
0.0
 10
15.7817861551
 20
12.0783283671
 30
0.0
 10
15.7834399933
 20
12.0783894451
 30
0.0
 10
15.7845400323
 20
12.0783894454
 30
0.0
  0
SPLINE
  5
2B9
100
AcDbEntity
  8
02___PRT_ALL_AXES
100
AcDbSpline
 62
7
  6
CONTINUOUS
 70
0
 71
3
 72
28
 73
24
 74
0
 42
0.0000001
 43
0.0000001
 44
0.0000000001
 40
0.0
 40
0.0
 40
0.0
 40
0.0
 40
0.0773518575
 40
0.1528028446
 40
0.2261996817
 40
0.2974215261
 40
0.3663852448
 40
0.433049857
 40
0.4974205129
 40
0.5595520186
 40
0.6195516094
 40
0.677580818
 40
0.7338561032
 40
0.7614247604
 40
0.7886604616
 40
0.8156045736
 40
0.8423012207
 40
0.8687968337
 40
0.8951398508
 40
0.9213802954
 40
0.9475692768
 40
0.9737585678
 40
1.0
 40
1.0
 40
1.0
 40
1.0
 10
15.0631171659
 20
12.1358902497
 30
0.0
 10
15.0600692576
 20
12.1358902497
 30
0.0
 10
15.0540475416
 20
12.136009266
 30
0.0
 10
15.0451488809
 20
12.1365589347
 30
0.0
 10
15.0365230878
 20
12.1374767531
 30
0.0
 10
15.0282025026
 20
12.1387612391
 30
0.0
 10
15.0202167422
 20
12.140410412
 30
0.0
 10
15.0125928686
 20
12.1424219024
 30
0.0
 10
15.0053552896
 20
12.1447930637
 30
0.0
 10
14.9985259045
 20
12.1475210367
 30
0.0
 10
14.9921241476
 20
12.1506029241
 30
0.0
 10
14.9861676967
 20
12.1540353973
 30
0.0
 10
14.9815560166
 20
12.1572074023
 30
0.0
 10
14.9781155342
 20
12.1599148842
 30
0.0
 10
14.9756729187
 20
12.1620164249
 30
0.0
 10
14.9733521812
 20
12.1642019995
 30
0.0
 10
14.9711545807
 20
12.1664709967
 30
0.0
 10
14.9690813998
 20
12.1688227682
 30
0.0
 10
14.9671337841
 20
12.1712565906
 30
0.0
 10
14.9653128467
 20
12.1737717038
 30
0.0
 10
14.9636195771
 20
12.1763672895
 30
0.0
 10
14.9620549687
 20
12.1790423656
 30
0.0
 10
14.9610997157
 20
12.1808752793
 30
0.0
 10
14.9606441944
 20
12.1818035289
 30
0.0
  0
SPLINE
  5
2BA
100
AcDbEntity
  8
LAYER_CUT_FEAT
100
AcDbSpline
 62
7
  6
CONTINUOUS
 70
0
 71
3
 72
22
 73
18
 74
0
 42
0.0000001
 43
0.0000001
 44
0.0000000001
 40
0.0
 40
0.0
 40
0.0
 40
0.0
 40
0.1362760297
 40
0.202830998
 40
0.268381191
 40
0.3329770869
 40
0.3966745554
 40
0.4595346247
 40
0.5216235432
 40
0.5830124919
 40
0.6437773798
 40
0.7039984686
 40
0.7637599196
 40
0.8231493438
 40
0.8822571714
 40
0.9411760178
 40
1.0
 40
1.0
 40
1.0
 40
1.0
 10
14.7510386597
 20
12.1272305076
 30
0.0
 10
14.7480175548
 20
12.1343760024
 30
0.0
 10
14.7438885565
 20
12.1451739083
 30
0.0
 10
14.7392522161
 20
12.1597346856
 30
0.0
 10
14.7362711658
 20
12.1705315913
 30
0.0
 10
14.7337619072
 20
12.1812806924
 30
0.0
 10
14.7317263965
 20
12.1919738285
 30
0.0
 10
14.7301663591
 20
12.2026024937
 30
0.0
 10
14.7290830695
 20
12.2131583069
 30
0.0
 10
14.7284775043
 20
12.2236329145
 30
0.0
 10
14.7283502053
 20
12.2340180114
 30
0.0
 10
14.7287013325
 20
12.2443053473
 30
0.0
 10
14.7295307164
 20
12.254486739
 30
0.0
 10
14.7308377127
 20
12.2645540487
 30
0.0
 10
14.73262136
 20
12.2744993219
 30
0.0
 10
14.7348802059
 20
12.2843142985
 30
0.0
 10
14.7367023963
 20
12.2907680157
 30
0.0
 10
14.7376911029
 20
12.2939674577
 30
0.0
  0
SPLINE
  5
2BB
100
AcDbEntity
  8
LAYER_CHAMFER_FEAT
100
AcDbSpline
 62
7
  6
CONTINUOUS
 70
0
 71
3
 72
24
 73
20
 74
0
 42
0.0000001
 43
0.0000001
 44
0.0000000001
 40
0.0
 40
0.0
 40
0.0
 40
0.0
 40
0.0739596049
 40
0.1461217725
 40
0.2164907011
 40
0.2850851536
 40
0.3519394606
 40
0.4171046384
 40
0.4806492636
 40
0.542660121
 40
0.6032427472
 40
0.6625217167
 40
0.7206402757
 40
0.7777595005
 40
0.8340569075
 40
0.8619617179
 40
0.8897340293
 40
0.944974732
 40
1.0
 40
1.0
 40
1.0
 40
1.0
 10
15.0680275232
 20
11.8933100621
 30
0.0
 10
15.0653405706
 20
11.8924888241
 30
0.0
 10
15.0600642826
 20
11.8907578693
 30
0.0
 10
15.0523657123
 20
11.8878573256
 30
0.0
 10
15.044994046
 20
11.8846897764
 30
0.0
 10
15.0379635563
 20
11.8812612059
 30
0.0
 10
15.0312876758
 20
11.8775779986
 30
0.0
 10
15.0249792323
 20
11.873647044
 30
0.0
 10
15.0190503633
 20
11.8694756956
 30
0.0
 10
15.0135125433
 20
11.8650717447
 30
0.0
 10
15.0083765639
 20
11.8604434149
 30
0.0
 10
15.0036524877
 20
11.8555994357
 30
0.0
 10
14.9993496191
 20
11.8505489052
 30
0.0
 10
14.9954766517
 20
11.8453016417
 30
0.0
 10
14.9926051413
 20
11.8407592826
 30
0.0
 10
14.9905351202
 20
11.8370421428
 30
0.0
 10
14.9886234975
 20
11.833286085
 30
0.0
 10
14.9865101911
 20
11.8284811552
 30
0.0
 10
14.9851195567
 20
11.8245248186
 30
0.0
 10
14.9845023786
 20
11.8225276512
 30
0.0
  0
SPLINE
  5
2BC
100
AcDbEntity
  8
LAYER_CHAMFER_FEAT
100
AcDbSpline
 62
7
  6
CONTINUOUS
 70
0
 71
3
 72
26
 73
22
 74
0
 42
0.0000001
 43
0.0000001
 44
0.0000000001
 40
0.0
 40
0.0
 40
0.0
 40
0.0
 40
0.0739769553
 40
0.1461545958
 40
0.2165367276
 40
0.2851419008
 40
0.3520043372
 40
0.3848001799
 40
0.4171809138
 40
0.4807279324
 40
0.5427382666
 40
0.6033175435
 40
0.6625903727
 40
0.7207001818
 40
0.7778083756
 40
0.834092819
 40
0.8897457189
 40
0.9174036128
 40
0.9449807849
 40
0.9725039347
 40
1.0
 40
1.0
 40
1.0
 40
1.0
 10
15.4330628877
 20
11.780618452
 30
0.0
 10
15.4348235184
 20
11.7784218797
 30
0.0
 10
15.4382139455
 20
11.7740106003
 30
0.0
 10
15.4429491
 20
11.767263841
 30
0.0
 10
15.4472626888
 20
11.7604806539
 30
0.0
 10
15.4511461983
 20
11.7536742361
 30
0.0
 10
15.4540363032
 20
11.7479570282
 30
0.0
 10
15.4561217225
 20
11.7433850659
 30
0.0
 10
15.4580325646
 20
11.7388741902
 30
0.0
 10
15.4601454952
 20
11.7332439418
 30
0.0
 10
15.4622416445
 20
11.7264736319
 30
0.0
 10
15.4638782373
 20
11.7197446529
 30
0.0
 10
15.4650517768
 20
11.7130700289
 30
0.0
 10
15.4657597159
 20
11.7064626316
 30
0.0
 10
15.4660003755
 20
11.6999352387
 30
0.0
 10
15.4657730554
 20
11.6935008609
 30
0.0
 10
15.4651923678
 20
11.6882151222
 30
0.0
 10
15.4644943825
 20
11.6840527126
 30
0.0
 10
15.4638558526
 20
11.6809680502
 30
0.0
 10
15.4631016124
 20
11.6779160538
 30
0.0
 10
15.4625217223
 20
11.6759036479
 30
0.0
 10
15.4622127943
 20
11.6749039675
 30
0.0
  0
SPLINE
  5
2BD
100
AcDbEntity
  8
LAYER_FEATURE
100
AcDbSpline
 62
7
  6
CONTINUOUS
 70
0
 71
3
 72
42
 73
38
 74
0
 42
0.0000001
 43
0.0000001
 44
0.0000000001
 40
0.0
 40
0.0
 40
0.0
 40
0.0
 40
0.0099900408
 40
0.0202818331
 40
0.0308785611
 40
0.0417820724
 40
0.0529932134
 40
0.0645118227
 40
0.0884642597
 40
0.1136226847
 40
0.1399566027
 40
0.167425426
 40
0.1959797868
 40
0.2255626889
 40
0.256110462
 40
0.2875535765
 40
0.3198173557
 40
0.3528226037
 40
0.3864862206
 40
0.4207217603
 40
0.4554399436
 40
0.4905491459
 40
0.5259558654
 40
0.5615652001
 40
0.5972813089
 40
0.6330078561
 40
0.6686484524
 40
0.7041071035
 40
0.7392886711
 40
0.7740993194
 40
0.808446984
 40
0.8422418159
 40
0.8753966828
 40
0.9078278826
 40
0.9394547602
 40
0.9702031246
 40
1.0
 40
1.0
 40
1.0
 40
1.0
 10
15.8147131718
 20
12.0332863241
 30
0.0
 10
15.815155052
 20
12.0327569259
 30
0.0
 10
15.8160324879
 20
12.0316655798
 30
0.0
 10
15.8173109055
 20
12.0299596287
 30
0.0
 10
15.8185700325
 20
12.0281618456
 30
0.0
 10
15.819808888
 20
12.0262737045
 30
0.0
 10
15.8210265027
 20
12.0242966731
 30
0.0
 10
15.8226413913
 20
12.0215078375
 30
0.0
 10
15.8245965701
 20
12.0178054745
 30
0.0
 10
15.8268132035
 20
12.0130912801
 30
0.0
 10
15.8289230211
 20
12.008064136
 30
0.0
 10
15.8309193406
 20
12.0027399587
 30
0.0
 10
15.8327958669
 20
11.9971355022
 30
0.0
 10
15.8345466487
 20
11.9912684768
 30
0.0
 10
15.8361661243
 20
11.9851574352
 30
0.0
 10
15.8376491398
 20
11.9788217256
 30
0.0
 10
15.8389909682
 20
11.9722814247
 30
0.0
 10
15.8401873361
 20
11.9655572747
 30
0.0
 10
15.8412344311
 20
11.9586706121
 30
0.0
 10
15.8421289141
 20
11.9516432961
 30
0.0
 10
15.8428679308
 20
11.944497638
 30
0.0
 10
15.8434491194
 20
11.9372563307
 30
0.0
 10
15.8438706268
 20
11.9299423757
 30
0.0
 10
15.8441311109
 20
11.9225790083
 30
0.0
 10
15.8442297411
 20
11.9151896219
 30
0.0
 10
15.844166202
 20
11.907797693
 30
0.0
 10
15.8439406932
 20
11.900426707
 30
0.0
 10
15.8435539335
 20
11.8931000823
 30
0.0
 10
15.8430071608
 20
11.885841094
 30
0.0
 10
15.8423021207
 20
11.878672799
 30
0.0
 10
15.8414410621
 20
11.8716179636
 30
0.0
 10
15.8404267292
 20
11.8646989922
 30
0.0
 10
15.8392623571
 20
11.8579378377
 30
0.0
 10
15.8379516563
 20
11.8513559937
 30
0.0
 10
15.8364988138
 20
11.8449742285
 30
0.0
 10
15.8349084537
 20
11.8388129592
 30
0.0
 10
15.8337407057
 20
11.8347993146
 30
0.0
 10
15.8331334464
 20
11.8328342229
 30
0.0
  0
SPLINE
  5
2BE
100
AcDbEntity
  8
LAYER_FEATURE
100
AcDbSpline
 62
7
  6
CONTINUOUS
 70
0
 71
3
 72
19
 73
15
 74
0
 42
0.0000001
 43
0.0000001
 44
0.0000000001
 40
0.0
 40
0.0
 40
0.0
 40
0.0
 40
0.0507390002
 40
0.1030521433
 40
0.1569558458
 40
0.2124597058
 40
0.2695679913
 40
0.32827863
 40
0.3885852422
 40
0.4504765242
 40
0.5789393712
 40
0.7135035062
 40
0.8539509321
 40
1.0
 40
1.0
 40
1.0
 40
1.0
 10
15.8147131709
 20
11.7954925819
 30
0.0
 10
15.8151671878
 20
11.7960365194
 30
0.0
 10
15.8160685411
 20
11.7971587537
 30
0.0
 10
15.8173807188
 20
11.7989147723
 30
0.0
 10
15.818672502
 20
11.8007675618
 30
0.0
 10
15.819942821
 20
11.8027155327
 30
0.0
 10
15.8211905928
 20
11.8047570895
 30
0.0
 10
15.8224148185
 20
11.8068905015
 30
0.0
 10
15.8236144595
 20
11.8091140125
 30
0.0
 10
15.8251995372
 20
11.8122351043
 30
0.0
 10
15.8271086263
 20
11.8163529425
 30
0.0
 10
15.8292583135
 20
11.8215624708
 30
0.0
 10
15.8312871622
 20
11.8270824628
 30
0.0
 10
15.8325313105
 20
11.8308857103
 30
0.0
 10
15.8331334464
 20
11.8328342229
 30
0.0
  0
SPLINE
  5
2BF
100
AcDbEntity
  8
02___PRT_ALL_AXES
100
AcDbSpline
 62
7
  6
CONTINUOUS
 70
0
 71
3
 72
34
 73
30
 74
0
 42
0.0000001
 43
0.0000001
 44
0.0000000001
 40
0.0
 40
0.0
 40
0.0
 40
0.0
 40
0.0179470815
 40
0.036117367
 40
0.0546275148
 40
0.0735874766
 40
0.0930995301
 40
0.1132569149
 40
0.1341431468
 40
0.1558328925
 40
0.1783918572
 40
0.2018767635
 40
0.2263371148
 40
0.2518154845
 40
0.2783473386
 40
0.3059629833
 40
0.3346878404
 40
0.3645418573
 40
0.3955414086
 40
0.4276994967
 40
0.461024782
 40
0.4955234008
 40
0.5311991434
 40
0.5680522896
 40
0.6452803437
 40
0.727170998
 40
0.8136550121
 40
0.9046420558
 40
1.0
 40
1.0
 40
1.0
 40
1.0
 10
15.784540032
 20
11.750389456
 30
0.0
 10
15.7842466214
 20
11.7503894559
 30
0.0
 10
15.783655883
 20
11.7504135884
 30
0.0
 10
15.7827684385
 20
11.7505213669
 30
0.0
 10
15.781875762
 20
11.7507008039
 30
0.0
 10
15.7809777867
 20
11.750951779
 30
0.0
 10
15.7800743346
 20
11.7512741778
 30
0.0
 10
15.7791652435
 20
11.7516678562
 30
0.0
 10
15.7782503289
 20
11.7521326387
 30
0.0
 10
15.7773294237
 20
11.7526683682
 30
0.0
 10
15.776402374
 20
11.7532748698
 30
0.0
 10
15.7754690323
 20
11.7539519365
 30
0.0
 10
15.7745292853
 20
11.7546993631
 30
0.0
 10
15.773583046
 20
11.7555169195
 30
0.0
 10
15.7726302433
 20
11.7564043362
 30
0.0
 10
15.7716708428
 20
11.7573613277
 30
0.0
 10
15.7707048399
 20
11.7583875761
 30
0.0
 10
15.7697322494
 20
11.7594827207
 30
0.0
 10
15.7687531217
 20
11.7606463733
 30
0.0
 10
15.767767536
 20
11.761878108
 30
0.0
 10
15.7667755947
 20
11.7631774559
 30
0.0
 10
15.765777435
 20
11.7645439134
 30
0.0
 10
15.7647732118
 20
11.7659769371
 30
0.0
 10
15.7634050179
 20
11.7680074292
 30
0.0
 10
15.7616838782
 20
11.7707104678
 30
0.0
 10
15.7596289568
 20
11.7741606459
 30
0.0
 10
15.7575560066
 20
11.7778601221
 30
0.0
 10
15.7554681046
 20
11.7818020649
 30
0.0
 10
15.7540998712
 20
11.784524297
 30
0.0
 10
15.7534130765
 20
11.7859238375
 30
0.0
  0
SPLINE
  5
2C0
100
AcDbEntity
  8
LAYER_FEATURE
100
AcDbSpline
 62
7
  6
CONTINUOUS
 70
0
 71
3
 72
48
 73
44
 74
0
 42
0.0000001
 43
0.0000001
 44
0.0000000001
 40
0.0
 40
0.0
 40
0.0
 40
0.0
 40
0.0124550004
 40
0.0249169822
 40
0.037392908
 40
0.0498897003
 40
0.0624142273
 40
0.074973277
 40
0.0875735493
 40
0.1002216287
 40
0.1129239766
 40
0.1256869131
 40
0.1385165987
 40
0.1514190344
 40
0.1644000301
 40
0.177465217
 40
0.2038674736
 40
0.2306689721
 40
0.2442322701
 40
0.2579090897
 40
0.285617613
 40
0.3138265946
 40
0.3281279957
 40
0.3425640925
 40
0.3718494262
 40
0.401703402
 40
0.4321416467
 40
0.4631764198
 40
0.4948167515
 40
0.5270685903
 40
0.5599349532
 40
0.5934160775
 40
0.6275095717
 40
0.6622105607
 40
0.6975118299
 40
0.7334039667
 40
0.7698754937
 40
0.8069129969
 40
0.8445012477
 40
0.8826233188
 40
0.921260694
 40
0.9603933783
 40
1.0
 40
1.0
 40
1.0
 40
1.0
 10
14.3192167767
 20
12.4232858053
 30
0.0
 10
14.3182261032
 20
12.4200799796
 30
0.0
 10
14.3163367338
 20
12.4136375137
 30
0.0
 10
14.3137817941
 20
12.4038917832
 30
0.0
 10
14.3115062707
 20
12.3940654096
 30
0.0
 10
14.3095108006
 20
12.3841612029
 30
0.0
 10
14.3077959647
 20
12.3741818499
 30
0.0
 10
14.3063621722
 20
12.3641301108
 30
0.0
 10
14.3052098713
 20
12.3540087376
 30
0.0
 10
14.3043393257
 20
12.3438205177
 30
0.0
 10
14.3037507886
 20
12.3335682459
 30
0.0
 10
14.3034444222
 20
12.3232547399
 30
0.0
 10
14.3034202667
 20
12.3128828243
 30
0.0
 10
14.3036783724
 20
12.3024553666
 30
0.0
 10
14.3042186113
 20
12.2919751473
 30
0.0
 10
14.3053186838
 20
12.2778869187
 30
0.0
 10
14.307406837
 20
12.2601479154
 30
0.0
 10
14.3104134301
 20
12.2424058166
 30
0.0
 10
14.3133710522
 20
12.2281492118
 30
0.0
 10
14.3167275081
 20
12.213730145
 30
0.0
 10
14.3216306244
 20
12.1956261631
 30
0.0
 10
14.3274098678
 20
12.1776063817
 30
0.0
 10
14.332574998
 20
12.1631593937
 30
0.0
 10
14.3381559589
 20
12.1485570009
 30
0.0
 10
14.3458252456
 20
12.1302725809
 30
0.0
 10
14.356066346
 20
12.1084139959
 30
0.0
 10
14.3673777366
 20
12.0865576684
 30
0.0
 10
14.3797468238
 20
12.0647276387
 30
0.0
 10
14.3931600178
 20
12.0429475645
 30
0.0
 10
14.407602576
 20
12.0212411512
 30
0.0
 10
14.4230586616
 20
11.9996320037
 30
0.0
 10
14.4395113449
 20
11.9781436365
 30
0.0
 10
14.4569426219
 20
11.9567994406
 30
0.0
 10
14.4753334266
 20
11.9356226587
 30
0.0
 10
14.4946636493
 20
11.914636358
 30
0.0
 10
14.5149121613
 20
11.8938634081
 30
0.0
 10
14.5360568358
 20
11.8733264542
 30
0.0
 10
14.5580745697
 20
11.8530478925
 30
0.0
 10
14.5809413121
 20
11.8330498427
 30
0.0
 10
14.60463207
 20
11.8133541356
 30
0.0
 10
14.6291210024
 20
11.7939822335
 30
0.0
 10
14.6543811813
 20
11.774955406
 30
0.0
 10
14.6716170581
 20
11.762586521
 30
0.0
 10
14.6803552626
 20
11.75646319
 30
0.0
  0
SPLINE
  5
2C1
100
AcDbEntity
  8
LAYER_FEATURE
100
AcDbSpline
 62
7
  6
CONTINUOUS
 70
0
 71
3
 72
34
 73
30
 74
0
 42
0.0000001
 43
0.0000001
 44
0.0000000001
 40
0.0
 40
0.0
 40
0.0
 40
0.0
 40
0.0274408934
 40
0.0549093478
 40
0.082432785
 40
0.1100383608
 40
0.1377528222
 40
0.1656023972
 40
0.1936126677
 40
0.2218084643
 40
0.2502137799
 40
0.2788516591
 40
0.3077441606
 40
0.3369122502
 40
0.3663757935
 40
0.3961534799
 40
0.426262813
 40
0.4567200916
 40
0.5187304112
 40
0.5822979482
 40
0.647509242
 40
0.7144320583
 40
0.7485541972
 40
0.7831214236
 40
0.8181373358
 40
0.8536044938
 40
0.8895245233
 40
0.9258981003
 40
1.0
 40
1.0
 40
1.0
 40
1.0
 10
14.572418151
 20
13.2426457528
 30
0.0
 10
14.5710916615
 20
13.2383532245
 30
0.0
 10
14.5686032505
 20
13.2297115751
 30
0.0
 10
14.5653719019
 20
13.2166043597
 30
0.0
 10
14.5626424191
 20
13.2033557963
 30
0.0
 10
14.5604162804
 20
13.1899726805
 30
0.0
 10
14.5586944955
 20
13.1764615735
 30
0.0
 10
14.5574779223
 20
13.1628291689
 30
0.0
 10
14.5567671284
 20
13.1490821985
 30
0.0
 10
14.5565624067
 20
13.1352274492
 30
0.0
 10
14.5568638672
 20
13.1212717551
 30
0.0
 10
14.5576712614
 20
13.1072219897
 30
0.0
 10
14.558984216
 20
13.0930850735
 30
0.0
 10
14.5608019834
 20
13.0788679552
 30
0.0
 10
14.5631236746
 20
13.0645776159
 30
0.0
 10
14.5659480727
 20
13.0502211064
 30
0.0
 10
14.5692737977
 20
13.0358053213
 30
0.0
 10
14.5744045485
 20
13.0164002043
 30
0.0
 10
14.5820884744
 20
12.9920179553
 30
0.0
 10
14.5932267635
 20
12.9628158952
 30
0.0
 10
14.6063148804
 20
12.9335518773
 30
0.0
 10
14.618743422
 20
12.9093194131
 30
0.0
 10
14.6296152934
 20
12.8899577997
 30
0.0
 10
14.6382922757
 20
12.8753609243
 30
0.0
 10
14.6474347438
 20
12.8607905734
 30
0.0
 10
14.6570382309
 20
12.8462537371
 30
0.0
 10
14.6670981237
 20
12.8317574413
 30
0.0
 10
14.6811995972
 20
12.8123738857
 30
0.0
 10
14.6923186681
 20
12.798098163
 30
0.0
 10
14.6999678632
 20
12.788680795
 30
0.0
  0
SPLINE
  5
2C2
100
AcDbEntity
  8
LAYER_FEATURE
100
AcDbSpline
 62
7
  6
CONTINUOUS
 70
0
 71
3
 72
48
 73
44
 74
0
 42
0.0000001
 43
0.0000001
 44
0.0000000001
 40
0.0
 40
0.0
 40
0.0
 40
0.0
 40
0.0124551389
 40
0.0249172591
 40
0.0373933214
 40
0.0498902499
 40
0.0624149098
 40
0.0749740907
 40
0.0875744912
 40
0.1002226944
 40
0.1129251644
 40
0.1256882158
 40
0.1385180147
 40
0.1514205562
 40
0.1644016532
 40
0.1774669368
 40
0.2038693673
 40
0.2306710127
 40
0.2442343737
 40
0.257911249
 40
0.285619864
 40
0.31382891
 40
0.3281303332
 40
0.3425664439
 40
0.3718517846
 40
0.401705738
 40
0.4321439314
 40
0.4631786279
 40
0.4948188609
 40
0.5270705794
 40
0.5599368014
 40
0.5934177655
 40
0.6275110815
 40
0.6622118786
 40
0.6975129474
 40
0.7334048776
 40
0.7698761921
 40
0.8069134836
 40
0.8445015143
 40
0.8826233793
 40
0.9212605726
 40
0.9603929124
 40
1.0
 40
1.0
 40
1.0
 40
1.0
 10
16.3504414801
 20
11.7955898971
 30
0.0
 10
16.3494508485
 20
11.7923842073
 30
0.0
 10
16.3473762629
 20
11.7859992753
 30
0.0
 10
16.3439876599
 20
11.7765116137
 30
0.0
 10
16.3403229109
 20
11.7671149874
 30
0.0
 10
16.3363830099
 20
11.7578121021
 30
0.0
 10
16.3321690618
 20
11.7486054742
 30
0.0
 10
16.327682231
 20
11.7394976378
 30
0.0
 10
16.322923728
 20
11.7304911051
 30
0.0
 10
16.3178949113
 20
11.7215883218
 30
0.0
 10
16.3125971138
 20
11.71279176
 30
0.0
 10
16.3070318464
 20
11.7041038019
 30
0.0
 10
16.3012006074
 20
11.6955268431
 30
0.0
 10
16.2951050277
 20
11.6870632414
 30
0.0
 10
16.2887467457
 20
11.6787152455
 30
0.0
 10
16.2798908657
 20
11.6677041969
 30
0.0
 10
16.2681597088
 20
11.6542363672
 30
0.0
 10
16.2556685447
 20
11.641284088
 30
0.0
 10
16.2451841026
 20
11.6311819014
 30
0.0
 10
16.234278741
 20
11.6211705783
 30
0.0
 10
16.2200176766
 20
11.6089893948
 30
0.0
 10
16.2050807774
 20
11.597371964
 30
0.0
 10
16.1926664196
 20
11.5883578978
 30
0.0
 10
16.1798210942
 20
11.5794501023
 30
0.0
 10
16.1631744944
 20
11.5686803952
 30
0.0
 10
16.1423883005
 20
11.5564105633
 30
0.0
 10
16.1207197489
 20
11.5447463591
 30
0.0
 10
16.0981927935
 20
11.5337005298
 30
0.0
 10
16.0748319962
 20
11.5232849428
 30
0.0
 10
16.0506629009
 20
11.5135108501
 30
0.0
 10
16.0257118978
 20
11.5043888052
 30
0.0
 10
16.0000062286
 20
11.4959286696
 30
0.0
 10
15.9735739509
 20
11.4881395966
 30
0.0
 10
15.9464439138
 20
11.4810300215
 30
0.0
 10
15.9186457281
 20
11.4746076494
 30
0.0
 10
15.8902097375
 20
11.4688794405
 30
0.0
 10
15.8611669826
 20
11.4638516066
 30
0.0
 10
15.8315491721
 20
11.4595296064
 30
0.0
 10
15.8013886361
 20
11.4559181299
 30
0.0
 10
15.7707183174
 20
11.4530211026
 30
0.0
 10
15.7395716989
 20
11.4508416827
 30
0.0
 10
15.7079827982
 20
11.4493821969
 30
0.0
 10
15.6867748094
 20
11.4488931161
 30
0.0
 10
15.6761058848
 20
11.4487668562
 30
0.0
  0
SPLINE
  5
2C3
100
AcDbEntity
  8
LAYER_FEATURE
100
AcDbSpline
 62
7
  6
CONTINUOUS
 70
0
 71
3
 72
36
 73
32
 74
0
 42
0.0000001
 43
0.0000001
 44
0.0000000001
 40
0.0
 40
0.0
 40
0.0
 40
0.0
 40
0.0274468443
 40
0.0549211919
 40
0.0824504083
 40
0.1100615903
 40
0.1377814359
 40
0.1656361144
 40
0.1936511657
 40
0.2218513686
 40
0.2502606755
 40
0.2789020949
 40
0.3077976427
 40
0.3369682664
 40
0.3664337899
 40
0.3962128968
 40
0.4263230582
 40
0.4567805688
 40
0.4876004742
 40
0.5187966248
 40
0.5503816374
 40
0.5823669252
 40
0.6475719555
 40
0.6808147641
 40
0.7144918036
 40
0.7486087824
 40
0.7831703172
 40
0.8536356377
 40
0.8895484966
 40
0.9259144788
 40
1.0
 40
1.0
 40
1.0
 40
1.0
 10
16.6036428544
 20
12.6149498446
 30
0.0
 10
16.6023179012
 20
12.6106622881
 30
0.0
 10
16.5995005628
 20
12.6021331983
 30
0.0
 10
16.5947801949
 20
12.5895024577
 30
0.0
 10
16.589566821
 20
12.5770377629
 30
0.0
 10
16.5838631117
 20
12.5647455074
 30
0.0
 10
16.5776718511
 20
12.5526316924
 30
0.0
 10
16.5709961647
 20
12.5407022719
 30
0.0
 10
16.5638393112
 20
12.5289631365
 30
0.0
 10
16.5562049003
 20
12.5174200143
 30
0.0
 10
16.5480966704
 20
12.5060785968
 30
0.0
 10
16.5395186738
 20
12.4949444131
 30
0.0
 10
16.5304751416
 20
12.4840229191
 30
0.0
 10
16.5209705417
 20
12.473319455
 30
0.0
 10
16.5110095892
 20
12.4628392223
 30
0.0
 10
16.5005971637
 20
12.4525873661
 30
0.0
 10
16.4897384355
 20
12.4425688353
 30
0.0
 10
16.4784387112
 20
12.4327885552
 30
0.0
 10
16.46670357
 20
12.4232512357
 30
0.0
 10
16.4545387934
 20
12.4139615705
 30
0.0
 10
16.4419502087
 20
12.4049239622
 30
0.0
 10
16.4244981609
 20
12.3931411758
 30
0.0
 10
16.4063227598
 20
12.3819607773
 30
0.0
 10
16.3874860145
 20
12.3713812355
 30
0.0
 10
16.3728755459
 20
12.3636676569
 30
0.0
 10
16.3578814483
 20
12.3562307286
 30
0.0
 10
16.3372556024
 20
12.3466269982
 30
0.0
 10
16.3160168434
 20
12.3376603333
 30
0.0
 10
16.2942177489
 20
12.3293191463
 30
0.0
 10
16.2716808515
 20
12.3212663774
 30
0.0
 10
16.254478044
 20
12.3157482553
 30
0.0
 10
16.2428706289
 20
12.3122847915
 30
0.0
  0
SPLINE
  5
2C4
100
AcDbEntity
  8
LAYER_CUT_FEAT
100
AcDbSpline
 62
7
  6
CONTINUOUS
 70
0
 71
3
 72
21
 73
17
 74
0
 42
0.0000001
 43
0.0000001
 44
0.0000000001
 40
0.0
 40
0.0
 40
0.0
 40
0.0
 40
0.0588307621
 40
0.1177562418
 40
0.176870401
 40
0.2362657289
 40
0.2960325159
 40
0.3562582305
 40
0.4170269545
 40
0.4784188171
 40
0.5405096378
 40
0.6033705501
 40
0.667067692
 40
0.7316621109
 40
0.8637354934
 40
1.0
 40
1.0
 40
1.0
 40
1.0
 10
15.9319671539
 20
11.9249082447
 30
0.0
 10
15.9309792795
 20
11.9217114957
 30
0.0
 10
15.9288447407
 20
11.9153602186
 30
0.0
 10
15.9251761095
 20
11.9059897462
 30
0.0
 10
15.921042443
 20
11.8967794851
 30
0.0
 10
15.9164471208
 20
11.8877370845
 30
0.0
 10
15.9113938455
 20
11.8788696319
 30
0.0
 10
15.9058867018
 20
11.8701841671
 30
0.0
 10
15.8999300888
 20
11.8616875672
 30
0.0
 10
15.893528827
 20
11.8533865091
 30
0.0
 10
15.8866880266
 20
11.8452875198
 30
0.0
 10
15.879413177
 20
11.8373969891
 30
0.0
 10
15.8717099918
 20
11.8297209733
 30
0.0
 10
15.8607965174
 20
11.8197072363
 30
0.0
 10
15.8460805774
 20
11.8077596792
 30
0.0
 10
15.8335292685
 20
11.799051036
 30
0.0
 10
15.8270123806
 20
11.7948569855
 30
0.0
  0
SPLINE
  5
2C5
100
AcDbEntity
  8
02___PRT_ALL_AXES
100
AcDbSpline
 62
7
  6
CONTINUOUS
 70
0
 71
3
 72
50
 73
46
 74
0
 42
0.0000001
 43
0.0000001
 44
0.0000000001
 40
0.0
 40
0.0
 40
0.0
 40
0.0
 40
0.0280423411
 40
0.0559713614
 40
0.0699062996
 40
0.0838253954
 40
0.0977335754
 40
0.1116361559
 40
0.125538855
 40
0.1394477861
 40
0.1533694476
 40
0.1673106724
 40
0.1812786299
 40
0.19528073
 40
0.2093246292
 40
0.2234180925
 40
0.23756898
 40
0.2517851209
 40
0.2660742654
 40
0.2804439862
 40
0.2949015593
 40
0.3094539578
 40
0.3388631033
 40
0.3687232791
 40
0.3838366679
 40
0.3990753548
 40
0.4299343374
 40
0.4613178061
 40
0.4772086886
 40
0.4932297147
 40
0.5256505225
 40
0.5585594469
 40
0.591920027
 40
0.6256841605
 40
0.6597924668
 40
0.6941746527
 40
0.7287500232
 40
0.7634281705
 40
0.7981097994
 40
0.8326880174
 40
0.8670499714
 40
0.9010789284
 40
0.9346570048
 40
0.9676675983
 40
1.0
 40
1.0
 40
1.0
 40
1.0
 10
15.2551001723
 20
12.326301535
 30
0.0
 10
15.2564255597
 20
12.3236006908
 30
0.0
 10
15.2588503951
 20
12.3180985002
 30
0.0
 10
15.2612944263
 20
12.3109982219
 30
0.0
 10
15.2628794191
 20
12.3052256389
 30
0.0
 10
15.2638810122
 20
12.3008571133
 30
0.0
 10
15.2646938171
 20
12.296453138
 30
0.0
 10
15.2653159158
 20
12.2920199486
 30
0.0
 10
15.2657454743
 20
12.2875638909
 30
0.0
 10
15.265981047
 20
12.2830913178
 30
0.0
 10
15.2660214195
 20
12.278608585
 30
0.0
 10
15.2658656989
 20
12.2741220344
 30
0.0
 10
15.2655133833
 20
12.2696379689
 30
0.0
 10
15.2649642017
 20
12.2651626401
 30
0.0
 10
15.2642184173
 20
12.260702199
 30
0.0
 10
15.2632764657
 20
12.2562627165
 30
0.0
 10
15.262139366
 20
12.2518500954
 30
0.0
 10
15.2608083461
 20
12.2474701174
 30
0.0
 10
15.2592851262
 20
12.2431283491
 30
0.0
 10
15.2575717722
 20
12.238830185
 30
0.0
 10
15.2556706218
 20
12.2345807286
 30
0.0
 10
15.2528797618
 20
12.2289672763
 30
0.0
 10
15.2489287313
 20
12.2220930656
 30
0.0
 10
15.2444271175
 20
12.2154942517
 30
0.0
 10
15.2404984983
 20
12.2103647958
 30
0.0
 10
15.2363203148
 20
12.2052967495
 30
0.0
 10
15.2306977632
 20
12.1991648014
 30
0.0
 10
15.224632076
 20
12.1933703618
 30
0.0
 10
15.2195077244
 20
12.1889132233
 30
0.0
 10
15.2141643034
 20
12.1845431638
 30
0.0
 10
15.2071657249
 20
12.1793197242
 30
0.0
 10
15.198337851
 20
12.1734648374
 30
0.0
 10
15.1890913579
 20
12.1680076118
 30
0.0
 10
15.1794719804
 20
12.162956283
 30
0.0
 10
15.1695261803
 20
12.1583177937
 30
0.0
 10
15.1593015824
 20
12.1540983965
 30
0.0
 10
15.1488470215
 20
12.1503038292
 30
0.0
 10
15.1382126781
 20
12.1469394868
 30
0.0
 10
15.1274501138
 20
12.1440104803
 30
0.0
 10
15.1166122215
 20
12.1415216214
 30
0.0
 10
15.1057530251
 20
12.1394773459
 30
0.0
 10
15.0949273697
 20
12.1378815774
 30
0.0
 10
15.0841903595
 20
12.136737615
 30
0.0
 10
15.0735971279
 20
12.136047926
 30
0.0
 10
15.0665859482
 20
12.1358902497
 30
0.0
 10
15.0631171659
 20
12.1358902497
 30
0.0
  0
SPLINE
  5
2C6
100
AcDbEntity
  8
02___PRT_ALL_AXES
100
AcDbSpline
 62
7
  6
CONTINUOUS
 70
0
 71
3
 72
66
 73
62
 74
0
 42
0.0000001
 43
0.0000001
 44
0.0000000001
 40
0.0
 40
0.0
 40
0.0
 40
0.0
 40
0.0106254482
 40
0.0212735401
 40
0.0319666816
 40
0.0427268112
 40
0.0535751849
 40
0.064532183
 40
0.0756171415
 40
0.0868482123
 40
0.0982422532
 40
0.1098147461
 40
0.1215797431
 40
0.1335498365
 40
0.1457361508
 40
0.158148353
 40
0.1707946769
 40
0.1836819592
 40
0.1968156849
 40
0.2102000382
 40
0.2238379573
 40
0.2377311926
 40
0.251880365
 40
0.2662850245
 40
0.2809437079
 40
0.2958539957
 40
0.3110125667
 40
0.3264152504
 40
0.3420570786
 40
0.3579323332
 40
0.3740345935
 40
0.3903567801
 40
0.4068911979
 40
0.4236295768
 40
0.4405631107
 40
0.4576824953
 40
0.4749779641
 40
0.4924393229
 40
0.5100559842
 40
0.5278169989
 40
0.5457110888
 40
0.5637266769
 40
0.5818519178
 40
0.6000747266
 40
0.6183828086
 40
0.6367636869
 40
0.6736915769
 40
0.710757624
 40
0.7478582681
 40
0.7848896625
 40
0.8217485346
 40
0.8400821923
 40
0.858334703
 40
0.8764937082
 40
0.8945470503
 40
0.9124828008
 40
0.9302892913
 40
0.9479551374
 40
0.9654692882
 40
0.9828210036
 40
1.0
 40
1.0
 40
1.0
 40
1.0
 10
14.6763781651
 20
11.88556532
 30
0.0
 10
14.6753539994
 20
11.8822511212
 30
0.0
 10
14.6734902976
 20
11.8755562705
 30
0.0
 10
14.6712606995
 20
11.8653558818
 30
0.0
 10
14.6695979091
 20
11.8550031059
 30
0.0
 10
14.6685037425
 20
11.8445093444
 30
0.0
 10
14.6679792237
 20
11.8338855995
 30
0.0
 10
14.6680247968
 20
11.823143126
 30
0.0
 10
14.6686402773
 20
11.8122932336
 30
0.0
 10
14.6698248764
 20
11.8013473216
 30
0.0
 10
14.6715772057
 20
11.790316854
 30
0.0
 10
14.673895287
 20
11.7792133531
 30
0.0
 10
14.6767765599
 20
11.7680483899
 30
0.0
 10
14.6802178888
 20
11.7568335767
 30
0.0
 10
14.6842155689
 20
11.7455805592
 30
0.0
 10
14.6887653318
 20
11.7343010095
 30
0.0
 10
14.6938623498
 20
11.7230066175
 30
0.0
 10
14.6995012411
 20
11.7117090827
 30
0.0
 10
14.705676074
 20
11.7004201051
 30
0.0
 10
14.7123803717
 20
11.6891513751
 30
0.0
 10
14.719607118
 20
11.6779145633
 30
0.0
 10
14.7273487621
 20
11.6667213099
 30
0.0
 10
14.7355972259
 20
11.6555832132
 30
0.0
 10
14.7443439102
 20
11.6445118182
 30
0.0
 10
14.7535797026
 20
11.6335186049
 30
0.0
 10
14.763294986
 20
11.6226149761
 30
0.0
 10
14.7734796474
 20
11.6118122459
 30
0.0
 10
14.7841230878
 20
11.6011216275
 30
0.0
 10
14.7952142324
 20
11.5905542214
 30
0.0
 10
14.8067415416
 20
11.5801210033
 30
0.0
 10
14.8186930224
 20
11.5698328127
 30
0.0
 10
14.8310562408
 20
11.5597003409
 30
0.0
 10
14.8438183343
 20
11.5497341202
 30
0.0
 10
14.8569660247
 20
11.5399445118
 30
0.0
 10
14.8704856326
 20
11.5303416954
 30
0.0
 10
14.8843630907
 20
11.5209356583
 30
0.0
 10
14.8985839588
 20
11.5117361842
 30
0.0
 10
14.9131334386
 20
11.5027528435
 30
0.0
 10
14.927996389
 20
11.4939949825
 30
0.0
 10
14.943157342
 20
11.4854717142
 30
0.0
 10
14.9586005192
 20
11.4771919078
 30
0.0
 10
14.9743098462
 20
11.4691641806
 30
0.0
 10
14.9902689772
 20
11.4613968851
 30
0.0
 10
15.0064612822
 20
11.4538981154
 30
0.0
 10
15.0228699774
 20
11.4466756397
 30
0.0
 10
15.0450468209
 20
11.4374104065
 30
0.0
 10
15.0731965933
 20
11.4265704271
 30
0.0
 10
15.1075100755
 20
11.4147987744
 30
0.0
 10
15.1422674255
 20
11.4042921209
 30
0.0
 10
15.1773235855
 20
11.3950943155
 30
0.0
 10
15.2067173342
 20
11.3885402471
 30
0.0
 10
15.2302593291
 20
11.3839862479
 30
0.0
 10
15.2478688689
 20
11.3809257347
 30
0.0
 10
15.2654433838
 20
11.378217513
 30
0.0
 10
15.2829646607
 20
11.375864394
 30
0.0
 10
15.3004144416
 20
11.373868829
 30
0.0
 10
15.3177745719
 20
11.3722328956
 30
0.0
 10
15.3350269778
 20
11.3709582963
 30
0.0
 10
15.3521537277
 20
11.3700463611
 30
0.0
 10
15.3691369008
 20
11.3694980369
 30
0.0
 10
15.3804103294
 20
11.3693746381
 30
0.0
 10
15.3860186703
 20
11.3693746381
 30
0.0
  0
SPLINE
  5
2C7
100
AcDbEntity
  8
02___PRT_ALL_AXES
100
AcDbSpline
 62
7
  6
CONTINUOUS
 70
0
 71
3
 72
39
 73
35
 74
0
 42
0.0000001
 43
0.0000001
 44
0.0000000001
 40
0.0
 40
0.0
 40
0.0
 40
0.0
 40
0.0248034971
 40
0.049664333
 40
0.0746391941
 40
0.0997834848
 40
0.1251507429
 40
0.1507921174
 40
0.1767559201
 40
0.2030872602
 40
0.2298277628
 40
0.2570153689
 40
0.2846842112
 40
0.3128645572
 40
0.3415828093
 40
0.370861553
 40
0.4007196415
 40
0.4311723098
 40
0.4622313086
 40
0.4939050531
 40
0.5261987794
 40
0.5591147052
 40
0.592652191
 40
0.6268078994
 40
0.6615759513
 40
0.6969480765
 40
0.7329137588
 40
0.7694603764
 40
0.8065733348
 40
0.8442361973
 40
0.8824307937
 40
0.9211373872
 40
0.960334624
 40
1.0
 40
1.0
 40
1.0
 40
1.0
 10
15.7521820336
 20
11.5531167804
 30
0.0
 10
15.7511152101
 20
11.5496645408
 30
0.0
 10
15.7487753289
 20
11.5428131733
 30
0.0
 10
15.7446618616
 20
11.5327416485
 30
0.0
 10
15.7399476592
 20
11.5228815388
 30
0.0
 10
15.7346383813
 20
11.5132446277
 30
0.0
 10
15.7287402007
 20
11.5038418024
 30
0.0
 10
15.7222600178
 20
11.4946837985
 30
0.0
 10
15.7152053769
 20
11.4857809832
 30
0.0
 10
15.7075844643
 20
11.4771434037
 30
0.0
 10
15.699406086
 20
11.4687807679
 30
0.0
 10
15.6906796533
 20
11.4607024453
 30
0.0
 10
15.6814151687
 20
11.4529174632
 30
0.0
 10
15.6716232145
 20
11.4454345046
 30
0.0
 10
15.6613149414
 20
11.4382619049
 30
0.0
 10
15.6505020582
 20
11.4314076482
 30
0.0
 10
15.639196822
 20
11.4248793624
 30
0.0
 10
15.6274120275
 20
11.4186843134
 30
0.0
 10
15.615160996
 20
11.4128293986
 30
0.0
 10
15.6024575633
 20
11.4073211411
 30
0.0
 10
15.589316067
 20
11.4021656823
 30
0.0
 10
15.5757513325
 20
11.3973687746
 30
0.0
 10
15.5617786588
 20
11.3929357751
 30
0.0
 10
15.5474138025
 20
11.3888716387
 30
0.0
 10
15.5326729617
 20
11.3851809114
 30
0.0
 10
15.5175727588
 20
11.3818677248
 30
0.0
 10
15.5021302224
 20
11.3789357899
 30
0.0
 10
15.4863627685
 20
11.3763883927
 30
0.0
 10
15.4702881822
 20
11.3742283894
 30
0.0
 10
15.453924595
 20
11.3724582033
 30
0.0
 10
15.4372904727
 20
11.3710798191
 30
0.0
 10
15.4204045631
 20
11.3700947865
 30
0.0
 10
15.403286023
 20
11.3695042046
 30
0.0
 10
15.3917970343
 20
11.3693746381
 30
0.0
 10
15.3860186703
 20
11.3693746381
 30
0.0
  0
SPLINE
  5
2C8
100
AcDbEntity
  8
LAYER_CHAMFER_FEAT
100
AcDbSpline
 62
7
  6
CONTINUOUS
 70
0
 71
3
 72
15
 73
11
 74
0
 42
0.0000001
 43
0.0000001
 44
0.0000000001
 40
0.0
 40
0.0
 40
0.0
 40
0.0
 40
0.1317635653
 40
0.2617725907
 40
0.3899187777
 40
0.5161209853
 40
0.6402989329
 40
0.7623789534
 40
0.8822974978
 40
1.0
 40
1.0
 40
1.0
 40
1.0
 10
15.1265805627
 20
11.8980539161
 30
0.0
 10
15.1232610629
 20
11.8980539161
 30
0.0
 10
15.1166659295
 20
11.8979702302
 30
0.0
 10
15.1068490883
 20
11.8975882898
 30
0.0
 10
15.0971857885
 20
11.8969511937
 30
0.0
 10
15.0876901097
 20
11.8960598859
 30
0.0
 10
15.0783754731
 20
11.8949156533
 30
0.0
 10
15.0692551815
 20
11.8935200839
 30
0.0
 10
15.0603424143
 20
11.8918751774
 30
0.0
 10
15.0544917805
 20
11.8906018274
 30
0.0
 10
15.0516052704
 20
11.8899229793
 30
0.0
  0
SPLINE
  5
2C9
100
AcDbEntity
  8
LAYER_CHAMFER_FEAT
100
AcDbSpline
 62
7
  6
CONTINUOUS
 70
0
 71
3
 72
39
 73
35
 74
0
 42
0.0000001
 43
0.0000001
 44
0.0000000001
 40
0.0
 40
0.0
 40
0.0
 40
0.0
 40
0.0305397675
 40
0.0614592341
 40
0.0927264684
 40
0.1243126207
 40
0.15618588
 40
0.188313565
 40
0.2206623624
 40
0.2531980733
 40
0.2858858932
 40
0.3186905365
 40
0.3515763204
 40
0.3845072972
 40
0.41744738
 40
0.4503604462
 40
0.4832104619
 40
0.5159616035
 40
0.5485783616
 40
0.5810256712
 40
0.6132690393
 40
0.6452746457
 40
0.6770094786
 40
0.7084414821
 40
0.7395396569
 40
0.7702741975
 40
0.8006166708
 40
0.8305401271
 40
0.860019239
 40
0.889030512
 40
0.9175524263
 40
0.945565583
 40
0.9730529377
 40
1.0
 40
1.0
 40
1.0
 40
1.0
 10
15.1265805627
 20
11.8980539161
 30
0.0
 10
15.1301693864
 20
11.8980539161
 30
0.0
 10
15.1373920081
 20
11.8979548408
 30
0.0
 10
15.1482809352
 20
11.8975161251
 30
0.0
 10
15.1592775567
 20
11.8967869709
 30
0.0
 10
15.1703636763
 20
11.8957686269
 30
0.0
 10
15.1815213975
 20
11.8944627324
 30
0.0
 10
15.1927324994
 20
11.8928714248
 30
0.0
 10
15.2039787094
 20
11.8909972918
 30
0.0
 10
15.2152417073
 20
11.8888433806
 30
0.0
 10
15.2265031385
 20
11.8864132195
 30
0.0
 10
15.2377446485
 20
11.8837107609
 30
0.0
 10
15.2489479129
 20
11.8807403958
 30
0.0
 10
15.260094677
 20
11.877506985
 30
0.0
 10
15.2711667732
 20
11.8740157968
 30
0.0
 10
15.2821461497
 20
11.8702725031
 30
0.0
 10
15.2930149166
 20
11.8662832203
 30
0.0
 10
15.3037553626
 20
11.8620544559
 30
0.0
 10
15.314349976
 20
11.8575930844
 30
0.0
 10
15.3247814928
 20
11.8529063822
 30
0.0
 10
15.3350329194
 20
11.8480019992
 30
0.0
 10
15.3450875445
 20
11.8428879144
 30
0.0
 10
15.3549289814
 20
11.8375724549
 30
0.0
 10
15.3645412045
 20
11.8320642966
 30
0.0
 10
15.3739085508
 20
11.8263724059
 30
0.0
 10
15.3830157508
 20
11.820506038
 30
0.0
 10
15.3918479808
 20
11.8144747615
 30
0.0
 10
15.4003908572
 20
11.8082883948
 30
0.0
 10
15.4086304529
 20
11.8019569882
 30
0.0
 10
15.4165533608
 20
11.7954908505
 30
0.0
 10
15.4241466782
 20
11.7889005121
 30
0.0
 10
15.4313980585
 20
11.7821966379
 30
0.0
 10
15.4382955805
 20
11.775390236
 30
0.0
 10
15.4426951207
 20
11.7707445987
 30
0.0
 10
15.4448312446
 20
11.7684069623
 30
0.0
  0
SPLINE
  5
2CA
100
AcDbEntity
  8
LAYER_FEATURE
100
AcDbSpline
 62
7
  6
CONTINUOUS
 70
0
 71
3
 72
48
 73
44
 74
0
 42
0.0000001
 43
0.0000001
 44
0.0000000001
 40
0.0
 40
0.0
 40
0.0
 40
0.0
 40
0.0396643523
 40
0.0788610101
 40
0.1175666436
 40
0.1557604653
 40
0.1934225059
 40
0.2305346713
 40
0.2670805039
 40
0.3030454124
 40
0.3384167761
 40
0.3731840802
 40
0.4073390551
 40
0.4408758217
 40
0.4737910421
 40
0.5060840754
 40
0.5377571383
 40
0.568815468
 40
0.5992674807
 40
0.6291249277
 40
0.6584030435
 40
0.6728314457
 40
0.6871224003
 40
0.7153021418
 40
0.7429703891
 40
0.75662301
 40
0.7701594371
 40
0.7968993643
 40
0.8232301385
 40
0.8362561149
 40
0.8491957114
 40
0.862054675
 40
0.874838952
 40
0.8875546748
 40
0.900208161
 40
0.9128058834
 40
0.9253544737
 40
0.9378606903
 40
0.950331413
 40
0.9627736192
 40
0.975194366
 40
0.9876007733
 40
1.0
 40
1.0
 40
1.0
 40
1.0
 10
15.02993493
 20
12.8328754003
 30
0.0
 10
15.0190248511
 20
12.8328754003
 30
0.0
 10
14.9973324727
 20
12.8326307578
 30
0.0
 10
14.9650109758
 20
12.8315156971
 30
0.0
 10
14.9331286504
 20
12.8296558383
 30
0.0
 10
14.9017217983
 20
12.8270533235
 30
0.0
 10
14.8708257082
 20
12.8237110321
 30
0.0
 10
14.8404752922
 20
12.8196327348
 30
0.0
 10
14.8107047701
 20
12.8148229957
 30
0.0
 10
14.7815477264
 20
12.8092872092
 30
0.0
 10
14.7530370428
 20
12.8030315811
 30
0.0
 10
14.7252048701
 20
12.79606312
 30
0.0
 10
14.6980825922
 20
12.7883896268
 30
0.0
 10
14.671700793
 20
12.7800196847
 30
0.0
 10
14.6460892229
 20
12.7709626479
 30
0.0
 10
14.6212767708
 20
12.7612286305
 30
0.0
 10
14.5972914245
 20
12.7508284884
 30
0.0
 10
14.574160273
 20
12.7397738327
 30
0.0
 10
14.551909367
 20
12.7280769334
 30
0.0
 10
14.5305641148
 20
12.7157509853
 30
0.0
 10
14.5134684435
 20
12.7049140754
 30
0.0
 10
14.500277128
 20
12.6959409907
 30
0.0
 10
14.4875314072
 20
12.6868567281
 30
0.0
 10
14.4721969798
 20
12.6751382795
 30
0.0
 10
14.4575555085
 20
12.6628349399
 30
0.0
 10
14.446361054
 20
12.6527154638
 30
0.0
 10
14.4356022721
 20
12.6425014904
 30
0.0
 10
14.4227867414
 20
12.6293973097
 30
0.0
 10
14.41075272
 20
12.6157577705
 30
0.0
 10
14.4016714288
 20
12.6046002876
 30
0.0
 10
14.3951535918
 20
12.5961392454
 30
0.0
 10
14.3889068444
 20
12.5875582744
 30
0.0
 10
14.3829328975
 20
12.5788597495
 30
0.0
 10
14.3772334984
 20
12.5700461251
 30
0.0
 10
14.3718102202
 20
12.5611199223
 30
0.0
 10
14.366664664
 20
12.5520836353
 30
0.0
 10
14.3617982453
 20
12.5429398543
 30
0.0
 10
14.357212388
 20
12.5336911507
 30
0.0
 10
14.3529083845
 20
12.5243401538
 30
0.0
 10
14.3488874527
 20
12.5148895285
 30
0.0
 10
14.3451507648
 20
12.5053419132
 30
0.0
 10
14.3416993659
 20
12.4957001499
 30
0.0
 10
14.3395890318
 20
12.4892104518
 30
0.0
 10
14.3385820826
 20
12.4859519581
 30
0.0
  0
SPLINE
  5
2CB
100
AcDbEntity
  8
LAYER_FEATURE
100
AcDbSpline
 62
7
  6
CONTINUOUS
 70
0
 71
3
 72
48
 73
44
 74
0
 42
0.0000001
 43
0.0000001
 44
0.0000000001
 40
0.0
 40
0.0
 40
0.0
 40
0.0
 40
0.0396643523
 40
0.0788610101
 40
0.1175666436
 40
0.1557604653
 40
0.1934225059
 40
0.2305346713
 40
0.2670805039
 40
0.3030454124
 40
0.3384167761
 40
0.3731840802
 40
0.4073390551
 40
0.4408758217
 40
0.4737910421
 40
0.5060840754
 40
0.5377571383
 40
0.568815468
 40
0.5992674807
 40
0.6291249277
 40
0.6584030435
 40
0.6728314457
 40
0.6871224003
 40
0.7153021418
 40
0.7429703891
 40
0.75662301
 40
0.7701594371
 40
0.7968993643
 40
0.8232301385
 40
0.8362561149
 40
0.8491957114
 40
0.862054675
 40
0.874838952
 40
0.8875546748
 40
0.900208161
 40
0.9128058834
 40
0.9253544737
 40
0.9378606903
 40
0.950331413
 40
0.9627736192
 40
0.975194366
 40
0.9876007733
 40
1.0
 40
1.0
 40
1.0
 40
1.0
 10
15.2831363043
 20
13.6522353477
 30
0.0
 10
15.2722262254
 20
13.6522353477
 30
0.0
 10
15.250533847
 20
13.6519907053
 30
0.0
 10
15.2182123501
 20
13.6508756445
 30
0.0
 10
15.1863300246
 20
13.6490157858
 30
0.0
 10
15.1549231726
 20
13.646413271
 30
0.0
 10
15.1240270825
 20
13.6430709796
 30
0.0
 10
15.0936766664
 20
13.6389926822
 30
0.0
 10
15.0639061444
 20
13.6341829431
 30
0.0
 10
15.0347491007
 20
13.6286471567
 30
0.0
 10
15.0062384171
 20
13.6223915286
 30
0.0
 10
14.9784062444
 20
13.6154230675
 30
0.0
 10
14.9512839665
 20
13.6077495742
 30
0.0
 10
14.9249021673
 20
13.5993796322
 30
0.0
 10
14.8992905972
 20
13.5903225954
 30
0.0
 10
14.8744781451
 20
13.5805885779
 30
0.0
 10
14.8504927988
 20
13.5701884359
 30
0.0
 10
14.8273616473
 20
13.5591337801
 30
0.0
 10
14.8051107413
 20
13.5474368808
 30
0.0
 10
14.7837654891
 20
13.5351109328
 30
0.0
 10
14.7666698178
 20
13.5242740229
 30
0.0
 10
14.7534785023
 20
13.5153009382
 30
0.0
 10
14.7407327814
 20
13.5062166755
 30
0.0
 10
14.7253983541
 20
13.494498227
 30
0.0
 10
14.7107568828
 20
13.4821948874
 30
0.0
 10
14.6995624283
 20
13.4720754113
 30
0.0
 10
14.6888036463
 20
13.4618614379
 30
0.0
 10
14.6759881157
 20
13.4487572572
 30
0.0
 10
14.6639540943
 20
13.435117718
 30
0.0
 10
14.6548728031
 20
13.4239602351
 30
0.0
 10
14.6483549661
 20
13.4154991929
 30
0.0
 10
14.6421082187
 20
13.4069182219
 30
0.0
 10
14.6361342718
 20
13.3982196969
 30
0.0
 10
14.6304348727
 20
13.3894060726
 30
0.0
 10
14.6250115945
 20
13.3804798698
 30
0.0
 10
14.6198660383
 20
13.3714435828
 30
0.0
 10
14.6149996196
 20
13.3622998018
 30
0.0
 10
14.6104137623
 20
13.3530510982
 30
0.0
 10
14.6061097588
 20
13.3437001013
 30
0.0
 10
14.602088827
 20
13.334249476
 30
0.0
 10
14.5983521391
 20
13.3247018606
 30
0.0
 10
14.5949007402
 20
13.3150600973
 30
0.0
 10
14.5927904061
 20
13.3085703993
 30
0.0
 10
14.5917834569
 20
13.3053119056
 30
0.0
  0
SPLINE
  5
2CC
100
AcDbEntity
  8
LAYER_FEATURE
100
AcDbSpline
 62
7
  6
CONTINUOUS
 70
0
 71
3
 72
78
 73
74
 74
0
 42
0.0000001
 43
0.0000001
 44
0.0000000001
 40
0.0
 40
0.0
 40
0.0
 40
0.0
 40
0.017178655
 40
0.0345302498
 40
0.0520440764
 40
0.0697096827
 40
0.087515904
 40
0.1054513899
 40
0.1235044656
 40
0.1416632023
 40
0.159915443
 40
0.1782488293
 40
0.1966508308
 40
0.215108772
 40
0.2336098599
 40
0.2521412119
 40
0.2706898828
 40
0.2892428914
 40
0.3077872477
 40
0.3263099791
 40
0.3447981581
 40
0.3632389292
 40
0.3816195358
 40
0.3999273473
 40
0.4181498867
 40
0.4362748592
 40
0.4542901805
 40
0.4721840057
 40
0.4899447581
 40
0.5075611591
 40
0.5250222595
 40
0.5423174719
 40
0.5594366031
 40
0.5763698869
 40
0.593108019
 40
0.6096421926
 40
0.6259641373
 40
0.6420661588
 40
0.6579411786
 40
0.673582776
 40
0.6889852326
 40
0.7041435791
 40
0.7190536455
 40
0.7337121116
 40
0.7481165581
 40
0.762265522
 40
0.7761585524
 40
0.7897962694
 40
0.803180424
 40
0.8163139554
 40
0.8292010476
 40
0.8418471852
 40
0.854259204
 40
0.8603802801
 40
0.8664460363
 40
0.878415952
 40
0.890180775
 40
0.9017530972
 40
0.91314697
 40
0.9243778744
 40
0.9354626685
 40
0.9409563763
 40
0.9464204657
 40
0.9518573915
 40
0.9572696697
 40
0.96265988
 40
0.9680306554
 40
0.9733846777
 40
0.978724673
 40
0.9840534016
 40
0.9893736548
 40
0.9946882449
 40
1.0
 40
1.0
 40
1.0
 40
1.0
 10
15.02993493
 20
12.8328754003
 30
0.0
 10
15.0405239816
 20
12.8328754003
 30
0.0
 10
15.0618093659
 20
12.8326424019
 30
0.0
 10
15.0938752764
 20
12.8316071284
 30
0.0
 10
15.1262123397
 20
12.8298852845
 30
0.0
 10
15.1587865683
 20
12.8274787274
 30
0.0
 10
15.1915642305
 20
12.8243899205
 30
0.0
 10
15.2245111516
 20
12.8206220973
 30
0.0
 10
15.257593059
 20
12.8161791724
 30
0.0
 10
15.2907755162
 20
12.8110657762
 30
0.0
 10
15.3240239851
 20
12.8052872327
 30
0.0
 10
15.357303858
 20
12.7988495567
 30
0.0
 10
15.3905804929
 20
12.7917594482
 30
0.0
 10
15.4238192497
 20
12.7840242839
 30
0.0
 10
15.4569855283
 20
12.7756521179
 30
0.0
 10
15.4900448037
 20
12.7666516681
 30
0.0
 10
15.5229626616
 20
12.7570323045
 30
0.0
 10
15.5557048349
 20
12.7468040401
 30
0.0
 10
15.5882372383
 20
12.7359775203
 30
0.0
 10
15.6205260047
 20
12.724564013
 30
0.0
 10
15.652537523
 20
12.7125754031
 30
0.0
 10
15.6842384707
 20
12.7000241719
 30
0.0
 10
15.7155958487
 20
12.686923385
 30
0.0
 10
15.7465770153
 20
12.6732866783
 30
0.0
 10
15.7771497198
 20
12.6591282434
 30
0.0
 10
15.8072821391
 20
12.6444628177
 30
0.0
 10
15.8369429113
 20
12.6293056682
 30
0.0
 10
15.8661011655
 20
12.6136725705
 30
0.0
 10
15.8947265541
 20
12.5975797936
 30
0.0
 10
15.922789284
 20
12.5810440826
 30
0.0
 10
15.9502601478
 20
12.5640826403
 30
0.0
 10
15.9771105594
 20
12.5467131166
 30
0.0
 10
16.00331258
 20
12.5289535825
 30
0.0
 10
16.0288389457
 20
12.5108225112
 30
0.0
 10
16.0536630955
 20
12.4923387587
 30
0.0
 10
16.0777591983
 20
12.4735215434
 30
0.0
 10
16.1011021825
 20
12.4543904272
 30
0.0
 10
16.1236677652
 20
12.4349652989
 30
0.0
 10
16.1454324714
 20
12.4152663455
 30
0.0
 10
16.1663736574
 20
12.3953140326
 30
0.0
 10
16.1864695339
 20
12.3751290833
 30
0.0
 10
16.2056991867
 20
12.3547324536
 30
0.0
 10
16.2240426048
 20
12.3341453165
 30
0.0
 10
16.2414806975
 20
12.3133890357
 30
0.0
 10
16.257995308
 20
12.2924851411
 30
0.0
 10
16.2735692308
 20
12.2714553078
 30
0.0
 10
16.2881862274
 20
12.2503213327
 30
0.0
 10
16.3018310405
 20
12.2291051143
 30
0.0
 10
16.3144894202
 20
12.2078286271
 30
0.0
 10
16.3261481138
 20
12.1865139266
 30
0.0
 10
16.3367949207
 20
12.1651830137
 30
0.0
 10
16.3464185406
 20
12.1438582389
 30
0.0
 10
16.3536102242
 20
12.1260289431
 30
0.0
 10
16.3588343239
 20
12.1117932923
 30
0.0
 10
16.3636639833
 20
12.0977068795
 30
0.0
 10
16.3690546136
 20
12.0801395889
 30
0.0
 10
16.3744946961
 20
12.0590591668
 30
0.0
 10
16.3788714799
 20
12.0380946335
 30
0.0
 10
16.3821800498
 20
12.017267957
 30
0.0
 10
16.3844166963
 20
11.9966012267
 30
0.0
 10
16.3853879515
 20
11.9794784191
 30
0.0
 10
16.3856221852
 20
11.9658919078
 30
0.0
 10
16.3855286105
 20
11.9557852642
 30
0.0
 10
16.3851663327
 20
11.9457349558
 30
0.0
 10
16.384535395
 20
11.9357435269
 30
0.0
 10
16.3836359899
 20
11.9258136108
 30
0.0
 10
16.3824683396
 20
11.9159477972
 30
0.0
 10
16.3810327194
 20
11.9061486728
 30
0.0
 10
16.3793295482
 20
11.8964187917
 30
0.0
 10
16.377359211
 20
11.8867607169
 30
0.0
 10
16.3751222627
 20
11.8771769408
 30
0.0
 10
16.3726192903
 20
11.8676700742
 30
0.0
 10
16.3707734852
 20
11.8613842946
 30
0.0
 10
16.3698067859
 20
11.8582560499
 30
0.0
  0
SPLINE
  5
2CD
100
AcDbEntity
  8
LAYER_FEATURE
100
AcDbSpline
 62
7
  6
CONTINUOUS
 70
0
 71
3
 72
78
 73
74
 74
0
 42
0.0000001
 43
0.0000001
 44
0.0000000001
 40
0.0
 40
0.0
 40
0.0
 40
0.0
 40
0.017178655
 40
0.0345302498
 40
0.0520440764
 40
0.0697096827
 40
0.087515904
 40
0.1054513899
 40
0.1235044656
 40
0.1416632023
 40
0.159915443
 40
0.1782488293
 40
0.1966508308
 40
0.215108772
 40
0.2336098599
 40
0.2521412119
 40
0.2706898828
 40
0.2892428914
 40
0.3077872477
 40
0.3263099791
 40
0.3447981581
 40
0.3632389292
 40
0.3816195358
 40
0.3999273473
 40
0.4181498867
 40
0.4362748592
 40
0.4542901805
 40
0.4721840057
 40
0.4899447581
 40
0.5075611591
 40
0.5250222595
 40
0.5423174719
 40
0.5594366031
 40
0.5763698869
 40
0.593108019
 40
0.6096421926
 40
0.6259641373
 40
0.6420661588
 40
0.6579411786
 40
0.673582776
 40
0.6889852326
 40
0.7041435791
 40
0.7190536455
 40
0.7337121116
 40
0.7481165581
 40
0.762265522
 40
0.7761585524
 40
0.7897962694
 40
0.803180424
 40
0.8163139554
 40
0.8292010476
 40
0.8418471852
 40
0.854259204
 40
0.8603802801
 40
0.8664460363
 40
0.878415952
 40
0.890180775
 40
0.9017530972
 40
0.91314697
 40
0.9243778744
 40
0.9354626685
 40
0.9409563763
 40
0.9464204657
 40
0.9518573915
 40
0.9572696697
 40
0.96265988
 40
0.9680306554
 40
0.9733846777
 40
0.978724673
 40
0.9840534016
 40
0.9893736548
 40
0.9946882449
 40
1.0
 40
1.0
 40
1.0
 40
1.0
 10
15.2831363043
 20
13.6522353477
 30
0.0
 10
15.2937253559
 20
13.6522353477
 30
0.0
 10
15.3150107402
 20
13.6520023494
 30
0.0
 10
15.3470766507
 20
13.6509670759
 30
0.0
 10
15.3794137139
 20
13.649245232
 30
0.0
 10
15.4119879425
 20
13.6468386748
 30
0.0
 10
15.4447656048
 20
13.643749868
 30
0.0
 10
15.4777125259
 20
13.6399820448
 30
0.0
 10
15.5107944333
 20
13.6355391199
 30
0.0
 10
15.5439768905
 20
13.6304257236
 30
0.0
 10
15.5772253594
 20
13.6246471802
 30
0.0
 10
15.6105052323
 20
13.6182095042
 30
0.0
 10
15.6437818671
 20
13.6111193957
 30
0.0
 10
15.677020624
 20
13.6033842314
 30
0.0
 10
15.7101869026
 20
13.5950120654
 30
0.0
 10
15.7432461779
 20
13.5860116156
 30
0.0
 10
15.7761640359
 20
13.576392252
 30
0.0
 10
15.8089062092
 20
13.5661639876
 30
0.0
 10
15.8414386126
 20
13.5553374677
 30
0.0
 10
15.873727379
 20
13.5439239604
 30
0.0
 10
15.9057388972
 20
13.5319353506
 30
0.0
 10
15.937439845
 20
13.5193841194
 30
0.0
 10
15.968797223
 20
13.5062833324
 30
0.0
 10
15.9997783896
 20
13.4926466258
 30
0.0
 10
16.030351094
 20
13.4784881909
 30
0.0
 10
16.0604835134
 20
13.4638227652
 30
0.0
 10
16.0901442856
 20
13.4486656157
 30
0.0
 10
16.1193025398
 20
13.433032518
 30
0.0
 10
16.1479279284
 20
13.416939741
 30
0.0
 10
16.1759906583
 20
13.40040403
 30
0.0
 10
16.203461522
 20
13.3834425878
 30
0.0
 10
16.2303119336
 20
13.366073064
 30
0.0
 10
16.2565139543
 20
13.34831353
 30
0.0
 10
16.28204032
 20
13.3301824586
 30
0.0
 10
16.3068644698
 20
13.3116987062
 30
0.0
 10
16.3309605726
 20
13.2928814908
 30
0.0
 10
16.3543035568
 20
13.2737503747
 30
0.0
 10
16.3768691394
 20
13.2543252464
 30
0.0
 10
16.3986338456
 20
13.2346262929
 30
0.0
 10
16.4195750317
 20
13.2146739801
 30
0.0
 10
16.4396709082
 20
13.1944890308
 30
0.0
 10
16.458900561
 20
13.1740924011
 30
0.0
 10
16.4772439791
 20
13.1535052639
 30
0.0
 10
16.4946820717
 20
13.1327489831
 30
0.0
 10
16.5111966823
 20
13.1118450885
 30
0.0
 10
16.5267706051
 20
13.0908152553
 30
0.0
 10
16.5413876017
 20
13.0696812802
 30
0.0
 10
16.5550324148
 20
13.0484650617
 30
0.0
 10
16.5676907945
 20
13.0271885745
 30
0.0
 10
16.5793494881
 20
13.0058738741
 30
0.0
 10
16.589996295
 20
12.9845429611
 30
0.0
 10
16.5996199149
 20
12.9632181864
 30
0.0
 10
16.6068115985
 20
12.9453888906
 30
0.0
 10
16.6120356982
 20
12.9311532398
 30
0.0
 10
16.6168653576
 20
12.917066827
 30
0.0
 10
16.6222559879
 20
12.8994995364
 30
0.0
 10
16.6276960704
 20
12.8784191143
 30
0.0
 10
16.6320728542
 20
12.857454581
 30
0.0
 10
16.6353814241
 20
12.8366279044
 30
0.0
 10
16.6376180706
 20
12.8159611742
 30
0.0
 10
16.6385893258
 20
12.7988383666
 30
0.0
 10
16.6388235594
 20
12.7852518553
 30
0.0
 10
16.6387299848
 20
12.7751452117
 30
0.0
 10
16.638367707
 20
12.7650949033
 30
0.0
 10
16.6377367693
 20
12.7551034744
 30
0.0
 10
16.6368373642
 20
12.7451735583
 30
0.0
 10
16.6356697139
 20
12.7353077447
 30
0.0
 10
16.6342340937
 20
12.7255086203
 30
0.0
 10
16.6325309225
 20
12.7157787391
 30
0.0
 10
16.6305605853
 20
12.7061206644
 30
0.0
 10
16.6283236369
 20
12.6965368882
 30
0.0
 10
16.6258206646
 20
12.6870300217
 30
0.0
 10
16.6239748595
 20
12.680744242
 30
0.0
 10
16.6230081602
 20
12.6776159974
 30
0.0
  0
SPLINE
  5
2CE
100
AcDbEntity
  8
02___PRT_ALL_AXES
100
AcDbSpline
 62
7
  6
CONTINUOUS
 70
0
 71
3
 72
23
 73
19
 74
0
 42
0.0000001
 43
0.0000001
 44
0.0000000001
 40
0.0
 40
0.0
 40
0.0
 40
0.0
 40
0.0504395981
 40
0.1027533154
 40
0.1569400724
 40
0.2129804479
 40
0.270832202
 40
0.3304355296
 40
0.3917138916
 40
0.4545762315
 40
0.5189188165
 40
0.5846267606
 40
0.6515754102
 40
0.7196314523
 40
0.788653725
 40
0.8584938344
 40
0.9289965651
 40
1.0
 40
1.0
 40
1.0
 40
1.0
 10
15.8328108305
 20
12.0428550639
 30
0.0
 10
15.8337287786
 20
12.0409844825
 30
0.0
 10
15.8354775872
 20
12.0371133188
 30
0.0
 10
15.8378004936
 20
12.0310571225
 30
0.0
 10
15.8398657413
 20
12.024664804
 30
0.0
 10
15.8416699724
 20
12.0179572013
 30
0.0
 10
15.8432119295
 20
12.0109554896
 30
0.0
 10
15.8444922473
 20
12.0036817205
 30
0.0
 10
15.8455133656
 20
11.996158369
 30
0.0
 10
15.8462794272
 20
11.9884082475
 30
0.0
 10
15.8467961358
 20
11.9804543318
 30
0.0
 10
15.8470705937
 20
11.9723196462
 30
0.0
 10
15.8471111453
 20
11.9640271807
 30
0.0
 10
15.8469272226
 20
11.9555998417
 30
0.0
 10
15.8465291925
 20
11.9470604414
 30
0.0
 10
15.8459282185
 20
11.9384316956
 30
0.0
 10
15.8451361285
 20
11.9297363291
 30
0.0
 10
15.8444906552
 20
11.9239259926
 30
0.0
 10
15.8441400357
 20
11.9210138498
 30
0.0
  0
SPLINE
  5
2CF
100
AcDbEntity
  8
02___PRT_ALL_AXES
100
AcDbSpline
 62
7
  6
CONTINUOUS
 70
0
 71
3
 72
36
 73
32
 74
0
 42
0.0000001
 43
0.0000001
 44
0.0000000001
 40
0.0
 40
0.0
 40
0.0
 40
0.0
 40
0.0983252611
 40
0.1919021193
 40
0.2805723275
 40
0.3230270297
 40
0.364210339
 40
0.4041115545
 40
0.4427223029
 40
0.4800374061
 40
0.5160534637
 40
0.5507705214
 40
0.5841918529
 40
0.6163234825
 40
0.6471759984
 40
0.6767638207
 40
0.7051058532
 40
0.7322269663
 40
0.7581575553
 40
0.7829350489
 40
0.8066050266
 40
0.8292215668
 40
0.8508491502
 40
0.8715635209
 40
0.8914525016
 40
0.9106172599
 40
0.9291722566
 40
0.9472448639
 40
0.9649740507
 40
0.9825078756
 40
1.0
 40
1.0
 40
1.0
 40
1.0
 10
15.8150081172
 20
11.79534458
 30
0.0
 10
15.8143874973
 20
11.7935918334
 30
0.0
 10
15.8131499224
 20
11.7901802015
 30
0.0
 10
15.8112524198
 20
11.7852250406
 30
0.0
 10
15.8096529208
 20
11.7812879482
 30
0.0
 10
15.8083730628
 20
11.7782913143
 30
0.0
 10
15.8074283878
 20
11.776154569
 30
0.0
 10
15.806484954
 20
11.7740969758
 30
0.0
 10
15.8055426699
 20
11.7721195789
 30
0.0
 10
15.8046014065
 20
11.7702233703
 30
0.0
 10
15.8036610036
 20
11.7684092713
 30
0.0
 10
15.8027212629
 20
11.7666781526
 30
0.0
 10
15.8017819553
 20
11.7650308284
 30
0.0
 10
15.8008428166
 20
11.7634680564
 30
0.0
 10
15.7999035599
 20
11.7619905448
 30
0.0
 10
15.7989638671
 20
11.7605989504
 30
0.0
 10
15.7980233879
 20
11.7592938871
 30
0.0
 10
15.7970817624
 20
11.7580759167
 30
0.0
 10
15.7961385894
 20
11.7569455668
 30
0.0
 10
15.7951934496
 20
11.7559033285
 30
0.0
 10
15.7942459151
 20
11.754949648
 30
0.0
 10
15.7932955114
 20
11.7540849678
 30
0.0
 10
15.7923417686
 20
11.7533096956
 30
0.0
 10
15.7913842057
 20
11.7526242245
 30
0.0
 10
15.7904223197
 20
11.7520289792
 30
0.0
 10
15.7894556562
 20
11.751524348
 30
0.0
 10
15.7884837769
 20
11.7511107433
 30
0.0
 10
15.7875063126
 20
11.750788593
 30
0.0
 10
15.7865229526
 20
11.7505582374
 30
0.0
 10
15.7855335904
 20
11.7504200034
 30
0.0
 10
15.7848708167
 20
11.7503894562
 30
0.0
 10
15.784540032
 20
11.750389456
 30
0.0
  0
SPLINE
  5
2D0
100
AcDbEntity
  8
LAYER_FEATURE
100
AcDbSpline
 62
7
  6
CONTINUOUS
 70
0
 71
3
 72
80
 73
76
 74
0
 42
0.0000001
 43
0.0000001
 44
0.0000000001
 40
0.0
 40
0.0
 40
0.0
 40
0.0
 40
0.0053540951
 40
0.0107128793
 40
0.0160810222
 40
0.0214631514
 40
0.0268638373
 40
0.0322875686
 40
0.0377387419
 40
0.0432216366
 40
0.0487404097
 40
0.0542990717
 40
0.0599014851
 40
0.0655513444
 40
0.0712521749
 40
0.0770073208
 40
0.0828199408
 40
0.0886930062
 40
0.1006301244
 40
0.112839904
 40
0.1190529636
 40
0.1253402264
 40
0.1381426335
 40
0.1512590076
 40
0.164697308
 40
0.1784628132
 40
0.1925582755
 40
0.2069840801
 40
0.2217384038
 40
0.2368173694
 40
0.2522151949
 40
0.2679243357
 40
0.2839356198
 40
0.3002383759
 40
0.3168205537
 40
0.3336688381
 40
0.3507687575
 40
0.3681047861
 40
0.3856604411
 40
0.4034183765
 40
0.4213604718
 40
0.4394679184
 40
0.4577213025
 40
0.4761006857
 40
0.4945856839
 40
0.513155544
 40
0.5317892195
 40
0.5504654451
 40
0.5691628106
 40
0.5878598339
 40
0.6065350341
 40
0.6251670044
 40
0.6437344856
 40
0.6622164394
 40
0.6805921234
 40
0.6988411663
 40
0.7169436454
 40
0.7348801648
 40
0.7526319364
 40
0.7701808628
 40
0.787509624
 40
0.8046017664
 40
0.821441796
 40
0.8380152765
 40
0.8543089315
 40
0.870310753
 40
0.8860101153
 40
0.9013978967
 40
0.9164666062
 40
0.9312105216
 40
0.9456258245
 40
0.9597107721
 40
0.9734657883
 40
0.9868937798
 40
1.0
 40
1.0
 40
1.0
 40
1.0
 10
14.7505206181
 20
12.3354837839
 30
0.0
 10
14.7512488688
 20
12.3378403942
 30
0.0
 10
14.7527913316
 20
12.342529797
 30
0.0
 10
14.7553591008
 20
12.3494805277
 30
0.0
 10
14.7581803469
 20
12.3563463548
 30
0.0
 10
14.7612537623
 20
12.3631242231
 30
0.0
 10
14.7645780832
 20
12.3698112223
 30
0.0
 10
14.7681518054
 20
12.3764045011
 30
0.0
 10
14.7719734433
 20
12.3829011959
 30
0.0
 10
14.7760412819
 20
12.3892985551
 30
0.0
 10
14.7803536147
 20
12.3955938015
 30
0.0
 10
14.7849085288
 20
12.4017842732
 30
0.0
 10
14.7897040941
 20
12.407867294
 30
0.0
 10
14.7947382097
 20
12.4138402868
 30
0.0
 10
14.8000087265
 20
12.4197006893
 30
0.0
 10
14.805513349
 20
12.4254459974
 30
0.0
 10
14.8112497632
 20
12.4310738093
 30
0.0
 10
14.8192467451
 20
12.4384571031
 30
0.0
 10
14.8298242135
 20
12.4473798161
 30
0.0
 10
14.841015934
 20
12.4557808303
 30
0.0
 10
14.8503898749
 20
12.462241706
 30
0.0
 10
14.860160568
 20
12.4686009113
 30
0.0
 10
14.8729079841
 20
12.4762064258
 30
0.0
 10
14.8889233534
 20
12.4847210997
 30
0.0
 10
14.9057215507
 20
12.4926643952
 30
0.0
 10
14.9232736085
 20
12.5000228386
 30
0.0
 10
14.9415496653
 20
12.5067841513
 30
0.0
 10
14.9605185445
 20
12.5129369728
 30
0.0
 10
14.9801479274
 20
12.5184709656
 30
0.0
 10
15.0004043655
 20
12.5233768134
 30
0.0
 10
15.0212533425
 20
12.527646248
 30
0.0
 10
15.0426593276
 20
12.5312720649
 30
0.0
 10
15.0645858338
 20
12.5342481396
 30
0.0
 10
15.0869954796
 20
12.5365694417
 30
0.0
 10
15.109850051
 20
12.5382320461
 30
0.0
 10
15.1331105674
 20
12.5392331426
 30
0.0
 10
15.1567373475
 20
12.5395710424
 30
0.0
 10
15.1806900777
 20
12.5392451831
 30
0.0
 10
15.2049278813
 20
12.5382561311
 30
0.0
 10
15.2294093886
 20
12.5366055818
 30
0.0
 10
15.2540928084
 20
12.5342963579
 30
0.0
 10
15.2789359999
 20
12.531332405
 30
0.0
 10
15.3038965451
 20
12.5277187859
 30
0.0
 10
15.3289318219
 20
12.5234616724
 30
0.0
 10
15.3539990777
 20
12.5185683346
 30
0.0
 10
15.3790555026
 20
12.5130471297
 30
0.0
 10
15.4040583035
 20
12.5069074874
 30
0.0
 10
15.4289647773
 20
12.500159894
 30
0.0
 10
15.4537323849
 20
12.4928158742
 30
0.0
 10
15.4783188235
 20
12.4848879713
 30
0.0
 10
15.5026821003
 20
12.4763897261
 30
0.0
 10
15.5267806037
 20
12.4673356536
 30
0.0
 10
15.5505731753
 20
12.4577412172
 30
0.0
 10
15.5740191807
 20
12.4476228031
 30
0.0
 10
15.5970785787
 20
12.436997691
 30
0.0
 10
15.6197119907
 20
12.4258840249
 30
0.0
 10
15.6418807677
 20
12.4143007809
 30
0.0
 10
15.6635470568
 20
12.4022677346
 30
0.0
 10
15.6846738662
 20
12.3898054266
 30
0.0
 10
15.7052251284
 20
12.3769351262
 30
0.0
 10
15.7251657618
 20
12.3636787945
 30
0.0
 10
15.7444617308
 20
12.3500590457
 30
0.0
 10
15.7630801036
 20
12.336099107
 30
0.0
 10
15.7809891076
 20
12.3218227773
 30
0.0
 10
15.7981581832
 20
12.3072543852
 30
0.0
 10
15.8145580345
 20
12.2924187453
 30
0.0
 10
15.8301606778
 20
12.2773411142
 30
0.0
 10
15.8449394863
 20
12.2620471453
 30
0.0
 10
15.8588692353
 20
12.2465628425
 30
0.0
 10
15.8719261327
 20
12.230914518
 30
0.0
 10
15.8840878784
 20
12.2151287278
 30
0.0
 10
15.8953336288
 20
12.1992322988
 30
0.0
 10
15.9056442158
 20
12.1832520176
 30
0.0
 10
15.9150016178
 20
12.1672155188
 30
0.0
 10
15.92066182
 20
12.1563745749
 30
0.0
 10
15.9233217648
 20
12.1509541774
 30
0.0
  0
SPLINE
  5
2D1
100
AcDbEntity
  8
LAYER_CUT_FEAT
100
AcDbSpline
 62
7
  6
CONTINUOUS
 70
0
 71
3
 72
80
 73
76
 74
0
 42
0.0000001
 43
0.0000001
 44
0.0000000001
 40
0.0
 40
0.0
 40
0.0
 40
0.0
 40
0.0053540951
 40
0.0107128793
 40
0.0160810222
 40
0.0214631514
 40
0.0268638373
 40
0.0322875686
 40
0.0377387419
 40
0.0432216366
 40
0.0487404097
 40
0.0542990717
 40
0.0599014851
 40
0.0655513444
 40
0.0712521749
 40
0.0770073208
 40
0.0828199408
 40
0.0886930062
 40
0.1006301244
 40
0.112839904
 40
0.1190529636
 40
0.1253402264
 40
0.1381426335
 40
0.1512590076
 40
0.164697308
 40
0.1784628132
 40
0.1925582755
 40
0.2069840801
 40
0.2217384038
 40
0.2368173694
 40
0.2522151949
 40
0.2679243357
 40
0.2839356198
 40
0.3002383759
 40
0.3168205537
 40
0.3336688381
 40
0.3507687575
 40
0.3681047861
 40
0.3856604411
 40
0.4034183765
 40
0.4213604718
 40
0.4394679184
 40
0.4577213025
 40
0.4761006857
 40
0.4945856839
 40
0.513155544
 40
0.5317892194
 40
0.550465445
 40
0.5691628105
 40
0.5878598338
 40
0.606535034
 40
0.6251670044
 40
0.6437344856
 40
0.6622164394
 40
0.6805921233
 40
0.6988411663
 40
0.7169436454
 40
0.7348801648
 40
0.7526319363
 40
0.7701808628
 40
0.787509624
 40
0.8046017663
 40
0.821441796
 40
0.8380152765
 40
0.8543089315
 40
0.870310753
 40
0.8860101153
 40
0.9013978967
 40
0.9164666062
 40
0.9312105216
 40
0.9456258245
 40
0.9597107721
 40
0.9734657883
 40
0.9868937798
 40
1.0
 40
1.0
 40
1.0
 40
1.0
 10
14.7376911029
 20
12.2939674577
 30
0.0
 10
14.7384193537
 20
12.296324068
 30
0.0
 10
14.7399618164
 20
12.3010134708
 30
0.0
 10
14.7425295856
 20
12.3079642015
 30
0.0
 10
14.7453508317
 20
12.3148300286
 30
0.0
 10
14.7484242472
 20
12.3216078968
 30
0.0
 10
14.751748568
 20
12.3282948961
 30
0.0
 10
14.7553222903
 20
12.3348881749
 30
0.0
 10
14.7591439282
 20
12.3413848697
 30
0.0
 10
14.7632117668
 20
12.3477822288
 30
0.0
 10
14.7675240995
 20
12.3540774753
 30
0.0
 10
14.7720790136
 20
12.360267947
 30
0.0
 10
14.7768745789
 20
12.3663509678
 30
0.0
 10
14.7819086946
 20
12.3723239605
 30
0.0
 10
14.7871792113
 20
12.3781843631
 30
0.0
 10
14.7926838339
 20
12.3839296712
 30
0.0
 10
14.798420248
 20
12.3895574831
 30
0.0
 10
14.80641723
 20
12.3969407769
 30
0.0
 10
14.8169946983
 20
12.4058634899
 30
0.0
 10
14.8281864189
 20
12.4142645041
 30
0.0
 10
14.8375603598
 20
12.4207253798
 30
0.0
 10
14.8473310529
 20
12.4270845851
 30
0.0
 10
14.860078469
 20
12.4346900996
 30
0.0
 10
14.8760938382
 20
12.4432047735
 30
0.0
 10
14.8928920355
 20
12.451148069
 30
0.0
 10
14.9104440934
 20
12.4585065124
 30
0.0
 10
14.9287201501
 20
12.4652678251
 30
0.0
 10
14.9476890294
 20
12.4714206466
 30
0.0
 10
14.9673184123
 20
12.4769546394
 30
0.0
 10
14.9875748503
 20
12.4818604872
 30
0.0
 10
15.0084238274
 20
12.4861299218
 30
0.0
 10
15.0298298124
 20
12.4897557386
 30
0.0
 10
15.0517563187
 20
12.4927318133
 30
0.0
 10
15.0741659644
 20
12.4950531154
 30
0.0
 10
15.0970205358
 20
12.4967157199
 30
0.0
 10
15.1202810522
 20
12.4977168164
 30
0.0
 10
15.1439078323
 20
12.4980547162
 30
0.0
 10
15.1678605625
 20
12.4977288569
 30
0.0
 10
15.1920983661
 20
12.4967398049
 30
0.0
 10
15.2165798734
 20
12.4950892556
 30
0.0
 10
15.2412632933
 20
12.4927800317
 30
0.0
 10
15.2661064847
 20
12.4898160788
 30
0.0
 10
15.2910670299
 20
12.4862024597
 30
0.0
 10
15.3161023068
 20
12.4819453462
 30
0.0
 10
15.3411695625
 20
12.4770520084
 30
0.0
 10
15.3662259874
 20
12.4715308035
 30
0.0
 10
15.3912287883
 20
12.4653911612
 30
0.0
 10
15.4161352622
 20
12.4586435678
 30
0.0
 10
15.4409028697
 20
12.451299548
 30
0.0
 10
15.4654893084
 20
12.4433716451
 30
0.0
 10
15.4898525851
 20
12.4348733999
 30
0.0
 10
15.5139510885
 20
12.4258193274
 30
0.0
 10
15.5377436601
 20
12.416224891
 30
0.0
 10
15.5611896655
 20
12.4061064769
 30
0.0
 10
15.5842490636
 20
12.3954813648
 30
0.0
 10
15.6068824755
 20
12.3843676987
 30
0.0
 10
15.6290512525
 20
12.3727844547
 30
0.0
 10
15.6507175416
 20
12.3607514084
 30
0.0
 10
15.6718443511
 20
12.3482891004
 30
0.0
 10
15.6923956132
 20
12.3354188
 30
0.0
 10
15.7123362466
 20
12.3221624683
 30
0.0
 10
15.7316322156
 20
12.3085427195
 30
0.0
 10
15.7502505884
 20
12.2945827808
 30
0.0
 10
15.7681595924
 20
12.2803064511
 30
0.0
 10
15.7853286681
 20
12.265738059
 30
0.0
 10
15.8017285194
 20
12.2509024191
 30
0.0
 10
15.8173311626
 20
12.235824788
 30
0.0
 10
15.8321099712
 20
12.2205308191
 30
0.0
 10
15.8460397201
 20
12.2050465163
 30
0.0
 10
15.8590966175
 20
12.1893981918
 30
0.0
 10
15.8712583632
 20
12.1736124016
 30
0.0
 10
15.8825041137
 20
12.1577159726
 30
0.0
 10
15.8928147006
 20
12.1417356914
 30
0.0
 10
15.9021721026
 20
12.1256991926
 30
0.0
 10
15.9078323049
 20
12.1148582487
 30
0.0
 10
15.9104922496
 20
12.1094378512
 30
0.0
  0
SPLINE
  5
2D2
100
AcDbEntity
  8
LAYER_CHAMFER_FEAT
100
AcDbSpline
 62
7
  6
CONTINUOUS
 70
0
 71
3
 72
80
 73
76
 74
0
 42
0.0000001
 43
0.0000001
 44
0.0000000001
 40
0.0
 40
0.0
 40
0.0
 40
0.0
 40
0.0157579564
 40
0.0311474214
 40
0.0461647188
 40
0.0608089271
 40
0.0750820955
 40
0.0889894672
 40
0.1025397149
 40
0.1091852627
 40
0.1157464494
 40
0.128623136
 40
0.1411911263
 40
0.1534744922
 40
0.1655013301
 40
0.1773036412
 40
0.1889170921
 40
0.1946660483
 40
0.2003826431
 40
0.2060721675
 40
0.2117400375
 40
0.2173917821
 40
0.2230330027
 40
0.2286693566
 40
0.2343065237
 40
0.2399501811
 40
0.2456059723
 40
0.2512794804
 40
0.2569762064
 40
0.2627015303
 40
0.268460705
 40
0.2800988694
 40
0.2919312126
 40
0.3039928964
 40
0.3163153725
 40
0.3289261634
 40
0.3353478961
 40
0.3418501686
 40
0.3551040499
 40
0.3687047479
 40
0.3826640255
 40
0.3969900552
 40
0.4116876127
 40
0.4267583045
 40
0.442200799
 40
0.458011043
 40
0.4741824583
 40
0.490706143
 40
0.507571074
 40
0.5247642844
 40
0.5422710222
 40
0.5600749035
 40
0.5781580758
 40
0.5965013582
 40
0.6150843695
 40
0.6338856489
 40
0.6528827897
 40
0.6720525575
 40
0.691370999
 40
0.7108135482
 40
0.7303551408
 40
0.749970321
 40
0.7696333417
 40
0.7893182654
 40
0.808999071
 40
0.8286497548
 40
0.8482444288
 40
0.8677574228
 40
0.8871633995
 40
0.9064374304
 40
0.9255551482
 40
0.9444928426
 40
0.9632272715
 40
0.9817371202
 40
1.0
 40
1.0
 40
1.0
 40
1.0
 10
15.0516052704
 20
11.8899229793
 30
0.0
 10
15.0482933788
 20
11.8891440902
 30
0.0
 10
15.0417756829
 20
11.8874790879
 30
0.0
 10
15.0322238529
 20
11.8846218687
 30
0.0
 10
15.0230290692
 20
11.8814395233
 30
0.0
 10
15.0142095497
 20
11.8779382328
 30
0.0
 10
15.0057824977
 20
11.8741246892
 30
0.0
 10
14.9977646349
 20
11.8700063059
 30
0.0
 10
14.9913961538
 20
11.8663029678
 30
0.0
 10
14.9865263629
 20
11.8631938107
 30
0.0
 10
14.9818666092
 20
11.8600301919
 30
0.0
 10
14.9763186418
 20
11.85590316
 30
0.0
 10
14.9700866438
 20
11.8506496275
 30
0.0
 10
14.9643343398
 20
11.8451361364
 30
0.0
 10
14.9590734331
 20
11.8393733565
 30
0.0
 10
14.9543147512
 20
11.8333727288
 30
0.0
 10
14.9507634616
 20
11.8281654092
 30
0.0
 10
14.9481890815
 20
11.8238979061
 30
0.0
 10
14.9463955183
 20
11.8206561883
 30
0.0
 10
14.9447338124
 20
11.8173645816
 30
0.0
 10
14.9432048072
 20
11.8140246429
 30
0.0
 10
14.9418092191
 20
11.8106380663
 30
0.0
 10
14.9405477729
 20
11.8072065115
 30
0.0
 10
14.9394211081
 20
11.8037316809
 30
0.0
 10
14.9384297366
 20
11.8002153124
 30
0.0
 10
14.9375742114
 20
11.7966591342
 30
0.0
 10
14.9368549109
 20
11.7930649251
 30
0.0
 10
14.9362721879
 20
11.7894344622
 30
0.0
 10
14.935826368
 20
11.785769558
 30
0.0
 10
14.9355176078
 20
11.7820719771
 30
0.0
 10
14.9352881156
 20
11.7770839559
 30
0.0
 10
14.9353483544
 20
11.7707672508
 30
0.0
 10
14.9359706933
 20
11.7631147304
 30
0.0
 10
14.9371416047
 20
11.7553773979
 30
0.0
 10
14.9388583838
 20
11.7475710105
 30
0.0
 10
14.9407295281
 20
11.7410601372
 30
0.0
 10
14.9424895151
 20
11.7358347718
 30
0.0
 10
14.9444508496
 20
11.7305332386
 30
0.0
 10
14.9472418652
 20
11.7238895838
 30
0.0
 10
14.9510947553
 20
11.7159600609
 30
0.0
 10
14.9554648626
 20
11.7080381574
 30
0.0
 10
14.9603434202
 20
11.700139476
 30
0.0
 10
14.9657207769
 20
11.692279333
 30
0.0
 10
14.9715863027
 20
11.6844730442
 30
0.0
 10
14.9779284491
 20
11.6767358192
 30
0.0
 10
14.9847347549
 20
11.6690827583
 30
0.0
 10
14.9919918499
 20
11.661528805
 30
0.0
 10
14.9996854772
 20
11.6540887153
 30
0.0
 10
15.0078005369
 20
11.6467770408
 30
0.0
 10
15.0163211105
 20
11.6396080968
 30
0.0
 10
15.025230481
 20
11.6325959291
 30
0.0
 10
15.0345111551
 20
11.6257542703
 30
0.0
 10
15.0441449167
 20
11.6190965332
 30
0.0
 10
15.0541128592
 20
11.6126357791
 30
0.0
 10
15.0643954192
 20
11.6063846926
 30
0.0
 10
15.0749724013
 20
11.6003555335
 30
0.0
 10
15.0858230343
 20
11.5945601355
 30
0.0
 10
15.0969260111
 20
11.5890098795
 30
0.0
 10
15.1082595303
 20
11.5837156747
 30
0.0
 10
15.1198013268
 20
11.5786879128
 30
0.0
 10
15.1315287266
 20
11.5739364649
 30
0.0
 10
15.1434186931
 20
11.5694706656
 30
0.0
 10
15.1554478721
 20
11.5652992972
 30
0.0
 10
15.1675926303
 20
11.5614305519
 30
0.0
 10
15.179829106
 20
11.5578720229
 30
0.0
 10
15.1921332605
 20
11.554630701
 30
0.0
 10
15.2044809234
 20
11.5517129619
 30
0.0
 10
15.2168478387
 20
11.5491245389
 30
0.0
 10
15.2292097099
 20
11.5468705091
 30
0.0
 10
15.2415422559
 20
11.5449552964
 30
0.0
 10
15.2538212657
 20
11.5433826681
 30
0.0
 10
15.2660225702
 20
11.5421557384
 30
0.0
 10
15.2781223688
 20
11.5412768555
 30
0.0
 10
15.2900966135
 20
11.5407478344
 30
0.0
 10
15.2980365579
 20
11.5406281843
 30
0.0
 10
15.301979636
 20
11.5406281843
 30
0.0
  0
SPLINE
  5
2D3
100
AcDbEntity
  8
02___PRT_ALL_AXES
100
AcDbSpline
 62
7
  6
CONTINUOUS
 70
0
 71
3
 72
66
 73
62
 74
0
 42
0.0000001
 43
0.0000001
 44
0.0000000001
 40
0.0
 40
0.0
 40
0.0
 40
0.0
 40
0.0171789964
 40
0.0345307118
 40
0.0520448626
 40
0.0697107087
 40
0.0875171992
 40
0.1054529497
 40
0.1235062918
 40
0.141665297
 40
0.1599178077
 40
0.1782514654
 40
0.2151103375
 40
0.2521417319
 40
0.289242376
 40
0.3263084231
 40
0.3632363131
 40
0.3816171914
 40
0.3999252734
 40
0.4181480822
 40
0.4362733231
 40
0.4542889112
 40
0.4721830011
 40
0.4899440158
 40
0.5075606771
 40
0.5250220359
 40
0.5423175047
 40
0.5594368893
 40
0.5763704232
 40
0.5931088021
 40
0.6096432199
 40
0.6259654065
 40
0.6420676668
 40
0.6579429214
 40
0.6735847496
 40
0.6889874333
 40
0.7041460043
 40
0.7190562921
 40
0.7337149755
 40
0.748119635
 40
0.7622688074
 40
0.7761620427
 40
0.7897999618
 40
0.8031843151
 40
0.8163180408
 40
0.8292053231
 40
0.841851647
 40
0.8542638492
 40
0.8664501635
 40
0.8784202569
 40
0.8901852539
 40
0.9017577468
 40
0.9131517877
 40
0.9243828585
 40
0.935467817
 40
0.9464248151
 40
0.9572731888
 40
0.9680333184
 40
0.9787264599
 40
0.9893745518
 40
1.0
 40
1.0
 40
1.0
 40
1.0
 10
15.0425415284
 20
12.0693074624
 30
0.0
 10
15.0481498693
 20
12.0693074624
 30
0.0
 10
15.0594232979
 20
12.0691840635
 30
0.0
 10
15.076406471
 20
12.0686357394
 30
0.0
 10
15.0935332209
 20
12.0677238041
 30
0.0
 10
15.1107856268
 20
12.0664492048
 30
0.0
 10
15.1281457571
 20
12.0648132715
 30
0.0
 10
15.1455955379
 20
12.0628177065
 30
0.0
 10
15.1631168149
 20
12.0604645874
 30
0.0
 10
15.1806913298
 20
12.0577563658
 30
0.0
 10
15.1983008696
 20
12.0546958526
 30
0.0
 10
15.2218428645
 20
12.0501418533
 30
0.0
 10
15.2512366132
 20
12.0435877849
 30
0.0
 10
15.2862927731
 20
12.0343899795
 30
0.0
 10
15.3210501232
 20
12.023883326
 30
0.0
 10
15.3553636054
 20
12.0121116733
 30
0.0
 10
15.3835133777
 20
12.0012716939
 30
0.0
 10
15.4056902212
 20
11.9920064607
 30
0.0
 10
15.4220989165
 20
11.9847839851
 30
0.0
 10
15.4382912214
 20
11.9772852154
 30
0.0
 10
15.4542503525
 20
11.9695179198
 30
0.0
 10
15.4699596794
 20
11.9614901927
 30
0.0
 10
15.4854028567
 20
11.9532103862
 30
0.0
 10
15.5005638097
 20
11.9446871179
 30
0.0
 10
15.5154267601
 20
11.935929257
 30
0.0
 10
15.5299762398
 20
11.9269459162
 30
0.0
 10
15.5441971079
 20
11.9177464422
 30
0.0
 10
15.5580745661
 20
11.908340405
 30
0.0
 10
15.571594174
 20
11.8987375887
 30
0.0
 10
15.5847418644
 20
11.8889479803
 30
0.0
 10
15.5975039578
 20
11.8789817595
 30
0.0
 10
15.6098671762
 20
11.8688492878
 30
0.0
 10
15.6218186571
 20
11.8585610971
 30
0.0
 10
15.6333459662
 20
11.848127879
 30
0.0
 10
15.6444371109
 20
11.8375604729
 30
0.0
 10
15.6550805513
 20
11.8268698546
 30
0.0
 10
15.6652652127
 20
11.8160671244
 30
0.0
 10
15.6749804961
 20
11.8051634956
 30
0.0
 10
15.6842162885
 20
11.7941702822
 30
0.0
 10
15.6929629728
 20
11.7830988873
 30
0.0
 10
15.7012114366
 20
11.7719607906
 30
0.0
 10
15.7089530807
 20
11.7607675372
 30
0.0
 10
15.7161798269
 20
11.7495307254
 30
0.0
 10
15.7228841247
 20
11.7382619953
 30
0.0
 10
15.7290589575
 20
11.7269730177
 30
0.0
 10
15.7346978488
 20
11.715675483
 30
0.0
 10
15.7397948669
 20
11.704381091
 30
0.0
 10
15.7443446297
 20
11.6931015413
 30
0.0
 10
15.7483423099
 20
11.6818485238
 30
0.0
 10
15.7517836388
 20
11.6706337105
 30
0.0
 10
15.7546649117
 20
11.6594687473
 30
0.0
 10
15.756982993
 20
11.6483652464
 30
0.0
 10
15.7587353223
 20
11.6373347788
 30
0.0
 10
15.7599199214
 20
11.6263888668
 30
0.0
 10
15.7605354019
 20
11.6155389744
 30
0.0
 10
15.760580975
 20
11.6047965009
 30
0.0
 10
15.7600564562
 20
11.594172756
 30
0.0
 10
15.7589622896
 20
11.5836789946
 30
0.0
 10
15.7572994991
 20
11.5733262186
 30
0.0
 10
15.755069901
 20
11.56312583
 30
0.0
 10
15.7532061993
 20
11.5564309792
 30
0.0
 10
15.7521820336
 20
11.5531167804
 30
0.0
  0
SPLINE
  5
2D4
100
AcDbEntity
  8
LAYER_FEATURE
100
AcDbSpline
 62
7
  6
CONTINUOUS
 70
0
 71
3
 72
19
 73
15
 74
0
 42
0.0000001
 43
0.0000001
 44
0.0000000001
 40
0.0
 40
0.0
 40
0.0
 40
0.0
 40
0.0594164216
 40
0.1190441774
 40
0.1789334556
 40
0.2391327956
 40
0.2996887482
 40
0.3606456763
 40
0.4220455114
 40
0.4839274995
 40
0.6092575087
 40
0.7369169672
 40
0.8671121038
 40
1.0
 40
1.0
 40
1.0
 40
1.0
 10
14.9613376594
 20
12.1820458402
 30
0.0
 10
14.960938657
 20
12.1832268825
 30
0.0
 10
14.9601903596
 20
12.185610789
 30
0.0
 10
14.9592206167
 20
12.1892387261
 30
0.0
 10
14.9584027452
 20
12.1929207763
 30
0.0
 10
14.9577375828
 20
12.1966531974
 30
0.0
 10
14.9572257696
 20
12.2004323144
 30
0.0
 10
14.9568677946
 20
12.2042543551
 30
0.0
 10
14.9566640209
 20
12.2081156023
 30
0.0
 10
14.9565978336
 20
12.2133324852
 30
0.0
 10
14.9569064455
 20
12.2199388758
 30
0.0
 10
14.9578920832
 20
12.227925248
 30
0.0
 10
14.9594900502
 20
12.2359731336
 30
0.0
 10
14.9609442245
 20
12.2413032164
 30
0.0
 10
14.9617674132
 20
12.2439670559
 30
0.0
  0
SPLINE
  5
2D5
100
AcDbEntity
  8
02___PRT_ALL_AXES
100
AcDbSpline
 62
7
  6
CONTINUOUS
 70
0
 71
3
 72
43
 73
39
 74
0
 42
0.0000001
 43
0.0000001
 44
0.0000000001
 40
0.0
 40
0.0
 40
0.0
 40
0.0
 40
0.0109497874
 40
0.0219733363
 40
0.0330957249
 40
0.0443408198
 40
0.0557311626
 40
0.0672875504
 40
0.0790290958
 40
0.0909727938
 40
0.1155190584
 40
0.1410268581
 40
0.1675559705
 40
0.1951330123
 40
0.2237540536
 40
0.253388277
 40
0.28398224
 40
0.3154645419
 40
0.3477504834
 40
0.3807465397
 40
0.4143543708
 40
0.4484742037
 40
0.4830075698
 40
0.5178593377
 40
0.5529391675
 40
0.5881624013
 40
0.6234506116
 40
0.6587318479
 40
0.6939406765
 40
0.7290181982
 40
0.7639120607
 40
0.7985763777
 40
0.8329718091
 40
0.8670655988
 40
0.9008315891
 40
0.9342503674
 40
0.9673085863
 40
1.0
 40
1.0
 40
1.0
 40
1.0
 10
14.9606441944
 20
12.1818035289
 30
0.0
 10
14.9601354721
 20
12.1828401902
 30
0.0
 10
14.9591707381
 20
12.1849485711
 30
0.0
 10
14.9578897004
 20
12.1881969096
 30
0.0
 10
14.9567716737
 20
12.1915378209
 30
0.0
 10
14.9558174098
 20
12.1949692249
 30
0.0
 10
14.9550275418
 20
12.1984890319
 30
0.0
 10
14.9544024961
 20
12.2020948783
 30
0.0
 10
14.9539426636
 20
12.2057842971
 30
0.0
 10
14.9535464547
 20
12.2108568164
 30
0.0
 10
14.9534763589
 20
12.2174035338
 30
0.0
 10
14.9540542461
 20
12.2254673571
 30
0.0
 10
14.9552880557
 20
12.2337798136
 30
0.0
 10
14.9571701164
 20
12.2423054415
 30
0.0
 10
14.959690006
 20
12.251005536
 30
0.0
 10
14.9628346071
 20
12.2598376852
 30
0.0
 10
14.9665881804
 20
12.268756554
 30
0.0
 10
14.9709325985
 20
12.277714503
 30
0.0
 10
14.9758476672
 20
12.2866623492
 30
0.0
 10
14.9813115065
 20
12.2955500776
 30
0.0
 10
14.9873009313
 20
12.3043274772
 30
0.0
 10
14.9937917871
 20
12.3129446536
 30
0.0
 10
15.000759197
 20
12.3213524067
 30
0.0
 10
15.0081777058
 20
12.3295024815
 30
0.0
 10
15.0160212985
 20
12.3373477154
 30
0.0
 10
15.0242633067
 20
12.3448421207
 30
0.0
 10
15.0328762093
 20
12.3519409409
 30
0.0
 10
15.0418313516
 20
12.3586007208
 30
0.0
 10
15.0510986093
 20
12.3647794293
 30
0.0
 10
15.0606460336
 20
12.3704366658
 30
0.0
 10
15.0704395056
 20
12.3755339661
 30
0.0
 10
15.0804424468
 20
12.3800352173
 30
0.0
 10
15.0906156015
 20
12.3839071792
 30
0.0
 10
15.1009169766
 20
12.3871200836
 30
0.0
 10
15.111301827
 20
12.3896483081
 30
0.0
 10
15.1217231552
 20
12.3914709794
 30
0.0
 10
15.1321310354
 20
12.3925726831
 30
0.0
 10
15.1390673043
 20
12.392821476
 30
0.0
 10
15.14251492
 20
12.392821476
 30
0.0
  0
SPLINE
  5
2D6
100
AcDbEntity
  8
LAYER_CHAMFER_FEAT
100
AcDbSpline
 62
7
  6
CONTINUOUS
 70
0
 71
3
 72
51
 73
47
 74
0
 42
0.0000001
 43
0.0000001
 44
0.0000000001
 40
0.0
 40
0.0
 40
0.0
 40
0.0
 40
0.035733007
 40
0.0531909697
 40
0.0703731398
 40
0.103904327
 40
0.1363349799
 40
0.1676861783
 40
0.1979964085
 40
0.2273228584
 40
0.2557424298
 40
0.2696449028
 40
0.2833588041
 40
0.2968993865
 40
0.3102831073
 40
0.3235275193
 40
0.3366512254
 40
0.3496737368
 40
0.3626153777
 40
0.3754971159
 40
0.3883404216
 40
0.4011670822
 40
0.4139990258
 40
0.4268581399
 40
0.4397660751
 40
0.4527440888
 40
0.4658128475
 40
0.4789923133
 40
0.4923015597
 40
0.5057587126
 40
0.5193807878
 40
0.5331836902
 40
0.5471820743
 40
0.5758119337
 40
0.6053690321
 40
0.6359254536
 40
0.6675337757
 40
0.7002281676
 40
0.7340257273
 40
0.7689279185
 40
0.8049220123
 40
0.8419824737
 40
0.8800722814
 40
0.9191441159
 40
0.9591415604
 40
1.0
 40
1.0
 40
1.0
 40
1.0
 10
15.4448312446
 20
11.7684069623
 30
0.0
 10
15.4478101414
 20
11.7651470495
 30
0.0
 10
15.4521252415
 20
11.7601829704
 30
0.0
 10
15.4575609829
 20
11.75339302
 30
0.0
 10
15.4626427736
 20
11.7466723068
 30
0.0
 10
15.4684900843
 20
11.7382154261
 30
0.0
 10
15.4747182834
 20
11.7279184602
 30
0.0
 10
15.480079189
 20
11.7175898729
 30
0.0
 10
15.4845543344
 20
11.7072634999
 30
0.0
 10
15.4881279838
 20
11.696973737
 30
0.0
 10
15.4903604343
 20
11.688393885
 30
0.0
 10
15.4916724953
 20
11.6815923885
 30
0.0
 10
15.4924178515
 20
11.6765592853
 30
0.0
 10
15.492930852
 20
11.6715616701
 30
0.0
 10
15.4932111023
 20
11.6666036484
 30
0.0
 10
15.4932582634
 20
11.6616894055
 30
0.0
 10
15.4930723149
 20
11.656823074
 30
0.0
 10
15.492653318
 20
11.6520087628
 30
0.0
 10
15.4920016565
 20
11.6472505359
 30
0.0
 10
15.4911177939
 20
11.6425524296
 30
0.0
 10
15.4900025249
 20
11.6379184132
 30
0.0
 10
15.4886567189
 20
11.6333524314
 30
0.0
 10
15.4870815806
 20
11.6288583349
 30
0.0
 10
15.4852783844
 20
11.6244399543
 30
0.0
 10
15.4832487371
 20
11.6201009988
 30
0.0
 10
15.4809943102
 20
11.6158451631
 30
0.0
 10
15.4785170996
 20
11.6116759958
 30
0.0
 10
15.4758191609
 20
11.607597038
 30
0.0
 10
15.472902863
 20
11.6036116641
 30
0.0
 10
15.4697706272
 20
11.5997232457
 30
0.0
 10
15.4664251947
 20
11.5959349876
 30
0.0
 10
15.4628692756
 20
11.592250033
 30
0.0
 10
15.4578142546
 20
11.587443046
 30
0.0
 10
15.4509666324
 20
11.5817085636
 30
0.0
 10
15.4420238758
 20
11.5753423282
 30
0.0
 10
15.4323236368
 20
11.569459221
 30
0.0
 10
15.4218989026
 20
11.5640783896
 30
0.0
 10
15.4107843439
 20
11.5592168958
 30
0.0
 10
15.3990169378
 20
11.5548903439
 30
0.0
 10
15.3866357123
 20
11.5511126418
 30
0.0
 10
15.3736817141
 20
11.5478959958
 30
0.0
 10
15.3601978764
 20
11.5452508357
 30
0.0
 10
15.3462289316
 20
11.5431857689
 30
0.0
 10
15.331821146
 20
11.5417075278
 30
0.0
 10
15.3170226435
 20
11.5408209408
 30
0.0
 10
15.3070290278
 20
11.5406281843
 30
0.0
 10
15.301979636
 20
11.5406281843
 30
0.0
  0
SPLINE
  5
2D7
100
AcDbEntity
  8
LAYER_FEATURE
100
AcDbSpline
 62
7
  6
CONTINUOUS
 70
0
 71
3
 72
27
 73
23
 74
0
 42
0.0000001
 43
0.0000001
 44
0.0000000001
 40
0.0
 40
0.0
 40
0.0
 40
0.0
 40
0.0237095395
 40
0.0474936915
 40
0.0714264432
 40
0.0955815334
 40
0.1200278781
 40
0.14482968
 40
0.170046494
 40
0.195732746
 40
0.2486813456
 40
0.3040145839
 40
0.3619543515
 40
0.4226333617
 40
0.4861034151
 40
0.5523446198
 40
0.6212745484
 40
0.6927567086
 40
0.7666084062
 40
0.8426073658
 40
0.9204985628
 40
1.0
 40
1.0
 40
1.0
 40
1.0
 10
16.3421920769
 20
12.6341824688
 30
0.0
 10
16.34229897
 20
12.6345283844
 30
0.0
 10
16.3424892326
 20
12.6352289374
 30
0.0
 10
16.3427021059
 20
12.636299505
 30
0.0
 10
16.3428423986
 20
12.6373888755
 30
0.0
 10
16.3429098652
 20
12.6384952612
 30
0.0
 10
16.3429044821
 20
12.6396169363
 30
0.0
 10
16.3428262386
 20
12.6407521024
 30
0.0
 10
16.3426753152
 20
12.6418989991
 30
0.0
 10
16.3423745491
 20
12.6434568879
 30
0.0
 10
16.3418118733
 20
12.6454285495
 30
0.0
 10
16.340859746
 20
12.6477859748
 30
0.0
 10
16.339630467
 20
12.6501450221
 30
0.0
 10
16.3381321293
 20
12.6524912255
 30
0.0
 10
16.33637425
 20
12.6548105113
 30
0.0
 10
16.334367836
 20
12.6570888075
 30
0.0
 10
16.3321253556
 20
12.6593122433
 30
0.0
 10
16.3296607033
 20
12.6614672101
 30
0.0
 10
16.3269891468
 20
12.6635404581
 30
0.0
 10
16.3241272083
 20
12.6655192184
 30
0.0
 10
16.3210927102
 20
12.6673912144
 30
0.0
 10
16.3189857986
 20
12.6685500722
 30
0.0
 10
16.3179084179
 20
12.6691096242
 30
0.0
  0
SPLINE
  5
2D8
100
AcDbEntity
  8
LAYER_FEATURE
100
AcDbSpline
 62
7
  6
CONTINUOUS
 70
0
 71
3
 72
14
 73
10
 74
0
 42
0.0000001
 43
0.0000001
 44
0.0000000001
 40
0.0
 40
0.0
 40
0.0
 40
0.0
 40
0.1214896459
 40
0.2433295627
 40
0.3658636907
 40
0.4894246699
 40
0.6143355876
 40
0.7409077733
 40
1.0
 40
1.0
 40
1.0
 40
1.0
 10
16.3526976349
 20
12.7816927899
 30
0.0
 10
16.3527991553
 20
12.7820213163
 30
0.0
 10
16.3529809597
 20
12.7826861919
 30
0.0
 10
16.353188313
 20
12.783701442
 30
0.0
 10
16.3533302261
 20
12.7847338414
 30
0.0
 10
16.3534065167
 20
12.7857818225
 30
0.0
 10
16.3534170544
 20
12.7868439917
 30
0.0
 10
16.3533429685
 20
12.7882878264
 30
0.0
 10
16.3531888191
 20
12.7893716865
 30
0.0
 10
16.3530460556
 20
12.7900909695
 30
0.0
  0
SPLINE
  5
2D9
100
AcDbEntity
  8
LAYER_FEATURE
100
AcDbSpline
 62
7
  6
CONTINUOUS
 70
0
 71
3
 72
22
 73
18
 74
0
 42
0.0000001
 43
0.0000001
 44
0.0000000001
 40
0.0
 40
0.0
 40
0.0
 40
0.0
 40
0.0537602515
 40
0.1077833946
 40
0.1623259465
 40
0.2176324544
 40
0.2739302607
 40
0.3314256864
 40
0.3903016258
 40
0.4507153231
 40
0.5127985256
 40
0.5766570014
 40
0.7099497568
 40
0.7795261818
 40
0.8510660409
 40
0.9245706727
 40
1.0
 40
1.0
 40
1.0
 40
1.0
 10
16.2261410942
 20
13.0075605943
 30
0.0
 10
16.2262736074
 20
13.0079894143
 30
0.0
 10
16.2265025604
 20
13.0088609924
 30
0.0
 10
16.2267341843
 20
13.0101978273
 30
0.0
 10
16.226853948
 20
13.0115622965
 30
0.0
 10
16.2268615539
 20
13.0129508894
 30
0.0
 10
16.2267570912
 20
13.0143602163
 30
0.0
 10
16.226540931
 20
13.0157868352
 30
0.0
 10
16.2262136574
 20
13.0172272994
 30
0.0
 10
16.2257761985
 20
13.0186781524
 30
0.0
 10
16.2252296357
 20
13.0201359887
 30
0.0
 10
16.2243447809
 20
13.0221123254
 30
0.0
 10
16.2232544233
 20
13.0240602662
 30
0.0
 10
16.2219839044
 20
13.0259673634
 30
0.0
 10
16.2209173684
 20
13.02740815
 30
0.0
 10
16.2197536751
 20
13.02883505
 30
0.0
 10
16.2189254828
 20
13.0297631129
 30
0.0
 10
16.2184964716
 20
13.0302241085
 30
0.0
  0
SPLINE
  5
2DA
100
AcDbEntity
  8
LAYER_FEATURE
100
AcDbSpline
 62
7
  6
CONTINUOUS
 70
0
 71
3
 72
22
 73
18
 74
0
 42
0.0000001
 43
0.0000001
 44
0.0000000001
 40
0.0
 40
0.0
 40
0.0
 40
0.0
 40
0.0502862828
 40
0.1019194258
 40
0.1550362431
 40
0.2097469671
 40
0.3242141202
 40
0.3841182567
 40
0.4458140931
 40
0.509297741
 40
0.5745468525
 40
0.6415232438
 40
0.7101739357
 40
0.7804305101
 40
0.8522144751
 40
0.9254428052
 40
1.0
 40
1.0
 40
1.0
 40
1.0
 10
15.9500162479
 20
13.1672765513
 30
0.0
 10
15.9500938475
 20
13.1667683302
 30
0.0
 10
15.9502923667
 20
13.1657441724
 30
0.0
 10
15.9507101133
 20
13.1642138079
 30
0.0
 10
15.9512503505
 20
13.1626742039
 30
0.0
 10
15.9521451689
 20
13.1605836387
 30
0.0
 10
15.9532717686
 20
13.1585227807
 30
0.0
 10
15.9546001062
 20
13.156506892
 30
0.0
 10
15.9557234141
 20
13.1549830046
 30
0.0
 10
15.9569553823
 20
13.1534745501
 30
0.0
 10
15.9582927795
 20
13.1519853698
 30
0.0
 10
15.9597320221
 20
13.150519465
 30
0.0
 10
15.9612692656
 20
13.1490807292
 30
0.0
 10
15.9629003757
 20
13.1476729776
 30
0.0
 10
15.9646210671
 20
13.1462999339
 30
0.0
 10
15.9664266562
 20
13.1449653443
 30
0.0
 10
15.9676731659
 20
13.1441108454
 30
0.0
 10
15.9683091353
 20
13.1436906465
 30
0.0
  0
SPLINE
  5
2DB
100
AcDbEntity
  8
LAYER_FEATURE
100
AcDbSpline
 62
7
  6
CONTINUOUS
 70
0
 71
3
 72
27
 73
23
 74
0
 42
0.0000001
 43
0.0000001
 44
0.0000000001
 40
0.0
 40
0.0
 40
0.0
 40
0.0
 40
0.0236956387
 40
0.0474661472
 40
0.071385793
 40
0.095528559
 40
0.1199635657
 40
0.1447552066
 40
0.1699631913
 40
0.1956420689
 40
0.2485805081
 40
0.3039099258
 40
0.3618519453
 40
0.4225385991
 40
0.4860206804
 40
0.5522770394
 40
0.6212238046
 40
0.6927228948
 40
0.7665899674
 40
0.8426009061
 40
0.9204993265
 40
1.0
 40
1.0
 40
1.0
 40
1.0
 10
15.9609680328
 20
13.2026272979
 30
0.0
 10
15.9610751487
 20
13.2029739345
 30
0.0
 10
15.9612657594
 20
13.2036759687
 30
0.0
 10
15.9614788497
 20
13.2047488355
 30
0.0
 10
15.9616190551
 20
13.2058405764
 30
0.0
 10
15.9616861286
 20
13.2069493923
 30
0.0
 10
15.9616800481
 20
13.2080735461
 30
0.0
 10
15.9616008027
 20
13.2092112277
 30
0.0
 10
15.9614485775
 20
13.2103606655
 30
0.0
 10
15.9611456466
 20
13.2119220454
 30
0.0
 10
15.9605794872
 20
13.2138980815
 30
0.0
 10
15.9596221213
 20
13.2162605316
 30
0.0
 10
15.9583865429
 20
13.2186244221
 30
0.0
 10
15.9568809176
 20
13.2209751991
 30
0.0
 10
15.9551148462
 20
13.2232987042
 30
0.0
 10
15.9530994309
 20
13.2255807814
 30
0.0
 10
15.9508472468
 20
13.2278074787
 30
0.0
 10
15.948372306
 20
13.2299651113
 30
0.0
 10
15.9456900033
 20
13.2320403554
 30
0.0
 10
15.9428169942
 20
13.2340203815
 30
0.0
 10
15.939771256
 20
13.2358928386
 30
0.0
 10
15.9376567941
 20
13.2370515062
 30
0.0
 10
15.9365756448
 20
13.2376108122
 30
0.0
  0
SPLINE
  5
2DC
100
AcDbEntity
  8
02___PRT_ALL_AXES
100
AcDbSpline
 62
7
  6
CONTINUOUS
 70
0
 71
3
 72
39
 73
35
 74
0
 42
0.0000001
 43
0.0000001
 44
0.0000000001
 40
0.0
 40
0.0
 40
0.0
 40
0.0
 40
0.0248034971
 40
0.0496643331
 40
0.0746391948
 40
0.099783486
 40
0.1251507443
 40
0.1507921182
 40
0.1767559197
 40
0.2030872593
 40
0.2298277628
 40
0.2570153701
 40
0.2846842128
 40
0.3128645581
 40
0.3415828091
 40
0.3708615524
 40
0.4007196423
 40
0.4311723119
 40
0.4622313107
 40
0.4939050539
 40
0.5261987784
 40
0.5591147036
 40
0.5926521912
 40
0.6268079018
 40
0.6615759544
 40
0.6969480785
 40
0.7329137585
 40
0.7694603751
 40
0.806573337
 40
0.8442361872
 40
0.8824308367
 40
0.9211372771
 40
0.9603348313
 40
1.0
 40
1.0
 40
1.0
 40
1.0
 10
14.7969271956
 20
12.2756621206
 30
0.0
 10
14.7979940212
 20
12.2791143595
 30
0.0
 10
14.8003338968
 20
12.2859657288
 30
0.0
 10
14.8044473651
 20
12.2960372535
 30
0.0
 10
14.8091615693
 20
12.3058973624
 30
0.0
 10
14.8144708495
 20
12.3155342725
 30
0.0
 10
14.8203690307
 20
12.3249370973
 30
0.0
 10
14.8268492124
 20
12.3340951016
 30
0.0
 10
14.8339038511
 20
12.3429979183
 30
0.0
 10
14.8415247626
 20
12.3516354986
 30
0.0
 10
14.8497031422
 20
12.3599981334
 30
0.0
 10
14.8584295763
 20
12.368076455
 30
0.0
 10
14.8676940613
 20
12.3758614366
 30
0.0
 10
14.8774860149
 20
12.3833443957
 30
0.0
 10
14.8877942868
 20
12.3905169964
 30
0.0
 10
14.8986071696
 20
12.3973712537
 30
0.0
 10
14.9099124069
 20
12.4038995383
 30
0.0
 10
14.9216972023
 20
12.4100945864
 30
0.0
 10
14.9339482338
 20
12.4159495009
 30
0.0
 10
14.9466516655
 20
12.4214577592
 30
0.0
 10
14.9597931607
 20
12.4266132195
 30
0.0
 10
14.9733578948
 20
12.431410128
 30
0.0
 10
14.9873305695
 20
12.435843126
 30
0.0
 10
15.0016954269
 20
12.4399072608
 30
0.0
 10
15.016436268
 20
12.4435979875
 30
0.0
 10
15.0315364703
 20
12.4469111748
 30
0.0
 10
15.0469790057
 20
12.4498431113
 30
0.0
 10
15.0627464593
 20
12.4523905099
 30
0.0
 10
15.0788210444
 20
12.4545505112
 30
0.0
 10
15.0951846378
 20
12.4563206991
 30
0.0
 10
15.1118187443
 20
12.4576990757
 30
0.0
 10
15.1287046849
 20
12.4586841202
 30
0.0
 10
15.1458232191
 20
12.4592746916
 30
0.0
 10
15.1573122236
 20
12.4594042634
 30
0.0
 10
15.1630905575
 20
12.4594042634
 30
0.0
  0
SPLINE
  5
2DD
100
AcDbEntity
  8
LAYER_FEATURE
100
AcDbSpline
 62
7
  6
CONTINUOUS
 70
0
 71
3
 72
15
 73
11
 74
0
 42
0.0000001
 43
0.0000001
 44
0.0000000001
 40
0.0
 40
0.0
 40
0.0
 40
0.0
 40
0.1391294171
 40
0.2739226398
 40
0.4044932508
 40
0.5309831929
 40
0.6535615925
 40
0.7724294892
 40
0.8878198702
 40
1.0
 40
1.0
 40
1.0
 40
1.0
 10
15.789902676
 20
11.7657683574
 30
0.0
 10
15.7893475667
 20
11.7651033111
 30
0.0
 10
15.7882303449
 20
11.7638139605
 30
0.0
 10
15.7865059319
 20
11.7619774224
 30
0.0
 10
15.7847611085
 20
11.7602708871
 30
0.0
 10
15.7829973898
 20
11.7586958164
 30
0.0
 10
15.7812161934
 20
11.7572536057
 30
0.0
 10
15.7794189861
 20
11.7559454843
 30
0.0
 10
15.777607336
 20
11.7547726769
 30
0.0
 10
15.7763744055
 20
11.754072358
 30
0.0
 10
15.7757566655
 20
11.7537463683
 30
0.0
  0
SPLINE
  5
2DE
100
AcDbEntity
  8
02___PRT_ALL_AXES
100
AcDbSpline
 62
7
  6
CONTINUOUS
 70
0
 71
3
 72
39
 73
35
 74
0
 42
0.0000001
 43
0.0000001
 44
0.0000000001
 40
0.0
 40
0.0
 40
0.0
 40
0.0
 40
0.039665376
 40
0.0788626128
 40
0.1175692063
 40
0.1557638027
 40
0.1934266652
 40
0.2305396236
 40
0.2670862412
 40
0.3030519235
 40
0.3384240487
 40
0.3731921006
 40
0.407347809
 40
0.4408852948
 40
0.4738012206
 40
0.5060949469
 40
0.5377686914
 40
0.5688276902
 40
0.5992803585
 40
0.629138447
 40
0.6584171907
 40
0.6871354428
 40
0.7153157888
 40
0.7429846311
 40
0.7701722372
 40
0.7969127398
 40
0.8232440799
 40
0.8492078826
 40
0.8748492571
 40
0.9002165152
 40
0.9253608059
 40
0.950335667
 40
0.9751965029
 40
1.0
 40
1.0
 40
1.0
 40
1.0
 10
15.0425415284
 20
12.0693074624
 30
0.0
 10
15.0367631644
 20
12.0693074624
 30
0.0
 10
15.0252741757
 20
12.0691778959
 30
0.0
 10
15.0081556356
 20
12.0685873139
 30
0.0
 10
14.991269726
 20
12.0676022814
 30
0.0
 10
14.9746356036
 20
12.0662238971
 30
0.0
 10
14.9582720165
 20
12.0644537111
 30
0.0
 10
14.9421974301
 20
12.0622937077
 30
0.0
 10
14.9264299763
 20
12.0597463105
 30
0.0
 10
14.9109874399
 20
12.0568143757
 30
0.0
 10
14.8958872369
 20
12.0535011891
 30
0.0
 10
14.8811463962
 20
12.0498104618
 30
0.0
 10
14.8667815399
 20
12.0457463253
 30
0.0
 10
14.8528088662
 20
12.0413133259
 30
0.0
 10
14.8392441317
 20
12.0365164182
 30
0.0
 10
14.8261026353
 20
12.0313609593
 30
0.0
 10
14.8133992027
 20
12.0258527018
 30
0.0
 10
14.8011481712
 20
12.0199977871
 30
0.0
 10
14.7893633767
 20
12.013802738
 30
0.0
 10
14.7780581405
 20
12.0072744522
 30
0.0
 10
14.7672452573
 20
12.0004201955
 30
0.0
 10
14.7569369842
 20
11.9932475958
 30
0.0
 10
14.74714503
 20
11.9857646372
 30
0.0
 10
14.7378805454
 20
11.9779796551
 30
0.0
 10
14.7291541127
 20
11.9699013325
 30
0.0
 10
14.7209757344
 20
11.9615386968
 30
0.0
 10
14.7133548218
 20
11.9529011173
 30
0.0
 10
14.7063001809
 20
11.9439983019
 30
0.0
 10
14.699819998
 20
11.934840298
 30
0.0
 10
14.6939218174
 20
11.9254374728
 30
0.0
 10
14.6886125394
 20
11.9158005616
 30
0.0
 10
14.6838983371
 20
11.9059404519
 30
0.0
 10
14.6797848698
 20
11.8958689271
 30
0.0
 10
14.6774449886
 20
11.8890175596
 30
0.0
 10
14.6763781651
 20
11.88556532
 30
0.0
  0
SPLINE
  5
2DF
100
AcDbEntity
  8
LAYER_CHAMFER_FEAT
100
AcDbSpline
 62
7
  6
CONTINUOUS
 70
0
 71
3
 72
47
 73
43
 74
0
 42
0.0000001
 43
0.0000001
 44
0.0000000001
 40
0.0
 40
0.0
 40
0.0
 40
0.0
 40
0.010625939
 40
0.0212745225
 40
0.0319681592
 40
0.0427287838
 40
0.0535776619
 40
0.0645351623
 40
0.0756206375
 40
0.0868522224
 40
0.0982467945
 40
0.1098198178
 40
0.121585362
 40
0.1335560059
 40
0.1581502212
 40
0.1707971273
 40
0.1836850088
 40
0.2101999729
 40
0.2238385146
 40
0.2377324001
 40
0.2662840738
 40
0.2958512793
 40
0.326411109
 40
0.3579270614
 40
0.3903506312
 40
0.4236227674
 40
0.4576752099
 40
0.4924317166
 40
0.5278092006
 40
0.5637187912
 40
0.6000668361
 40
0.6367558535
 40
0.6736854497
 40
0.7107532091
 40
0.7478555669
 40
0.7848886724
 40
0.8217492461
 40
0.858335458
 40
0.8945477583
 40
0.930289929
 40
0.9654695739
 40
1.0
 40
1.0
 40
1.0
 40
1.0
 10
14.9845023786
 20
11.8225276512
 30
0.0
 10
14.9840475939
 20
11.8210559835
 30
0.0
 10
14.9832200321
 20
11.8180831329
 30
0.0
 10
14.9822299616
 20
11.813553657
 30
0.0
 10
14.9814916198
 20
11.8089565068
 30
0.0
 10
14.9810057332
 20
11.8042967568
 30
0.0
 10
14.9807728446
 20
11.7995792851
 30
0.0
 10
14.9807930569
 20
11.7948090922
 30
0.0
 10
14.9810663846
 20
11.7899912019
 30
0.0
 10
14.9815923834
 20
11.7851306712
 30
0.0
 10
14.9823705253
 20
11.7802325932
 30
0.0
 10
14.9833998463
 20
11.7753021035
 30
0.0
 10
14.9846793143
 20
11.7703442299
 30
0.0
 10
14.9867350703
 20
11.7636446917
 30
0.0
 10
14.9892765375
 20
11.7569682392
 30
0.0
 10
14.9922662089
 20
11.7503435517
 30
0.0
 10
14.9956365195
 20
11.7435911289
 30
0.0
 10
14.9994596336
 20
11.7369109067
 30
0.0
 10
15.0036981484
 20
11.7303204254
 30
0.0
 10
15.0083235847
 20
11.7236328077
 30
0.0
 10
15.0146789016
 20
11.7153420068
 30
0.0
 10
15.0231031125
 20
11.7056229476
 30
0.0
 10
15.0323587391
 20
11.6960841458
 30
0.0
 10
15.0424071564
 20
11.6867650967
 30
0.0
 10
15.0532067801
 20
11.6777041012
 30
0.0
 10
15.0647128327
 20
11.6689385818
 30
0.0
 10
15.0768776221
 20
11.6605047713
 30
0.0
 10
15.0896507015
 20
11.6524375864
 30
0.0
 10
15.1029790826
 20
11.6447704582
 30
0.0
 10
15.1168074526
 20
11.6375351858
 30
0.0
 10
15.1310784059
 20
11.6307617955
 30
0.0
 10
15.1457326834
 20
11.624478409
 30
0.0
 10
15.1607094224
 20
11.6187111215
 30
0.0
 10
15.1759464118
 20
11.6134838895
 30
0.0
 10
15.1913803539
 20
11.6088184279
 30
0.0
 10
15.2069471324
 20
11.6047341187
 30
0.0
 10
15.2225820795
 20
11.6012479271
 30
0.0
 10
15.2382202583
 20
11.5983743375
 30
0.0
 10
15.2537967041
 20
11.5961252769
 30
0.0
 10
15.2692468295
 20
11.5945101049
 30
0.0
 10
15.2845061489
 20
11.5935355121
 30
0.0
 10
15.2946125229
 20
11.5933133173
 30
0.0
 10
15.2996180531
 20
11.5933133173
 30
0.0
  0
SPLINE
  5
2E0
100
AcDbEntity
  8
LAYER_FEATURE
100
AcDbSpline
 62
7
  6
CONTINUOUS
 70
0
 71
3
 72
15
 73
11
 74
0
 42
0.0000001
 43
0.0000001
 44
0.0000000001
 40
0.0
 40
0.0
 40
0.0
 40
0.0
 40
0.1100700464
 40
0.223554553
 40
0.3409630789
 40
0.462735542
 40
0.5892453408
 40
0.7208017284
 40
0.8576545665
 40
1.0
 40
1.0
 40
1.0
 40
1.0
 10
15.772218227
 20
12.0766348354
 30
0.0
 10
15.7729924471
 20
12.0763416529
 30
0.0
 10
15.7745403919
 20
12.0756795088
 30
0.0
 10
15.7768137257
 20
12.0744876344
 30
0.0
 10
15.7790678087
 20
12.0730851336
 30
0.0
 10
15.7812996139
 20
12.0714741915
 30
0.0
 10
15.7835064051
 20
12.0696570285
 30
0.0
 10
15.7856854409
 20
12.0676361236
 30
0.0
 10
15.7878339636
 20
12.0654142513
 30
0.0
 10
15.7892166201
 20
12.0638324688
 30
0.0
 10
15.7899026751
 20
12.063010539
 30
0.0
  0
SPLINE
  5
2E1
100
AcDbEntity
  8
02___PRT_ALL_AXES
100
AcDbSpline
 62
7
  6
CONTINUOUS
 70
0
 71
3
 72
24
 73
20
 74
0
 42
0.0000001
 43
0.0000001
 44
0.0000000001
 40
0.0
 40
0.0
 40
0.0
 40
0.0
 40
0.056295514
 40
0.1125100327
 40
0.1688483614
 40
0.2255188905
 40
0.2827306958
 40
0.3406906735
 40
0.3996005414
 40
0.4596538908
 40
0.5210334572
 40
0.5839087725
 40
0.6484342685
 40
0.7147478385
 40
0.7486169883
 40
0.7829760631
 40
0.8532047625
 40
0.9255282676
 40
1.0
 40
1.0
 40
1.0
 40
1.0
 10
15.7845400323
 20
12.0783894454
 30
0.0
 10
15.7857274745
 20
12.0783894457
 30
0.0
 10
15.7881017742
 20
12.0782947837
 30
0.0
 10
15.791641147
 20
12.0778663153
 30
0.0
 10
15.7951423443
 20
12.0771517934
 30
0.0
 10
15.798594765
 20
12.0761518536
 30
0.0
 10
15.8019883456
 20
12.0748675398
 30
0.0
 10
15.805313167
 20
12.0733004664
 30
0.0
 10
15.8085596307
 20
12.0714527785
 30
0.0
 10
15.8117184249
 20
12.0693271072
 30
0.0
 10
15.8147806629
 20
12.0669267405
 30
0.0
 10
15.8177378983
 20
12.0642555042
 30
0.0
 10
15.8205820437
 20
12.0613178516
 30
0.0
 10
15.8228358097
 20
12.058670699
 30
0.0
 10
15.8245759416
 20
12.0564284801
 30
0.0
 10
15.8262975409
 20
12.0540689308
 30
0.0
 10
15.8283645689
 20
12.0509595138
 30
0.0
 10
15.8306875365
 20
12.0470126925
 30
0.0
 10
15.8321188113
 20
12.0442652508
 30
0.0
 10
15.8328108305
 20
12.0428550639
 30
0.0
  0
SPLINE
  5
2E2
100
AcDbEntity
  8
LAYER_CHAMFER_FEAT
100
AcDbSpline
 62
7
  6
CONTINUOUS
 70
0
 71
3
 72
38
 73
34
 74
0
 42
0.0000001
 43
0.0000001
 44
0.0000000001
 40
0.0
 40
0.0
 40
0.0
 40
0.0
 40
0.02480383
 40
0.0496649978
 40
0.0746401918
 40
0.0997848225
 40
0.1251524132
 40
0.1507941396
 40
0.1767582796
 40
0.2030899811
 40
0.2298308345
 40
0.2570188071
 40
0.2846880215
 40
0.312868737
 40
0.3708531372
 40
0.4007116428
 40
0.4311647015
 40
0.4622241294
 40
0.4938982887
 40
0.5261924495
 40
0.5591088197
 40
0.5926467444
 40
0.6268029216
 40
0.661571423
 40
0.6969440485
 40
0.7329101799
 40
0.7694572705
 40
0.8065708095
 40
0.8442342332
 40
0.8824289072
 40
0.9211360526
 40
0.960335734
 40
1.0
 40
1.0
 40
1.0
 40
1.0
 10
15.4622127943
 20
11.6749039675
 30
0.0
 10
15.4617390672
 20
11.6733710027
 30
0.0
 10
15.460700049
 20
11.670328653
 30
0.0
 10
15.4588734583
 20
11.6658563981
 30
0.0
 10
15.4567801291
 20
11.6614780134
 30
0.0
 10
15.4544225301
 20
11.6571987548
 30
0.0
 10
15.451803463
 20
11.6530234207
 30
0.0
 10
15.448925921
 20
11.6489568254
 30
0.0
 10
15.4457933257
 20
11.6450035189
 30
0.0
 10
15.4424092504
 20
11.6411680163
 30
0.0
 10
15.4387776462
 20
11.6374545793
 30
0.0
 10
15.4349026932
 20
11.6338674183
 30
0.0
 10
15.430788725
 20
11.6304104498
 30
0.0
 10
15.4249362947
 20
11.6259380167
 30
0.0
 10
15.4186697905
 20
11.6217875448
 30
0.0
 10
15.4120418352
 20
11.6179602486
 30
0.0
 10
15.4068086819
 20
11.6152092432
 30
0.0
 10
15.4013686441
 20
11.6126094043
 30
0.0
 10
15.3957276817
 20
11.6101634506
 30
0.0
 10
15.3898922058
 20
11.6078741737
 30
0.0
 10
15.3838687873
 20
11.6057441121
 30
0.0
 10
15.377664228
 20
11.6037756304
 30
0.0
 10
15.3712855145
 20
11.6019709654
 30
0.0
 10
15.3647398508
 20
11.6003320826
 30
0.0
 10
15.3580346073
 20
11.5988608803
 30
0.0
 10
15.3511773575
 20
11.5975589406
 30
0.0
 10
15.3441758201
 20
11.5964277781
 30
0.0
 10
15.3370378967
 20
11.5954686254
 30
0.0
 10
15.3297716686
 20
11.5946825808
 30
0.0
 10
15.3223853139
 20
11.5940705049
 30
0.0
 10
15.3148870324
 20
11.5936330857
 30
0.0
 10
15.3072855279
 20
11.593370873
 30
0.0
 10
15.302183828
 20
11.5933133173
 30
0.0
 10
15.2996180531
 20
11.5933133173
 30
0.0
  0
SPLINE
  5
2E3
100
AcDbEntity
  8
LAYER_FEATURE
100
AcDbSpline
 62
7
  6
CONTINUOUS
 70
0
 71
3
 72
40
 73
36
 74
0
 42
0.0000001
 43
0.0000001
 44
0.0000000001
 40
0.0
 40
0.0
 40
0.0
 40
0.0
 40
0.0475538541
 40
0.0938227196
 40
0.1387496093
 40
0.1822938684
 40
0.2244187985
 40
0.2650921756
 40
0.3042902303
 40
0.3419971054
 40
0.3782059215
 40
0.4129201678
 40
0.4461546812
 40
0.4779377541
 40
0.5083122593
 40
0.5373379826
 40
0.5650935513
 40
0.5785276685
 40
0.5916833569
 40
0.617218673
 40
0.6418495979
 40
0.6657441715
 40
0.6890916887
 40
0.7120987932
 40
0.7349838336
 40
0.7579694553
 40
0.7812747296
 40
0.8051077348
 40
0.8296596877
 40
0.8551006797
 40
0.8815780025
 40
0.9092154787
 40
0.938114447
 40
0.9683555102
 40
1.0
 40
1.0
 40
1.0
 40
1.0
 10
15.7530904606
 20
11.9959446786
 30
0.0
 10
15.7535268253
 20
11.9973567554
 30
0.0
 10
15.7544210508
 20
12.0001326162
 30
0.0
 10
15.7558475817
 20
12.0042026379
 30
0.0
 10
15.7573390222
 20
12.0081163198
 30
0.0
 10
15.758892704
 20
12.0118667203
 30
0.0
 10
15.7605059337
 20
12.0154474442
 30
0.0
 10
15.7621759699
 20
12.0188522728
 30
0.0
 10
15.7638998851
 20
12.0220753146
 30
0.0
 10
15.7656747372
 20
12.0251110004
 30
0.0
 10
15.7674974931
 20
12.0279540943
 30
0.0
 10
15.7693650326
 20
12.030599707
 30
0.0
 10
15.7712742457
 20
12.0330432572
 30
0.0
 10
15.7732218965
 20
12.035280546
 30
0.0
 10
15.7752048191
 20
12.0373076908
 30
0.0
 10
15.7772196718
 20
12.0391210612
 30
0.0
 10
15.7789410967
 20
12.0404658142
 30
0.0
 10
15.7803302413
 20
12.0414273205
 30
0.0
 10
15.7816981807
 20
12.0422958778
 30
0.0
 10
15.7834235681
 20
12.0432479557
 30
0.0
 10
15.7855332095
 20
12.0441767207
 30
0.0
 10
15.7876578009
 20
12.0448782883
 30
0.0
 10
15.7897933533
 20
12.0453508594
 30
0.0
 10
15.7919357289
 20
12.0455930724
 30
0.0
 10
15.7940805426
 20
12.0456042782
 30
0.0
 10
15.7962233457
 20
12.0453843912
 30
0.0
 10
15.7983597478
 20
12.0449340816
 30
0.0
 10
15.8004855696
 20
12.0442546303
 30
0.0
 10
15.8025968537
 20
12.0433477319
 30
0.0
 10
15.804689933
 20
12.0422155634
 30
0.0
 10
15.80676128
 20
12.0408604892
 30
0.0
 10
15.8088075181
 20
12.0392852108
 30
0.0
 10
15.8108253676
 20
12.0374926591
 30
0.0
 10
15.812811458
 20
12.0354861079
 30
0.0
 10
15.8140829463
 20
12.0340413707
 30
0.0
 10
15.8147131718
 20
12.0332863241
 30
0.0
  0
SPLINE
  5
2E4
100
AcDbEntity
  8
LAYER_FEATURE
100
AcDbSpline
 62
7
  6
CONTINUOUS
 70
0
 71
3
 72
71
 73
67
 74
0
 42
0.0000001
 43
0.0000001
 44
0.0000000001
 40
0.0
 40
0.0
 40
0.0
 40
0.0
 40
0.0176368375
 40
0.0357022354
 40
0.054170857
 40
0.0730199998
 40
0.092225037
 40
0.1117597156
 40
0.1315970728
 40
0.1517093884
 40
0.1720680716
 40
0.1926438722
 40
0.2343256365
 40
0.2765122722
 40
0.3189545619
 40
0.361400671
 40
0.4035987242
 40
0.4452993829
 40
0.4862584702
 40
0.5063865273
 40
0.5262413462
 40
0.5457951088
 40
0.5650207958
 40
0.5838923581
 40
0.6023848314
 40
0.6204743486
 40
0.6381384276
 40
0.6553559291
 40
0.672107313
 40
0.6883747957
 40
0.7041424127
 40
0.7193964261
 40
0.734125342
 40
0.748320322
 40
0.7619754764
 40
0.7750881042
 40
0.7876593314
 40
0.7996943651
 40
0.8112032098
 40
0.8222012705
 40
0.8327099405
 40
0.8427575278
 40
0.8476201748
 40
0.852381655
 40
0.8616224119
 40
0.8705340513
 40
0.8791772823
 40
0.8834207759
 40
0.8876234312
 40
0.891794791
 40
0.89594467
 40
0.9000830632
 40
0.9042200759
 40
0.9083658235
 40
0.9125303406
 40
0.916723505
 40
0.9209549313
 40
0.9252339075
 40
0.9295693557
 40
0.9384406267
 40
0.9476332342
 40
0.9572006618
 40
0.967187966
 40
0.9776319318
 40
0.9885618374
 40
1.0
 40
1.0
 40
1.0
 40
1.0
 10
15.7530904606
 20
11.9959446786
 30
0.0
 10
15.7526418898
 20
11.9944931028
 30
0.0
 10
15.7517698607
 20
11.9915434361
 30
0.0
 10
15.7505501908
 20
11.9870387761
 30
0.0
 10
15.7494048929
 20
11.9824069796
 30
0.0
 10
15.7483359931
 20
11.9776563095
 30
0.0
 10
15.7473453137
 20
11.9727949721
 30
0.0
 10
15.7464346329
 20
11.9678314582
 30
0.0
 10
15.7456055186
 20
11.9627744663
 30
0.0
 10
15.7448594413
 20
11.9576328375
 30
0.0
 10
15.7441977
 20
11.9524155433
 30
0.0
 10
15.7434261044
 20
11.9453403109
 30
0.0
 10
15.7426822392
 20
11.9363719979
 30
0.0
 10
15.7421442255
 20
11.9255025031
 30
0.0
 10
15.7419608695
 20
11.9145553534
 30
0.0
 10
15.7421334554
 20
11.9036070713
 30
0.0
 10
15.7426607698
 20
11.8927340339
 30
0.0
 10
15.743539103
 20
11.8820122428
 30
0.0
 10
15.744564247
 20
11.8732152429
 30
0.0
 10
15.7455579625
 20
11.866313437
 30
0.0
 10
15.746382099
 20
11.8612510577
 30
0.0
 10
15.7472878849
 20
11.8562816437
 30
0.0
 10
15.7482737603
 20
11.8514138676
 30
0.0
 10
15.7493379928
 20
11.8466562419
 30
0.0
 10
15.7504787024
 20
11.8420170768
 30
0.0
 10
15.7516939198
 20
11.8375044814
 30
0.0
 10
15.7529814865
 20
11.83312633
 30
0.0
 10
15.7543391701
 20
11.8288902681
 30
0.0
 10
15.755764594
 20
11.8248036849
 30
0.0
 10
15.7572552512
 20
11.8208736997
 30
0.0
 10
15.7588085731
 20
11.8171071672
 30
0.0
 10
15.7604218203
 20
11.8135106311
 30
0.0
 10
15.7620922135
 20
11.8100903505
 30
0.0
 10
15.7638168556
 20
11.8068522628
 30
0.0
 10
15.7655927516
 20
11.8038019731
 30
0.0
 10
15.7674168879
 20
11.8009447807
 30
0.0
 10
15.7692861131
 20
11.7982856088
 30
0.0
 10
15.7711972916
 20
11.7958290698
 30
0.0
 10
15.7731472054
 20
11.7935794266
 30
0.0
 10
15.7751326261
 20
11.7915405605
 30
0.0
 10
15.7771502376
 20
11.7897161708
 30
0.0
 10
15.7788742284
 20
11.7883626835
 30
0.0
 10
15.7802655587
 20
11.7873945808
 30
0.0
 10
15.7816355755
 20
11.7865198762
 30
0.0
 10
15.7833637063
 20
11.7855605947
 30
0.0
 10
15.7854767931
 20
11.7846238105
 30
0.0
 10
15.7872616082
 20
11.7840295041
 30
0.0
 10
15.7886902691
 20
11.7836720921
 30
0.0
 10
15.7897573977
 20
11.7834629442
 30
0.0
 10
15.7908260389
 20
11.7833112479
 30
0.0
 10
15.7918957311
 20
11.7832170422
 30
0.0
 10
15.7929659807
 20
11.7831803952
 30
0.0
 10
15.7940362974
 20
11.7832013436
 30
0.0
 10
15.7951061896
 20
11.7832798456
 30
0.0
 10
15.7961751696
 20
11.7834158631
 30
0.0
 10
15.7972427467
 20
11.7836093571
 30
0.0
 10
15.7983084336
 20
11.7838602015
 30
0.0
 10
15.7993717782
 20
11.7841682734
 30
0.0
 10
15.8007964929
 20
11.7846588266
 30
0.0
 10
15.8025731687
 20
11.7854195198
 30
0.0
 10
15.8046703338
 20
11.7865515128
 30
0.0
 10
15.8067458581
 20
11.7879072784
 30
0.0
 10
15.8087961442
 20
11.7894841214
 30
0.0
 10
15.8108179652
 20
11.7912790701
 30
0.0
 10
15.8128079218
 20
11.7932888328
 30
0.0
 10
15.8140817762
 20
11.7947361357
 30
0.0
 10
15.8147131709
 20
11.7954925819
 30
0.0
  0
SPLINE
  5
2E5
100
AcDbEntity
  8
LAYER_FEATURE
100
AcDbSpline
 62
7
  6
CONTINUOUS
 70
0
 71
3
 72
48
 73
44
 74
0
 42
0.0000001
 43
0.0000001
 44
0.0000000001
 40
0.0
 40
0.0
 40
0.0
 40
0.0
 40
0.0396643523
 40
0.0788610101
 40
0.1175666436
 40
0.1557604653
 40
0.1934225059
 40
0.2305346713
 40
0.2670805039
 40
0.3030454124
 40
0.3384167761
 40
0.3731840802
 40
0.4073390551
 40
0.4408758217
 40
0.4737910421
 40
0.5060840754
 40
0.5377571383
 40
0.568815468
 40
0.5992674807
 40
0.6291249277
 40
0.6584030435
 40
0.6728314457
 40
0.6871224003
 40
0.7153021418
 40
0.7429703891
 40
0.75662301
 40
0.7701594371
 40
0.7968993643
 40
0.8232301385
 40
0.8362561149
 40
0.8491957114
 40
0.862054675
 40
0.874838952
 40
0.8875546748
 40
0.900208161
 40
0.9128058834
 40
0.9253544737
 40
0.9378606903
 40
0.950331413
 40
0.9627736192
 40
0.975194366
 40
0.9876007733
 40
1.0
 40
1.0
 40
1.0
 40
1.0
 10
15.0105696242
 20
12.7702092475
 30
0.0
 10
14.9996595452
 20
12.7702092475
 30
0.0
 10
14.9779671668
 20
12.7699646051
 30
0.0
 10
14.94564567
 20
12.7688495443
 30
0.0
 10
14.9137633445
 20
12.7669896856
 30
0.0
 10
14.8823564924
 20
12.7643871708
 30
0.0
 10
14.8514604023
 20
12.7610448794
 30
0.0
 10
14.8211099863
 20
12.756966582
 30
0.0
 10
14.7913394642
 20
12.7521568429
 30
0.0
 10
14.7621824205
 20
12.7466210564
 30
0.0
 10
14.7336717369
 20
12.7403654284
 30
0.0
 10
14.7058395642
 20
12.7333969672
 30
0.0
 10
14.6787172864
 20
12.725723474
 30
0.0
 10
14.6523354871
 20
12.717353532
 30
0.0
 10
14.6267239171
 20
12.7082964952
 30
0.0
 10
14.6019114649
 20
12.6985624777
 30
0.0
 10
14.5779261186
 20
12.6881623357
 30
0.0
 10
14.5547949671
 20
12.6771076799
 30
0.0
 10
14.5325440612
 20
12.6654107806
 30
0.0
 10
14.5111988089
 20
12.6530848325
 30
0.0
 10
14.4941031376
 20
12.6422479227
 30
0.0
 10
14.4809118221
 20
12.633274838
 30
0.0
 10
14.4681661013
 20
12.6241905753
 30
0.0
 10
14.452831674
 20
12.6124721268
 30
0.0
 10
14.4381902027
 20
12.6001687871
 30
0.0
 10
14.4269957482
 20
12.5900493111
 30
0.0
 10
14.4162369662
 20
12.5798353376
 30
0.0
 10
14.4034214355
 20
12.5667311569
 30
0.0
 10
14.3913874141
 20
12.5530916178
 30
0.0
 10
14.3823061229
 20
12.5419341349
 30
0.0
 10
14.375788286
 20
12.5334730926
 30
0.0
 10
14.3695415386
 20
12.5248921217
 30
0.0
 10
14.3635675916
 20
12.5161935967
 30
0.0
 10
14.3578681926
 20
12.5073799724
 30
0.0
 10
14.3524449143
 20
12.4984537695
 30
0.0
 10
14.3472993581
 20
12.4894174825
 30
0.0
 10
14.3424329394
 20
12.4802737016
 30
0.0
 10
14.3378470821
 20
12.4710249979
 30
0.0
 10
14.3335430787
 20
12.461674001
 30
0.0
 10
14.3295221468
 20
12.4522233758
 30
0.0
 10
14.3257854589
 20
12.4426757604
 30
0.0
 10
14.3223340601
 20
12.4330339971
 30
0.0
 10
14.3202237259
 20
12.4265442991
 30
0.0
 10
14.3192167767
 20
12.4232858053
 30
0.0
  0
SPLINE
  5
2E6
100
AcDbEntity
  8
02___PRT_ALL_AXES
100
AcDbSpline
 62
7
  6
CONTINUOUS
 70
0
 71
3
 72
66
 73
62
 74
0
 42
0.0000001
 43
0.0000001
 44
0.0000000001
 40
0.0
 40
0.0
 40
0.0
 40
0.0
 40
0.0171788923
 40
0.034530769
 40
0.0520448443
 40
0.0697107132
 40
0.0875171989
 40
0.1054529495
 40
0.1235062927
 40
0.1416652975
 40
0.159917808
 40
0.1782514655
 40
0.215110338
 40
0.2521417323
 40
0.2892423764
 40
0.3263084234
 40
0.3632363136
 40
0.3816171919
 40
0.3999252736
 40
0.4181480823
 40
0.4362733234
 40
0.4542889119
 40
0.4721830017
 40
0.4899440158
 40
0.5075606768
 40
0.525022036
 40
0.5423175053
 40
0.5594368898
 40
0.5763704231
 40
0.5931088018
 40
0.6096432202
 40
0.6259654076
 40
0.6420676677
 40
0.6579429215
 40
0.6735847493
 40
0.6889874336
 40
0.7041460053
 40
0.7190562928
 40
0.7337149752
 40
0.7481196342
 40
0.7622688071
 40
0.7761620435
 40
0.7897999625
 40
0.8031843148
 40
0.8163180403
 40
0.8292053233
 40
0.841851648
 40
0.8542638502
 40
0.8664501637
 40
0.8784202566
 40
0.890185254
 40
0.9017577476
 40
0.9131517883
 40
0.9243828585
 40
0.9354678166
 40
0.9464248149
 40
0.9572731891
 40
0.9680333187
 40
0.97872646
 40
0.9893745518
 40
1.0
 40
1.0
 40
1.0
 40
1.0
 10
15.1630905575
 20
12.4594042634
 30
0.0
 10
15.1686988643
 20
12.4594042634
 30
0.0
 10
15.1799723114
 20
12.4592808587
 30
0.0
 10
15.1969554789
 20
12.4587325451
 30
0.0
 10
15.2140822637
 20
12.4578205984
 30
0.0
 10
15.2313346513
 20
12.4565460073
 30
0.0
 10
15.2486947874
 20
12.4549100729
 30
0.0
 10
15.266144567
 20
12.4529145073
 30
0.0
 10
15.2836658439
 20
12.4505613869
 30
0.0
 10
15.3012403589
 20
12.4478531651
 30
0.0
 10
15.3188498987
 20
12.4447926532
 30
0.0
 10
15.3423918939
 20
12.4402386557
 30
0.0
 10
15.3717856416
 20
12.433684583
 30
0.0
 10
15.4068418021
 20
12.4244867798
 30
0.0
 10
15.4415991522
 20
12.413980127
 30
0.0
 10
15.4759126334
 20
12.4022084713
 30
0.0
 10
15.5040624073
 20
12.3913684961
 30
0.0
 10
15.5262392503
 20
12.3821032618
 30
0.0
 10
15.5426479447
 20
12.3748807848
 30
0.0
 10
15.5588402495
 20
12.3673820149
 30
0.0
 10
15.5747993811
 20
12.3596147204
 30
0.0
 10
15.5905087089
 20
12.3515869945
 30
0.0
 10
15.6059518854
 20
12.3433071871
 30
0.0
 10
15.6211128372
 20
12.3347839174
 30
0.0
 10
15.6359757872
 20
12.3260260562
 30
0.0
 10
15.6505252677
 20
12.3170427164
 30
0.0
 10
15.664746137
 20
12.3078432436
 30
0.0
 10
15.6786235946
 20
12.2984372059
 30
0.0
 10
15.6921432013
 20
12.2888343885
 30
0.0
 10
15.7052908915
 20
12.27904478
 30
0.0
 10
15.7180529861
 20
12.26907856
 30
0.0
 10
15.730416206
 20
12.2589460896
 30
0.0
 10
15.7423676863
 20
12.2486578984
 30
0.0
 10
15.7538949938
 20
12.2382246793
 30
0.0
 10
15.7649861379
 20
12.2276572729
 30
0.0
 10
15.7756295793
 20
12.2169666552
 30
0.0
 10
15.7858142423
 20
12.2061639261
 30
0.0
 10
15.7955295248
 20
12.1952602968
 30
0.0
 10
15.8047653151
 20
12.1842670825
 30
0.0
 10
15.8135119986
 20
12.1731956874
 30
0.0
 10
15.8217604636
 20
12.1620575912
 30
0.0
 10
15.8295021099
 20
12.1508643387
 30
0.0
 10
15.8367288556
 20
12.1396275266
 30
0.0
 10
15.8434331514
 20
12.1283587959
 30
0.0
 10
15.8496079837
 20
12.1170698182
 30
0.0
 10
15.8552468765
 20
12.1057722838
 30
0.0
 10
15.8603438971
 20
12.0944778925
 30
0.0
 10
15.8648936595
 20
12.0831983425
 30
0.0
 10
15.868891337
 20
12.0719453246
 30
0.0
 10
15.8723326649
 20
12.0607305114
 30
0.0
 10
15.875213939
 20
12.0495655484
 30
0.0
 10
15.8775320228
 20
12.0384620477
 30
0.0
 10
15.8792843514
 20
12.02743158
 30
0.0
 10
15.8804689474
 20
12.0164856681
 30
0.0
 10
15.8810844268
 20
12.0056357759
 30
0.0
 10
15.8811300013
 20
11.9948933024
 30
0.0
 10
15.8806054857
 20
11.9842695571
 30
0.0
 10
15.8795113187
 20
11.9737757956
 30
0.0
 10
15.8778485261
 20
11.96342302
 30
0.0
 10
15.8756189256
 20
11.9532226322
 30
0.0
 10
15.8737552289
 20
11.94652778
 30
0.0
 10
15.8727310612
 20
11.9432135818
 30
0.0
  0
SPLINE
  5
2E7
100
AcDbEntity
  8
LAYER_FEATURE
100
AcDbSpline
 62
7
  6
CONTINUOUS
 70
0
 71
3
 72
58
 73
54
 74
0
 42
0.0000001
 43
0.0000001
 44
0.0000000001
 40
0.0
 40
0.0
 40
0.0
 40
0.0
 40
0.0146674537
 40
0.0291018144
 40
0.0433109115
 40
0.0573076976
 40
0.0711065926
 40
0.0847248579
 40
0.0981822593
 40
0.11150079
 40
0.1247045197
 40
0.1378192697
 40
0.1508722482
 40
0.163891648
 40
0.176906205
 40
0.1899447342
 40
0.2030356634
 40
0.2162065813
 40
0.2294838117
 40
0.2428920434
 40
0.2564540144
 40
0.2701902452
 40
0.2841188319
 40
0.2982553254
 40
0.3126126522
 40
0.3272010682
 40
0.3420281696
 40
0.3570989579
 40
0.3879700539
 40
0.4037771273
 40
0.4198236516
 40
0.4525994973
 40
0.4693176633
 40
0.4862382103
 40
0.5206251319
 40
0.55564483
 40
0.5911577065
 40
0.62701127
 40
0.6630443968
 40
0.6990914904
 40
0.7349866046
 40
0.7705675774
 40
0.8056801777
 40
0.8230190327
 40
0.8401887944
 40
0.8739549284
 40
0.8905319728
 40
0.9068877846
 40
0.9388932509
 40
0.954538655
 40
0.9699381373
 40
0.985091885
 40
1.0
 40
1.0
 40
1.0
 40
1.0
 10
14.9819728405
 20
12.2643558629
 30
0.0
 10
14.9814574519
 20
12.2626880646
 30
0.0
 10
14.9805211361
 20
12.259351511
 30
0.0
 10
14.9793998537
 20
12.2543178164
 30
0.0
 10
14.9785759327
 20
12.2493075864
 30
0.0
 10
14.9780514455
 20
12.2443331749
 30
0.0
 10
14.9778277834
 20
12.2394064433
 30
0.0
 10
14.9779055725
 20
12.2345393336
 30
0.0
 10
14.9782847169
 20
12.2297436202
 30
0.0
 10
14.9789644162
 20
12.2250309375
 30
0.0
 10
14.9799431074
 20
12.2204127461
 30
0.0
 10
14.9812184694
 20
12.2159002906
 30
0.0
 10
14.9827874549
 20
12.2115045764
 30
0.0
 10
14.9846462929
 20
12.2072363407
 30
0.0
 10
14.9867904546
 20
12.2031060004
 30
0.0
 10
14.9892146914
 20
12.1991236224
 30
0.0
 10
14.9919130696
 20
12.1952989032
 30
0.0
 10
14.9948789855
 20
12.1916411428
 30
0.0
 10
14.9981051522
 20
12.1881591881
 30
0.0
 10
15.0015836639
 20
12.184861436
 30
0.0
 10
15.005306024
 20
12.1817558224
 30
0.0
 10
15.0092631599
 20
12.1788498005
 30
0.0
 10
15.0134454316
 20
12.1761502992
 30
0.0
 10
15.0178426835
 20
12.1736637489
 30
0.0
 10
15.0224442844
 20
12.1713960693
 30
0.0
 10
15.0272390628
 20
12.1693526561
 30
0.0
 10
15.0322156189
 20
12.1675382928
 30
0.0
 10
15.0391314001
 20
12.1654136184
 30
0.0
 10
15.0463122495
 20
12.1637876983
 30
0.0
 10
15.0536919352
 20
12.162649377
 30
0.0
 10
15.0613413933
 20
12.1618226226
 30
0.0
 10
15.0691463162
 20
12.1615014532
 30
0.0
 10
15.0770503993
 20
12.161667459
 30
0.0
 10
15.0851329419
 20
12.1621667464
 30
0.0
 10
15.0953423591
 20
12.1634145557
 30
0.0
 10
15.1075966164
 20
12.165871578
 30
0.0
 10
15.1198043081
 20
12.1692727362
 30
0.0
 10
15.1318483294
 20
12.1735852349
 30
0.0
 10
15.1436137307
 20
12.1787677983
 30
0.0
 10
15.1549879865
 20
12.1847707886
 30
0.0
 10
15.1658624365
 20
12.1915369383
 30
0.0
 10
15.1761327141
 20
12.1990013334
 30
0.0
 10
15.1841406234
 20
12.2057735916
 30
0.0
 10
15.1901528552
 20
12.2114778633
 30
0.0
 10
15.1958279336
 20
12.2172953725
 30
0.0
 10
15.2010975415
 20
12.2233746855
 30
0.0
 10
15.2059140264
 20
12.2296870774
 30
0.0
 10
15.2103381479
 20
12.2360261482
 30
0.0
 10
15.2142894658
 20
12.2425532239
 30
0.0
 10
15.2177182295
 20
12.249230341
 30
0.0
 10
15.2199942713
 20
12.2542378868
 30
0.0
 10
15.2219880758
 20
12.2592698876
 30
0.0
 10
15.2231354003
 20
12.2626606996
 30
0.0
 10
15.2236592454
 20
12.2643558629
 30
0.0
  0
SPLINE
  5
2E8
100
AcDbEntity
  8
LAYER_FEATURE
100
AcDbSpline
 62
7
  6
CONTINUOUS
 70
0
 71
3
 72
48
 73
44
 74
0
 42
0.0000001
 43
0.0000001
 44
0.0000000001
 40
0.0
 40
0.0
 40
0.0
 40
0.0
 40
0.0396643523
 40
0.0788610101
 40
0.1175666436
 40
0.1557604653
 40
0.1934225059
 40
0.2305346713
 40
0.2670805039
 40
0.3030454124
 40
0.3384167761
 40
0.3731840802
 40
0.4073390551
 40
0.4408758217
 40
0.4737910421
 40
0.5060840754
 40
0.5377571383
 40
0.568815468
 40
0.5992674807
 40
0.6291249277
 40
0.6584030435
 40
0.6728314457
 40
0.6871224003
 40
0.7153021418
 40
0.7429703891
 40
0.75662301
 40
0.7701594371
 40
0.7968993643
 40
0.8232301385
 40
0.8362561149
 40
0.8491957114
 40
0.862054675
 40
0.874838952
 40
0.8875546748
 40
0.900208161
 40
0.9128058834
 40
0.9253544737
 40
0.9378606903
 40
0.950331413
 40
0.9627736192
 40
0.975194366
 40
0.9876007733
 40
1.0
 40
1.0
 40
1.0
 40
1.0
 10
15.2637709984
 20
13.589569195
 30
0.0
 10
15.2528609195
 20
13.589569195
 30
0.0
 10
15.2311685411
 20
13.5893245525
 30
0.0
 10
15.1988470443
 20
13.5882094918
 30
0.0
 10
15.1669647188
 20
13.586349633
 30
0.0
 10
15.1355578667
 20
13.5837471182
 30
0.0
 10
15.1046617766
 20
13.5804048268
 30
0.0
 10
15.0743113606
 20
13.5763265295
 30
0.0
 10
15.0445408385
 20
13.5715167904
 30
0.0
 10
15.0153837948
 20
13.5659810039
 30
0.0
 10
14.9868731112
 20
13.5597253758
 30
0.0
 10
14.9590409385
 20
13.5527569147
 30
0.0
 10
14.9319186606
 20
13.5450834215
 30
0.0
 10
14.9055368614
 20
13.5367134794
 30
0.0
 10
14.8799252914
 20
13.5276564426
 30
0.0
 10
14.8551128392
 20
13.5179224252
 30
0.0
 10
14.8311274929
 20
13.5075222831
 30
0.0
 10
14.8079963414
 20
13.4964676274
 30
0.0
 10
14.7857454354
 20
13.4847707281
 30
0.0
 10
14.7644001832
 20
13.47244478
 30
0.0
 10
14.7473045119
 20
13.4616078701
 30
0.0
 10
14.7341131964
 20
13.4526347854
 30
0.0
 10
14.7213674756
 20
13.4435505228
 30
0.0
 10
14.7060330482
 20
13.4318320742
 30
0.0
 10
14.6913915769
 20
13.4195287346
 30
0.0
 10
14.6801971225
 20
13.4094092585
 30
0.0
 10
14.6694383405
 20
13.3991952851
 30
0.0
 10
14.6566228098
 20
13.3860911044
 30
0.0
 10
14.6445887884
 20
13.3724515652
 30
0.0
 10
14.6355074972
 20
13.3612940823
 30
0.0
 10
14.6289896602
 20
13.3528330401
 30
0.0
 10
14.6227429128
 20
13.3442520691
 30
0.0
 10
14.6167689659
 20
13.3355535442
 30
0.0
 10
14.6110695669
 20
13.3267399198
 30
0.0
 10
14.6056462886
 20
13.317813717
 30
0.0
 10
14.6005007324
 20
13.30877743
 30
0.0
 10
14.5956343137
 20
13.299633649
 30
0.0
 10
14.5910484564
 20
13.2903849454
 30
0.0
 10
14.586744453
 20
13.2810339485
 30
0.0
 10
14.5827235211
 20
13.2715833232
 30
0.0
 10
14.5789868332
 20
13.2620357079
 30
0.0
 10
14.5755354343
 20
13.2523939446
 30
0.0
 10
14.5734251002
 20
13.2459042465
 30
0.0
 10
14.572418151
 20
13.2426457528
 30
0.0
  0
SPLINE
  5
2E9
100
AcDbEntity
  8
LAYER_FEATURE
100
AcDbSpline
 62
7
  6
CONTINUOUS
 70
0
 71
3
 72
33
 73
29
 74
0
 42
0.0000001
 43
0.0000001
 44
0.0000000001
 40
0.0
 40
0.0
 40
0.0
 40
0.0
 40
0.0272331972
 40
0.0549143629
 40
0.0830449872
 40
0.1116247167
 40
0.1700895944
 40
0.1999670264
 40
0.2302485818
 40
0.2609145475
 40
0.2919423041
 40
0.3233065918
 40
0.3549797593
 40
0.3869320196
 40
0.4191317082
 40
0.4841280464
 40
0.5168649392
 40
0.5497087141
 40
0.6155565227
 40
0.6484950384
 40
0.681389179
 40
0.7468834648
 40
0.7794204595
 40
0.811766231
 40
0.8757372686
 40
0.9073100825
 40
0.9385641472
 40
1.0
 40
1.0
 40
1.0
 40
1.0
 10
14.9617674132
 20
12.2439670559
 30
0.0
 10
14.9624222267
 20
12.2460860334
 30
0.0
 10
14.9638563689
 20
12.2503245422
 30
0.0
 10
14.9663486398
 20
12.2566145377
 30
0.0
 10
14.9691936808
 20
12.2628739523
 30
0.0
 10
14.9734796368
 20
12.2712203487
 30
0.0
 10
14.9784188088
 20
12.2793792507
 30
0.0
 10
14.9839488822
 20
12.2873029606
 30
0.0
 10
14.9884371885
 20
12.2931852433
 30
0.0
 10
14.9932246034
 20
12.2989486589
 30
0.0
 10
14.9982997719
 20
12.3045796401
 30
0.0
 10
15.003650445
 20
12.3100646013
 30
0.0
 10
15.009263726
 20
12.3153903617
 30
0.0
 10
15.0151262391
 20
12.3205442381
 30
0.0
 10
15.0232806195
 20
12.3271901098
 30
0.0
 10
15.0318493066
 20
12.3334178389
 30
0.0
 10
15.0407768475
 20
12.3391988921
 30
0.0
 10
15.0499647631
 20
12.3446930098
 30
0.0
 10
15.0594546754
 20
12.3497015092
 30
0.0
 10
15.069192542
 20
12.3541977262
 30
0.0
 10
15.0790570874
 20
12.3583348045
 30
0.0
 10
15.0891056373
 20
12.3619328007
 30
0.0
 10
15.0992831805
 20
12.3649653747
 30
0.0
 10
15.1094443958
 20
12.3675934506
 30
0.0
 10
15.1196677415
 20
12.3696432597
 30
0.0
 10
15.129894686
 20
12.3710885237
 30
0.0
 10
15.1399642115
 20
12.3721137859
 30
0.0
 10
15.1475170122
 20
12.3724326691
 30
0.0
 10
15.1525202932
 20
12.3724326691
 30
0.0
  0
SPLINE
  5
2EA
100
AcDbEntity
  8
LAYER_FEATURE
100
AcDbSpline
 62
7
  6
CONTINUOUS
 70
0
 71
3
 72
24
 73
20
 74
0
 42
0.0000001
 43
0.0000001
 44
0.0000000001
 40
0.0
 40
0.0
 40
0.0
 40
0.0
 40
0.1400677854
 40
0.208456534
 40
0.2756892896
 40
0.3417464071
 40
0.4066224764
 40
0.4703261748
 40
0.5328812945
 40
0.5943271799
 40
0.6547190955
 40
0.7141282902
 40
0.7726417472
 40
0.8303615456
 40
0.887403786
 40
0.915715381
 40
0.9439067384
 40
0.9719955499
 40
1.0
 40
1.0
 40
1.0
 40
1.0
 10
15.1525202932
 20
12.3724326691
 30
0.0
 10
15.1579696917
 20
12.3724326691
 30
0.0
 10
15.1660879218
 20
12.3720594178
 30
0.0
 10
15.1767385945
 20
12.3707643121
 30
0.0
 10
15.1844724757
 20
12.3694178865
 30
0.0
 10
15.1919905174
 20
12.367692731
 30
0.0
 10
15.1992704339
 20
12.3655939081
 30
0.0
 10
15.2062901671
 20
12.3631276017
 30
0.0
 10
15.2130285374
 20
12.3603010915
 30
0.0
 10
15.2194651468
 20
12.3571227339
 30
0.0
 10
15.2255804787
 20
12.3536019413
 30
0.0
 10
15.2313559235
 20
12.3497491871
 30
0.0
 10
15.2367739042
 20
12.3455759002
 30
0.0
 10
15.2418176838
 20
12.3410947671
 30
0.0
 10
15.2457063683
 20
12.3371045094
 30
0.0
 10
15.2486107809
 20
12.3337749071
 30
0.0
 10
15.2506813637
 20
12.331215772
 30
0.0
 10
15.2526477778
 20
12.3285907706
 30
0.0
 10
15.2538899604
 20
12.3267957112
 30
0.0
 10
15.2544928913
 20
12.3258882202
 30
0.0
  0
SPLINE
  5
2EB
100
AcDbEntity
  8
LAYER_FEATURE
100
AcDbSpline
 62
7
  6
CONTINUOUS
 70
0
 71
3
 72
58
 73
54
 74
0
 42
0.0000001
 43
0.0000001
 44
0.0000000001
 40
0.0
 40
0.0
 40
0.0
 40
0.0
 40
0.014908115
 40
0.0300618627
 40
0.045461345
 40
0.0611067491
 40
0.0931122154
 40
0.1094680272
 40
0.1260450716
 40
0.1598112056
 40
0.1769809673
 40
0.1943198223
 40
0.2294324226
 40
0.2650133954
 40
0.3009085096
 40
0.3369556032
 40
0.37298873
 40
0.4088422935
 40
0.44435517
 40
0.4793748681
 40
0.5137617897
 40
0.5306823367
 40
0.5474005027
 40
0.5801763484
 40
0.5962228727
 40
0.6120299461
 40
0.6429010421
 40
0.6579718304
 40
0.6727989318
 40
0.6873873478
 40
0.7017446746
 40
0.7158811681
 40
0.7298097548
 40
0.7435459856
 40
0.7571079566
 40
0.7705161883
 40
0.7837934187
 40
0.7969643366
 40
0.8100552658
 40
0.823093795
 40
0.836108352
 40
0.8491277518
 40
0.8621807303
 40
0.8752954803
 40
0.88849921
 40
0.9018177407
 40
0.9152751421
 40
0.9288934074
 40
0.9426923024
 40
0.9566890885
 40
0.9708981856
 40
0.9853325463
 40
1.0
 40
1.0
 40
1.0
 40
1.0
 10
14.9819728405
 20
12.2643558629
 30
0.0
 10
14.9824966856
 20
12.2660510261
 30
0.0
 10
14.9836440101
 20
12.2694418381
 30
0.0
 10
14.9856378146
 20
12.2744738389
 30
0.0
 10
14.9879138564
 20
12.2794813847
 30
0.0
 10
14.9913426201
 20
12.2861585018
 30
0.0
 10
14.995293938
 20
12.2926855775
 30
0.0
 10
14.9997180595
 20
12.2990246483
 30
0.0
 10
15.0045345444
 20
12.3053370402
 30
0.0
 10
15.0098041523
 20
12.3114163532
 30
0.0
 10
15.0154792307
 20
12.3172338624
 30
0.0
 10
15.0214914625
 20
12.3229381341
 30
0.0
 10
15.0294993718
 20
12.3297103923
 30
0.0
 10
15.0397696494
 20
12.3371747874
 30
0.0
 10
15.0506440994
 20
12.3439409371
 30
0.0
 10
15.0620183552
 20
12.3499439274
 30
0.0
 10
15.0737837565
 20
12.3551264908
 30
0.0
 10
15.0858277778
 20
12.3594389895
 30
0.0
 10
15.0980354695
 20
12.3628401477
 30
0.0
 10
15.1102897268
 20
12.3652971701
 30
0.0
 10
15.120499144
 20
12.3665449793
 30
0.0
 10
15.1285816866
 20
12.3670442667
 30
0.0
 10
15.1364857697
 20
12.3672102725
 30
0.0
 10
15.1442906926
 20
12.3668891031
 30
0.0
 10
15.1519401507
 20
12.3660623488
 30
0.0
 10
15.1593198364
 20
12.3649240275
 30
0.0
 10
15.1665006858
 20
12.3632981073
 30
0.0
 10
15.173416467
 20
12.3611734329
 30
0.0
 10
15.1783930231
 20
12.3593590696
 30
0.0
 10
15.1831878015
 20
12.3573156564
 30
0.0
 10
15.1877894024
 20
12.3550479768
 30
0.0
 10
15.1921866543
 20
12.3525614265
 30
0.0
 10
15.196368926
 20
12.3498619252
 30
0.0
 10
15.2003260619
 20
12.3469559034
 30
0.0
 10
15.204048422
 20
12.3438502897
 30
0.0
 10
15.2075269337
 20
12.3405525376
 30
0.0
 10
15.2107531004
 20
12.3370705829
 30
0.0
 10
15.2137190163
 20
12.3334128225
 30
0.0
 10
15.2164173945
 20
12.3295881033
 30
0.0
 10
15.2188416313
 20
12.3256057254
 30
0.0
 10
15.220985793
 20
12.321475385
 30
0.0
 10
15.222844631
 20
12.3172071493
 30
0.0
 10
15.2244136165
 20
12.3128114351
 30
0.0
 10
15.2256889785
 20
12.3082989796
 30
0.0
 10
15.2266676697
 20
12.3036807882
 30
0.0
 10
15.227347369
 20
12.2989681055
 30
0.0
 10
15.2277265134
 20
12.2941723921
 30
0.0
 10
15.2278043025
 20
12.2893052824
 30
0.0
 10
15.2275806404
 20
12.2843785508
 30
0.0
 10
15.2270561532
 20
12.2794041393
 30
0.0
 10
15.2262322322
 20
12.2743939093
 30
0.0
 10
15.2251109498
 20
12.2693602147
 30
0.0
 10
15.224174634
 20
12.2660236611
 30
0.0
 10
15.2236592454
 20
12.2643558629
 30
0.0
  0
SPLINE
  5
2EC
100
AcDbEntity
  8
LAYER_FEATURE
100
AcDbSpline
 62
7
  6
CONTINUOUS
 70
0
 71
3
 72
105
 73
101
 74
0
 42
0.0000001
 43
0.0000001
 44
0.0000000001
 40
0.0
 40
0.0
 40
0.0
 40
0.0
 40
0.0182090275
 40
0.0366763026
 40
0.0553783177
 40
0.074290193
 40
0.0933861545
 40
0.1126395412
 40
0.1320229779
 40
0.1515085022
 40
0.1710676979
 40
0.1906718239
 40
0.2102919422
 40
0.2298990452
 40
0.2494641815
 40
0.2689585841
 40
0.2883537975
 40
0.3076218072
 40
0.3267351709
 40
0.3456671521
 40
0.3643918577
 40
0.3828843806
 40
0.4011209461
 40
0.4190790651
 40
0.4367376939
 40
0.445448875
 40
0.454078044
 40
0.462623051
 40
0.4710818775
 40
0.4794526278
 40
0.4877335478
 40
0.4959230248
 40
0.504019594
 40
0.5120219532
 40
0.5199289566
 40
0.5277396383
 40
0.5354532062
 40
0.5430690578
 40
0.5505867881
 40
0.5580061907
 40
0.5653272795
 40
0.5725502813
 40
0.5796756591
 40
0.5936353541
 40
0.6072160918
 40
0.6204306813
 40
0.633296379
 40
0.6396058794
 40
0.645836768
 40
0.6519925197
 40
0.6580769115
 40
0.664094012
 40
0.6700481776
 40
0.6759440477
 40
0.6817865264
 40
0.6875807768
 40
0.6933321958
 40
0.6990463983
 40
0.7047291927
 40
0.7103865518
 40
0.7160245878
 40
0.7216495168
 40
0.7272676281
 40
0.7328852491
 40
0.7385087093
 40
0.7441443059
 40
0.7497982699
 40
0.7554767297
 40
0.7611856835
 40
0.766930966
 40
0.7727182233
 40
0.7785528896
 40
0.7844401619
 40
0.7903849894
 40
0.79639205
 40
0.8024657461
 40
0.8086101923
 40
0.8148292074
 40
0.8211263187
 40
0.8339658508
 40
0.847152747
 40
0.8538828227
 40
0.8607059595
 40
0.867623668
 40
0.8746371859
 40
0.8817475002
 40
0.8889553475
 40
0.8962612223
 40
0.9036653944
 40
0.9111679025
 40
0.9187685799
 40
0.9264670485
 40
0.9342627357
 40
0.9421548819
 40
0.9501425412
 40
0.9582246027
 40
0.9663997813
 40
0.9746666407
 40
0.9830235915
 40
1.0
 40
1.0
 40
1.0
 40
1.0
 10
15.0578688702
 20
12.7414836473
 30
0.0
 10
15.071653192
 20
12.7414836473
 30
0.0
 10
15.0994191444
 20
12.7410410691
 30
0.0
 10
15.1413012524
 20
12.73908591
 30
0.0
 10
15.1836368946
 20
12.7358388594
 30
0.0
 10
15.2263326346
 20
12.7313070262
 30
0.0
 10
15.269294836
 20
12.725500387
 30
0.0
 10
15.3124291303
 20
12.7184316878
 30
0.0
 10
15.3556407956
 20
12.7101164546
 30
0.0
 10
15.3988349219
 20
12.7005729531
 30
0.0
 10
15.4419166345
 20
12.6898221476
 30
0.0
 10
15.4847913006
 20
12.6778876535
 30
0.0
 10
15.5273647395
 20
12.6647956862
 30
0.0
 10
15.569543431
 20
12.6505750032
 30
0.0
 10
15.611234722
 20
12.6352568397
 30
0.0
 10
15.6523470341
 20
12.6188748459
 30
0.0
 10
15.6927900648
 20
12.6014650064
 30
0.0
 10
15.7324749865
 20
12.5830655596
 30
0.0
 10
15.7713146434
 20
12.5637169116
 30
0.0
 10
15.8092237412
 20
12.5434615474
 30
0.0
 10
15.8461190444
 20
12.5223439281
 30
0.0
 10
15.8819195302
 20
12.5004104189
 30
0.0
 10
15.9165466863
 20
12.4777090959
 30
0.0
 10
15.9499242392
 20
12.4542899413
 30
0.0
 10
15.9767568974
 20
12.4341281509
 30
0.0
 10
15.9975278558
 20
12.4176789138
 30
0.0
 10
16.0126789213
 20
12.4052506115
 30
0.0
 10
16.0274643122
 20
12.392682468
 30
0.0
 10
16.0418759722
 20
12.3799813753
 30
0.0
 10
16.0559059452
 20
12.3671542935
 30
0.0
 10
16.0695465365
 20
12.3542082823
 30
0.0
 10
16.0827902459
 20
12.3411504504
 30
0.0
 10
16.0956297809
 20
12.3279879543
 30
0.0
 10
16.1080581072
 20
12.3147280469
 30
0.0
 10
16.1200683622
 20
12.3013779767
 30
0.0
 10
16.1316539705
 20
12.2879451
 30
0.0
 10
16.1428085435
 20
12.274436772
 30
0.0
 10
16.1535259499
 20
12.2608604081
 30
0.0
 10
16.1638003068
 20
12.2472234724
 30
0.0
 10
16.1736259391
 20
12.2335334121
 30
0.0
 10
16.1829974496
 20
12.2197978052
 30
0.0
 10
16.191909738
 20
12.2060240146
 30
0.0
 10
16.2030967091
 20
12.18774436
 30
0.0
 10
16.215931538
 20
12.1648399112
 30
0.0
 10
16.2295318426
 20
12.1371298348
 30
0.0
 10
16.2411938267
 20
12.1094452266
 30
0.0
 10
16.2493273784
 20
12.0862957103
 30
0.0
 10
16.254818383
 20
12.0678606893
 30
0.0
 10
16.2584112138
 20
12.0541684409
 30
0.0
 10
16.2615029184
 20
12.0405291123
 30
0.0
 10
16.2640918337
 20
12.026950068
 30
0.0
 10
16.2661764604
 20
12.0134388164
 30
0.0
 10
16.2677555858
 20
12.000002789
 30
0.0
 10
16.2688283296
 20
11.986649403
 30
0.0
 10
16.2693939928
 20
11.9733860245
 30
0.0
 10
16.2694522715
 20
11.9602199883
 30
0.0
 10
16.2690030465
 20
11.9471585778
 30
0.0
 10
16.2680465393
 20
11.9342090297
 30
0.0
 10
16.2665832573
 20
11.9213785221
 30
0.0
 10
16.2646139375
 20
11.9086741821
 30
0.0
 10
16.2621397046
 20
11.8961030568
 30
0.0
 10
16.2591618547
 20
11.8836721425
 30
0.0
 10
16.2556820744
 20
11.8713883395
 30
0.0
 10
16.2517022751
 20
11.8592584782
 30
0.0
 10
16.2472246597
 20
11.8472893042
 30
0.0
 10
16.242251764
 20
11.8354874478
 30
0.0
 10
16.2367863138
 20
11.8238594806
 30
0.0
 10
16.230831421
 20
11.8124118209
 30
0.0
 10
16.2243903764
 20
11.8011508258
 30
0.0
 10
16.2174668017
 20
11.7900827105
 30
0.0
 10
16.2100645751
 20
11.7792135768
 30
0.0
 10
16.2021878004
 20
11.7685494375
 30
0.0
 10
16.1938409149
 20
11.7580961268
 30
0.0
 10
16.1850285232
 20
11.7478594254
 30
0.0
 10
16.1757555647
 20
11.7378449226
 30
0.0
 10
16.1660271657
 20
11.7280581159
 30
0.0
 10
16.1558487496
 20
11.7185043929
 30
0.0
 10
16.1452258599
 20
11.7091888692
 30
0.0
 10
16.130382385
 20
11.6970148256
 30
0.0
 10
16.1107176354
 20
11.6824242644
 30
0.0
 10
16.0899262614
 20
11.6688832754
 30
0.0
 10
16.0725021753
 20
11.6585757747
 30
0.0
 10
16.0589460291
 20
11.6510631008
 30
0.0
 10
16.0449990399
 20
11.6438256393
 30
0.0
 10
16.0306687374
 20
11.6368672128
 30
0.0
 10
16.0159630357
 20
11.6301916672
 30
0.0
 10
16.0008900069
 20
11.6238026451
 30
0.0
 10
15.9854579469
 20
11.6177036155
 30
0.0
 10
15.9696753223
 20
11.6118979518
 30
0.0
 10
15.9535508199
 20
11.6063887835
 30
0.0
 10
15.9370932883
 20
11.6011791616
 30
0.0
 10
15.920311776
 20
11.5962719146
 30
0.0
 10
15.9032155028
 20
11.5916697275
 30
0.0
 10
15.885813857
 20
11.5873751411
 30
0.0
 10
15.8681164086
 20
11.58339047
 30
0.0
 10
15.850132865
 20
11.5797179376
 30
0.0
 10
15.8318731479
 20
11.576359524
 30
0.0
 10
15.8133471546
 20
11.5733170681
 30
0.0
 10
15.7881741296
 20
11.569665082
 30
0.0
 10
15.7691211653
 20
11.56743577
 30
0.0
 10
15.7563329785
 20
11.5661644643
 30
0.0
  0
SPLINE
  5
2ED
100
AcDbEntity
  8
LAYER_FEATURE
100
AcDbSpline
 62
7
  6
CONTINUOUS
 70
0
 71
3
 72
72
 73
68
 74
0
 42
0.0000001
 43
0.0000001
 44
0.0000000001
 40
0.0
 40
0.0
 40
0.0
 40
0.0
 40
0.0201823146
 40
0.0401430284
 40
0.0598713954
 40
0.0793582529
 40
0.0985945089
 40
0.1175718968
 40
0.1362828288
 40
0.1547204554
 40
0.172878729
 40
0.1907524446
 40
0.2083373015
 40
0.2256299545
 40
0.2426280691
 40
0.2593303809
 40
0.2757367588
 40
0.2918482703
 40
0.3076672389
 40
0.3231973067
 40
0.3384434959
 40
0.3534122712
 40
0.3681115915
 40
0.3753635039
 40
0.3825517458
 40
0.3967422224
 40
0.4106964884
 40
0.4244288326
 40
0.437955144
 40
0.4512928791
 40
0.464461004
 40
0.4774799106
 40
0.4903712984
 40
0.5031580263
 40
0.5158639355
 40
0.5285136462
 40
0.5411323317
 40
0.5537454733
 40
0.5663786079
 40
0.579057073
 40
0.591805758
 40
0.6046488683
 40
0.6176097125
 40
0.6307105128
 40
0.6439722452
 40
0.6574145061
 40
0.6710554159
 40
0.6849115489
 40
0.6989978911
 40
0.7133278176
 40
0.7279130935
 40
0.7427638954
 40
0.7578888444
 40
0.7732950478
 40
0.7889881461
 40
0.8049723726
 40
0.8212506155
 40
0.8378244796
 40
0.8546943467
 40
0.8718594356
 40
0.8893178688
 40
0.9070667326
 40
0.9251021345
 40
0.9434192549
 40
0.9620124043
 40
0.9808750768
 40
1.0
 40
1.0
 40
1.0
 40
1.0
 10
15.0578688702
 20
12.7414836473
 30
0.0
 10
15.0487468692
 20
12.7414836473
 30
0.0
 10
15.0306023966
 20
12.7412921919
 30
0.0
 10
15.0035537095
 20
12.7404203004
 30
0.0
 10
14.9768446662
 20
12.7389660222
 30
0.0
 10
14.9505019483
 20
12.736930854
 30
0.0
 10
14.9245513906
 20
12.7343167449
 30
0.0
 10
14.8990186669
 20
12.7311262784
 30
0.0
 10
14.8739289593
 20
12.7273625918
 30
0.0
 10
14.8493070264
 20
12.7230293799
 30
0.0
 10
14.8251771653
 20
12.7181308954
 30
0.0
 10
14.8015631855
 20
12.7126719358
 30
0.0
 10
14.7784883826
 20
12.7066578601
 30
0.0
 10
14.7559755185
 20
12.700094566
 30
0.0
 10
14.734046803
 20
12.6929884818
 30
0.0
 10
14.712723874
 20
12.6853465576
 30
0.0
 10
14.6920277732
 20
12.6771762651
 30
0.0
 10
14.6719789239
 20
12.6684855988
 30
0.0
 10
14.6525971146
 20
12.6592830462
 30
0.0
 10
14.6339015065
 20
12.6495776004
 30
0.0
 10
14.6159105341
 20
12.6393786862
 30
0.0
 10
14.5986421841
 20
12.628696391
 30
0.0
 10
14.584806381
 20
12.6193585112
 30
0.0
 10
14.574122556
 20
12.6116553195
 30
0.0
 10
14.5637861614
 20
12.6038684455
 30
0.0
 10
14.5513389735
 20
12.5938547165
 30
0.0
 10
14.5371244448
 20
12.5813472418
 30
0.0
 10
14.5237106006
 20
12.568412838
 30
0.0
 10
14.5111110411
 20
12.5550642979
 30
0.0
 10
14.4993383937
 20
12.5413146957
 30
0.0
 10
14.4884045558
 20
12.527177572
 30
0.0
 10
14.4783205906
 20
12.5126668922
 30
0.0
 10
14.4690967302
 20
12.497797045
 30
0.0
 10
14.4607423609
 20
12.4825828232
 30
0.0
 10
14.4532660007
 20
12.4670394132
 30
0.0
 10
14.4466752761
 20
12.4511823785
 30
0.0
 10
14.4409768782
 20
12.4350276464
 30
0.0
 10
14.4361765708
 20
12.4185914691
 30
0.0
 10
14.4322791754
 20
12.4018903974
 30
0.0
 10
14.4292885673
 20
12.3849412495
 30
0.0
 10
14.427207654
 20
12.3677610838
 30
0.0
 10
14.4260383783
 20
12.3503671654
 30
0.0
 10
14.4257817433
 20
12.3327769349
 30
0.0
 10
14.4264378183
 20
12.3150079848
 30
0.0
 10
14.4280057516
 20
12.2970780399
 30
0.0
 10
14.4304837573
 20
12.2790049361
 30
0.0
 10
14.4338691535
 20
12.2608066048
 30
0.0
 10
14.438158373
 20
12.2425010592
 30
0.0
 10
14.4433469768
 20
12.2241063845
 30
0.0
 10
14.4494296486
 20
12.205640724
 30
0.0
 10
14.4564001994
 20
12.1871222654
 30
0.0
 10
14.4642515938
 20
12.1685692331
 30
0.0
 10
14.472975953
 20
12.1499998741
 30
0.0
 10
14.4825645629
 20
12.1314324489
 30
0.0
 10
14.4930078601
 20
12.1128852071
 30
0.0
 10
14.504295457
 20
12.0943763798
 30
0.0
 10
14.5164161525
 20
12.0759241637
 30
0.0
 10
14.5293579415
 20
12.0575467064
 30
0.0
 10
14.5431080158
 20
12.039262087
 30
0.0
 10
14.5576527678
 20
12.0210882925
 30
0.0
 10
14.5729778184
 20
12.0030432107
 30
0.0
 10
14.5890680267
 20
11.9851446094
 30
0.0
 10
14.6059075077
 20
11.9674101202
 30
0.0
 10
14.6234796177
 20
11.9498572215
 30
0.0
 10
14.6417670375
 20
11.9325031786
 30
0.0
 10
14.6607515684
 20
11.9153652165
 30
0.0
 10
14.6737724666
 20
11.9041706436
 30
0.0
 10
14.6803926102
 20
11.8986124208
 30
0.0
  0
SPLINE
  5
2EE
100
AcDbEntity
  8
LAYER_FEATURE
100
AcDbSpline
 62
7
  6
CONTINUOUS
 70
0
 71
3
 72
78
 73
74
 74
0
 42
0.0000001
 43
0.0000001
 44
0.0000000001
 40
0.0
 40
0.0
 40
0.0
 40
0.0
 40
0.017178655
 40
0.0345302498
 40
0.0520440764
 40
0.0697096827
 40
0.087515904
 40
0.1054513899
 40
0.1235044656
 40
0.1416632023
 40
0.159915443
 40
0.1782488293
 40
0.1966508308
 40
0.215108772
 40
0.2336098599
 40
0.2521412119
 40
0.2706898828
 40
0.2892428914
 40
0.3077872477
 40
0.3263099791
 40
0.3447981581
 40
0.3632389292
 40
0.3816195358
 40
0.3999273473
 40
0.4181498867
 40
0.4362748592
 40
0.4542901805
 40
0.4721840057
 40
0.4899447581
 40
0.5075611591
 40
0.5250222595
 40
0.5423174719
 40
0.5594366031
 40
0.5763698869
 40
0.593108019
 40
0.6096421926
 40
0.6259641373
 40
0.6420661588
 40
0.6579411786
 40
0.673582776
 40
0.6889852326
 40
0.7041435791
 40
0.7190536455
 40
0.7337121116
 40
0.7481165581
 40
0.762265522
 40
0.7761585524
 40
0.7897962694
 40
0.803180424
 40
0.8163139554
 40
0.8292010476
 40
0.8418471852
 40
0.854259204
 40
0.8603802801
 40
0.8664460363
 40
0.878415952
 40
0.890180775
 40
0.9017530972
 40
0.91314697
 40
0.9243778744
 40
0.9354626685
 40
0.9409563763
 40
0.9464204657
 40
0.9518573915
 40
0.9572696697
 40
0.96265988
 40
0.9680306554
 40
0.9733846777
 40
0.978724673
 40
0.9840534016
 40
0.9893736548
 40
0.9946882449
 40
1.0
 40
1.0
 40
1.0
 40
1.0
 10
15.0105696242
 20
12.7702092475
 30
0.0
 10
15.0211586757
 20
12.7702092475
 30
0.0
 10
15.04244406
 20
12.7699762491
 30
0.0
 10
15.0745099705
 20
12.7689409756
 30
0.0
 10
15.1068470338
 20
12.7672191317
 30
0.0
 10
15.1394212624
 20
12.7648125746
 30
0.0
 10
15.1721989247
 20
12.7617237677
 30
0.0
 10
15.2051458457
 20
12.7579559446
 30
0.0
 10
15.2382277531
 20
12.7535130196
 30
0.0
 10
15.2714102103
 20
12.7483996234
 30
0.0
 10
15.3046586792
 20
12.7426210799
 30
0.0
 10
15.3379385521
 20
12.736183404
 30
0.0
 10
15.371215187
 20
12.7290932955
 30
0.0
 10
15.4044539439
 20
12.7213581311
 30
0.0
 10
15.4376202225
 20
12.7129859651
 30
0.0
 10
15.4706794978
 20
12.7039855154
 30
0.0
 10
15.5035973557
 20
12.6943661517
 30
0.0
 10
15.536339529
 20
12.6841378873
 30
0.0
 10
15.5688719324
 20
12.6733113675
 30
0.0
 10
15.6011606988
 20
12.6618978602
 30
0.0
 10
15.6331722171
 20
12.6499092503
 30
0.0
 10
15.6648731648
 20
12.6373580192
 30
0.0
 10
15.6962305428
 20
12.6242572322
 30
0.0
 10
15.7272117094
 20
12.6106205255
 30
0.0
 10
15.7577844139
 20
12.5964620907
 30
0.0
 10
15.7879168332
 20
12.581796665
 30
0.0
 10
15.8175776054
 20
12.5666395154
 30
0.0
 10
15.8467358596
 20
12.5510064177
 30
0.0
 10
15.8753612483
 20
12.5349136408
 30
0.0
 10
15.9034239781
 20
12.5183779298
 30
0.0
 10
15.9308948419
 20
12.5014164875
 30
0.0
 10
15.9577452535
 20
12.4840469638
 30
0.0
 10
15.9839472741
 20
12.4662874297
 30
0.0
 10
16.0094736399
 20
12.4481563584
 30
0.0
 10
16.0342977897
 20
12.429672606
 30
0.0
 10
16.0583938924
 20
12.4108553906
 30
0.0
 10
16.0817368766
 20
12.3917242745
 30
0.0
 10
16.1043024593
 20
12.3722991462
 30
0.0
 10
16.1260671655
 20
12.3526001927
 30
0.0
 10
16.1470083516
 20
12.3326478799
 30
0.0
 10
16.1671042281
 20
12.3124629306
 30
0.0
 10
16.1863338808
 20
12.2920663009
 30
0.0
 10
16.2046772989
 20
12.2714791637
 30
0.0
 10
16.2221153916
 20
12.2507228829
 30
0.0
 10
16.2386300021
 20
12.2298189883
 30
0.0
 10
16.254203925
 20
12.208789155
 30
0.0
 10
16.2688209215
 20
12.1876551799
 30
0.0
 10
16.2824657346
 20
12.1664389615
 30
0.0
 10
16.2951241143
 20
12.1451624743
 30
0.0
 10
16.3067828079
 20
12.1238477738
 30
0.0
 10
16.3174296148
 20
12.1025168609
 30
0.0
 10
16.3270532348
 20
12.0811920861
 30
0.0
 10
16.3342449184
 20
12.0633627903
 30
0.0
 10
16.339469018
 20
12.0491271396
 30
0.0
 10
16.3442986774
 20
12.0350407268
 30
0.0
 10
16.3496893077
 20
12.0174734361
 30
0.0
 10
16.3551293903
 20
11.996393014
 30
0.0
 10
16.359506174
 20
11.9754284807
 30
0.0
 10
16.3628147439
 20
11.9546018042
 30
0.0
 10
16.3650513904
 20
11.9339350739
 30
0.0
 10
16.3660226456
 20
11.9168122664
 30
0.0
 10
16.3662568793
 20
11.9032257551
 30
0.0
 10
16.3661633046
 20
11.8931191114
 30
0.0
 10
16.3658010269
 20
11.8830688031
 30
0.0
 10
16.3651700891
 20
11.8730773742
 30
0.0
 10
16.364270684
 20
11.863147458
 30
0.0
 10
16.3631030337
 20
11.8532816444
 30
0.0
 10
16.3616674135
 20
11.8434825201
 30
0.0
 10
16.3599642424
 20
11.8337526389
 30
0.0
 10
16.3579939051
 20
11.8240945642
 30
0.0
 10
16.3557569568
 20
11.814510788
 30
0.0
 10
16.3532539845
 20
11.8050039215
 30
0.0
 10
16.3514081793
 20
11.7987181418
 30
0.0
 10
16.3504414801
 20
11.7955898971
 30
0.0
  0
SPLINE
  5
2EF
100
AcDbEntity
  8
LAYER_CUT_FEAT
100
AcDbSpline
 62
7
  6
CONTINUOUS
 70
0
 71
3
 72
22
 73
18
 74
0
 42
0.0000001
 43
0.0000001
 44
0.0000000001
 40
0.0
 40
0.0
 40
0.0
 40
0.0
 40
0.1381198321
 40
0.2053664578
 40
0.2714548805
 40
0.3364371447
 40
0.4003725838
 40
0.4633278439
 40
0.5253764046
 40
0.5865986123
 40
0.6470813155
 40
0.7069174417
 40
0.766205499
 40
0.82504886
 40
0.8835549613
 40
0.941834416
 40
1.0
 40
1.0
 40
1.0
 40
1.0
 10
15.9104922496
 20
12.1094378512
 30
0.0
 10
15.9143528786
 20
12.1015707165
 30
0.0
 10
15.9196725187
 20
12.0896574951
 30
0.0
 10
15.9257397398
 20
12.0735347485
 30
0.0
 10
15.9296849331
 20
12.061582395
 30
0.0
 10
15.9330607968
 20
12.0496752687
 30
0.0
 10
15.9358641351
 20
12.0378244075
 30
0.0
 10
15.9380920973
 20
12.0260412372
 30
0.0
 10
15.9397424162
 20
12.0143370138
 30
0.0
 10
15.9408133935
 20
12.0027229848
 30
0.0
 10
15.9413038634
 20
11.991210323
 30
0.0
 10
15.941213205
 20
11.9798101392
 30
0.0
 10
15.940541408
 20
11.9685334544
 30
0.0
 10
15.9392890327
 20
11.9573912315
 30
0.0
 10
15.937457153
 20
11.9463941914
 30
0.0
 10
15.9350476172
 20
11.9355534454
 30
0.0
 10
15.9330567557
 20
11.9284341825
 30
0.0
 10
15.9319671539
 20
11.9249082447
 30
0.0
  0
SPLINE
  5
2F0
100
AcDbEntity
  8
LAYER_FEATURE
100
AcDbSpline
 62
7
  6
CONTINUOUS
 70
0
 71
3
 72
26
 73
22
 74
0
 42
0.0000001
 43
0.0000001
 44
0.0000000001
 40
0.0
 40
0.0
 40
0.0
 40
0.0
 40
0.0791909428
 40
0.1564993017
 40
0.2317246524
 40
0.3046956872
 40
0.3752716846
 40
0.4433476135
 40
0.5088594593
 40
0.5717898524
 40
0.6321741958
 40
0.6901068334
 40
0.7457468124
 40
0.7993223291
 40
0.8511324025
 40
0.8764983623
 40
0.9015661717
 40
0.9263907716
 40
0.9510300282
 40
0.9755454258
 40
1.0
 40
1.0
 40
1.0
 40
1.0
 10
14.8307137146
 20
13.1167519842
 30
0.0
 10
14.8296638157
 20
13.1167917328
 30
0.0
 10
14.8275868244
 20
13.1168230267
 30
0.0
 10
14.8245129484
 20
13.116721323
 30
0.0
 10
14.8215302301
 20
13.1164709311
 30
0.0
 10
14.8186536124
 20
13.1160730694
 30
0.0
 10
14.8158973609
 20
13.1155296647
 30
0.0
 10
14.8132751614
 20
13.1148433372
 30
0.0
 10
14.8108000193
 20
13.1140173764
 30
0.0
 10
14.8084842197
 20
13.113055711
 30
0.0
 10
14.8063392841
 20
13.1119628741
 30
0.0
 10
14.8043759634
 20
13.1107439996
 30
0.0
 10
14.8026041831
 20
13.1094047299
 30
0.0
 10
14.801033217
 20
13.1079515228
 30
0.0
 10
14.7998900421
 20
13.1066416054
 30
0.0
 10
14.7990884939
 20
13.1055464545
 30
0.0
 10
14.7985463034
 20
13.1047073018
 30
0.0
 10
14.7980596645
 20
13.1038458284
 30
0.0
 10
14.7976292216
 20
13.1029630577
 30
0.0
 10
14.7972555147
 20
13.1020601573
 30
0.0
 10
14.797044426
 20
13.1014451866
 30
0.0
 10
14.7969486381
 20
13.1011352024
 30
0.0
  0
SPLINE
  5
2F1
100
AcDbEntity
  8
LAYER_FEATURE
100
AcDbSpline
 62
7
  6
CONTINUOUS
 70
0
 71
3
 72
14
 73
10
 74
0
 42
0.0000001
 43
0.0000001
 44
0.0000000001
 40
0.0
 40
0.0
 40
0.0
 40
0.0
 40
0.2578440774
 40
0.3841946075
 40
0.5091107551
 40
0.6328646938
 40
0.7557384541
 40
0.8780190079
 40
1.0
 40
1.0
 40
1.0
 40
1.0
 10
14.8699929904
 20
13.2376108122
 30
0.0
 10
14.8695307225
 20
13.2371250131
 30
0.0
 10
14.8688785658
 20
13.2363645683
 30
0.0
 10
14.8681037714
 20
13.2352902241
 30
0.0
 10
14.8675789662
 20
13.2344674265
 30
0.0
 10
14.8671073784
 20
13.233623396
 30
0.0
 10
14.8666895489
 20
13.2327590706
 30
0.0
 10
14.8663259841
 20
13.2318755717
 30
0.0
 10
14.8661200025
 20
13.2312741423
 30
0.0
 10
14.8660263382
 20
13.2309710409
 30
0.0
  0
SPLINE
  5
2F2
100
AcDbEntity
  8
LAYER_FEATURE
100
AcDbSpline
 62
7
  6
CONTINUOUS
 70
0
 71
3
 72
11
 73
7
 74
0
 42
0.0000001
 43
0.0000001
 44
0.0000000001
 40
0.0
 40
0.0
 40
0.0
 40
0.0
 40
0.2428156398
 40
0.4901910171
 40
0.7424824966
 40
1.0
 40
1.0
 40
1.0
 40
1.0
 10
14.8699929904
 20
13.2376108122
 30
0.0
 10
14.8742485125
 20
13.2420829557
 30
0.0
 10
14.883096147
 20
13.2508703996
 30
0.0
 10
14.8971942527
 20
13.2634359239
 30
0.0
 10
14.9122171485
 20
13.2754860601
 30
0.0
 10
14.9227246134
 20
13.2830850322
 30
0.0
 10
14.9281190697
 20
13.2867950127
 30
0.0
  0
SPLINE
  5
2F3
100
AcDbEntity
  8
LAYER_FEATURE
100
AcDbSpline
 62
7
  6
CONTINUOUS
 70
0
 71
3
 72
22
 73
18
 74
0
 42
0.0000001
 43
0.0000001
 44
0.0000000001
 40
0.0
 40
0.0
 40
0.0
 40
0.0
 40
0.1381198321
 40
0.2053664578
 40
0.2714548805
 40
0.3364371446
 40
0.4003725838
 40
0.4633278439
 40
0.5253764046
 40
0.5865986123
 40
0.6470813154
 40
0.7069174417
 40
0.766205499
 40
0.82504886
 40
0.8835549613
 40
0.941834416
 40
1.0
 40
1.0
 40
1.0
 40
1.0
 10
15.9233217648
 20
12.1509541774
 30
0.0
 10
15.9271823937
 20
12.1430870428
 30
0.0
 10
15.9325020339
 20
12.1311738213
 30
0.0
 10
15.9385692549
 20
12.1150510747
 30
0.0
 10
15.9425144483
 20
12.1030987212
 30
0.0
 10
15.9458903119
 20
12.0911915949
 30
0.0
 10
15.9486936503
 20
12.0793407337
 30
0.0
 10
15.9509216124
 20
12.0675575634
 30
0.0
 10
15.9525719313
 20
12.05585334
 30
0.0
 10
15.9536429086
 20
12.0442393111
 30
0.0
 10
15.9541333786
 20
12.0327266493
 30
0.0
 10
15.9540427201
 20
12.0213264655
 30
0.0
 10
15.9533709231
 20
12.0100497806
 30
0.0
 10
15.9521185478
 20
11.9989075577
 30
0.0
 10
15.9502866681
 20
11.9879105176
 30
0.0
 10
15.9478771324
 20
11.9770697716
 30
0.0
 10
15.9458862708
 20
11.9699505087
 30
0.0
 10
15.944796669
 20
11.9664245709
 30
0.0
  0
SPLINE
  5
2F4
100
AcDbEntity
  8
LAYER_FEATURE
100
AcDbSpline
 62
7
  6
CONTINUOUS
 70
0
 71
3
 72
24
 73
20
 74
0
 42
0.0000001
 43
0.0000001
 44
0.0000000001
 40
0.0
 40
0.0
 40
0.0
 40
0.0
 40
0.0700340181
 40
0.1403553112
 40
0.2106513405
 40
0.2806099001
 40
0.3499232506
 40
0.418292315
 40
0.4854309962
 40
0.5510706884
 40
0.6149650621
 40
0.6768952247
 40
0.7366753669
 40
0.7941590199
 40
0.8492460383
 40
0.8758796745
 40
0.9019017619
 40
0.9521199501
 40
1.0
 40
1.0
 40
1.0
 40
1.0
 10
14.9817094714
 20
13.2867938711
 30
0.0
 10
14.9805105799
 20
13.2872861801
 30
0.0
 10
14.9780840786
 20
13.2882159121
 30
0.0
 10
14.974381468
 20
13.2894396876
 30
0.0
 10
14.970627218
 20
13.2904896364
 30
0.0
 10
14.9668461813
 20
13.2913587942
 30
0.0
 10
14.9630632467
 20
13.2920414448
 30
0.0
 10
14.9593033431
 20
13.2925330867
 30
0.0
 10
14.9555912243
 20
13.2928304796
 30
0.0
 10
14.9519513137
 20
13.2929316568
 30
0.0
 10
14.9484075301
 20
13.2928359325
 30
0.0
 10
14.9449831457
 20
13.2925439006
 30
0.0
 10
14.9417005594
 20
13.2920573993
 30
0.0
 10
14.9385813977
 20
13.2913795389
 30
0.0
 10
14.936107727
 20
13.29065064
 30
0.0
 10
14.9342320313
 20
13.2899729207
 30
0.0
 10
14.9324695552
 20
13.2892519479
 30
0.0
 10
14.9304012235
 20
13.288245677
 30
0.0
 10
14.9288491377
 20
13.2872971093
 30
0.0
 10
14.9281190697
 20
13.2867950127
 30
0.0
  0
SPLINE
  5
2F5
100
AcDbEntity
  8
LAYER_FEATURE
100
AcDbSpline
 62
7
  6
CONTINUOUS
 70
0
 71
3
 72
18
 73
14
 74
0
 42
0.0000001
 43
0.0000001
 44
0.0000000001
 40
0.0
 40
0.0
 40
0.0
 40
0.0
 40
0.1301551341
 40
0.2607680688
 40
0.3908358644
 40
0.5193619169
 40
0.6453877342
 40
0.7071883102
 40
0.7680334295
 40
0.827824413
 40
0.8864699416
 40
0.943886601
 40
1.0
 40
1.0
 40
1.0
 40
1.0
 10
15.0261533957
 20
13.2685435583
 30
0.0
 10
15.027733838
 20
13.2678945704
 30
0.0
 10
15.0309418003
 20
13.2666930339
 30
0.0
 10
15.0358503325
 20
13.265190322
 30
0.0
 10
15.0408212082
 20
13.2639961458
 30
0.0
 10
15.0457974226
 20
13.2631242662
 30
0.0
 10
15.0499286541
 20
13.2626715172
 30
0.0
 10
15.0531878917
 20
13.2624815184
 30
0.0
 10
15.0555825377
 20
13.2624253804
 30
0.0
 10
15.0579362417
 20
13.2624548427
 30
0.0
 10
15.0602423109
 20
13.2625698136
 30
0.0
 10
15.0624940838
 20
13.2627699651
 30
0.0
 10
15.063972431
 20
13.2629621185
 30
0.0
 10
15.064700654
 20
13.2630727722
 30
0.0
  0
SPLINE
  5
2F6
100
AcDbEntity
  8
02___PRT_ALL_AXES
100
AcDbSpline
 62
7
  6
CONTINUOUS
 70
0
 71
3
 72
23
 73
19
 74
0
 42
0.0000001
 43
0.0000001
 44
0.0000000001
 40
0.0
 40
0.0
 40
0.0
 40
0.0
 40
0.0667739412
 40
0.1328709429
 40
0.1983043869
 40
0.2630929759
 40
0.3272597139
 40
0.3908305945
 40
0.4538334014
 40
0.516296787
 40
0.5782495158
 40
0.6397200028
 40
0.7007362663
 40
0.7613259896
 40
0.8215170805
 40
0.8813385161
 40
0.9408213569
 40
1.0
 40
1.0
 40
1.0
 40
1.0
 10
15.14251492
 20
12.392821476
 30
0.0
 10
15.145581986
 20
12.392821476
 30
0.0
 10
15.1516869516
 20
12.3926266912
 30
0.0
 10
15.1607587038
 20
12.3917415921
 30
0.0
 10
15.1696622398
 20
12.3902711029
 30
0.0
 10
15.178360352
 20
12.3882251792
 30
0.0
 10
15.1868174707
 20
12.3856174526
 30
0.0
 10
15.1949991573
 20
12.382464889
 30
0.0
 10
15.2028724947
 20
12.3787874149
 30
0.0
 10
15.2104061343
 20
12.3746075186
 30
0.0
 10
15.2175703384
 20
12.3699498628
 30
0.0
 10
15.224336943
 20
12.364840925
 30
0.0
 10
15.2306792738
 20
12.3593086948
 30
0.0
 10
15.2365720502
 20
12.3533824066
 30
0.0
 10
15.2419912482
 20
12.3470924164
 30
0.0
 10
15.2469141253
 20
12.3404698368
 30
0.0
 10
15.2513187557
 20
12.3335473262
 30
0.0
 10
15.2539026859
 20
12.3287417455
 30
0.0
 10
15.2551001723
 20
12.326301535
 30
0.0
  0
SPLINE
  5
2F7
100
AcDbEntity
  8
LAYER_FEATURE
100
AcDbSpline
 62
7
  6
CONTINUOUS
 70
0
 71
3
 72
78
 73
74
 74
0
 42
0.0000001
 43
0.0000001
 44
0.0000000001
 40
0.0
 40
0.0
 40
0.0
 40
0.0
 40
0.017178655
 40
0.0345302498
 40
0.0520440764
 40
0.0697096827
 40
0.087515904
 40
0.1054513899
 40
0.1235044656
 40
0.1416632023
 40
0.159915443
 40
0.1782488293
 40
0.1966508308
 40
0.215108772
 40
0.2336098599
 40
0.2521412119
 40
0.2706898828
 40
0.2892428914
 40
0.3077872477
 40
0.3263099791
 40
0.3447981581
 40
0.3632389292
 40
0.3816195358
 40
0.3999273473
 40
0.4181498867
 40
0.4362748592
 40
0.4542901805
 40
0.4721840057
 40
0.4899447581
 40
0.5075611591
 40
0.5250222595
 40
0.5423174719
 40
0.5594366031
 40
0.5763698869
 40
0.593108019
 40
0.6096421926
 40
0.6259641373
 40
0.6420661588
 40
0.6579411786
 40
0.673582776
 40
0.6889852326
 40
0.7041435791
 40
0.7190536455
 40
0.7337121116
 40
0.7481165581
 40
0.762265522
 40
0.7761585524
 40
0.7897962694
 40
0.803180424
 40
0.8163139554
 40
0.8292010476
 40
0.8418471852
 40
0.854259204
 40
0.8603802801
 40
0.8664460363
 40
0.878415952
 40
0.890180775
 40
0.9017530972
 40
0.91314697
 40
0.9243778744
 40
0.9354626685
 40
0.9409563763
 40
0.9464204657
 40
0.9518573915
 40
0.9572696697
 40
0.96265988
 40
0.9680306554
 40
0.9733846777
 40
0.978724673
 40
0.9840534016
 40
0.9893736548
 40
0.9946882449
 40
1.0
 40
1.0
 40
1.0
 40
1.0
 10
15.2637709984
 20
13.589569195
 30
0.0
 10
15.27436005
 20
13.589569195
 30
0.0
 10
15.2956454343
 20
13.5893361966
 30
0.0
 10
15.3277113448
 20
13.5883009231
 30
0.0
 10
15.3600484081
 20
13.5865790792
 30
0.0
 10
15.3926226367
 20
13.5841725221
 30
0.0
 10
15.4254002989
 20
13.5810837152
 30
0.0
 10
15.45834722
 20
13.577315892
 30
0.0
 10
15.4914291274
 20
13.5728729671
 30
0.0
 10
15.5246115846
 20
13.5677595709
 30
0.0
 10
15.5578600535
 20
13.5619810274
 30
0.0
 10
15.5911399264
 20
13.5555433514
 30
0.0
 10
15.6244165613
 20
13.5484532429
 30
0.0
 10
15.6576553182
 20
13.5407180786
 30
0.0
 10
15.6908215968
 20
13.5323459126
 30
0.0
 10
15.7238808721
 20
13.5233454628
 30
0.0
 10
15.75679873
 20
13.5137260992
 30
0.0
 10
15.7895409033
 20
13.5034978348
 30
0.0
 10
15.8220733067
 20
13.492671315
 30
0.0
 10
15.8543620731
 20
13.4812578077
 30
0.0
 10
15.8863735914
 20
13.4692691978
 30
0.0
 10
15.9180745391
 20
13.4567179666
 30
0.0
 10
15.9494319171
 20
13.4436171797
 30
0.0
 10
15.9804130837
 20
13.429980473
 30
0.0
 10
16.0109857882
 20
13.4158220381
 30
0.0
 10
16.0411182075
 20
13.4011566124
 30
0.0
 10
16.0707789797
 20
13.3859994629
 30
0.0
 10
16.0999372339
 20
13.3703663652
 30
0.0
 10
16.1285626225
 20
13.3542735883
 30
0.0
 10
16.1566253524
 20
13.3377378773
 30
0.0
 10
16.1840962162
 20
13.320776435
 30
0.0
 10
16.2109466278
 20
13.3034069113
 30
0.0
 10
16.2371486484
 20
13.2856473772
 30
0.0
 10
16.2626750141
 20
13.2675163059
 30
0.0
 10
16.287499164
 20
13.2490325534
 30
0.0
 10
16.3115952667
 20
13.2302153381
 30
0.0
 10
16.3349382509
 20
13.2110842219
 30
0.0
 10
16.3575038336
 20
13.1916590936
 30
0.0
 10
16.3792685398
 20
13.1719601402
 30
0.0
 10
16.4002097258
 20
13.1520078273
 30
0.0
 10
16.4203056023
 20
13.131822878
 30
0.0
 10
16.4395352551
 20
13.1114262483
 30
0.0
 10
16.4578786732
 20
13.0908391112
 30
0.0
 10
16.4753167659
 20
13.0700828304
 30
0.0
 10
16.4918313764
 20
13.0491789358
 30
0.0
 10
16.5074052992
 20
13.0281491025
 30
0.0
 10
16.5220222958
 20
13.0070151274
 30
0.0
 10
16.5356671089
 20
12.985798909
 30
0.0
 10
16.5483254886
 20
12.9645224218
 30
0.0
 10
16.5599841822
 20
12.9432077213
 30
0.0
 10
16.5706309891
 20
12.9218768084
 30
0.0
 10
16.580254609
 20
12.9005520336
 30
0.0
 10
16.5874462926
 20
12.8827227378
 30
0.0
 10
16.5926703923
 20
12.868487087
 30
0.0
 10
16.5975000517
 20
12.8544006742
 30
0.0
 10
16.602890682
 20
12.8368333836
 30
0.0
 10
16.6083307645
 20
12.8157529615
 30
0.0
 10
16.6127075483
 20
12.7947884282
 30
0.0
 10
16.6160161182
 20
12.7739617517
 30
0.0
 10
16.6182527647
 20
12.7532950214
 30
0.0
 10
16.6192240199
 20
12.7361722138
 30
0.0
 10
16.6194582536
 20
12.7225857025
 30
0.0
 10
16.6193646789
 20
12.7124790589
 30
0.0
 10
16.6190024011
 20
12.7024287505
 30
0.0
 10
16.6183714634
 20
12.6924373216
 30
0.0
 10
16.6174720583
 20
12.6825074055
 30
0.0
 10
16.616304408
 20
12.6726415919
 30
0.0
 10
16.6148687878
 20
12.6628424675
 30
0.0
 10
16.6131656167
 20
12.6531125864
 30
0.0
 10
16.6111952794
 20
12.6434545116
 30
0.0
 10
16.6089583311
 20
12.6338707355
 30
0.0
 10
16.6064553588
 20
12.6243638689
 30
0.0
 10
16.6046095536
 20
12.6180780893
 30
0.0
 10
16.6036428544
 20
12.6149498446
 30
0.0
  0
SPLINE
  5
2F8
100
AcDbEntity
  8
LAYER_FEATURE
100
AcDbSpline
 62
7
  6
CONTINUOUS
 70
0
 71
3
 72
22
 73
18
 74
0
 42
0.0000001
 43
0.0000001
 44
0.0000000001
 40
0.0
 40
0.0
 40
0.0
 40
0.0
 40
0.0750359918
 40
0.1481808627
 40
0.2194023132
 40
0.2887084703
 40
0.4216325133
 40
0.4854001714
 40
0.5474587978
 40
0.6079149805
 40
0.6668987996
 40
0.7245641124
 40
0.7810880713
 40
0.836668945
 40
0.8915242738
 40
0.9458867563
 40
1.0
 40
1.0
 40
1.0
 40
1.0
 10
15.1099272457
 20
13.3647412861
 30
0.0
 10
15.1093409683
 20
13.3645964498
 30
0.0
 10
15.1081889522
 20
13.3642863454
 30
0.0
 10
15.1065052468
 20
13.3637523842
 30
0.0
 10
15.1048913156
 20
13.3631565289
 30
0.0
 10
15.1028661348
 20
13.3622936118
 30
0.0
 10
15.1009621458
 20
13.3613036334
 30
0.0
 10
15.0992053796
 20
13.3601834664
 30
0.0
 10
15.0979922212
 20
13.3593008355
 30
0.0
 10
15.0968682574
 20
13.3583661938
 30
0.0
 10
15.0958360333
 20
13.3573815544
 30
0.0
 10
15.094897975
 20
13.3563490935
 30
0.0
 10
15.0940562581
 20
13.3552711307
 30
0.0
 10
15.0933129277
 20
13.3541500729
 30
0.0
 10
15.0926697203
 20
13.3529884728
 30
0.0
 10
15.092128256
 20
13.3517891049
 30
0.0
 10
15.0918356554
 20
13.3509653081
 30
0.0
 10
15.0917070737
 20
13.3505492093
 30
0.0
  0
SPLINE
  5
2F9
100
AcDbEntity
  8
LAYER_FEATURE
100
AcDbSpline
 62
7
  6
CONTINUOUS
 70
0
 71
3
 72
11
 73
7
 74
0
 42
0.0000001
 43
0.0000001
 44
0.0000000001
 40
0.0
 40
0.0
 40
0.0
 40
0.0
 40
0.2432997758
 40
0.4911370118
 40
0.7434103277
 40
1.0
 40
1.0
 40
1.0
 40
1.0
 10
15.1099272457
 20
13.3647412861
 30
0.0
 10
15.1177729158
 20
13.3666795111
 30
0.0
 10
15.1336761903
 20
13.3703310818
 30
0.0
 10
15.1579089674
 20
13.3750978398
 30
0.0
 10
15.1827106299
 20
13.3791990459
 30
0.0
 10
15.1994631438
 20
13.381466976
 30
0.0
 10
15.2079243259
 20
13.3824914707
 30
0.0
  0
SPLINE
  5
2FA
100
AcDbEntity
  8
LAYER_FEATURE
100
AcDbSpline
 62
7
  6
CONTINUOUS
 70
0
 71
3
 72
23
 73
19
 74
0
 42
0.0000001
 43
0.0000001
 44
0.0000000001
 40
0.0
 40
0.0
 40
0.0
 40
0.0
 40
0.0580571692
 40
0.1178993274
 40
0.1793166383
 40
0.2420748385
 40
0.3059199532
 40
0.3705826854
 40
0.4357825674
 40
0.5012319487
 40
0.5666398827
 40
0.6317159686
 40
0.6961742007
 40
0.759736878
 40
0.8221386315
 40
0.8831306358
 40
0.9424850812
 40
1.0
 40
1.0
 40
1.0
 40
1.0
 10
15.2636234688
 20
13.3656828338
 30
0.0
 10
15.2627421897
 20
13.3664286231
 30
0.0
 10
15.2609050608
 20
13.3678878077
 30
0.0
 10
15.2579890539
 20
13.3699430707
 30
0.0
 10
15.2548868659
 20
13.3718871409
 30
0.0
 10
15.2516190404
 20
13.3737071353
 30
0.0
 10
15.2482070463
 20
13.3753911173
 30
0.0
 10
15.2446733646
 20
13.3769279914
 30
0.0
 10
15.2410412743
 20
13.378307635
 30
0.0
 10
15.2373347135
 20
13.379520955
 30
0.0
 10
15.2335781135
 20
13.3805599541
 30
0.0
 10
15.2297962346
 20
13.3814177839
 30
0.0
 10
15.2260140007
 20
13.3820887914
 30
0.0
 10
15.2222563238
 20
13.3825685543
 30
0.0
 10
15.2185479585
 20
13.3828539113
 30
0.0
 10
15.2149132486
 20
13.3829429687
 30
0.0
 10
15.2113762683
 20
13.3828351417
 30
0.0
 10
15.2090597434
 20
13.3826289491
 30
0.0
 10
15.2079243259
 20
13.3824914707
 30
0.0
  0
SPLINE
  5
2FB
100
AcDbEntity
  8
LAYER_FEATURE
100
AcDbSpline
 62
7
  6
CONTINUOUS
 70
0
 71
3
 72
23
 73
19
 74
0
 42
0.0000001
 43
0.0000001
 44
0.0000000001
 40
0.0
 40
0.0
 40
0.0
 40
0.0
 40
0.0573926823
 40
0.1163494718
 40
0.1767130637
 40
0.238315186
 40
0.3009700352
 40
0.3644817372
 40
0.4286448927
 40
0.4932475236
 40
0.5580731624
 40
0.6229031038
 40
0.6875186401
 40
0.7517030713
 40
0.8152445654
 40
0.8779364129
 40
0.9395845229
 40
1.0
 40
1.0
 40
1.0
 40
1.0
 10
15.2958714452
 20
13.33839273
 30
0.0
 10
15.2966376297
 20
13.3377443404
 30
0.0
 10
15.2982266899
 20
13.3364716791
 30
0.0
 10
15.3007339602
 20
13.3346628799
 30
0.0
 10
15.3033865921
 20
13.3329359251
 30
0.0
 10
15.3061711828
 20
13.3312995027
 30
0.0
 10
15.3090738685
 20
13.3297617737
 30
0.0
 10
15.3120800988
 20
13.3283304312
 30
0.0
 10
15.315174835
 20
13.3270126404
 30
0.0
 10
15.3183425787
 20
13.3258149991
 30
0.0
 10
15.3215674666
 20
13.3247435067
 30
0.0
 10
15.3248333466
 20
13.323803528
 30
0.0
 10
15.3281238595
 20
13.3229997728
 30
0.0
 10
15.3314225325
 20
13.3223362592
 30
0.0
 10
15.334712829
 20
13.3218163243
 30
0.0
 10
15.3379783355
 20
13.3214425446
 30
0.0
 10
15.3412025789
 20
13.3212168317
 30
0.0
 10
15.3433376007
 20
13.3211652303
 30
0.0
 10
15.3443941822
 20
13.3211652303
 30
0.0
  0
SPLINE
  5
2FC
100
AcDbEntity
  8
LAYER_FEATURE
100
AcDbSpline
 62
7
  6
CONTINUOUS
 70
0
 71
3
 72
16
 73
12
 74
0
 42
0.0000001
 43
0.0000001
 44
0.0000000001
 40
0.0
 40
0.0
 40
0.0
 40
0.0
 40
0.1446708755
 40
0.2843522513
 40
0.4185479411
 40
0.5468812036
 40
0.6691287421
 40
0.7852439755
 40
0.8410628166
 40
0.8954284993
 40
1.0
 40
1.0
 40
1.0
 40
1.0
 10
15.3801693471
 20
13.3211652303
 30
0.0
 10
15.3814767884
 20
13.3211652303
 30
0.0
 10
15.3840474035
 20
13.3212420305
 30
0.0
 10
15.3878157715
 20
13.3215995573
 30
0.0
 10
15.3914048821
 20
13.3221947636
 30
0.0
 10
15.3947859318
 20
13.323023153
 30
0.0
 10
15.3979317168
 20
13.3240783404
 30
0.0
 10
15.4003679975
 20
13.3251541732
 30
0.0
 10
15.4021697362
 20
13.3261238557
 30
0.0
 10
15.4038270325
 20
13.3271349885
 30
0.0
 10
15.4049893804
 20
13.3279865256
 30
0.0
 10
15.4057140999
 20
13.328593073
 30
0.0
  0
SPLINE
  5
2FD
100
AcDbEntity
  8
LAYER_FEATURE
100
AcDbSpline
 62
7
  6
CONTINUOUS
 70
0
 71
3
 72
28
 73
24
 74
0
 42
0.0000001
 43
0.0000001
 44
0.0000000001
 40
0.0
 40
0.0
 40
0.0
 40
0.0
 40
0.079490416
 40
0.1573204376
 40
0.2332196246
 40
0.3069474641
 40
0.3782948047
 40
0.447092014
 40
0.5132147669
 40
0.5765917636
 40
0.6372127471
 40
0.6665127528
 40
0.6951524203
 40
0.7505181521
 40
0.8035489594
 40
0.8292943126
 40
0.8545814838
 40
0.8794640038
 40
0.90400032
 40
0.9282533465
 40
0.9522897486
 40
0.9761806883
 40
1.0
 40
1.0
 40
1.0
 40
1.0
 10
15.456450108
 20
13.3824914707
 30
0.0
 10
15.4552684432
 20
13.3826193518
 30
0.0
 10
15.4529233753
 20
13.3828171398
 30
0.0
 10
15.4494368609
 20
13.3829376774
 30
0.0
 10
15.446034742
 20
13.3828785982
 30
0.0
 10
15.442737522
 20
13.3826402316
 30
0.0
 10
15.4395648926
 20
13.3822239495
 30
0.0
 10
15.4365358365
 20
13.3816321748
 30
0.0
 10
15.4336683852
 20
13.3808682944
 30
0.0
 10
15.4309797889
 20
13.3799367467
 30
0.0
 10
15.4288780265
 20
13.3790147157
 30
0.0
 10
15.4273049152
 20
13.3781962111
 30
0.0
 10
15.4258389941
 20
13.3773459178
 30
0.0
 10
15.4241411176
 20
13.3761925938
 30
0.0
 10
15.4226057571
 20
13.374895207
 30
0.0
 10
15.4215076802
 20
13.3737917051
 30
0.0
 10
15.4207555229
 20
13.3729406332
 30
0.0
 10
15.4200679423
 20
13.3720593965
 30
0.0
 10
15.4194460284
 20
13.3711492724
 30
0.0
 10
15.4188907316
 20
13.3702116889
 30
0.0
 10
15.418402944
 20
13.3692480393
 30
0.0
 10
15.4179834337
 20
13.3682598466
 30
0.0
 10
15.4177495732
 20
13.3675852038
 30
0.0
 10
15.4176444243
 20
13.367244926
 30
0.0
  0
SPLINE
  5
2FE
100
AcDbEntity
  8
LAYER_FEATURE
100
AcDbSpline
 62
7
  6
CONTINUOUS
 70
0
 71
3
 72
11
 73
7
 74
0
 42
0.0000001
 43
0.0000001
 44
0.0000000001
 40
0.0
 40
0.0
 40
0.0
 40
0.0
 40
0.2475324355
 40
0.4968554137
 40
0.7477517982
 40
1.0
 40
1.0
 40
1.0
 40
1.0
 10
15.456450108
 20
13.3824914707
 30
0.0
 10
15.4660323053
 20
13.3814544746
 30
0.0
 10
15.4852429395
 20
13.3791534639
 30
0.0
 10
15.5140690006
 20
13.3750444902
 30
0.0
 10
15.5429784547
 20
13.3702701991
 30
0.0
 10
15.5622350534
 20
13.366656691
 30
0.0
 10
15.5718682391
 20
13.3647412861
 30
0.0
  0
SPLINE
  5
2FF
100
AcDbEntity
  8
LAYER_FEATURE
100
AcDbSpline
 62
7
  6
CONTINUOUS
 70
0
 71
3
 72
24
 73
20
 74
0
 42
0.0000001
 43
0.0000001
 44
0.0000000001
 40
0.0
 40
0.0
 40
0.0
 40
0.0
 40
0.0482214462
 40
0.0987986929
 40
0.1249997794
 40
0.1518089652
 40
0.207228351
 40
0.26500585
 40
0.3250281097
 40
0.3871378032
 40
0.4511403527
 40
0.516809961
 40
0.5838950729
 40
0.6521233851
 40
0.7212065145
 40
0.7908444179
 40
0.8607296408
 40
0.9305514633
 40
1.0
 40
1.0
 40
1.0
 40
1.0
 10
15.6169161209
 20
13.3349758099
 30
0.0
 10
15.6165675997
 20
13.3358035504
 30
0.0
 10
15.6157640857
 20
13.337462819
 30
0.0
 10
15.6145572308
 20
13.3394572673
 30
0.0
 10
15.6134565358
 20
13.3410423439
 30
0.0
 10
15.6122381474
 20
13.342653514
 30
0.0
 10
15.6105444422
 20
13.3446396437
 30
0.0
 10
15.6082808843
 20
13.3469418371
 30
0.0
 10
15.6057788307
 20
13.3491740163
 30
0.0
 10
15.603054814
 20
13.3513215413
 30
0.0
 10
15.6001266968
 20
13.3533704084
 30
0.0
 10
15.597013732
 20
13.3553071818
 30
0.0
 10
15.5937363921
 20
13.3571191446
 30
0.0
 10
15.5903162498
 20
13.3587943788
 30
0.0
 10
15.5867758275
 20
13.3603218555
 30
0.0
 10
15.5831384601
 20
13.3616915096
 30
0.0
 10
15.5794280893
 20
13.3628943205
 30
0.0
 10
15.5756692864
 20
13.3639223367
 30
0.0
 10
15.5731368785
 20
13.3644890374
 30
0.0
 10
15.5718682391
 20
13.3647412861
 30
0.0
  0
SPLINE
  5
300
100
AcDbEntity
  8
LAYER_FEATURE
100
AcDbSpline
 62
7
  6
CONTINUOUS
 70
0
 71
3
 72
23
 73
19
 74
0
 42
0.0000001
 43
0.0000001
 44
0.0000000001
 40
0.0
 40
0.0
 40
0.0
 40
0.0
 40
0.0489015471
 40
0.099880597
 40
0.1529963334
 40
0.2082652612
 40
0.2656585724
 40
0.3251112313
 40
0.3865250683
 40
0.4497735368
 40
0.5147054354
 40
0.5811484406
 40
0.6489123967
 40
0.7177920904
 40
0.7875708197
 40
0.8580206552
 40
0.9289111371
 40
1.0
 40
1.0
 40
1.0
 40
1.0
 10
15.6295805265
 20
13.3048977492
 30
0.0
 10
15.6298832365
 20
13.3041788105
 30
0.0
 10
15.6305687919
 20
13.3027379792
 30
0.0
 10
15.6317960298
 20
13.3006256811
 30
0.0
 10
15.6332368376
 20
13.298528511
 30
0.0
 10
15.6348837564
 20
13.2964569849
 30
0.0
 10
15.636728575
 20
13.2944212096
 30
0.0
 10
15.6387620323
 20
13.2924312454
 30
0.0
 10
15.6409739787
 20
13.2904969387
 30
0.0
 10
15.6433533646
 20
13.2886278935
 30
0.0
 10
15.6458883061
 20
13.2868334122
 30
0.0
 10
15.6485661344
 20
13.2851224402
 30
0.0
 10
15.6513734594
 20
13.2835035228
 30
0.0
 10
15.654296242
 20
13.2819847439
 30
0.0
 10
15.6573198417
 20
13.2805737205
 30
0.0
 10
15.6604291639
 20
13.2792774749
 30
0.0
 10
15.6636085436
 20
13.278102565
 30
0.0
 10
15.6657637914
 20
13.2774042239
 30
0.0
 10
15.6668494363
 20
13.2770766243
 30
0.0
  0
SPLINE
  5
301
100
AcDbEntity
  8
LAYER_FEATURE
100
AcDbSpline
 62
7
  6
CONTINUOUS
 70
0
 71
3
 72
22
 73
18
 74
0
 42
0.0000001
 43
0.0000001
 44
0.0000000001
 40
0.0
 40
0.0
 40
0.0
 40
0.0
 40
0.0716077417
 40
0.1429366654
 40
0.2137437945
 40
0.2837988591
 40
0.3528749692
 40
0.4207574115
 40
0.4872439567
 40
0.5521485136
 40
0.6153039991
 40
0.6765657447
 40
0.7358151651
 40
0.792963637
 40
0.8479574193
 40
0.9007809219
 40
1.0
 40
1.0
 40
1.0
 40
1.0
 10
15.7040329089
 20
13.2658562963
 30
0.0
 10
15.7051179532
 20
13.2655288779
 30
0.0
 10
15.7072973254
 20
13.2649191427
 30
0.0
 10
15.7105905229
 20
13.2641408357
 30
0.0
 10
15.7138889232
 20
13.2635034357
 30
0.0
 10
15.7171758948
 20
13.263010131
 30
0.0
 10
15.7204350424
 20
13.2626634025
 30
0.0
 10
15.7236500381
 20
13.2624649799
 30
0.0
 10
15.7268048144
 20
13.2624158667
 30
0.0
 10
15.729883605
 20
13.2625163185
 30
0.0
 10
15.7328710442
 20
13.2627658572
 30
0.0
 10
15.7357522221
 20
13.2631632622
 30
0.0
 10
15.7385128282
 20
13.2637066279
 30
0.0
 10
15.7411389783
 20
13.2643932437
 30
0.0
 10
15.7436181338
 20
13.2652200965
 30
0.0
 10
15.746645871
 20
13.2664768826
 30
0.0
 10
15.7487622194
 20
13.2676535733
 30
0.0
 10
15.7500560655
 20
13.2685435583
 30
0.0
  0
SPLINE
  5
302
100
AcDbEntity
  8
LAYER_FEATURE
100
AcDbSpline
 62
7
  6
CONTINUOUS
 70
0
 71
3
 72
24
 73
20
 74
0
 42
0.0000001
 43
0.0000001
 44
0.0000000001
 40
0.0
 40
0.0
 40
0.0
 40
0.0
 40
0.0700356121
 40
0.1403582629
 40
0.2106554068
 40
0.2806148338
 40
0.3499288043
 40
0.4182982443
 40
0.4854370636
 40
0.5510766666
 40
0.6149707389
 40
0.6769004073
 40
0.7366798871
 40
0.7941627402
 40
0.8492488582
 40
0.8758820207
 40
0.9019036265
 40
0.9521208542
 40
1.0
 40
1.0
 40
1.0
 40
1.0
 10
15.8301773657
 20
13.2867950127
 30
0.0
 10
15.8289784503
 20
13.2872872801
 30
0.0
 10
15.8265519075
 20
13.2882169267
 30
0.0
 10
15.8228492474
 20
13.2894405703
 30
0.0
 10
15.819094967
 20
13.2904903814
 30
0.0
 10
15.8153139191
 20
13.2913593966
 30
0.0
 10
15.8115309927
 20
13.2920419007
 30
0.0
 10
15.8077711167
 20
13.292533393
 30
0.0
 10
15.8040590444
 20
13.2928306342
 30
0.0
 10
15.8004191992
 20
13.2929316588
 30
0.0
 10
15.7968754993
 20
13.2928357819
 30
0.0
 10
15.7934512163
 20
13.2925435983
 30
0.0
 10
15.7901687485
 20
13.2920569472
 30
0.0
 10
15.7870497215
 20
13.2913789399
 30
0.0
 10
15.7845761762
 20
13.29064992
 30
0.0
 10
15.7827005889
 20
13.2899721061
 30
0.0
 10
15.7809382246
 20
13.2892510433
 30
0.0
 10
15.7788700397
 20
13.2882446629
 30
0.0
 10
15.7773180846
 20
13.287296009
 30
0.0
 10
15.7765880844
 20
13.2867938711
 30
0.0
  0
SPLINE
  5
303
100
AcDbEntity
  8
LAYER_FEATURE
100
AcDbSpline
 62
7
  6
CONTINUOUS
 70
0
 71
3
 72
11
 73
7
 74
0
 42
0.0000001
 43
0.0000001
 44
0.0000000001
 40
0.0
 40
0.0
 40
0.0
 40
0.0
 40
0.2520312591
 40
0.5028564768
 40
0.7522524526
 40
1.0
 40
1.0
 40
1.0
 40
1.0
 10
15.8301773657
 20
13.2867950127
 30
0.0
 10
15.839289528
 20
13.2830536144
 30
0.0
 10
15.8573907767
 20
13.2753934158
 30
0.0
 10
15.88421425
 20
13.2633497888
 30
0.0
 10
15.9106162157
 20
13.2507932031
 30
0.0
 10
15.9279753864
 20
13.2420599439
 30
0.0
 10
15.9365756448
 20
13.2376108122
 30
0.0
  0
SPLINE
  5
304
100
AcDbEntity
  8
LAYER_FEATURE
100
AcDbSpline
 62
7
  6
CONTINUOUS
 70
0
 71
3
 72
23
 73
19
 74
0
 42
0.0000001
 43
0.0000001
 44
0.0000000001
 40
0.0
 40
0.0
 40
0.0
 40
0.0
 40
0.0609116173
 40
0.1229980373
 40
0.1860660979
 40
0.2499182944
 40
0.3143452349
 40
0.3791331575
 40
0.4440641521
 40
0.5089190199
 40
0.5734792815
 40
0.6375294213
 40
0.7008591542
 40
0.7632655392
 40
0.8245559536
 40
0.8845487009
 40
0.9430804846
 40
1.0
 40
1.0
 40
1.0
 40
1.0
 10
15.9983826301
 20
13.1238204325
 30
0.0
 10
15.9992703374
 20
13.1232339049
 30
0.0
 10
16.0010913087
 20
13.1220920356
 30
0.0
 10
16.0039208252
 20
13.1204909202
 30
0.0
 10
16.0068632427
 20
13.1189913483
 30
0.0
 10
16.0099037042
 20
13.1176008631
 30
0.0
 10
16.0130270498
 20
13.1163264169
 30
0.0
 10
16.0162176149
 20
13.11517439
 30
0.0
 10
16.0194594295
 20
13.1141505546
 30
0.0
 10
16.0227362542
 20
13.113260038
 30
0.0
 10
16.026031678
 20
13.112507302
 30
0.0
 10
16.0293291979
 20
13.1118961144
 30
0.0
 10
16.0326123024
 20
13.1114295373
 30
0.0
 10
16.0358645673
 20
13.111109901
 30
0.0
 10
16.0390697006
 20
13.1109388207
 30
0.0
 10
16.0422117421
 20
13.110917138
 30
0.0
 10
16.0452748362
 20
13.1110449957
 30
0.0
 10
16.0472838875
 20
13.1112322779
 30
0.0
 10
16.0482709138
 20
13.1113518373
 30
0.0
  0
SPLINE
  5
305
100
AcDbEntity
  8
LAYER_FEATURE
100
AcDbSpline
 62
7
  6
CONTINUOUS
 70
0
 71
3
 72
23
 73
19
 74
0
 42
0.0000001
 43
0.0000001
 44
0.0000000001
 40
0.0
 40
0.0
 40
0.0
 40
0.0
 40
0.0580586533
 40
0.1179021444
 40
0.179320616
 40
0.2420797876
 40
0.3059256707
 40
0.3705889579
 40
0.4357891743
 40
0.5012386652
 40
0.5666464828
 40
0.6317222282
 40
0.6961799003
 40
0.7597418061
 40
0.8221425877
 40
0.883133434
 40
0.9424865533
 40
1.0
 40
1.0
 40
1.0
 40
1.0
 10
16.145492608
 20
13.0995748172
 30
0.0
 10
16.1446112713
 20
13.1003205835
 30
0.0
 10
16.1427740326
 20
13.101779718
 30
0.0
 10
16.1398578738
 20
13.1038348998
 30
0.0
 10
16.1367555493
 20
13.1057788786
 30
0.0
 10
16.1334876034
 20
13.1075987721
 30
0.0
 10
16.1300755061
 20
13.1092826442
 30
0.0
 10
16.126541739
 20
13.1108194
 30
0.0
 10
16.1229095816
 20
13.1121989181
 30
0.0
 10
16.1192029725
 20
13.1134121059
 30
0.0
 10
16.1154463431
 20
13.1144509669
 30
0.0
 10
16.1116644543
 20
13.1153086539
 30
0.0
 10
16.1078822298
 20
13.1159795145
 30
0.0
 10
16.1041245816
 20
13.1164591278
 30
0.0
 10
16.1004162641
 20
13.1167443331
 30
0.0
 10
16.0967816207
 20
13.1168332378
 30
0.0
 10
16.0932447252
 20
13.1167252582
 30
0.0
 10
16.0909282663
 20
13.1165189624
 30
0.0
 10
16.0897928849
 20
13.1163814326
 30
0.0
  0
SPLINE
  5
306
100
AcDbEntity
  8
LAYER_FEATURE
100
AcDbSpline
 62
7
  6
CONTINUOUS
 70
0
 71
3
 72
11
 73
7
 74
0
 42
0.0000001
 43
0.0000001
 44
0.0000000001
 40
0.0
 40
0.0
 40
0.0
 40
0.0
 40
0.2564040227
 40
0.5086219132
 40
0.7565245149
 40
1.0
 40
1.0
 40
1.0
 40
1.0
 10
16.145492608
 20
13.0995748172
 30
0.0
 10
16.1520658912
 20
13.0940126606
 30
0.0
 10
16.1649537539
 20
13.082798643
 30
0.0
 10
16.183636168
 20
13.0655758591
 30
0.0
 10
16.2014888196
 20
13.0481096117
 30
0.0
 10
16.2129261117
 20
13.0362097596
 30
0.0
 10
16.2184964716
 20
13.0302241085
 30
0.0
  0
SPLINE
  5
307
100
AcDbEntity
  8
LAYER_FEATURE
100
AcDbSpline
 62
7
  6
CONTINUOUS
 70
0
 71
3
 72
22
 73
18
 74
0
 42
0.0000001
 43
0.0000001
 44
0.0000000001
 40
0.0
 40
0.0
 40
0.0
 40
0.0
 40
0.05467906
 40
0.1109284859
 40
0.1686712664
 40
0.2278159264
 40
0.2882575762
 40
0.3498798312
 40
0.4125562965
 40
0.4761520734
 40
0.5405250736
 40
0.60552724
 40
0.6710057041
 40
0.7368044848
 40
0.8027650797
 40
0.8687260771
 40
1.0
 40
1.0
 40
1.0
 40
1.0
 10
16.1998515224
 20
12.9225334709
 30
0.0
 10
16.2003968341
 20
12.9219534183
 30
0.0
 10
16.201534051
 20
12.9208053881
 30
0.0
 10
16.2033456961
 20
12.9191460361
 30
0.0
 10
16.2052816246
 20
12.9175300578
 30
0.0
 10
16.207334827
 20
12.9159632965
 30
0.0
 10
16.209497958
 20
12.9144513526
 30
0.0
 10
16.2117632422
 20
12.9129996505
 30
0.0
 10
16.2141225401
 20
12.9116133931
 30
0.0
 10
16.2165673752
 20
12.9102975596
 30
0.0
 10
16.2190889655
 20
12.909056884
 30
0.0
 10
16.2216782413
 20
12.9078958243
 30
0.0
 10
16.2243258972
 20
12.9068185454
 30
0.0
 10
16.2270223943
 20
12.9058289317
 30
0.0
 10
16.2297581004
 20
12.9049305316
 30
0.0
 10
16.2334383298
 20
12.9038604788
 30
0.0
 10
16.2362364679
 20
12.9032009733
 30
0.0
 10
16.238111143
 20
12.9028282962
 30
0.0
  0
SPLINE
  5
308
100
AcDbEntity
  8
LAYER_FEATURE
100
AcDbSpline
 62
7
  6
CONTINUOUS
 70
0
 71
3
 72
24
 73
20
 74
0
 42
0.0000001
 43
0.0000001
 44
0.0000000001
 40
0.0
 40
0.0
 40
0.0
 40
0.0
 40
0.0482224027
 40
0.0988006459
 40
0.1250022267
 40
0.1518118956
 40
0.2072321928
 40
0.2650104938
 40
0.3250334112
 40
0.3871435894
 40
0.4511464273
 40
0.5168161098
 40
0.5839010678
 40
0.6521289885
 40
0.721211483
 40
0.7908485058
 40
0.8607326037
 40
0.930553061
 40
1.0
 40
1.0
 40
1.0
 40
1.0
 10
16.3301609128
 20
12.8637207749
 30
0.0
 10
16.3298123128
 20
12.8645485183
 30
0.0
 10
16.3290086436
 20
12.8662077867
 30
0.0
 10
16.3278016074
 20
12.8682022247
 30
0.0
 10
16.3267007707
 20
12.8697872879
 30
0.0
 10
16.3254822413
 20
12.8713984388
 30
0.0
 10
16.323788367
 20
12.8733845362
 30
0.0
 10
16.3215246182
 20
12.8756866811
 30
0.0
 10
16.3190223858
 20
12.8779188002
 30
0.0
 10
16.3162982037
 20
12.880066254
 30
0.0
 10
16.3133699355
 20
12.8821150393
 30
0.0
 10
16.3102568351
 20
12.8840517207
 30
0.0
 10
16.306979376
 20
12.885863582
 30
0.0
 10
16.3035591316
 20
12.8875387057
 30
0.0
 10
16.3000186249
 20
12.8890660637
 30
0.0
 10
16.2963811915
 20
12.8904355918
 30
0.0
 10
16.2926707735
 20
12.8916382701
 30
0.0
 10
16.2889119427
 20
12.892666148
 30
0.0
 10
16.2863795246
 20
12.8932327538
 30
0.0
 10
16.2851108833
 20
12.8934849542
 30
0.0
  0
SPLINE
  5
309
100
AcDbEntity
  8
LAYER_FEATURE
100
AcDbSpline
 62
7
  6
CONTINUOUS
 70
0
 71
3
 72
11
 73
7
 74
0
 42
0.0000001
 43
0.0000001
 44
0.0000000001
 40
0.0
 40
0.0
 40
0.0
 40
0.0
 40
0.2577065857
 40
0.5100829033
 40
0.7574063325
 40
1.0
 40
1.0
 40
1.0
 40
1.0
 10
16.3301609128
 20
12.8637207749
 30
0.0
 10
16.3327357886
 20
12.8576067863
 30
0.0
 10
16.3375541712
 20
12.8453856315
 30
0.0
 10
16.3438181868
 20
12.8269133258
 30
0.0
 10
16.3490327247
 20
12.8085214875
 30
0.0
 10
16.3518302582
 20
12.7962164983
 30
0.0
 10
16.3530460556
 20
12.7900909695
 30
0.0
  0
ENDSEC
  0
SECTION
  2
OBJECTS
  0
DICTIONARY
  5
C
100
AcDbDictionary
280
0
281
1
  3
ACAD_GROUP
350
D
  3
ACAD_MLINESTYLE
350
17
  3
ACAD_LAYOUT
350
1A
  3
ACAD_PLOTSETTINGS
350
19
  3
ACAD_PLOTSTYLENAME
350
E
  0
DICTIONARY
  5
D
102
{ACAD_REACTORS
330
C
102
}
100
AcDbDictionary
280
0
281
1
  0
ACDBDICTIONARYWDFLT
  5
E
102
{ACAD_REACTORS
330
C
102
}
100
AcDbDictionary
281
1
  3
Normal
350
F
100
AcDbDictionaryWithDefault
340
F
  0
DICTIONARY
  5
17
102
{ACAD_REACTORS
330
C
102
}
100
AcDbDictionary
280
0
281
1
  3
Standard
350
18
  0
DICTIONARY
  5
19
102
{ACAD_REACTORS
330
C
102
}
100
AcDbDictionary
281
1
  0
DICTIONARY
  5
1A
102
{ACAD_REACTORS
330
C
102
}
100
AcDbDictionary
281
1
  3
Model
350
30A
  3
Layout1
350
30B
  0
ACDBPLACEHOLDER
  5
F
102
{ACAD_REACTORS
330
E
102
}
  0
MLINESTYLE
  5
18
102
{ACAD_REACTORS
330
17
102
}
100
AcDbMlineStyle
  2
STANDARD
 70
0
  3

 62
256
 51
90.0
 52
90.0
 71
2
 49
0.5
 62
256
  6
BYLAYER
 49
-0.5
 62
256
  6
BYLAYER
  0
LAYOUT
  5
30A
102
{ACAD_REACTORS
330
1A
102
}
100
AcDbPlotSettings
  1

  2
none_device
  4
ANSI_C_(22.00_x_17.00_Inches)
  6

 40
0.0
 41
0.0
 42
0.0
 43
0.0
 44
558.8
 45
431.8
 46
0.0
 47
0.0
 48
0.0
 49
0.0
140
0.0
141
0.0
142
1.0
143
1.0
 70
1024
 72
0
 73
0
 74
0
  7

 75
0
147
1.0
148
0.0
149
0.0
100
AcDbLayout
  1
Model
 70
0
 71
0
 10
0.0
 20
0.0
 11
22.0
 21
17.0
 12
0.0
 22
0.0
 32
0.0
 14
0.0
 24
0.0
 34
0.0
 15
0.0
 25
0.0
 35
0.0
146
0.0
 13
0.0
 23
0.0
 33
0.0
 16
1.0
 26
0.0
 36
0.0
 17
0.0
 27
1.0
 37
0.0
 76
0
330
222
345
0
346
0
  0
LAYOUT
  5
30B
102
{ACAD_REACTORS
330
1A
102
}
100
AcDbPlotSettings
  1

  2
none_device
  4
ANSI_C_(22.00_x_17.00_Inches)
  6

 40
0.0
 41
0.0
 42
0.0
 43
0.0
 44
558.8
 45
431.8
 46
0.0
 47
0.0
 48
0.0
 49
0.0
140
0.0
141
0.0
142
1.0
143
1.0
 70
0
 72
0
 73
0
 74
0
  7

 75
0
147
1.0
148
0.0
149
0.0
100
AcDbLayout
  1
Layout1
 70
0
 71
1
 10
0.0
 20
0.0
 11
22.0
 21
17.0
 12
0.0
 22
0.0
 32
0.0
 14
0.0
 24
0.0
 34
0.0
 15
0.0
 25
0.0
 35
0.0
146
0.0
 13
0.0
 23
0.0
 33
0.0
 16
1.0
 26
0.0
 36
0.0
 17
0.0
 27
1.0
 37
0.0
 76
0
330
223
345
0
346
0
  0
ENDSEC
  0
EOF