999
DXF file: _cgs_temp_output.dxf
999
Pro/ENGINEER 2016360 by Parametric Technology Corporation
  0
SECTION
  2
HEADER
  9
$ACADVER
  1
AC1021
  9
$DWGCODEPAGE
  3
ANSI_1252
  9
$EXTMAX
 10
22.0
 20
17.0
 30
0.0
  9
$EXTMIN
 10
0.0
 20
0.0
 30
0.0
  9
$LIMMIN
 10
0.0
 20
0.0
  9
$LIMMAX
 10
22.0
 20
17.0
  9
$VIEWCTR
 10
11.0
 20
8.5
  9
$VIEWSIZE
 40
17.0
  9
$CLAYER
  8
0
  9
$LTSCALE
 40
1.21
  9
$CELTYPE
  6
BYLAYER
  9
$DIMSCALE
 40
1.0
  9
$DIMASZ
 40
0.1875
  9
$DIMEXO
 40
0.0625
  9
$DIMDLI
 40
0.836
  9
$DIMEXE
 40
0.125
  9
$DIMCEN
 40
0.198
  9
$DIMLFAC
 40
1.0
  9
$DIMBLK
  1
_CLOSED
  9
$DIMALT
 70
0
  9
$DIMALTF
 40
25.4
  9
$DIMTXT
 40
0.15625
  9
$DIMTOL
 70
0
  9
$DIMLIM
 70
0
  9
$DIMTFAC
 40
1.0
  9
$DIMGAP
 40
0.09
  9
$DIMDSEP
 70
46
  9
$AUNITS
 70
0
  9
$PDMODE
 70
3
  9
$PDSIZE
 40
0.3125
  9
$HANDSEED
  5
2EA
  9
$TILEMODE
 70
1
  9
$MEASUREMENT
 70
0
  9
$INSUNITS
 70
1
  0
ENDSEC
  0
SECTION
  2
CLASSES
  0
CLASS
  1
ACDBDICTIONARYWDFLT
  2
AcDbDictionaryWithDefault
  3
AutoCAD 2000
 90
0
 91
1
280
0
281
0
  0
CLASS
  1
ACDBPLACEHOLDER
  2
AcDbPlaceHolder
  3
AutoCAD 2000
 90
0
 91
1
280
0
281
0
  0
CLASS
  1
LAYOUT
  2
AcDbLayout
  3
AutoCAD 2000
 90
0
 91
0
280
0
281
0
  0
ENDSEC
  0
SECTION
  2
TABLES
  0
TABLE
  2
VPORT
  5
8
100
AcDbSymbolTable
 70
2
  0
VPORT
  5
1F4
100
AcDbSymbolTableRecord
100
AcDbViewportTableRecord
  2
*ACTIVE
 70
0
 10
0.0
 20
0.0
 11
1.0
 21
1.0
 12
11.0
 22
8.5
 13
0.0
 23
0.0
 14
1.0
 24
1.0
 15
0.0
 25
0.0
 16
0.0
 26
0.0
 36
1.0
 17
0.0
 27
0.0
 37
0.0
 40
17.0
 41
1.2941176471
 42
50.0
 43
0.0
 44
0.0
 50
0.0
 51
0.0
 71
0
 72
100
 73
1
 74
1
 75
0
 76
0
 77
0
 78
0
  0
ENDTAB
  0
TABLE
  2
LTYPE
  5
5
100
AcDbSymbolTable
 70
6
  0
LTYPE
  5
14
100
AcDbSymbolTableRecord
100
AcDbLinetypeTableRecord
  2
BYBLOCK
 70
0
  3

 72
65
 73
0
 40
0.0
  0
LTYPE
  5
15
100
AcDbSymbolTableRecord
100
AcDbLinetypeTableRecord
  2
BYLAYER
 70
0
  3

 72
65
 73
0
 40
0.0
  0
LTYPE
  5
16
100
AcDbSymbolTableRecord
100
AcDbLinetypeTableRecord
  2
CONTINUOUS
 70
64
  3
Solid line
 72
65
 73
0
 40
0.0
  0
LTYPE
  5
1F5
100
AcDbSymbolTableRecord
100
AcDbLinetypeTableRecord
  2
CENTER
 70
64
  3
____ _ ____ _ ____ _ ____ _ ____ _ ____ _ ____
 72
65
 73
4
 40
0.6
 49
0.375
 74
0
 49
-0.075
 74
0
 49
0.075
 74
0
 49
-0.075
 74
0
  0
LTYPE
  5
1F6
100
AcDbSymbolTableRecord
100
AcDbLinetypeTableRecord
  2
HIDDEN
 70
64
  3
- - - - - - - - - - - - - - - - - - - -
 72
65
 73
2
 40
0.2
 49
0.1
 74
0
 49
-0.1
 74
0
  0
LTYPE
  5
1F7
100
AcDbSymbolTableRecord
100
AcDbLinetypeTableRecord
  2
PHANTOM
 70
64
  3
_____ _ _ _____ _ _ _____ _ _ _____
 72
65
 73
6
 40
0.8
 49
0.45
 74
0
 49
-0.05
 74
0
 49
0.1
 74
0
 49
-0.05
 74
0
 49
0.1
 74
0
 49
-0.05
 74
0
  0
LTYPE
  5
1F8
100
AcDbSymbolTableRecord
100
AcDbLinetypeTableRecord
  2
DOT
 70
64
  3
. . . . . . . . . . . . . . . . . . . .
 72
65
 73
2
 40
0.2
 49
0.1
 74
0
 49
-0.1
 74
0
  0
LTYPE
  5
1F9
100
AcDbSymbolTableRecord
100
AcDbLinetypeTableRecord
  2
DASHED
 70
64
  3
- - - - - - - - - - - - - - - - - - - -
 72
65
 73
2
 40
0.2
 49
0.1
 74
0
 49
-0.1
 74
0
  0
ENDTAB
  0
TABLE
  2
LAYER
  5
2
100
AcDbSymbolTable
 70
36
  0
LAYER
  5
10
100
AcDbSymbolTableRecord
100
AcDbLayerTableRecord
  2
0
 70
0
 62
7
  6
CONTINUOUS
370
-3
390
F
  0
LAYER
  5
1FA
100
AcDbSymbolTableRecord
100
AcDbLayerTableRecord
  2
DEFAULT_1
 70
0
 62
7
  6
CENTER
370
-3
390
F
  0
LAYER
  5
1FB
100
AcDbSymbolTableRecord
100
AcDbLayerTableRecord
  2
DEFAULT_2
 70
0
 62
8
  6
HIDDEN
370
-3
390
F
  0
LAYER
  5
1FC
100
AcDbSymbolTableRecord
100
AcDbLayerTableRecord
  2
DEFAULT_3
 70
0
 62
7
  6
PHANTOM
370
-3
390
F
  0
LAYER
  5
1FD
100
AcDbSymbolTableRecord
100
AcDbLayerTableRecord
  2
01_ALL_DTM_PLN
 70
0
 62
7
  6
CONTINUOUS
370
-3
390
F
  0
LAYER
  5
1FE
100
AcDbSymbolTableRecord
100
AcDbLayerTableRecord
  2
01__ASM_ALL_DTM_PLN
 70
0
 62
7
  6
CONTINUOUS
370
-3
390
F
  0
LAYER
  5
1FF
100
AcDbSymbolTableRecord
100
AcDbLayerTableRecord
  2
01__ASM_DEF_DTM_PLN
 70
0
 62
7
  6
CONTINUOUS
370
-3
390
F
  0
LAYER
  5
200
100
AcDbSymbolTableRecord
100
AcDbLayerTableRecord
  2
01___PRT_ALL_DTM_PLN
 70
0
 62
7
  6
CONTINUOUS
370
-3
390
F
  0
LAYER
  5
201
100
AcDbSymbolTableRecord
100
AcDbLayerTableRecord
  2
01___PRT_DEF_DTM_PLN
 70
0
 62
7
  6
CONTINUOUS
370
-3
390
F
  0
LAYER
  5
202
100
AcDbSymbolTableRecord
100
AcDbLayerTableRecord
  2
02_ALL_AXES
 70
0
 62
7
  6
CONTINUOUS
370
-3
390
F
  0
LAYER
  5
203
100
AcDbSymbolTableRecord
100
AcDbLayerTableRecord
  2
02__ASM_ALL_AXES
 70
0
 62
7
  6
CONTINUOUS
370
-3
390
F
  0
LAYER
  5
204
100
AcDbSymbolTableRecord
100
AcDbLayerTableRecord
  2
02___PRT_ALL_AXES
 70
0
 62
7
  6
CONTINUOUS
370
-3
390
F
  0
LAYER
  5
205
100
AcDbSymbolTableRecord
100
AcDbLayerTableRecord
  2
03_ALL_CURVES
 70
0
 62
7
  6
CONTINUOUS
370
-3
390
F
  0
LAYER
  5
206
100
AcDbSymbolTableRecord
100
AcDbLayerTableRecord
  2
03__ASM_ALL_CURVES
 70
0
 62
7
  6
CONTINUOUS
370
-3
390
F
  0
LAYER
  5
207
100
AcDbSymbolTableRecord
100
AcDbLayerTableRecord
  2
03___PRT_ALL_CURVES
 70
0
 62
7
  6
CONTINUOUS
370
-3
390
F
  0
LAYER
  5
208
100
AcDbSymbolTableRecord
100
AcDbLayerTableRecord
  2
04_ALL_DTM_PNT
 70
0
 62
7
  6
CONTINUOUS
370
-3
390
F
  0
LAYER
  5
209
100
AcDbSymbolTableRecord
100
AcDbLayerTableRecord
  2
04__ASM_ALL_DTM_PNT
 70
0
 62
7
  6
CONTINUOUS
370
-3
390
F
  0
LAYER
  5
20A
100
AcDbSymbolTableRecord
100
AcDbLayerTableRecord
  2
04___PRT_ALL_DTM_PNT
 70
0
 62
7
  6
CONTINUOUS
370
-3
390
F
  0
LAYER
  5
20B
100
AcDbSymbolTableRecord
100
AcDbLayerTableRecord
  2
05_ALL_DTM_CSYS
 70
0
 62
7
  6
CONTINUOUS
370
-3
390
F
  0
LAYER
  5
20C
100
AcDbSymbolTableRecord
100
AcDbLayerTableRecord
  2
05__ASM_ALL_DTM_CSYS
 70
0
 62
7
  6
CONTINUOUS
370
-3
390
F
  0
LAYER
  5
20D
100
AcDbSymbolTableRecord
100
AcDbLayerTableRecord
  2
05__ASM_DEF_DTM_CSYS
 70
0
 62
7
  6
CONTINUOUS
370
-3
390
F
  0
LAYER
  5
20E
100
AcDbSymbolTableRecord
100
AcDbLayerTableRecord
  2
05___PRT_ALL_DTM_CSYS
 70
0
 62
7
  6
CONTINUOUS
370
-3
390
F
  0
LAYER
  5
20F
100
AcDbSymbolTableRecord
100
AcDbLayerTableRecord
  2
05___PRT_DEF_DTM_CSYS
 70
0
 62
7
  6
CONTINUOUS
370
-3
390
F
  0
LAYER
  5
210
100
AcDbSymbolTableRecord
100
AcDbLayerTableRecord
  2
06_ALL_SURFS
 70
0
 62
7
  6
CONTINUOUS
370
-3
390
F
  0
LAYER
  5
211
100
AcDbSymbolTableRecord
100
AcDbLayerTableRecord
  2
06__ASM_ALL_SURFS
 70
0
 62
7
  6
CONTINUOUS
370
-3
390
F
  0
LAYER
  5
212
100
AcDbSymbolTableRecord
100
AcDbLayerTableRecord
  2
06___PRT_ALL_SURFS
 70
0
 62
7
  6
CONTINUOUS
370
-3
390
F
  0
LAYER
  5
213
100
AcDbSymbolTableRecord
100
AcDbLayerTableRecord
  2
07__ASM_ALL_SKELETONS
 70
0
 62
7
  6
CONTINUOUS
370
-3
390
F
  0
LAYER
  5
214
100
AcDbSymbolTableRecord
100
AcDbLayerTableRecord
  2
LAYER_AXIS
 70
0
 62
7
  6
CONTINUOUS
370
-3
390
F
  0
LAYER
  5
215
100
AcDbSymbolTableRecord
100
AcDbLayerTableRecord
  2
LAYER_CHAMFER_FEAT
 70
0
 62
7
  6
CONTINUOUS
370
-3
390
F
  0
LAYER
  5
216
100
AcDbSymbolTableRecord
100
AcDbLayerTableRecord
  2
LAYER_CUT_FEAT
 70
0
 62
7
  6
CONTINUOUS
370
-3
390
F
  0
LAYER
  5
217
100
AcDbSymbolTableRecord
100
AcDbLayerTableRecord
  2
LAYER_DATUM
 70
0
 62
7
  6
CONTINUOUS
370
-3
390
F
  0
LAYER
  5
218
100
AcDbSymbolTableRecord
100
AcDbLayerTableRecord
  2
LAYER_DIM
 70
0
 62
7
  6
CONTINUOUS
370
-3
390
F
  0
LAYER
  5
219
100
AcDbSymbolTableRecord
100
AcDbLayerTableRecord
  2
LAYER_FEATURE
 70
0
 62
7
  6
CONTINUOUS
370
-3
390
F
  0
LAYER
  5
21A
100
AcDbSymbolTableRecord
100
AcDbLayerTableRecord
  2
LAYER_GEOM_FEAT
 70
0
 62
7
  6
CONTINUOUS
370
-3
390
F
  0
LAYER
  5
21B
100
AcDbSymbolTableRecord
100
AcDbLayerTableRecord
  2
LAYER_NOGEOM_FEAT
 70
0
 62
7
  6
CONTINUOUS
370
-3
390
F
  0
LAYER
  5
21C
100
AcDbSymbolTableRecord
100
AcDbLayerTableRecord
  2
LAYER_PARAMETER_DIM
 70
0
 62
7
  6
CONTINUOUS
370
-3
390
F
  0
LAYER
  5
21D
100
AcDbSymbolTableRecord
100
AcDbLayerTableRecord
  2
LAYER_PROTRUSION_FEAT
 70
0
 62
7
  6
CONTINUOUS
370
-3
390
F
  0
LAYER
  5
21E
100
AcDbSymbolTableRecord
100
AcDbLayerTableRecord
  2
LAYER_QUILT
 70
0
 62
7
  6
CONTINUOUS
370
-3
390
F
  0
LAYER
  5
21F
100
AcDbSymbolTableRecord
100
AcDbLayerTableRecord
  2
LAYER_ROUND_FEAT
 70
0
 62
7
  6
CONTINUOUS
370
-3
390
F
  0
ENDTAB
  0
TABLE
  2
STYLE
  5
3
100
AcDbSymbolTable
 70
1
  0
STYLE
  5
11
100
AcDbSymbolTableRecord
100
AcDbTextStyleTableRecord
  2
STANDARD
 70
0
 40
0.0
 41
0.8
 50
0.0
 71
0
 42
0.2
  3
txt
  4

  0
STYLE
  5
220
100
AcDbSymbolTableRecord
100
AcDbTextStyleTableRecord
  2
TEXTSTYLE_1
 70
0
 40
0.0
 41
0.8
 50
0.0
 71
0
 42
0.2
  3
gdt
  4

  0
ENDTAB
  0
TABLE
  2
VIEW
  5
6
100
AcDbSymbolTable
 70
0
  0
ENDTAB
  0
TABLE
  2
UCS
  5
7
100
AcDbSymbolTable
 70
0
  0
ENDTAB
  0
TABLE
  2
APPID
  5
9
100
AcDbSymbolTable
 70
1
  0
APPID
  5
221
100
AcDbSymbolTableRecord
100
AcDbRegAppTableRecord
  2
ACAD
 70
0
  0
ENDTAB
  0
TABLE
  2
BLOCK_RECORD
  5
1
100
AcDbSymbolTable
 70
0
  0
BLOCK_RECORD
  5
222
100
AcDbSymbolTableRecord
100
AcDbBlockTableRecord
  2
*Model_Space
  0
BLOCK_RECORD
  5
223
100
AcDbSymbolTableRecord
100
AcDbBlockTableRecord
  2
*Paper_Space
  0
ENDTAB
  0
TABLE
  2
DIMSTYLE
  5
A
100
AcDbSymbolTable
 70
1
100
AcDbDimStyleTable
 71
0
  0
DIMSTYLE
105
224
100
AcDbSymbolTableRecord
100
AcDbDimStyleTableRecord
  2
STANDARD
 70
0
  3

  4

 40
1.0
 41
0.1875
 42
0.0625
 43
0.38
 44
0.125
 45
0.0
 46
0.0
 47
0.0001
 48
0.0001
140
0.15625
141
0.09
142
0.0
143
25.4
144
1.0
145
0.0
146
1.0
147
0.09
 71
0.0
 72
0.0
 73
1
 74
1
 75
0
 76
0
 77
0
 78
4
 79
1
170
0
171
3
172
0
173
0
174
0
175
0
176
0
177
0
178
0
270
2
179
4
271
4
272
4
273
2
274
2
275
0
280
0
281
0
282
0
283
1
284
4
285
0
286
0
287
3
288
0
340
11
278
46
  0
ENDTAB
  0
ENDSEC
  0
SECTION
  2
BLOCKS
  0
BLOCK
  5
20
100
AcDbEntity
  8
0
100
AcDbBlockBegin
  2
*Model_Space
 70
0
 10
0.0
 20
0.0
 30
0.0
  3
*Model_Space
  1

  0
ENDBLK
  5
21
100
AcDbEntity
  8
0
100
AcDbBlockEnd
  0
BLOCK
  5
1C
100
AcDbEntity
  8
0
100
AcDbBlockBegin
  2
*Paper_Space
 70
0
 10
0.0
 20
0.0
 30
0.0
  3
*Paper_Space
  1

  0
ENDBLK
  5
1D
100
AcDbEntity
  8
0
100
AcDbBlockEnd
  0
ENDSEC
  0
SECTION
  2
ENTITIES
  0
MTEXT
  5
225
100
AcDbEntity
  8
0
100
AcDbMText
 62
7
  6
CONTINUOUS
  7
STANDARD
 71
1
 72
1
 10
15.9560215477
 20
0.9479130325
 30
0.0
 11
1.0
 21
0.0
 31
0.0
 44
0.9
  1
SCALE: 1:0.333
 40
0.3
 41
3.36
  0
LINE
  5
226
100
AcDbEntity
  8
0
100
AcDbLine
 62
7
  6
CONTINUOUS
 10
0.0
 20
0.0
 11
0.0
 21
17.0
  0
LINE
  5
227
100
AcDbEntity
  8
0
100
AcDbLine
 62
7
  6
CONTINUOUS
 10
0.0
 20
0.0
 11
22.0
 21
0.0
  0
LINE
  5
228
100
AcDbEntity
  8
0
100
AcDbLine
 62
7
  6
CONTINUOUS
 10
0.0
 20
17.0
 11
22.0
 21
17.0
  0
LINE
  5
229
100
AcDbEntity
  8
0
100
AcDbLine
 62
7
  6
CONTINUOUS
 10
22.0
 20
0.0
 11
22.0
 21
17.0
  0
LINE
  5
22A
100
AcDbEntity
  8
02___PRT_ALL_AXES
100
AcDbLine
 62
7
  6
CONTINUOUS
 10
5.5053672762
 20
4.0256035169
 11
6.7553672762
 21
4.0256035169
  0
LINE
  5
22B
100
AcDbEntity
  8
LAYER_CUT_FEAT
100
AcDbLine
 62
7
  6
CONTINUOUS
 10
5.5053672762
 20
4.0256035889
 11
5.5053672762
 21
7.0144921513
  0
LINE
  5
22C
100
AcDbEntity
  8
LAYER_CUT_FEAT
100
AcDbLine
 62
7
  6
CONTINUOUS
 10
6.7553672762
 20
4.0256035889
 11
6.7553672762
 21
7.0144921513
  0
LINE
  5
22D
100
AcDbEntity
  8
LAYER_CUT_FEAT
100
AcDbLine
 62
7
  6
CONTINUOUS
 10
5.5053672762
 20
6.9718173456
 11
6.7553672762
 21
6.9718173456
  0
LINE
  5
22E
100
AcDbEntity
  8
LAYER_CUT_FEAT
100
AcDbLine
 62
7
  6
CONTINUOUS
 10
5.5053672762
 20
6.9720941427
 11
6.7553672762
 21
6.9720941427
  0
LINE
  5
22F
100
AcDbEntity
  8
LAYER_CUT_FEAT
100
AcDbLine
 62
7
  6
CONTINUOUS
 10
5.5053672762
 20
6.991869571
 11
6.7553672762
 21
6.991869571
  0
LINE
  5
230
100
AcDbEntity
  8
LAYER_CUT_FEAT
100
AcDbLine
 62
7
  6
CONTINUOUS
 10
5.5053672762
 20
6.9932407719
 11
6.7553672762
 21
6.9932407719
  0
LINE
  5
231
100
AcDbEntity
  8
LAYER_CUT_FEAT
100
AcDbLine
 62
7
  6
CONTINUOUS
 10
5.5053672762
 20
6.993364043
 11
6.7553672762
 21
6.993364043
  0
LINE
  5
232
100
AcDbEntity
  8
LAYER_CUT_FEAT
100
AcDbLine
 62
7
  6
CONTINUOUS
 10
5.5053672762
 20
7.0066634437
 11
6.7553672762
 21
7.0066634437
  0
LINE
  5
233
100
AcDbEntity
  8
LAYER_CUT_FEAT
100
AcDbLine
 62
7
  6
CONTINUOUS
 10
5.5053672762
 20
7.0074888455
 11
6.7553672762
 21
7.0074888455
  0
LINE
  5
234
100
AcDbEntity
  8
LAYER_CUT_FEAT
100
AcDbLine
 62
7
  6
CONTINUOUS
 10
5.5053672762
 20
7.0075197009
 11
6.7553672762
 21
7.0075197009
  0
LINE
  5
235
100
AcDbEntity
  8
LAYER_CUT_FEAT
100
AcDbLine
 62
7
  6
CONTINUOUS
 10
5.5053672762
 20
7.0142165698
 11
6.7553672762
 21
7.0142165698
  0
LINE
  5
236
100
AcDbEntity
  8
LAYER_CUT_FEAT
100
AcDbLine
 62
7
  6
CONTINUOUS
 10
5.5053672762
 20
7.0144921513
 11
6.7553672762
 21
7.0144921513
  0
LINE
  5
237
100
AcDbEntity
  8
02___PRT_ALL_AXES
100
AcDbLine
 62
7
  6
CONTINUOUS
 10
5.4458720839
 20
11.1051336312
 11
6.6958720839
 21
11.1051336312
  0
LINE
  5
238
100
AcDbEntity
  8
LAYER_CUT_FEAT
100
AcDbLine
 62
7
  6
CONTINUOUS
 10
5.4458720839
 20
11.1051337068
 11
5.4458720839
 21
14.0948002903
  0
LINE
  5
239
100
AcDbEntity
  8
LAYER_CUT_FEAT
100
AcDbLine
 62
7
  6
CONTINUOUS
 10
5.4458720839
 20
12.242166249
 11
6.6958720839
 21
12.242166249
  0
LINE
  5
23A
100
AcDbEntity
  8
LAYER_CUT_FEAT
100
AcDbLine
 62
7
  6
CONTINUOUS
 10
5.4458720839
 20
12.3365045524
 11
6.6958720839
 21
12.3365045524
  0
LINE
  5
23B
100
AcDbEntity
  8
LAYER_CUT_FEAT
100
AcDbLine
 62
7
  6
CONTINUOUS
 10
5.4458720839
 20
12.344281019
 11
6.6958720839
 21
12.344281019
  0
LINE
  5
23C
100
AcDbEntity
  8
LAYER_CUT_FEAT
100
AcDbLine
 62
7
  6
CONTINUOUS
 10
5.4458720839
 20
12.4397882916
 11
6.6958720839
 21
12.4397882916
  0
LINE
  5
23D
100
AcDbEntity
  8
LAYER_CUT_FEAT
100
AcDbLine
 62
7
  6
CONTINUOUS
 10
5.4458720839
 20
12.4476414652
 11
6.6958720839
 21
12.4476414652
  0
LINE
  5
23E
100
AcDbEntity
  8
LAYER_CUT_FEAT
100
AcDbLine
 62
7
  6
CONTINUOUS
 10
5.4458720839
 20
12.5438524051
 11
6.6958720839
 21
12.5438524051
  0
LINE
  5
23F
100
AcDbEntity
  8
LAYER_CUT_FEAT
100
AcDbLine
 62
7
  6
CONTINUOUS
 10
5.4458720839
 20
12.5517440259
 11
6.6958720839
 21
12.5517440259
  0
LINE
  5
240
100
AcDbEntity
  8
LAYER_CUT_FEAT
100
AcDbLine
 62
7
  6
CONTINUOUS
 10
5.4458720839
 20
12.6481899032
 11
6.6958720839
 21
12.6481899032
  0
LINE
  5
241
100
AcDbEntity
  8
LAYER_CUT_FEAT
100
AcDbLine
 62
7
  6
CONTINUOUS
 10
6.6958720839
 20
11.1051337068
 11
6.6958720839
 21
14.0948002903
  0
LINE
  5
242
100
AcDbEntity
  8
02___PRT_ALL_AXES
100
AcDbLine
 62
7
  6
CONTINUOUS
 10
5.4458720839
 20
14.0948002979
 11
6.6958720839
 21
14.0948002979
  0
LINE
  5
243
100
AcDbEntity
  8
02___PRT_ALL_AXES
100
AcDbLine
 62
7
  6
CONTINUOUS
 10
14.8954675799
 20
11.0158731693
 11
16.0467938224
 21
11.0158731693
  0
LINE
  5
244
100
AcDbEntity
  8
LAYER_CUT_FEAT
100
AcDbLine
 62
7
  6
CONTINUOUS
 10
14.3661242607
 20
13.1326241576
 11
15.5174505032
 21
13.1326241576
  0
LINE
  5
245
100
AcDbEntity
  8
LAYER_CUT_FEAT
100
AcDbLine
 62
7
  6
CONTINUOUS
 10
14.3705411829
 20
13.1396520869
 11
15.5218674254
 21
13.1396520869
  0
LINE
  5
246
100
AcDbEntity
  8
LAYER_CUT_FEAT
100
AcDbLine
 62
7
  6
CONTINUOUS
 10
15.522405313
 20
13.1395765508
 11
15.5218674254
 21
13.1396520832
  0
LINE
  5
247
100
AcDbEntity
  8
02___PRT_ALL_AXES
100
AcDbLine
 62
7
  6
CONTINUOUS
 10
15.6456998457
 20
13.217642336
 11
15.6548633738
 21
13.2187301636
  0
LINE
  5
248
100
AcDbEntity
  8
LAYER_CUT_FEAT
100
AcDbLine
 62
7
  6
CONTINUOUS
 10
14.3828436187
 20
13.2189865525
 11
15.5341698612
 21
13.2189865525
  0
LINE
  5
249
100
AcDbEntity
  8
LAYER_CUT_FEAT
100
AcDbLine
 62
7
  6
CONTINUOUS
 10
14.3843077657
 20
13.2259304201
 11
15.5356340082
 21
13.2259304201
  0
LINE
  5
24A
100
AcDbEntity
  8
LAYER_CUT_FEAT
100
AcDbLine
 62
7
  6
CONTINUOUS
 10
14.3885607553
 20
13.2321808822
 11
15.5398869978
 21
13.2321808822
  0
LINE
  5
24B
100
AcDbEntity
  8
LAYER_CUT_FEAT
100
AcDbLine
 62
7
  6
CONTINUOUS
 10
15.5703109837
 20
13.3171310259
 11
15.5718982689
 21
13.317269634
  0
LINE
  5
24C
100
AcDbEntity
  8
LAYER_CUT_FEAT
100
AcDbLine
 62
7
  6
CONTINUOUS
 10
14.4033323831
 20
13.3090875034
 11
15.5546586256
 21
13.3090875034
  0
LINE
  5
24D
100
AcDbEntity
  8
LAYER_CUT_FEAT
100
AcDbLine
 62
7
  6
CONTINUOUS
 10
14.4049815899
 20
13.3157521836
 11
15.5563078324
 21
13.3157521836
  0
LINE
  5
24E
100
AcDbEntity
  8
LAYER_CUT_FEAT
100
AcDbLine
 62
7
  6
CONTINUOUS
 10
14.4090499268
 20
13.3212564376
 11
15.5603761693
 21
13.3212564376
  0
LINE
  5
24F
100
AcDbEntity
  8
LAYER_CUT_FEAT
100
AcDbLine
 62
7
  6
CONTINUOUS
 10
14.4262187808
 20
13.3952988224
 11
15.5775450233
 21
13.3952988224
  0
LINE
  5
250
100
AcDbEntity
  8
LAYER_CUT_FEAT
100
AcDbLine
 62
7
  6
CONTINUOUS
 10
14.4280450126
 20
13.4016518455
 11
15.5793712551
 21
13.4016518455
  0
LINE
  5
251
100
AcDbEntity
  8
LAYER_CUT_FEAT
100
AcDbLine
 62
7
  6
CONTINUOUS
 10
14.4319088762
 20
13.4064447859
 11
15.5832351187
 21
13.4064447859
  0
LINE
  5
252
100
AcDbEntity
  8
LAYER_CUT_FEAT
100
AcDbLine
 62
7
  6
CONTINUOUS
 10
14.4513913115
 20
13.4772004964
 11
15.602717554
 21
13.4772004964
  0
LINE
  5
253
100
AcDbEntity
  8
02___PRT_ALL_AXES
100
AcDbLine
 62
7
  6
CONTINUOUS
 10
14.8954675799
 20
14.005539836
 11
16.0467938224
 21
14.005539836
  0
ARC
  5
254
100
AcDbEntity
  8
02___PRT_ALL_AXES
100
AcDbCircle
 62
7
  6
CONTINUOUS
 10
15.0141730773
 20
5.8433259488
 40
0.1041666667
100
AcDbArc
 50
57.4815826708
 51
232.5184173292
  0
ARC
  5
255
100
AcDbEntity
  8
02___PRT_ALL_AXES
100
AcDbCircle
 62
7
  6
CONTINUOUS
 10
15.2269411068
 20
4.8835913887
 40
0.1041666667
100
AcDbArc
 50
136.3757123105
 51
343.6242876895
  0
ARC
  5
256
100
AcDbEntity
  8
LAYER_CUT_FEAT
100
AcDbCircle
 62
7
  6
CONTINUOUS
 10
14.5785104587
 20
7.0235316045
 40
0.7156666667
100
AcDbArc
 50
351.1412641238
 51
351.8265700331
  0
ARC
  5
257
100
AcDbEntity
  8
LAYER_CUT_FEAT
100
AcDbCircle
 62
7
  6
CONTINUOUS
 10
14.689902751
 20
7.0882096073
 40
0.7156666667
100
AcDbArc
 50
347.1412641238
 51
347.8265700331
  0
ARC
  5
258
100
AcDbEntity
  8
LAYER_CUT_FEAT
100
AcDbCircle
 62
7
  6
CONTINUOUS
 10
14.8055354067
 20
7.1449597242
 40
0.7156666667
100
AcDbArc
 50
343.1412641238
 51
343.8265700331
  0
ARC
  5
259
100
AcDbEntity
  8
LAYER_CUT_FEAT
100
AcDbCircle
 62
7
  6
CONTINUOUS
 10
14.924845075
 20
7.1935054744
 40
0.7156666667
100
AcDbArc
 50
339.1412641238
 51
339.8265700331
  0
ARC
  5
25A
100
AcDbEntity
  8
LAYER_CUT_FEAT
100
AcDbCircle
 62
7
  6
CONTINUOUS
 10
15.2708307702
 20
6.9320131781
 40
0.06
100
AcDbArc
 50
212.8587358762
 51
230.329131076
  0
ARC
  5
25B
100
AcDbEntity
  8
LAYER_CUT_FEAT
100
AcDbCircle
 62
7
  6
CONTINUOUS
 10
15.2263556981
 20
6.9225597097
 40
0.06
100
AcDbArc
 50
333.670868924
 51
351.1412641238
  0
ARC
  5
25C
100
AcDbEntity
  8
LAYER_CUT_FEAT
100
AcDbCircle
 62
7
  6
CONTINUOUS
 10
15.3741526023
 20
6.9486202916
 40
0.06
100
AcDbArc
 50
208.8587358762
 51
226.329131076
  0
ARC
  5
25D
100
AcDbEntity
  8
LAYER_CUT_FEAT
100
AcDbCircle
 62
7
  6
CONTINUOUS
 10
15.3291264287
 20
6.9422922756
 40
0.06
100
AcDbArc
 50
329.670868924
 51
347.1412641238
  0
ARC
  5
25E
100
AcDbEntity
  8
LAYER_CUT_FEAT
100
AcDbCircle
 62
7
  6
CONTINUOUS
 10
15.2488395342
 20
6.9261276934
 40
0.0443333333
100
AcDbArc
 50
255.1839332668
 51
308.8160667332
  0
ARC
  5
25F
100
AcDbEntity
  8
LAYER_CUT_FEAT
100
AcDbCircle
 62
7
  6
CONTINUOUS
 10
15.3518043852
 20
6.9442831747
 40
0.0443333333
100
AcDbArc
 50
251.1839332668
 51
304.8160667332
  0
ARC
  5
260
100
AcDbEntity
  8
LAYER_CUT_FEAT
100
AcDbCircle
 62
7
  6
CONTINUOUS
 10
15.2408270725
 20
6.8958361395
 40
0.013
100
AcDbArc
 50
230.329131076
 51
255.1839332668
  0
ARC
  5
261
100
AcDbEntity
  8
LAYER_CUT_FEAT
100
AcDbCircle
 62
7
  6
CONTINUOUS
 10
15.2684799671
 20
6.9017139437
 40
0.013
100
AcDbArc
 50
308.8160667332
 51
333.670868924
  0
ARC
  5
262
100
AcDbEntity
  8
LAYER_CUT_FEAT
100
AcDbCircle
 62
7
  6
CONTINUOUS
 10
15.3416984095
 20
6.9146243306
 40
0.013
100
AcDbArc
 50
226.329131076
 51
251.1839332668
  0
ARC
  5
263
100
AcDbEntity
  8
LAYER_CUT_FEAT
100
AcDbCircle
 62
7
  6
CONTINUOUS
 10
15.3696939579
 20
6.9185588483
 40
0.013
100
AcDbArc
 50
304.8160667332
 51
329.670868924
  0
ARC
  5
264
100
AcDbEntity
  8
LAYER_CUT_FEAT
100
AcDbCircle
 62
7
  6
CONTINUOUS
 10
15.2994455761
 20
6.9199845091
 40
0.0126666667
100
AcDbArc
 50
102.0
 51
171.826570033
  0
ARC
  5
265
100
AcDbEntity
  8
LAYER_CUT_FEAT
100
AcDbCircle
 62
7
  6
CONTINUOUS
 10
15.2051072727
 20
6.8999322837
 40
0.0126666667
100
AcDbArc
 50
32.1734299669
 51
102.0
  0
ARC
  5
266
100
AcDbEntity
  8
LAYER_CUT_FEAT
100
AcDbCircle
 62
7
  6
CONTINUOUS
 10
15.3063513538
 20
6.9212021841
 40
0.0126666667
100
AcDbArc
 50
28.1734299669
 51
98.0
  0
ARC
  5
267
100
AcDbEntity
  8
LAYER_CUT_FEAT
100
AcDbCircle
 62
7
  6
CONTINUOUS
 10
15.5602744401
 20
5.4609416579
 40
1.4948333333
100
AcDbArc
 50
91.8486678444
 51
92.1513321556
  0
ARC
  5
268
100
AcDbEntity
  8
LAYER_CUT_FEAT
100
AcDbCircle
 62
7
  6
CONTINUOUS
 10
15.5602744401
 20
5.4609416579
 40
1.4948333333
100
AcDbArc
 50
95.8486678444
 51
96.1513321556
  0
ARC
  5
269
100
AcDbEntity
  8
LAYER_CUT_FEAT
100
AcDbCircle
 62
7
  6
CONTINUOUS
 10
15.5602744401
 20
5.4609416579
 40
1.4948333333
100
AcDbArc
 50
99.8486678444
 51
100.1513321556
  0
ARC
  5
26A
100
AcDbEntity
  8
LAYER_CUT_FEAT
100
AcDbCircle
 62
7
  6
CONTINUOUS
 10
15.5602744401
 20
5.4609416579
 40
1.4948333333
100
AcDbArc
 50
103.8486678444
 51
88.1513321556
  0
CIRCLE
  5
26B
100
AcDbEntity
  8
LAYER_CHAMFER_FEAT
100
AcDbCircle
 62
7
  6
CONTINUOUS
 10
15.5602744401
 20
5.4609416579
 40
1.3366666667
  0
CIRCLE
  5
26C
100
AcDbEntity
  8
LAYER_CHAMFER_FEAT
100
AcDbCircle
 62
7
  6
CONTINUOUS
 10
15.5602744401
 20
5.4609416579
 40
1.3166666667
  0
ARC
  5
26D
100
AcDbEntity
  8
02___PRT_ALL_AXES
100
AcDbCircle
 62
7
  6
CONTINUOUS
 10
15.5602744401
 20
5.4609416579
 40
0.7083333333
100
AcDbArc
 50
57.9665029899
 51
137.0334970101
  0
ARC
  5
26E
100
AcDbEntity
  8
02___PRT_ALL_AXES
100
AcDbCircle
 62
7
  6
CONTINUOUS
 10
15.5602744401
 20
5.4609416579
 40
0.7083333333
100
AcDbArc
 50
152.9665029899
 51
232.0334970101
  0
ARC
  5
26F
100
AcDbEntity
  8
02___PRT_ALL_AXES
100
AcDbCircle
 62
7
  6
CONTINUOUS
 10
15.5602744401
 20
5.4609416579
 40
0.7083333333
100
AcDbArc
 50
247.9665029899
 51
42.0334970101
  0
ARC
  5
270
100
AcDbEntity
  8
02___PRT_ALL_AXES
100
AcDbCircle
 62
7
  6
CONTINUOUS
 10
15.5602744401
 20
5.4609416579
 40
0.6791971617
100
AcDbArc
 50
136.1862193914
 51
153.8137806086
  0
ARC
  5
271
100
AcDbEntity
  8
02___PRT_ALL_AXES
100
AcDbCircle
 62
7
  6
CONTINUOUS
 10
15.5602744401
 20
5.4609416579
 40
0.65006099
100
AcDbArc
 50
58.9592743813
 51
231.0407256187
  0
ARC
  5
272
100
AcDbEntity
  8
02___PRT_ALL_AXES
100
AcDbCircle
 62
7
  6
CONTINUOUS
 10
15.5602744401
 20
5.4609416579
 40
0.65006099
100
AcDbArc
 50
248.9592743813
 51
41.0407256187
  0
ARC
  5
273
100
AcDbEntity
  8
02___PRT_ALL_AXES
100
AcDbCircle
 62
7
  6
CONTINUOUS
 10
15.9887995132
 20
5.9716379533
 40
0.1041666667
100
AcDbArc
 50
306.3757123105
 51
153.6242876895
  0
ARC
  5
274
100
AcDbEntity
  8
LAYER_CUT_FEAT
100
AcDbCircle
 62
7
  6
CONTINUOUS
 10
15.8215978765
 20
7.2877579918
 40
0.7156666667
100
AcDbArc
 50
212.1734299669
 51
212.8587358762
  0
ARC
  5
275
100
AcDbEntity
  8
LAYER_CUT_FEAT
100
AcDbCircle
 62
7
  6
CONTINUOUS
 10
15.9483935713
 20
7.2650789576
 40
0.7156666667
100
AcDbArc
 50
208.1734299669
 51
208.8587358762
  0
ARC
  5
276
100
AcDbEntity
  8
LAYER_CUT_FEAT
100
AcDbCircle
 62
7
  6
CONTINUOUS
 10
16.0732983888
 20
7.2336103479
 40
0.7156666667
100
AcDbArc
 50
204.1734299669
 51
204.8587358762
  0
ARC
  5
277
100
AcDbEntity
  8
LAYER_CUT_FEAT
100
AcDbCircle
 62
7
  6
CONTINUOUS
 10
16.1957038052
 20
7.1935054744
 40
0.7156666667
100
AcDbArc
 50
200.1734299669
 51
200.8587358762
  0
ARC
  5
278
100
AcDbEntity
  8
LAYER_CUT_FEAT
100
AcDbCircle
 62
7
  6
CONTINUOUS
 10
15.4783812013
 20
6.9579795843
 40
0.06
100
AcDbArc
 50
204.8587358762
 51
222.329131076
  0
ARC
  5
279
100
AcDbEntity
  8
LAYER_CUT_FEAT
100
AcDbCircle
 62
7
  6
CONTINUOUS
 10
15.4330232891
 20
6.9548078501
 40
0.06
100
AcDbArc
 50
325.670868924
 51
343.1412641238
  0
ARC
  5
27A
100
AcDbEntity
  8
LAYER_CUT_FEAT
100
AcDbCircle
 62
7
  6
CONTINUOUS
 10
15.583008776
 20
6.9600454587
 40
0.06
100
AcDbArc
 50
200.8587358762
 51
218.329131076
  0
ARC
  5
27B
100
AcDbEntity
  8
LAYER_CUT_FEAT
100
AcDbCircle
 62
7
  6
CONTINUOUS
 10
15.5375401043
 20
6.9600454587
 40
0.06
100
AcDbArc
 50
321.670868924
 51
339.1412641238
  0
ARC
  5
27C
100
AcDbEntity
  8
LAYER_CUT_FEAT
100
AcDbCircle
 62
7
  6
CONTINUOUS
 10
15.4557848813
 20
6.9552119652
 40
0.0443333333
100
AcDbArc
 50
247.1839332668
 51
300.8160667332
  0
ARC
  5
27D
100
AcDbEntity
  8
LAYER_CUT_FEAT
100
AcDbCircle
 62
7
  6
CONTINUOUS
 10
15.5602744401
 20
6.958860821
 40
0.0443333333
100
AcDbArc
 50
243.1839332668
 51
296.8160667332
  0
ARC
  5
27E
100
AcDbEntity
  8
LAYER_CUT_FEAT
100
AcDbCircle
 62
7
  6
CONTINUOUS
 10
15.4436346269
 20
6.9263303258
 40
0.013
100
AcDbArc
 50
222.329131076
 51
247.1839332668
  0
ARC
  5
27F
100
AcDbEntity
  8
LAYER_CUT_FEAT
100
AcDbCircle
 62
7
  6
CONTINUOUS
 10
15.4718364377
 20
6.9283023885
 40
0.013
100
AcDbArc
 50
300.8160667332
 51
325.670868924
  0
ARC
  5
280
100
AcDbEntity
  8
LAYER_CUT_FEAT
100
AcDbCircle
 62
7
  6
CONTINUOUS
 10
15.5461391018
 20
6.9308970947
 40
0.013
100
AcDbArc
 50
218.329131076
 51
243.1839332668
  0
ARC
  5
281
100
AcDbEntity
  8
LAYER_CUT_FEAT
100
AcDbCircle
 62
7
  6
CONTINUOUS
 10
15.5744097785
 20
6.9308970947
 40
0.013
100
AcDbArc
 50
296.8160667332
 51
321.670868924
  0
ARC
  5
282
100
AcDbEntity
  8
LAYER_CUT_FEAT
100
AcDbCircle
 62
7
  6
CONTINUOUS
 10
15.4018586264
 20
6.9346248559
 40
0.0126666667
100
AcDbArc
 50
98.0
 51
167.8265700331
  0
ARC
  5
283
100
AcDbEntity
  8
LAYER_CUT_FEAT
100
AcDbCircle
 62
7
  6
CONTINUOUS
 10
15.5050434627
 20
6.9420855662
 40
0.0126666667
100
AcDbArc
 50
94.0
 51
163.8265700331
  0
ARC
  5
284
100
AcDbEntity
  8
LAYER_CUT_FEAT
100
AcDbCircle
 62
7
  6
CONTINUOUS
 10
15.4088325228
 20
6.9353578419
 40
0.0126666667
100
AcDbArc
 50
24.173429967
 51
94.0
  0
ARC
  5
285
100
AcDbEntity
  8
LAYER_CUT_FEAT
100
AcDbCircle
 62
7
  6
CONTINUOUS
 10
15.6084973787
 20
6.9423302923
 40
0.0126666667
100
AcDbArc
 50
90.0
 51
159.8265700331
  0
ARC
  5
286
100
AcDbEntity
  8
LAYER_CUT_FEAT
100
AcDbCircle
 62
7
  6
CONTINUOUS
 10
15.5120515015
 20
6.9423302923
 40
0.0126666667
100
AcDbArc
 50
20.1734299669
 51
90.0
  0
ARC
  5
287
100
AcDbEntity
  8
02___PRT_ALL_AXES
100
AcDbCircle
 62
7
  6
CONTINUOUS
 10
18.9061059151
 20
62.1655491882
 40
50.4435386489
100
AcDbArc
 50
266.2406241234
 51
266.3876496503
  0
ARC
  5
288
100
AcDbEntity
  8
02___PRT_ALL_AXES
100
AcDbCircle
 62
7
  6
CONTINUOUS
 10
13.3386110962
 20
-16.9599482801
 40
28.9590584872
100
AcDbArc
 50
85.1262517643
 51
85.5577978021
  0
ARC
  5
289
100
AcDbEntity
  8
LAYER_CUT_FEAT
100
AcDbCircle
 62
7
  6
CONTINUOUS
 10
17.1114906102
 20
12.6472648569
 40
2.7878988686
100
AcDbArc
 50
168.0204049438
 51
168.1662504365
  0
ARC
  5
28A
100
AcDbEntity
  8
LAYER_CUT_FEAT
100
AcDbCircle
 62
7
  6
CONTINUOUS
 10
18.2596499043
 20
12.6479326228
 40
2.7846622876
100
AcDbArc
 50
168.0203201865
 51
168.1663351938
  0
ARC
  5
28B
100
AcDbEntity
  8
LAYER_CUT_FEAT
100
AcDbCircle
 62
7
  6
CONTINUOUS
 10
16.8550417844
 20
12.7059367656
 40
2.5248108446
100
AcDbArc
 50
166.0231903645
 51
166.1789944289
  0
ARC
  5
28C
100
AcDbEntity
  8
LAYER_CUT_FEAT
100
AcDbCircle
 62
7
  6
CONTINUOUS
 10
18.0030818851
 20
12.706749937
 40
2.5214255891
100
AcDbArc
 50
166.0230857735
 51
166.1790990199
  0
ARC
  5
28D
100
AcDbEntity
  8
LAYER_CUT_FEAT
100
AcDbCircle
 62
7
  6
CONTINUOUS
 10
16.5930226032
 20
12.7758712144
 40
2.25360364
100
AcDbArc
 50
163.8782121937
 51
164.0462729136
  0
ARC
  5
28E
100
AcDbEntity
  8
LAYER_CUT_FEAT
100
AcDbCircle
 62
7
  6
CONTINUOUS
 10
17.7410423381
 20
12.7768216987
 40
2.2501632349
100
AcDbArc
 50
163.8780837147
 51
164.0464013925
  0
ARC
  5
28F
100
AcDbEntity
  8
LAYER_CUT_FEAT
100
AcDbCircle
 62
7
  6
CONTINUOUS
 10
13.231042354
 20
13.172830878
 40
1.2539721735
100
AcDbArc
 50
13.0226039902
 51
13.3667652123
  0
ARC
  5
290
100
AcDbEntity
  8
LAYER_CUT_FEAT
100
AcDbCircle
 62
7
  6
CONTINUOUS
 10
14.3823685967
 20
13.1728308781
 40
1.2539721733
100
AcDbArc
 50
13.0226039902
 51
13.3667652124
  0
ARC
  5
291
100
AcDbEntity
  8
LAYER_CUT_FEAT
100
AcDbCircle
 62
7
  6
CONTINUOUS
 10
13.3418990639
 20
13.0808057526
 40
1.1250992665
100
AcDbArc
 50
15.0943764013
 51
15.4643152787
  0
ARC
  5
292
100
AcDbEntity
  8
LAYER_CUT_FEAT
100
AcDbCircle
 62
7
  6
CONTINUOUS
 10
14.4932253064
 20
13.0808057526
 40
1.1250992665
100
AcDbArc
 50
15.0943764013
 51
15.4643152787
  0
ARC
  5
293
100
AcDbEntity
  8
LAYER_CUT_FEAT
100
AcDbCircle
 62
7
  6
CONTINUOUS
 10
14.6077387121
 20
12.9916971124
 40
0.9946168048
100
AcDbArc
 50
17.3310063668
 51
17.7326020573
  0
ARC
  5
294
100
AcDbEntity
  8
LAYER_CUT_FEAT
100
AcDbCircle
 62
7
  6
CONTINUOUS
 10
13.45641247
 20
12.9916971125
 40
0.9946168044
100
AcDbArc
 50
17.3310063667
 51
17.7326020573
  0
ARC
  5
295
100
AcDbEntity
  8
LAYER_CUT_FEAT
100
AcDbCircle
 62
7
  6
CONTINUOUS
 10
13.5710701455
 20
12.9054979152
 40
0.8659203643
100
AcDbArc
 50
19.7699504224
 51
20.2103792609
  0
ARC
  5
296
100
AcDbEntity
  8
LAYER_CUT_FEAT
100
AcDbCircle
 62
7
  6
CONTINUOUS
 10
14.7223963885
 20
12.9054979153
 40
0.8659203638
100
AcDbArc
 50
19.7699504223
 51
20.210379261
  0
ARC
  5
297
100
AcDbEntity
  8
LAYER_CHAMFER_FEAT
100
AcDbCircle
 62
7
  6
CONTINUOUS
 10
16.2127067017
 20
11.6514685774
 40
0.5219339012
100
AcDbArc
 50
221.1983273066
 51
222.3869054116
  0
ARC
  5
298
100
AcDbEntity
  8
LAYER_CHAMFER_FEAT
100
AcDbCircle
 62
7
  6
CONTINUOUS
 10
16.2093408858
 20
13.3729548956
 40
0.5174184232
100
AcDbArc
 50
137.6087109326
 51
138.7827684446
  0
ARC
  5
299
100
AcDbEntity
  8
LAYER_CUT_FEAT
100
AcDbCircle
 62
7
  6
CONTINUOUS
 10
15.7179207293
 20
13.5629326032
 40
0.2059484153
100
AcDbArc
 50
229.7238118336
 51
230.8707278385
  0
ARC
  5
29A
100
AcDbEntity
  8
LAYER_CUT_FEAT
100
AcDbCircle
 62
7
  6
CONTINUOUS
 10
15.6521961377
 20
13.4596784528
 40
0.1657652317
100
AcDbArc
 50
236.8669025187
 51
238.1925008118
  0
ARC
  5
29B
100
AcDbEntity
  8
LAYER_CUT_FEAT
100
AcDbCircle
 62
7
  6
CONTINUOUS
 10
15.598507109
 20
13.3561864718
 40
0.1369735208
100
AcDbArc
 50
245.0673704626
 51
246.5730242733
  0
ARC
  5
29C
100
AcDbEntity
  8
LAYER_CUT_FEAT
100
AcDbCircle
 62
7
  6
CONTINUOUS
 10
15.5545528009
 20
13.2536838349
 40
0.1185492863
100
AcDbArc
 50
254.2658594948
 51
255.9241805743
  0
ARC
  5
29D
100
AcDbEntity
  8
LAYER_CUT_FEAT
100
AcDbCircle
 62
7
  6
CONTINUOUS
 10
14.422510869
 20
13.4355162514
 40
0.0330429037
100
AcDbArc
 50
355.4588757261
 51
5.1717601103
  0
ARC
  5
29E
100
AcDbEntity
  8
LAYER_CUT_FEAT
100
AcDbCircle
 62
7
  6
CONTINUOUS
 10
15.5738371115
 20
13.4355162514
 40
0.0330429037
100
AcDbArc
 50
355.4588757262
 51
5.1717601103
  0
ARC
  5
29F
100
AcDbEntity
  8
LAYER_CUT_FEAT
100
AcDbCircle
 62
7
  6
CONTINUOUS
 10
14.37556163
 20
13.1506408654
 40
0.0124405622
100
AcDbArc
 50
297.8613930589
 51
298.4108326571
  0
SPLINE
  5
2A0
100
AcDbEntity
  8
LAYER_CUT_FEAT
100
AcDbSpline
 62
7
  6
CONTINUOUS
 70
0
 71
3
 72
9
 73
5
 74
0
 42
0.0000001
 43
0.0000001
 44
0.0000000001
 40
0.0
 40
0.0
 40
0.0
 40
0.0
 40
0.5127417174
 40
1.0
 40
1.0
 40
1.0
 40
1.0
 10
14.4554192533
 20
13.4384947955
 30
0.0
 10
14.4551523745
 20
13.4414082209
 30
0.0
 10
14.4544594662
 20
13.4470760667
 30
0.0
 10
14.453390415
 20
13.4526865364
 30
0.0
 10
14.4527639214
 20
13.4553952489
 30
0.0
  0
SPLINE
  5
2A1
100
AcDbEntity
  8
LAYER_CUT_FEAT
100
AcDbSpline
 62
7
  6
CONTINUOUS
 70
0
 71
3
 72
9
 73
5
 74
0
 42
0.0000001
 43
0.0000001
 44
0.0000000001
 40
0.0
 40
0.0
 40
0.0
 40
0.0
 40
0.5152144205
 40
1.0
 40
1.0
 40
1.0
 40
1.0
 10
14.4312883299
 20
13.3574089314
 30
0.0
 10
14.4309445943
 20
13.3602539232
 30
0.0
 10
14.4301053389
 20
13.3657568039
 30
0.0
 10
14.428882566
 20
13.3711891692
 30
0.0
 10
14.4281803747
 20
13.3737925668
 30
0.0
  0
SPLINE
  5
2A2
100
AcDbEntity
  8
LAYER_CUT_FEAT
100
AcDbSpline
 62
7
  6
CONTINUOUS
 70
0
 71
3
 72
9
 73
5
 74
0
 42
0.0000001
 43
0.0000001
 44
0.0000000001
 40
0.0
 40
0.0
 40
0.0
 40
0.0
 40
0.5038747234
 40
1.0
 40
1.0
 40
1.0
 40
1.0
 10
14.4314710217
 20
13.3518333718
 30
0.0
 10
14.4315197991
 20
13.3527699182
 30
0.0
 10
14.4315372431
 20
13.3546334742
 30
0.0
 10
14.4313990898
 20
13.3564922059
 30
0.0
 10
14.4312883299
 20
13.3574089314
 30
0.0
  0
SPLINE
  5
2A3
100
AcDbEntity
  8
LAYER_CUT_FEAT
100
AcDbSpline
 62
7
  6
CONTINUOUS
 70
0
 71
3
 72
10
 73
6
 74
0
 42
0.0000001
 43
0.0000001
 44
0.0000000001
 40
0.0
 40
0.0
 40
0.0
 40
0.0
 40
0.5177096381
 40
0.7638299911
 40
1.0
 40
1.0
 40
1.0
 40
1.0
 10
14.4094188411
 20
13.2721980182
 30
0.0
 10
14.4090006976
 20
13.2749610437
 30
0.0
 10
14.4082522317
 20
13.2790202507
 30
0.0
 10
14.4069725135
 20
13.2842651361
 30
0.0
 10
14.406253163
 20
13.2867680992
 30
0.0
 10
14.4058734043
 20
13.2879850161
 30
0.0
  0
SPLINE
  5
2A4
100
AcDbEntity
  8
LAYER_CUT_FEAT
100
AcDbSpline
 62
7
  6
CONTINUOUS
 70
0
 71
3
 72
9
 73
5
 74
0
 42
0.0000001
 43
0.0000001
 44
0.0000000001
 40
0.0
 40
0.0
 40
0.0
 40
0.0
 40
0.5071181818
 40
1.0
 40
1.0
 40
1.0
 40
1.0
 10
14.4097525449
 20
13.266668766
 30
0.0
 10
14.4097756138
 20
13.2676057201
 30
0.0
 10
14.4097435939
 20
13.269455996
 30
0.0
 10
14.4095551445
 20
13.2712973467
 30
0.0
 10
14.4094188411
 20
13.2721980182
 30
0.0
  0
SPLINE
  5
2A5
100
AcDbEntity
  8
LAYER_CUT_FEAT
100
AcDbSpline
 62
7
  6
CONTINUOUS
 70
0
 71
3
 72
10
 73
6
 74
0
 42
0.0000001
 43
0.0000001
 44
0.0000000001
 40
0.0
 40
0.0
 40
0.0
 40
0.0
 40
0.5203292224
 40
0.765766509
 40
1.0
 40
1.0
 40
1.0
 40
1.0
 10
14.3899173329
 20
13.1832771949
 30
0.0
 10
14.389427606
 20
13.1859452181
 30
0.0
 10
14.3885745063
 20
13.1898503207
 30
0.0
 10
14.3871521728
 20
13.1948669129
 30
0.0
 10
14.3863647315
 20
13.1972415071
 30
0.0
 10
14.3859516875
 20
13.1983906427
 30
0.0
  0
SPLINE
  5
2A6
100
AcDbEntity
  8
LAYER_CUT_FEAT
100
AcDbSpline
 62
7
  6
CONTINUOUS
 70
0
 71
3
 72
9
 73
5
 74
0
 42
0.0000001
 43
0.0000001
 44
0.0000000001
 40
0.0
 40
0.0
 40
0.0
 40
0.0
 40
0.5103986606
 40
1.0
 40
1.0
 40
1.0
 40
1.0
 10
14.390400423
 20
13.177821188
 30
0.0
 10
14.3903979994
 20
13.1787539746
 30
0.0
 10
14.3903173167
 20
13.1805821387
 30
0.0
 10
14.3900788749
 20
13.1823971167
 30
0.0
 10
14.3899173329
 20
13.1832771949
 30
0.0
  0
SPLINE
  5
2A7
100
AcDbEntity
  8
LAYER_CUT_FEAT
100
AcDbSpline
 62
7
  6
CONTINUOUS
 70
0
 71
3
 72
11
 73
7
 74
0
 42
0.0000001
 43
0.0000001
 44
0.0000000001
 40
0.0
 40
0.0
 40
0.0
 40
0.0
 40
0.2087823068
 40
0.4431607709
 40
0.7064929103
 40
1.0
 40
1.0
 40
1.0
 40
1.0
 10
14.3814807315
 20
13.1396986615
 30
0.0
 10
14.3816693778
 20
13.1398007059
 30
0.0
 10
14.3820446015
 20
13.1400650783
 30
0.0
 10
14.38255551
 20
13.140584374
 30
0.0
 10
14.3830399714
 20
13.1412396782
 30
0.0
 10
14.3833268123
 20
13.1417358713
 30
0.0
 10
14.38346623
 20
13.1420032153
 30
0.0
  0
SPLINE
  5
2A8
100
AcDbEntity
  8
02___PRT_ALL_AXES
100
AcDbSpline
 62
7
  6
CONTINUOUS
 70
0
 71
3
 72
13
 73
9
 74
0
 42
0.0000001
 43
0.0000001
 44
0.0000000001
 40
0.0
 40
0.0
 40
0.0
 40
0.0
 40
0.1194224613
 40
0.239720914
 40
0.3612789885
 40
0.4844656984
 40
0.7370079095
 40
1.0
 40
1.0
 40
1.0
 40
1.0
 10
15.6548633734
 20
11.8026828099
 30
0.0
 10
15.6525981592
 20
11.8028548572
 30
0.0
 10
15.6480607456
 20
11.8033437146
 30
0.0
 10
15.6412827208
 20
11.8045039689
 30
0.0
 10
15.6345181934
 20
11.8060923556
 30
0.0
 10
15.6254495532
 20
11.8088011886
 30
0.0
 10
15.6141315762
 20
11.8132946655
 30
0.0
 10
15.6054420414
 20
11.8178828647
 30
0.0
 10
15.6011354724
 20
11.8204287803
 30
0.0
  0
LINE
  5
2A9
100
AcDbEntity
  8
LAYER_CUT_FEAT
100
AcDbLine
 62
7
  6
CONTINUOUS
 10
15.5257209418
 20
13.1386940216
 11
15.5279908549
 21
13.1384102085
  0
SPLINE
  5
2AA
100
AcDbEntity
  8
LAYER_CUT_FEAT
100
AcDbSpline
 62
7
  6
CONTINUOUS
 70
0
 71
3
 72
9
 73
5
 74
0
 42
0.0000001
 43
0.0000001
 44
0.0000000001
 40
0.0
 40
0.0
 40
0.0
 40
0.0
 40
0.5092654346
 40
1.0
 40
1.0
 40
1.0
 40
1.0
 10
15.5440491849
 20
13.2305040153
 30
0.0
 10
15.544671726
 20
13.2302343406
 30
0.0
 10
15.5459461052
 20
13.2298141326
 30
0.0
 10
15.5472819721
 20
13.2296681249
 30
0.0
 10
15.5479357261
 20
13.2296681282
 30
0.0
  0
SPLINE
  5
2AB
100
AcDbEntity
  8
LAYER_CUT_FEAT
100
AcDbSpline
 62
7
  6
CONTINUOUS
 70
0
 71
3
 72
11
 73
7
 74
0
 42
0.0000001
 43
0.0000001
 44
0.0000000001
 40
0.0
 40
0.0
 40
0.0
 40
0.0
 40
0.2650832673
 40
0.517534482
 40
0.7610651988
 40
1.0
 40
1.0
 40
1.0
 40
1.0
 10
15.5648267494
 20
13.3188072278
 30
0.0
 10
15.5652627362
 20
13.3185368876
 30
0.0
 10
15.5661449287
 20
13.3180565539
 30
0.0
 10
15.567522908
 20
13.3175240412
 30
0.0
 10
15.5689134078
 20
13.3172028326
 30
0.0
 10
15.5698485879
 20
13.3171310173
 30
0.0
 10
15.5703109837
 20
13.3171310258
 30
0.0
  0
SPLINE
  5
2AC
100
AcDbEntity
  8
LAYER_CUT_FEAT
100
AcDbSpline
 62
7
  6
CONTINUOUS
 70
0
 71
3
 72
11
 73
7
 74
0
 42
0.0000001
 43
0.0000001
 44
0.0000000001
 40
0.0
 40
0.0
 40
0.0
 40
0.0
 40
0.2733390691
 40
0.5274189693
 40
0.7674654785
 40
1.0
 40
1.0
 40
1.0
 40
1.0
 10
15.587952409
 20
13.4031734549
 30
0.0
 10
15.5884960915
 20
13.4027312419
 30
0.0
 10
15.5896000769
 20
13.4019415441
 30
0.0
 10
15.5913626805
 20
13.4010477579
 30
0.0
 10
15.5931545642
 20
13.4005022241
 30
0.0
 10
15.5943687444
 20
13.4003756827
 30
0.0
 10
15.5949649347
 20
13.4003728859
 30
0.0
  0
SPLINE
  5
2AD
100
AcDbEntity
  8
LAYER_CUT_FEAT
100
AcDbSpline
 62
7
  6
CONTINUOUS
 70
0
 71
3
 72
37
 73
33
 74
0
 42
0.0000001
 43
0.0000001
 44
0.0000000001
 40
0.0
 40
0.0
 40
0.0
 40
0.0
 40
0.087528751
 40
0.171767739
 40
0.2126128256
 40
0.2525870898
 40
0.2916777311
 40
0.329873681
 40
0.3671658192
 40
0.4035470852
 40
0.4390126626
 40
0.4735601729
 40
0.5071898254
 40
0.5399046604
 40
0.5717108147
 40
0.6026177316
 40
0.6326384551
 40
0.6617899753
 40
0.690093502
 40
0.7175747982
 40
0.7442645658
 40
0.7701987401
 40
0.7954187854
 40
0.8199719944
 40
0.8439116511
 40
0.8672970868
 40
0.8901936382
 40
0.9126723919
 40
0.9348097057
 40
0.9566865415
 40
0.9783875591
 40
1.0
 40
1.0
 40
1.0
 40
1.0
 10
14.4513913115
 20
13.4772004964
 30
0.0
 10
14.4580732728
 20
13.4974460453
 30
0.0
 10
14.4718244413
 20
13.5369693324
 30
0.0
 10
14.4905535575
 20
13.5852641617
 30
0.0
 10
14.5061660551
 20
13.6223153063
 30
0.0
 10
14.5180412641
 20
13.6490013753
 30
0.0
 10
14.5301937144
 20
13.6748511415
 30
0.0
 10
14.5426145903
 20
13.6998457291
 30
0.0
 10
14.5552947653
 20
13.7239668176
 30
0.0
 10
14.5682249896
 20
13.7471967373
 30
0.0
 10
14.581395825
 20
13.7695184794
 30
0.0
 10
14.5947976504
 20
13.7909157204
 30
0.0
 10
14.6084207217
 20
13.8113727986
 30
0.0
 10
14.6222551543
 20
13.8308747396
 30
0.0
 10
14.636290899
 20
13.8494072918
 30
0.0
 10
14.6505178116
 20
13.8669568883
 30
0.0
 10
14.6649256513
 20
13.8835106557
 30
0.0
 10
14.6795040364
 20
13.8990564646
 30
0.0
 10
14.6942425131
 20
13.9135828787
 30
0.0
 10
14.7091305632
 20
13.9270791391
 30
0.0
 10
14.7241575463
 20
13.9395352271
 30
0.0
 10
14.7393127479
 20
13.9509418082
 30
0.0
 10
14.7545853862
 20
13.9612901926
 30
0.0
 10
14.769964541
 20
13.9705724068
 30
0.0
 10
14.7854391626
 20
13.9787811628
 30
0.0
 10
14.8009980686
 20
13.9859098094
 30
0.0
 10
14.8166298609
 20
13.9919524285
 30
0.0
 10
14.8323229408
 20
13.9969038761
 30
0.0
 10
14.848065394
 20
14.0007597512
 30
0.0
 10
14.8638454058
 20
14.0035165235
 30
0.0
 10
14.8796496525
 20
14.0051716566
 30
0.0
 10
14.8902033509
 20
14.0055398326
 30
0.0
 10
14.8954675799
 20
14.0055398356
 30
0.0
  0
SPLINE
  5
2AE
100
AcDbEntity
  8
02___PRT_ALL_AXES
100
AcDbSpline
 62
7
  6
CONTINUOUS
 70
0
 71
3
 72
22
 73
18
 74
0
 42
0.0000001
 43
0.0000001
 44
0.0000000001
 40
0.0
 40
0.0
 40
0.0
 40
0.0
 40
0.1713496545
 40
0.2519694959
 40
0.3290708278
 40
0.4025797394
 40
0.4724567509
 40
0.5387010574
 40
0.6013558709
 40
0.6605173095
 40
0.7163427944
 40
0.7690607824
 40
0.8189810463
 40
0.8665026526
 40
0.9121166551
 40
0.9564004342
 40
1.0
 40
1.0
 40
1.0
 40
1.0
 10
15.7278781262
 20
11.822233251
 30
0.0
 10
15.7287916067
 20
11.8195443299
 30
0.0
 10
15.7302594648
 20
11.8156297967
 30
0.0
 10
15.7324683131
 20
11.8106420423
 30
0.0
 10
15.7341650241
 20
11.8072044339
 30
0.0
 10
15.7359306498
 20
11.8040034955
 30
0.0
 10
15.7377603523
 20
11.8010481368
 30
0.0
 10
15.7396491012
 20
11.7983466171
 30
0.0
 10
15.7415918347
 20
11.7959064799
 30
0.0
 10
15.7435834082
 20
11.7937345545
 30
0.0
 10
15.7456186805
 20
11.7918370108
 30
0.0
 10
15.747692516
 20
11.790219454
 30
0.0
 10
15.7497997277
 20
11.7888869949
 30
0.0
 10
15.7519348554
 20
11.7878443181
 30
0.0
 10
15.7540921927
 20
11.7870957109
 30
0.0
 10
15.756264602
 20
11.7866448506
 30
0.0
 10
15.7577230438
 20
11.7865441903
 30
0.0
 10
15.7584456376
 20
11.7865441918
 30
0.0
  0
SPLINE
  5
2AF
100
AcDbEntity
  8
LAYER_CHAMFER_FEAT
100
AcDbSpline
 62
7
  6
CONTINUOUS
 70
0
 71
3
 72
15
 73
11
 74
0
 42
0.0000001
 43
0.0000001
 44
0.0000000001
 40
0.0
 40
0.0
 40
0.0
 40
0.0
 40
0.1375062331
 40
0.2714666843
 40
0.401848549
 40
0.5286397098
 40
0.6518353011
 40
0.771443381
 40
0.8874860429
 40
1.0
 40
1.0
 40
1.0
 40
1.0
 10
15.7232318368
 20
11.4636595335
 30
0.0
 10
15.7271613655
 20
11.4556519958
 30
0.0
 10
15.7351049523
 20
11.4399336784
 30
0.0
 10
15.7474418664
 20
11.4169676913
 30
0.0
 10
15.760035563
 20
11.394938226
 30
0.0
 10
15.7728750961
 20
11.3738644102
 30
0.0
 10
15.7859496797
 20
11.3537640496
 30
0.0
 10
15.7992482917
 20
11.3346542293
 30
0.0
 10
15.8127594275
 20
11.3165515767
 30
0.0
 10
15.8220435354
 20
11.304987343
 30
0.0
 10
15.8267204334
 20
11.2993841807
 30
0.0
  0
SPLINE
  5
2B0
100
AcDbEntity
  8
LAYER_CUT_FEAT
100
AcDbSpline
 62
7
  6
CONTINUOUS
 70
0
 71
3
 72
11
 73
7
 74
0
 42
0.0000001
 43
0.0000001
 44
0.0000000001
 40
0.0
 40
0.0
 40
0.0
 40
0.0
 40
0.2748629156
 40
0.5292612042
 40
0.7686100283
 40
1.0
 40
1.0
 40
1.0
 40
1.0
 10
15.5847806883
 20
13.4058069235
 30
0.0
 10
15.5846614667
 20
13.405907939
 30
0.0
 10
15.5844191708
 20
13.4060883323
 30
0.0
 10
15.5840306716
 20
13.406292731
 30
0.0
 10
15.5836350353
 20
13.4064168541
 30
0.0
 10
15.5833666663
 20
13.4064447726
 30
0.0
 10
15.5832351187
 20
13.4064447766
 30
0.0
  0
SPLINE
  5
2B1
100
AcDbEntity
  8
LAYER_CUT_FEAT
100
AcDbSpline
 62
7
  6
CONTINUOUS
 70
0
 71
3
 72
15
 73
11
 74
0
 42
0.0000001
 43
0.0000001
 44
0.0000000001
 40
0.0
 40
0.0
 40
0.0
 40
0.0
 40
0.1727949831
 40
0.3318925307
 40
0.4763640402
 40
0.6058591883
 40
0.7207757485
 40
0.8225776271
 40
0.9141482537
 40
1.0
 40
1.0
 40
1.0
 40
1.0
 10
14.4280450126
 20
13.4016518455
 30
0.0
 10
14.4281558426
 20
13.4020104917
 30
0.0
 10
14.42839028
 20
13.4026930302
 30
0.0
 10
14.4287992796
 20
13.4036448358
 30
0.0
 10
14.4292472067
 20
13.4044738798
 30
0.0
 10
14.4297290231
 20
13.4051703825
 30
0.0
 10
14.4302400504
 20
13.4057262966
 30
0.0
 10
14.4307766962
 20
13.4061344893
 30
0.0
 10
14.4313349959
 20
13.4063868
 30
0.0
 10
14.4317223716
 20
13.4064447822
 30
0.0
 10
14.4319088762
 20
13.4064447766
 30
0.0
  0
SPLINE
  5
2B2
100
AcDbEntity
  8
LAYER_CUT_FEAT
100
AcDbSpline
 62
7
  6
CONTINUOUS
 70
0
 71
3
 72
14
 73
10
 74
0
 42
0.0000001
 43
0.0000001
 44
0.0000000001
 40
0.0
 40
0.0
 40
0.0
 40
0.0
 40
0.1027299235
 40
0.2130646932
 40
0.3305246938
 40
0.454499205
 40
0.5842728954
 40
0.7190439935
 40
1.0
 40
1.0
 40
1.0
 40
1.0
 10
14.4489250653
 20
13.406413467
 30
0.0
 10
14.4493566549
 20
13.4072480948
 30
0.0
 10
14.4501835029
 20
13.4090149373
 30
0.0
 10
14.4512838855
 20
13.4118325248
 30
0.0
 10
14.4522814997
 20
13.4148930792
 30
0.0
 10
14.4531681423
 20
13.4181718406
 30
0.0
 10
14.4539366763
 20
13.4216425666
 30
0.0
 10
14.4548073048
 20
13.4265564762
 30
0.0
 10
14.4552449609
 20
13.4303385408
 30
0.0
 10
14.4554500431
 20
13.4329000921
 30
0.0
  0
SPLINE
  5
2B3
100
AcDbEntity
  8
LAYER_CUT_FEAT
100
AcDbSpline
 62
7
  6
CONTINUOUS
 70
0
 71
3
 72
15
 73
11
 74
0
 42
0.0000001
 43
0.0000001
 44
0.0000000001
 40
0.0
 40
0.0
 40
0.0
 40
0.0
 40
0.1197234369
 40
0.2459111025
 40
0.3761805013
 40
0.5079923097
 40
0.6387597317
 40
0.7659315343
 40
0.8870770436
 40
1.0
 40
1.0
 40
1.0
 40
1.0
 10
14.4510445987
 20
13.4627286789
 30
0.0
 10
14.450909673
 20
13.4632964653
 30
0.0
 10
14.4506785151
 20
13.4644739311
 30
0.0
 10
14.4504465947
 20
13.466294084
 30
0.0
 10
14.4503237188
 20
13.4681839014
 30
0.0
 10
14.4503128397
 20
13.4700999334
 30
0.0
 10
14.4504142008
 20
13.4719982149
 30
0.0
 10
14.4506254204
 20
13.4738352424
 30
0.0
 10
14.450941449
 20
13.4755688419
 30
0.0
 10
14.451228793
 20
13.4766745865
 30
0.0
 10
14.4513913115
 20
13.4772004964
 30
0.0
  0
LINE
  5
2B4
100
AcDbEntity
  8
LAYER_CUT_FEAT
100
AcDbLine
 62
7
  6
CONTINUOUS
 10
15.5615912181
 20
13.3208661313
 11
15.5603761693
 21
13.3212564367
  0
SPLINE
  5
2B5
100
AcDbEntity
  8
LAYER_CUT_FEAT
100
AcDbSpline
 62
7
  6
CONTINUOUS
 70
0
 71
3
 72
16
 73
12
 74
0
 42
0.0000001
 43
0.0000001
 44
0.0000000001
 40
0.0
 40
0.0
 40
0.0
 40
0.0
 40
0.1743281995
 40
0.3350782329
 40
0.4809715959
 40
0.6113176523
 40
0.7262404771
 40
0.827025998
 40
0.9165795887
 40
0.9587067779
 40
1.0
 40
1.0
 40
1.0
 40
1.0
 10
14.4049815899
 20
13.3157521836
 30
0.0
 10
14.405090378
 20
13.3161596636
 30
0.0
 10
14.4053238637
 20
13.3169367438
 30
0.0
 10
14.4057407642
 20
13.3180244064
 30
0.0
 10
14.406205508
 20
13.3189758508
 30
0.0
 10
14.406711844
 20
13.3197780578
 30
0.0
 10
14.4072541635
 20
13.3204203965
 30
0.0
 10
14.4078272418
 20
13.3208939078
 30
0.0
 10
14.4083392258
 20
13.3211439912
 30
0.0
 10
14.4087478608
 20
13.3212405119
 30
0.0
 10
14.4089500262
 20
13.3212564328
 30
0.0
 10
14.4090499268
 20
13.3212564367
 30
0.0
  0
SPLINE
  5
2B6
100
AcDbEntity
  8
LAYER_CUT_FEAT
100
AcDbSpline
 62
7
  6
CONTINUOUS
 70
0
 71
3
 72
15
 73
11
 74
0
 42
0.0000001
 43
0.0000001
 44
0.0000000001
 40
0.0
 40
0.0
 40
0.0
 40
0.0
 40
0.0995938053
 40
0.2080660487
 40
0.32482257
 40
0.4490658588
 40
0.5798363405
 40
0.7160499438
 40
0.856521012
 40
1.0
 40
1.0
 40
1.0
 40
1.0
 10
14.4241760704
 20
13.3212419348
 30
0.0
 10
14.4246925087
 20
13.3221586633
 30
0.0
 10
14.425677151
 20
13.3241276774
 30
0.0
 10
14.426967788
 20
13.3273103167
 30
0.0
 10
14.428123785
 20
13.3308193883
 30
0.0
 10
14.4291325633
 20
13.3346173483
 30
0.0
 10
14.4299832592
 20
13.3386638505
 30
0.0
 10
14.4306665755
 20
13.3429155061
 30
0.0
 10
14.4311750756
 20
13.3473265651
 30
0.0
 10
14.4313921811
 20
13.3503195977
 30
0.0
 10
14.4314710217
 20
13.3518333718
 30
0.0
  0
SPLINE
  5
2B7
100
AcDbEntity
  8
LAYER_CUT_FEAT
100
AcDbSpline
 62
7
  6
CONTINUOUS
 70
0
 71
3
 72
15
 73
11
 74
0
 42
0.0000001
 43
0.0000001
 44
0.0000000001
 40
0.0
 40
0.0
 40
0.0
 40
0.0
 40
0.1158473538
 40
0.2391694526
 40
0.3676847678
 40
0.4989120301
 40
0.6302814508
 40
0.7592184075
 40
0.8832268598
 40
1.0
 40
1.0
 40
1.0
 40
1.0
 10
14.4262660315
 20
13.3808001508
 30
0.0
 10
14.4261152247
 20
13.3813452265
 30
0.0
 10
14.4258517896
 20
13.3824841207
 30
0.0
 10
14.4255715655
 20
13.3842583447
 30
0.0
 10
14.4253981815
 20
13.3861215885
 30
0.0
 10
14.4253357893
 20
13.3880310423
 30
0.0
 10
14.4253858504
 20
13.3899429153
 30
0.0
 10
14.4255471945
 20
13.3918133537
 30
0.0
 10
14.4258159561
 20
13.3935993738
 30
0.0
 10
14.4260717344
 20
13.394748041
 30
0.0
 10
14.4262187808
 20
13.3952988224
 30
0.0
  0
LINE
  5
2B8
100
AcDbEntity
  8
LAYER_CUT_FEAT
100
AcDbLine
 62
7
  6
CONTINUOUS
 10
15.5407656063
 20
13.231978323
 11
15.5398869978
 21
13.2321808824
  0
SPLINE
  5
2B9
100
AcDbEntity
  8
LAYER_CUT_FEAT
100
AcDbSpline
 62
7
  6
CONTINUOUS
 70
0
 71
3
 72
16
 73
12
 74
0
 42
0.0000001
 43
0.0000001
 44
0.0000000001
 40
0.0
 40
0.0
 40
0.0
 40
0.0
 40
0.1754245766
 40
0.3375855431
 40
0.4848249233
 40
0.6160871659
 40
0.7311874631
 40
0.831193156
 40
0.9189846571
 40
0.9599563174
 40
1.0
 40
1.0
 40
1.0
 40
1.0
 10
14.3843077657
 20
13.2259304201
 30
0.0
 10
14.3844124281
 20
13.2263879024
 30
0.0
 10
14.3846412433
 20
13.227262406
 30
0.0
 10
14.3850612529
 20
13.2284909332
 30
0.0
 10
14.385539138
 20
13.2295705976
 30
0.0
 10
14.3860673742
 20
13.2304843913
 30
0.0
 10
14.3866390526
 20
13.231218495
 30
0.0
 10
14.3872477165
 20
13.2317617219
 30
0.0
 10
14.3877970616
 20
13.2320510101
 30
0.0
 10
14.3882364695
 20
13.2321625412
 30
0.0
 10
14.3884536291
 20
13.2321808815
 30
0.0
 10
14.3885607553
 20
13.2321808824
 30
0.0
  0
SPLINE
  5
2BA
100
AcDbEntity
  8
LAYER_CUT_FEAT
100
AcDbSpline
 62
7
  6
CONTINUOUS
 70
0
 71
3
 72
15
 73
11
 74
0
 42
0.0000001
 43
0.0000001
 44
0.0000000001
 40
0.0
 40
0.0
 40
0.0
 40
0.0
 40
0.0969463969
 40
0.2039287641
 40
0.3202471921
 40
0.4448983765
 40
0.5766562819
 40
0.7141239188
 40
0.8557736572
 40
1.0
 40
1.0
 40
1.0
 40
1.0
 10
14.4018622678
 20
13.2321801655
 30
0.0
 10
14.4024601019
 20
13.2331676429
 30
0.0
 10
14.4035947667
 20
13.2353201778
 30
0.0
 10
14.4050608437
 20
13.2388444683
 30
0.0
 10
14.4063585677
 20
13.2427827769
 30
0.0
 10
14.4074700681
 20
13.2470822443
 30
0.0
 10
14.4083802472
 20
13.2516853956
 30
0.0
 10
14.4090765183
 20
13.2565300318
 30
0.0
 10
14.4095492972
 20
13.2615504172
 30
0.0
 10
14.4097102756
 20
13.2649519738
 30
0.0
 10
14.4097525449
 20
13.266668766
 30
0.0
  0
SPLINE
  5
2BB
100
AcDbEntity
  8
LAYER_CUT_FEAT
100
AcDbSpline
 62
7
  6
CONTINUOUS
 70
0
 71
3
 72
15
 73
11
 74
0
 42
0.0000001
 43
0.0000001
 44
0.0000000001
 40
0.0
 40
0.0
 40
0.0
 40
0.0
 40
0.1120038474
 40
0.2324624168
 40
0.3592081043
 40
0.4898274936
 40
0.6217762603
 40
0.752464748
 40
0.8793410158
 40
1.0
 40
1.0
 40
1.0
 40
1.0
 10
14.4037733672
 20
13.2946326139
 30
0.0
 10
14.4036072262
 20
13.2951521461
 30
0.0
 10
14.4033124671
 20
13.2962467655
 30
0.0
 10
14.4029853308
 20
13.2979665545
 30
0.0
 10
14.4027623006
 20
13.2997942515
 30
0.0
 10
14.4026487063
 20
13.3016879098
 30
0.0
 10
14.4026472177
 20
13.3036041443
 30
0.0
 10
14.4027578843
 20
13.3054989823
 30
0.0
 10
14.4029780437
 20
13.3073288539
 30
0.0
 10
14.403201338
 20
13.3085147017
 30
0.0
 10
14.4033323831
 20
13.3090875034
 30
0.0
  0
SPLINE
  5
2BC
100
AcDbEntity
  8
LAYER_CUT_FEAT
100
AcDbSpline
 62
7
  6
CONTINUOUS
 70
0
 71
3
 72
17
 73
13
 74
0
 42
0.0000001
 43
0.0000001
 44
0.0000000001
 40
0.0
 40
0.0
 40
0.0
 40
0.0
 40
0.1760462869
 40
0.3393308578
 40
0.4877902665
 40
0.6199813732
 40
0.7353786446
 40
0.7870287571
 40
0.8349391911
 40
0.9211802721
 40
0.96109849
 40
1.0
 40
1.0
 40
1.0
 40
1.0
 10
14.3661242607
 20
13.1326241576
 30
0.0
 10
14.366222641
 20
13.1331323329
 30
0.0
 10
14.366442928
 20
13.1341063465
 30
0.0
 10
14.3668610651
 20
13.1354797121
 30
0.0
 10
14.3673482662
 20
13.1366928452
 30
0.0
 10
14.3678955885
 20
13.1377234641
 30
0.0
 10
14.3684123186
 20
13.1384407476
 30
0.0
 10
14.36885173
 20
13.1388967199
 30
0.0
 10
14.3692711523
 20
13.1392474831
 30
0.0
 10
14.3697241887
 20
13.139503453
 30
0.0
 10
14.370194538
 20
13.1396311116
 30
0.0
 10
14.3704268048
 20
13.1396520919
 30
0.0
 10
14.3705411829
 20
13.1396520826
 30
0.0
  0
SPLINE
  5
2BD
100
AcDbEntity
  8
LAYER_CUT_FEAT
100
AcDbSpline
 62
7
  6
CONTINUOUS
 70
0
 71
3
 72
15
 73
11
 74
0
 42
0.0000001
 43
0.0000001
 44
0.0000000001
 40
0.0
 40
0.0
 40
0.0
 40
0.0
 40
0.1000023455
 40
0.2093799912
 40
0.3272717415
 40
0.4525657883
 40
0.5839671686
 40
0.7200414112
 40
0.85925007
 40
1.0
 40
1.0
 40
1.0
 40
1.0
 10
14.38346623
 20
13.1420032153
 30
0.0
 10
14.3840333276
 20
13.1430906678
 30
0.0
 10
14.3851026999
 20
13.1454299029
 30
0.0
 10
14.3864704318
 20
13.149206929
 30
0.0
 10
14.3876590456
 20
13.1533674397
 30
0.0
 10
14.3886520843
 20
13.1578553304
 30
0.0
 10
14.3894359698
 20
13.1626102937
 30
0.0
 10
14.3899998424
 20
13.1675679297
 30
0.0
 10
14.390335939
 20
13.1726608695
 30
0.0
 10
14.3904049078
 20
13.1760950224
 30
0.0
 10
14.390400423
 20
13.177821188
 30
0.0
  0
SPLINE
  5
2BE
100
AcDbEntity
  8
LAYER_CUT_FEAT
100
AcDbSpline
 62
7
  6
CONTINUOUS
 70
0
 71
3
 72
15
 73
11
 74
0
 42
0.0000001
 43
0.0000001
 44
0.0000000001
 40
0.0
 40
0.0
 40
0.0
 40
0.0
 40
0.1081815981
 40
0.2257670281
 40
0.3507189895
 40
0.4807035084
 40
0.6132109061
 40
0.7456447098
 40
0.875405502
 40
1.0
 40
1.0
 40
1.0
 40
1.0
 10
14.3836761877
 20
13.2046458678
 30
0.0
 10
14.3834953337
 20
13.205137103
 30
0.0
 10
14.3831703464
 20
13.206181919
 30
0.0
 10
14.3827979181
 20
13.2078390595
 30
0.0
 10
14.3825263487
 20
13.2096224246
 30
0.0
 10
14.3823621182
 20
13.2114911525
 30
0.0
 10
14.3823090873
 20
13.2134024959
 30
0.0
 10
14.3823685258
 20
13.215312594
 30
0.0
 10
14.3825389874
 20
13.2171775155
 30
0.0
 10
14.3827290299
 20
13.2183946543
 30
0.0
 10
14.3828436187
 20
13.2189865525
 30
0.0
  0
LINE
  5
2BF
100
AcDbEntity
  8
02___PRT_ALL_AXES
100
AcDbLine
 62
7
  6
CONTINUOUS
 10
15.6456998457
 20
13.217642336
 11
15.6044720833
 21
13.2145638569
  0
SPLINE
  5
2C0
100
AcDbEntity
  8
LAYER_CHAMFER_FEAT
100
AcDbSpline
 62
7
  6
CONTINUOUS
 70
0
 71
3
 72
51
 73
47
 74
0
 42
0.0000001
 43
0.0000001
 44
0.0000000001
 40
0.0
 40
0.0
 40
0.0
 40
0.0
 40
0.0101614806
 40
0.0206687671
 40
0.0315255638
 40
0.0427338772
 40
0.0542941778
 40
0.0662055389
 40
0.0784657565
 40
0.0910714523
 40
0.1040181798
 40
0.1173005132
 40
0.1309121231
 40
0.1448458394
 40
0.1590937211
 40
0.1736471157
 40
0.1884967097
 40
0.2036325694
 40
0.2347194309
 40
0.2668187357
 40
0.2998329338
 40
0.3336581868
 40
0.3681852922
 40
0.4033005754
 40
0.4388867023
 40
0.4748234778
 40
0.5109886025
 40
0.5472584251
 40
0.5835086756
 40
0.6196152004
 40
0.6554546929
 40
0.6909054367
 40
0.7258480514
 40
0.7601662718
 40
0.7937477357
 40
0.8264848378
 40
0.8582756061
 40
0.8890246972
 40
0.9039815038
 40
0.9186457247
 40
0.9330078062
 40
0.9470588482
 40
0.9607906484
 40
0.9741956575
 40
0.9872675191
 40
1.0
 40
1.0
 40
1.0
 40
1.0
 10
15.8267204335
 20
13.7220288241
 30
0.0
 10
15.8216372802
 20
13.7159389484
 30
0.0
 10
15.8115538234
 20
13.7033364229
 30
0.0
 10
15.7969185697
 20
13.6835441191
 30
0.0
 10
15.782536098
 20
13.662568752
 30
0.0
 10
15.7684210279
 20
13.6404318041
 30
0.0
 10
15.7545873083
 20
13.6171553671
 30
0.0
 10
15.7410487809
 20
13.592762831
 30
0.0
 10
15.7278189945
 20
13.567278675
 30
0.0
 10
15.7149112038
 20
13.5407285164
 30
0.0
 10
15.7023383683
 20
13.5131390504
 30
0.0
 10
15.6901131325
 20
13.4845380263
 30
0.0
 10
15.6782478125
 20
13.4549542225
 30
0.0
 10
15.6667543547
 20
13.4244174337
 30
0.0
 10
15.6556443381
 20
13.3929584176
 30
0.0
 10
15.6449289925
 20
13.360608894
 30
0.0
 10
15.6346190623
 20
13.3274013782
 30
0.0
 10
15.621309011
 20
13.2816188202
 30
0.0
 10
15.6057910004
 20
13.2224657595
 30
0.0
 10
15.5891046863
 20
13.1492321555
 30
0.0
 10
15.5742592898
 20
13.0734242404
 30
0.0
 10
15.561315026
 20
12.9953478584
 30
0.0
 10
15.5503243033
 20
12.9153172805
 30
0.0
 10
15.5413317097
 20
12.8336550612
 30
0.0
 10
15.534373685
 20
12.750690381
 30
0.0
 10
15.5294784655
 20
12.6667577766
 30
0.0
 10
15.5266658929
 20
12.5821957428
 30
0.0
 10
15.5259473822
 20
12.4973453516
 30
0.0
 10
15.5273258459
 20
12.4125488539
 30
0.0
 10
15.5307956893
 20
12.3281482806
 30
0.0
 10
15.5363428478
 20
12.2444840428
 30
0.0
 10
15.5439448091
 20
12.1618935367
 30
0.0
 10
15.5535707642
 20
12.080709767
 30
0.0
 10
15.5651816596
 20
12.0012599495
 30
0.0
 10
15.5787304558
 20
11.9238642596
 30
0.0
 10
15.5941622357
 20
11.8488341528
 30
0.0
 10
15.6114144967
 20
11.7764723049
 30
0.0
 10
15.62739414
 20
11.7181095891
 30
0.0
 10
15.6410625722
 20
11.6730051414
 30
0.0
 10
15.6516290443
 20
11.6403339464
 30
0.0
 10
15.6625941522
 20
11.6085413707
 30
0.0
 10
15.6739469278
 20
11.5776593564
 30
0.0
 10
15.6856758908
 20
11.5477191215
 30
0.0
 10
15.6977692691
 20
11.5187505673
 30
0.0
 10
15.7102147616
 20
11.4907833221
 30
0.0
 10
15.7188530299
 20
11.4725826037
 30
0.0
 10
15.7232318368
 20
11.4636595335
 30
0.0
  0
SPLINE
  5
2C1
100
AcDbEntity
  8
LAYER_CHAMFER_FEAT
100
AcDbSpline
 62
7
  6
CONTINUOUS
 70
0
 71
3
 72
19
 73
15
 74
0
 42
0.0000001
 43
0.0000001
 44
0.0000000001
 40
0.0
 40
0.0
 40
0.0
 40
0.0
 40
0.1466180848
 40
0.2854241955
 40
0.4169996819
 40
0.5421061417
 40
0.602546494
 40
0.6617449773
 40
0.7198518198
 40
0.777028627
 40
0.8334474882
 40
0.8892894071
 40
0.9447425357
 40
1.0
 40
1.0
 40
1.0
 40
1.0
 10
15.827201401
 20
11.2996153973
 30
0.0
 10
15.834909386
 20
11.2911723999
 30
0.0
 10
15.850476311
 20
11.275234833
 30
0.0
 10
15.8749534919
 20
11.2537783457
 30
0.0
 10
15.8998426097
 20
11.2355019074
 30
0.0
 10
15.9211247111
 20
11.222820888
 30
0.0
 10
15.9382560097
 20
11.2143938973
 30
0.0
 10
15.9510178604
 20
11.2089691701
 30
0.0
 10
15.9638308156
 20
11.2043721858
 30
0.0
 10
15.9766869566
 20
11.2006062115
 30
0.0
 10
15.9895777371
 20
11.1976740522
 30
0.0
 10
16.0024948562
 20
11.1955779997
 30
0.0
 10
16.0154289409
 20
11.1943197154
 30
0.0
 10
16.0240639982
 20
11.1940398351
 30
0.0
 10
16.0283726025
 20
11.194039836
 30
0.0
  0
SPLINE
  5
2C2
100
AcDbEntity
  8
LAYER_CUT_FEAT
100
AcDbSpline
 62
7
  6
CONTINUOUS
 70
0
 71
3
 72
54
 73
50
 74
0
 42
0.0000001
 43
0.0000001
 44
0.0000000001
 40
0.0
 40
0.0
 40
0.0
 40
0.0
 40
0.0077924294
 40
0.0156272176
 40
0.0235458809
 40
0.0315883152
 40
0.0397921408
 40
0.0481922009
 40
0.0568202262
 40
0.0657046518
 40
0.0748705689
 40
0.0843397841
 40
0.0941309528
 40
0.104259758
 40
0.1147391127
 40
0.1255793739
 40
0.1367885599
 40
0.1483725537
 40
0.1603352927
 40
0.1726789383
 40
0.1854040363
 40
0.1985096622
 40
0.2119935486
 40
0.2258521972
 40
0.2400809768
 40
0.2546742179
 40
0.2696252955
 40
0.2849267026
 40
0.300570113
 40
0.316546439
 40
0.3328458896
 40
0.3494580215
 40
0.3835743653
 40
0.4188017867
 40
0.4550374308
 40
0.4921716854
 40
0.5300891614
 40
0.5686696184
 40
0.6077888079
 40
0.6473193059
 40
0.6871312959
 40
0.7270933453
 40
0.7670731655
 40
0.8069383673
 40
0.8465572133
 40
0.88579938
 40
0.924536718
 40
0.9626440037
 40
1.0
 40
1.0
 40
1.0
 40
1.0
 10
14.8954675799
 20
11.0158731783
 30
0.0
 10
14.8894003253
 20
11.0158731817
 30
0.0
 10
14.8772272348
 20
11.0163628618
 30
0.0
 10
14.8590082908
 20
11.0185634643
 30
0.0
 10
14.8408272837
 20
11.0222278301
 30
0.0
 10
14.8227048027
 20
11.027351136
 30
0.0
 10
14.8046589421
 20
11.0339269142
 30
0.0
 10
14.7867077913
 20
11.0419472434
 30
0.0
 10
14.7688687951
 20
11.0514029049
 30
0.0
 10
14.7511590226
 20
11.0622834751
 30
0.0
 10
14.7335951946
 20
11.0745773673
 30
0.0
 10
14.7161937926
 20
11.0882718746
 30
0.0
 10
14.6989711092
 20
11.1033531531
 30
0.0
 10
14.6819432922
 20
11.1198062013
 30
0.0
 10
14.6651263495
 20
11.1376148171
 30
0.0
 10
14.6485361484
 20
11.1567615777
 30
0.0
 10
14.6321884174
 20
11.1772278391
 30
0.0
 10
14.616098723
 20
11.1989937255
 30
0.0
 10
14.6002824544
 20
11.2220381269
 30
0.0
 10
14.5847547839
 20
11.246338691
 30
0.0
 10
14.5695306531
 20
11.2718718435
 30
0.0
 10
14.5546247546
 20
11.2986128109
 30
0.0
 10
14.5400515081
 20
11.3265356395
 30
0.0
 10
14.5258250429
 20
11.355613214
 30
0.0
 10
14.5119591612
 20
11.3858172727
 30
0.0
 10
14.4984673362
 20
11.4171184447
 30
0.0
 10
14.4853626934
 20
11.4494862823
 30
0.0
 10
14.4726579974
 20
11.4828892879
 30
0.0
 10
14.460365626
 20
11.5172949494
 30
0.0
 10
14.4484975795
 20
11.5526697305
 30
0.0
 10
14.4370653463
 20
11.58897926
 30
0.0
 10
14.422287782
 20
11.6390343312
 30
0.0
 10
14.4050193785
 20
11.7037084431
 30
0.0
 10
14.3863833047
 20
11.7837865053
 30
0.0
 10
14.3697264963
 20
11.8666971648
 30
0.0
 10
14.355114217
 20
11.952117115
 30
0.0
 10
14.3426036407
 20
12.0397140503
 30
0.0
 10
14.3322438185
 20
12.1291467501
 30
0.0
 10
14.3240753093
 20
12.2200667874
 30
0.0
 10
14.318130147
 20
12.312119827
 30
0.0
 10
14.3144316284
 20
12.4049470567
 30
0.0
 10
14.3129942368
 20
12.4981866008
 30
0.0
 10
14.3138236343
 20
12.5914749569
 30
0.0
 10
14.3169165341
 20
12.6844484228
 30
0.0
 10
14.3222608497
 20
12.7767445651
 30
0.0
 10
14.3298355992
 20
12.8680035341
 30
0.0
 10
14.339611143
 20
12.9578698822
 30
0.0
 10
14.3515490267
 20
13.0459925736
 30
0.0
 10
14.3610224771
 20
13.1039893829
 30
0.0
 10
14.3661242607
 20
13.1326241576
 30
0.0
  0
SPLINE
  5
2C3
100
AcDbEntity
  8
LAYER_CUT_FEAT
100
AcDbSpline
 62
7
  6
CONTINUOUS
 70
0
 71
3
 72
79
 73
75
 74
0
 42
0.0000001
 43
0.0000001
 44
0.0000000001
 40
0.0
 40
0.0
 40
0.0
 40
0.0
 40
0.0041770999
 40
0.008368234
 40
0.0125872631
 40
0.0168477082
 40
0.0211626055
 40
0.0255443741
 40
0.0300047185
 40
0.0345545554
 40
0.0439592342
 40
0.0538319249
 40
0.0642291881
 40
0.0751948023
 40
0.086761044
 40
0.0989500779
 40
0.1117752893
 40
0.1252424749
 40
0.1393508814
 40
0.1540940815
 40
0.1694607077
 40
0.185435062
 40
0.2019976374
 40
0.2191255582
 40
0.2367929552
 40
0.2549712875
 40
0.2736296317
 40
0.2927349407
 40
0.3122522745
 40
0.3321450105
 40
0.3523750427
 40
0.37290297
 40
0.3936882737
 40
0.4146894857
 40
0.435864354
 40
0.4571700054
 40
0.4785631027
 40
0.4999999999
 40
0.521436897
 40
0.5428299944
 40
0.5641356461
 40
0.5853105142
 40
0.6063117256
 40
0.6270970296
 40
0.6476249578
 40
0.6678549895
 40
0.6877477245
 40
0.7072650586
 40
0.7263703691
 40
0.745028713
 40
0.7632070437
 40
0.7808744407
 40
0.7980023635
 40
0.8145649388
 40
0.8305392913
 40
0.8459059171
 40
0.8606491194
 40
0.8747575262
 40
0.88822471
 40
0.9010499206
 40
0.9132389565
 40
0.9248051989
 40
0.9357708115
 40
0.9461680737
 40
0.9560407659
 40
0.9654454455
 40
0.9699952809
 40
0.9744556258
 40
0.978837395
 40
0.9831522913
 40
0.9874127371
 40
0.991631766
 40
0.9958228999
 40
1.0
 40
1.0
 40
1.0
 40
1.0
 10
16.0467938224
 20
11.0158731783
 30
0.0
 10
16.0515581298
 20
11.0158731757
 30
0.0
 10
16.0611054721
 20
11.0161745291
 30
0.0
 10
16.0754071058
 20
11.0175295244
 30
0.0
 10
16.0896909962
 20
11.019786743
 30
0.0
 10
16.1039473441
 20
11.0229444564
 30
0.0
 10
16.1181674184
 20
11.0270004534
 30
0.0
 10
16.1323422854
 20
11.0319517517
 30
0.0
 10
16.1464636095
 20
11.037795124
 30
0.0
 10
16.165415604
 20
11.0468690397
 30
0.0
 10
16.1889704457
 20
11.0605238799
 30
0.0
 10
16.2165503766
 20
11.0802188754
 30
0.0
 10
16.2436986118
 20
11.1033498765
 30
0.0
 10
16.2703535848
 20
11.1298567956
 30
0.0
 10
16.2964575728
 20
11.1596751186
 30
0.0
 10
16.3219520525
 20
11.1927333193
 30
0.0
 10
16.3467791537
 20
11.2289529243
 30
0.0
 10
16.3708816119
 20
11.2682481047
 30
0.0
 10
16.3942031842
 20
11.3105257017
 30
0.0
 10
16.4166889412
 20
11.3556853049
 30
0.0
 10
16.4382855535
 20
11.4036194315
 30
0.0
 10
16.4589415592
 20
11.454213749
 30
0.0
 10
16.4786075526
 20
11.5073473656
 30
0.0
 10
16.4972363655
 20
11.5628931383
 30
0.0
 10
16.5147832233
 20
11.6207179917
 30
0.0
 10
16.5312059063
 20
11.6806832462
 30
0.0
 10
16.54646486
 20
11.7426449741
 30
0.0
 10
16.5605233003
 20
11.8064543671
 30
0.0
 10
16.5733473122
 20
11.8719581048
 30
0.0
 10
16.5849059565
 20
11.9389987282
 30
0.0
 10
16.5951713434
 20
12.0074150313
 30
0.0
 10
16.6041186932
 20
12.0770424612
 30
0.0
 10
16.6117263979
 20
12.1477135206
 30
0.0
 10
16.6179760885
 20
12.219258173
 30
0.0
 10
16.6228526816
 20
12.2915042579
 30
0.0
 10
16.6263444019
 20
12.3642779124
 30
0.0
 10
16.628442812
 20
12.4374039935
 30
0.0
 10
16.6291428412
 20
12.5107065022
 30
0.0
 10
16.6284428072
 20
12.584009011
 30
0.0
 10
16.6263444013
 20
12.6571350927
 30
0.0
 10
16.6228526866
 20
12.7299087476
 30
0.0
 10
16.6179760894
 20
12.8021548316
 30
0.0
 10
16.6117263935
 20
12.8736994831
 30
0.0
 10
16.6041186913
 20
12.9443705435
 30
0.0
 10
16.5951713485
 20
13.0139979752
 30
0.0
 10
16.5849059583
 20
13.0824142771
 30
0.0
 10
16.5733473084
 20
13.1494548982
 30
0.0
 10
16.5605232973
 20
13.2149586368
 30
0.0
 10
16.5464648648
 20
13.2787680331
 30
0.0
 10
16.531205909
 20
13.3407297602
 30
0.0
 10
16.5147832202
 20
13.4006950109
 30
0.0
 10
16.4972363614
 20
13.4585198644
 30
0.0
 10
16.4786075568
 20
13.5140656421
 30
0.0
 10
16.4589415628
 20
13.5671992587
 30
0.0
 10
16.4382855512
 20
13.6177935711
 30
0.0
 10
16.4166889361
 20
13.6657276961
 30
0.0
 10
16.3942031877
 20
13.7108873063
 30
0.0
 10
16.3708816163
 20
13.7531649049
 30
0.0
 10
16.3467791522
 20
13.7924600787
 30
0.0
 10
16.3219520468
 20
13.8286796796
 30
0.0
 10
16.2964575751
 20
13.861737889
 30
0.0
 10
16.2703535898
 20
13.8915562167
 30
0.0
 10
16.243698611
 20
13.9180631273
 30
0.0
 10
16.2165503718
 20
13.9411941215
 30
0.0
 10
16.1889704452
 20
13.9608891233
 30
0.0
 10
16.1654156121
 20
13.974543983
 30
0.0
 10
16.1464636047
 20
13.9836178717
 30
0.0
 10
16.1323422852
 20
13.9894612518
 30
0.0
 10
16.1181674228
 20
13.9944125662
 30
0.0
 10
16.1039473391
 20
13.9984685301
 30
0.0
 10
16.0896909993
 20
14.0016262756
 30
0.0
 10
16.0754071051
 20
14.0038834799
 30
0.0
 10
16.0611054716
 20
14.0052384641
 30
0.0
 10
16.05155813
 20
14.0055398384
 30
0.0
 10
16.0467938224
 20
14.0055398356
 30
0.0
  0
SPLINE
  5
2C4
100
AcDbEntity
  8
LAYER_CHAMFER_FEAT
100
AcDbSpline
 62
7
  6
CONTINUOUS
 70
0
 71
3
 72
19
 73
15
 74
0
 42
0.0000001
 43
0.0000001
 44
0.0000000001
 40
0.0
 40
0.0
 40
0.0
 40
0.0
 40
0.0552572298
 40
0.1107101316
 40
0.1665518365
 40
0.222970507
 40
0.2801471491
 40
0.3382538592
 40
0.39745225
 40
0.4578925465
 40
0.582999038
 40
0.7145747515
 40
0.853381289
 40
1.0
 40
1.0
 40
1.0
 40
1.0
 10
16.0283726025
 20
13.8273731693
 30
0.0
 10
16.0240639085
 20
13.8273731684
 30
0.0
 10
16.0154286707
 20
13.8270932805
 30
0.0
 10
16.002494317
 20
13.825834939
 30
0.0
 10
15.9895769289
 20
13.8237388038
 30
0.0
 10
15.9766858824
 20
13.820806519
 30
0.0
 10
15.9638294768
 20
13.8170403891
 30
0.0
 10
15.9510162594
 20
13.8124432151
 30
0.0
 10
15.9382541517
 20
13.8070182601
 30
0.0
 10
15.9211225011
 20
13.7985909214
 30
0.0
 10
15.8998399747
 20
13.7859093696
 30
0.0
 10
15.8749503821
 20
13.7676321796
 30
0.0
 10
15.8504727509
 20
13.7461748166
 30
0.0
 10
15.8349055622
 20
13.7302366121
 30
0.0
 10
15.827197448
 20
13.7217932788
 30
0.0
  0
SPLINE
  5
2C5
100
AcDbEntity
  8
LAYER_CHAMFER_FEAT
100
AcDbSpline
 62
7
  6
CONTINUOUS
 70
0
 71
3
 72
26
 73
22
 74
0
 42
0.0000001
 43
0.0000001
 44
0.0000000001
 40
0.0
 40
0.0
 40
0.0
 40
0.0
 40
0.0835123915
 40
0.1639107169
 40
0.2411706294
 40
0.315288134
 40
0.3862822568
 40
0.4541980975
 40
0.5191103229
 40
0.5811270596
 40
0.64039408
 40
0.6970990409
 40
0.7514753416
 40
0.8038049294
 40
0.8544191391
 40
0.8792073479
 40
0.9037123665
 40
0.9279878293
 40
0.9520893447
 40
0.9760740145
 40
1.0
 40
1.0
 40
1.0
 40
1.0
 10
16.3470932617
 20
13.5420869337
 30
0.0
 10
16.3415825682
 20
13.5533165462
 30
0.0
 10
16.3303977201
 20
13.5751788155
 30
0.0
 10
16.3127749736
 20
13.6067218221
 30
0.0
 10
16.2946521324
 20
13.6363441255
 30
0.0
 10
16.276060558
 20
13.6639937864
 30
0.0
 10
16.2570319006
 20
13.6896229232
 30
0.0
 10
16.2375983476
 20
13.7131869723
 30
0.0
 10
16.2177924176
 20
13.7346448534
 30
0.0
 10
16.1976469124
 20
13.7539588339
 30
0.0
 10
16.1771948111
 20
13.7710944062
 30
0.0
 10
16.1564695618
 20
13.7860200339
 30
0.0
 10
16.1355045169
 20
13.7987071027
 30
0.0
 10
16.1143361244
 20
13.8091292069
 30
0.0
 10
16.0964281418
 20
13.815955549
 30
0.0
 10
16.0820804824
 20
13.8202269549
 30
0.0
 10
16.0713683695
 20
13.8228326622
 30
0.0
 10
16.0606367722
 20
13.8248605643
 30
0.0
 10
16.0498902319
 20
13.8263098893
 30
0.0
 10
16.0391341227
 20
13.8271797298
 30
0.0
 10
16.0319563479
 20
13.8273731701
 30
0.0
 10
16.0283726025
 20
13.8273731693
 30
0.0
  0
SPLINE
  5
2C6
100
AcDbEntity
  8
LAYER_CUT_FEAT
100
AcDbSpline
 62
7
  6
CONTINUOUS
 70
0
 71
3
 72
11
 73
7
 74
0
 42
0.0000001
 43
0.0000001
 44
0.0000000001
 40
0.0
 40
0.0
 40
0.0
 40
0.0
 40
0.2087823068
 40
0.4431607709
 40
0.7064929103
 40
1.0
 40
1.0
 40
1.0
 40
1.0
 10
15.532806974
 20
13.1396986615
 30
0.0
 10
15.5329956203
 20
13.1398007059
 30
0.0
 10
15.533370844
 20
13.1400650783
 30
0.0
 10
15.5338817525
 20
13.140584374
 30
0.0
 10
15.5343662139
 20
13.1412396782
 30
0.0
 10
15.5346530548
 20
13.1417358713
 30
0.0
 10
15.5347924725
 20
13.1420032153
 30
0.0
  0
SPLINE
  5
2C7
100
AcDbEntity
  8
LAYER_CUT_FEAT
100
AcDbSpline
 62
7
  6
CONTINUOUS
 70
0
 71
3
 72
11
 73
7
 74
0
 42
0.0000001
 43
0.0000001
 44
0.0000000001
 40
0.0
 40
0.0
 40
0.0
 40
0.0
 40
0.2132234368
 40
0.4461350664
 40
0.7068229469
 40
1.0
 40
1.0
 40
1.0
 40
1.0
 10
15.5718982689
 20
13.317269634
 30
0.0
 10
15.5720857924
 20
13.3173024232
 30
0.0
 10
15.5724696371
 20
13.3174271632
 30
0.0
 10
15.5730099956
 20
13.3177618569
 30
0.0
 10
15.5735283052
 20
13.3182409135
 30
0.0
 10
15.5738378361
 20
13.3186287212
 30
0.0
 10
15.5739893436
 20
13.3188421685
 30
0.0
  0
SPLINE
  5
2C8
100
AcDbEntity
  8
LAYER_CUT_FEAT
100
AcDbSpline
 62
7
  6
CONTINUOUS
 70
0
 71
3
 72
17
 73
13
 74
0
 42
0.0000001
 43
0.0000001
 44
0.0000000001
 40
0.0
 40
0.0
 40
0.0
 40
0.0
 40
0.03890151
 40
0.0788197279
 40
0.1650608089
 40
0.2129712429
 40
0.2646213554
 40
0.3800186268
 40
0.5122097335
 40
0.6606691422
 40
0.8239537131
 40
1.0
 40
1.0
 40
1.0
 40
1.0
 10
15.5218674254
 20
13.1396520826
 30
0.0
 10
15.5217530473
 20
13.1396520919
 30
0.0
 10
15.5215207805
 20
13.1396311116
 30
0.0
 10
15.5210504312
 20
13.139503453
 30
0.0
 10
15.5205973948
 20
13.1392474831
 30
0.0
 10
15.5201779725
 20
13.1388967199
 30
0.0
 10
15.5197385611
 20
13.1384407476
 30
0.0
 10
15.519221831
 20
13.1377234641
 30
0.0
 10
15.5186745087
 20
13.1366928452
 30
0.0
 10
15.5181873076
 20
13.1354797121
 30
0.0
 10
15.5177691705
 20
13.1341063465
 30
0.0
 10
15.5175488835
 20
13.1331323329
 30
0.0
 10
15.5174505032
 20
13.1326241576
 30
0.0
  0
SPLINE
  5
2C9
100
AcDbEntity
  8
LAYER_CUT_FEAT
100
AcDbSpline
 62
7
  6
CONTINUOUS
 70
0
 71
3
 72
9
 73
5
 74
0
 42
0.0000001
 43
0.0000001
 44
0.0000000001
 40
0.0
 40
0.0
 40
0.0
 40
0.0
 40
0.5038747234
 40
1.0
 40
1.0
 40
1.0
 40
1.0
 10
15.5827972642
 20
13.3518333718
 30
0.0
 10
15.5828460416
 20
13.3527699182
 30
0.0
 10
15.5828634856
 20
13.3546334742
 30
0.0
 10
15.5827253323
 20
13.3564922059
 30
0.0
 10
15.5826145724
 20
13.3574089314
 30
0.0
  0
SPLINE
  5
2CA
100
AcDbEntity
  8
LAYER_CUT_FEAT
100
AcDbSpline
 62
7
  6
CONTINUOUS
 70
0
 71
3
 72
9
 73
5
 74
0
 42
0.0000001
 43
0.0000001
 44
0.0000000001
 40
0.0
 40
0.0
 40
0.0
 40
0.0
 40
0.5152144205
 40
1.0
 40
1.0
 40
1.0
 40
1.0
 10
15.5826145724
 20
13.3574089314
 30
0.0
 10
15.5822708368
 20
13.3602539232
 30
0.0
 10
15.5814315814
 20
13.3657568039
 30
0.0
 10
15.5802088085
 20
13.3711891692
 30
0.0
 10
15.5795066172
 20
13.3737925668
 30
0.0
  0
SPLINE
  5
2CB
100
AcDbEntity
  8
LAYER_CUT_FEAT
100
AcDbSpline
 62
7
  6
CONTINUOUS
 70
0
 71
3
 72
15
 73
11
 74
0
 42
0.0000001
 43
0.0000001
 44
0.0000000001
 40
0.0
 40
0.0
 40
0.0
 40
0.0
 40
0.1515294624
 40
0.2982309574
 40
0.4384962025
 40
0.570850945
 40
0.6940190902
 40
0.8069797507
 40
0.909047512
 40
1.0
 40
1.0
 40
1.0
 40
1.0
 10
15.6067762856
 20
13.4329000921
 30
0.0
 10
15.6066423293
 20
13.4312269291
 30
0.0
 10
15.6063021276
 20
13.4279394308
 30
0.0
 10
15.605563642
 20
13.4231365451
 30
0.0
 10
15.6046134959
 20
13.4185873821
 30
0.0
 10
15.6034647177
 20
13.414353369
 30
0.0
 10
15.6021330803
 20
13.4104912707
 30
0.0
 10
15.6006361939
 20
13.4070518536
 30
0.0
 10
15.5989941852
 20
13.4040805679
 30
0.0
 10
15.5977437682
 20
13.4023366724
 30
0.0
 10
15.5970936327
 20
13.4015670157
 30
0.0
  0
SPLINE
  5
2CC
100
AcDbEntity
  8
LAYER_CUT_FEAT
100
AcDbSpline
 62
7
  6
CONTINUOUS
 70
0
 71
3
 72
9
 73
5
 74
0
 42
0.0000001
 43
0.0000001
 44
0.0000000001
 40
0.0
 40
0.0
 40
0.0
 40
0.0
 40
0.5103986606
 40
1.0
 40
1.0
 40
1.0
 40
1.0
 10
15.5417266655
 20
13.177821188
 30
0.0
 10
15.5417242419
 20
13.1787539746
 30
0.0
 10
15.5416435592
 20
13.1805821387
 30
0.0
 10
15.5414051174
 20
13.1823971167
 30
0.0
 10
15.5412435754
 20
13.1832771949
 30
0.0
  0
SPLINE
  5
2CD
100
AcDbEntity
  8
LAYER_CUT_FEAT
100
AcDbSpline
 62
7
  6
CONTINUOUS
 70
0
 71
3
 72
15
 73
11
 74
0
 42
0.0000001
 43
0.0000001
 44
0.0000000001
 40
0.0
 40
0.0
 40
0.0
 40
0.0
 40
0.1129229564
 40
0.2340684657
 40
0.3612402683
 40
0.4920076903
 40
0.6238194987
 40
0.7540888975
 40
0.8802765631
 40
1.0
 40
1.0
 40
1.0
 40
1.0
 10
15.602717554
 20
13.4772004964
 30
0.0
 10
15.6025550355
 20
13.4766745865
 30
0.0
 10
15.6022676915
 20
13.4755688419
 30
0.0
 10
15.6019516629
 20
13.4738352424
 30
0.0
 10
15.6017404433
 20
13.4719982149
 30
0.0
 10
15.6016390822
 20
13.4700999334
 30
0.0
 10
15.6016499614
 20
13.4681839014
 30
0.0
 10
15.6017728372
 20
13.466294084
 30
0.0
 10
15.6020047576
 20
13.4644739311
 30
0.0
 10
15.6022359155
 20
13.4632964653
 30
0.0
 10
15.6023708412
 20
13.4627286789
 30
0.0
  0
SPLINE
  5
2CE
100
AcDbEntity
  8
LAYER_CUT_FEAT
100
AcDbSpline
 62
7
  6
CONTINUOUS
 70
0
 71
3
 72
10
 73
6
 74
0
 42
0.0000001
 43
0.0000001
 44
0.0000000001
 40
0.0
 40
0.0
 40
0.0
 40
0.0
 40
0.5203292224
 40
0.765766509
 40
1.0
 40
1.0
 40
1.0
 40
1.0
 10
15.5412435754
 20
13.1832771949
 30
0.0
 10
15.5407538485
 20
13.1859452181
 30
0.0
 10
15.5399007488
 20
13.1898503207
 30
0.0
 10
15.5384784153
 20
13.1948669129
 30
0.0
 10
15.537690974
 20
13.1972415071
 30
0.0
 10
15.53727793
 20
13.1983906427
 30
0.0
  0
SPLINE
  5
2CF
100
AcDbEntity
  8
LAYER_CUT_FEAT
100
AcDbSpline
 62
7
  6
CONTINUOUS
 70
0
 71
3
 72
11
 73
7
 74
0
 42
0.0000001
 43
0.0000001
 44
0.0000000001
 40
0.0
 40
0.0
 40
0.0
 40
0.0
 40
0.21974396
 40
0.4529428092
 40
0.7106052221
 40
1.0
 40
1.0
 40
1.0
 40
1.0
 10
15.5949649347
 20
13.4003728859
 30
0.0
 10
15.5951492475
 20
13.4003720213
 30
0.0
 10
15.5955312382
 20
13.4004251365
 30
0.0
 10
15.5960841415
 20
13.4006626431
 30
0.0
 10
15.5966172287
 20
13.4010495294
 30
0.0
 10
15.5969369956
 20
13.4013815824
 30
0.0
 10
15.5970936327
 20
13.4015670157
 30
0.0
  0
SPLINE
  5
2D0
100
AcDbEntity
  8
LAYER_CUT_FEAT
100
AcDbSpline
 62
7
  6
CONTINUOUS
 70
0
 71
3
 72
9
 73
5
 74
0
 42
0.0000001
 43
0.0000001
 44
0.0000000001
 40
0.0
 40
0.0
 40
0.0
 40
0.0
 40
0.4936036394
 40
1.0
 40
1.0
 40
1.0
 40
1.0
 10
15.5479357261
 20
13.2296681282
 30
0.0
 10
15.5484740204
 20
13.2296681309
 30
0.0
 10
15.5495666502
 20
13.2297659983
 30
0.0
 10
15.550625005
 20
13.2300516209
 30
0.0
 10
15.5511452464
 20
13.2302368876
 30
0.0
  0
SPLINE
  5
2D1
100
AcDbEntity
  8
LAYER_CUT_FEAT
100
AcDbSpline
 62
7
  6
CONTINUOUS
 70
0
 71
3
 72
9
 73
5
 74
0
 42
0.0000001
 43
0.0000001
 44
0.0000000001
 40
0.0
 40
0.0
 40
0.0
 40
0.0
 40
0.5127417174
 40
1.0
 40
1.0
 40
1.0
 40
1.0
 10
15.6067454958
 20
13.4384947955
 30
0.0
 10
15.606478617
 20
13.4414082209
 30
0.0
 10
15.6057857087
 20
13.4470760667
 30
0.0
 10
15.6047166575
 20
13.4526865364
 30
0.0
 10
15.6040901639
 20
13.4553952489
 30
0.0
  0
SPLINE
  5
2D2
100
AcDbEntity
  8
LAYER_CUT_FEAT
100
AcDbSpline
 62
7
  6
CONTINUOUS
 70
0
 71
3
 72
15
 73
11
 74
0
 42
0.0000001
 43
0.0000001
 44
0.0000000001
 40
0.0
 40
0.0
 40
0.0
 40
0.0
 40
0.147819414
 40
0.2919693494
 40
0.4308386302
 40
0.5629200405
 40
0.6868678697
 40
0.8015450833
 40
0.9060867683
 40
1.0
 40
1.0
 40
1.0
 40
1.0
 10
15.5827972642
 20
13.3518333718
 30
0.0
 10
15.5827087721
 20
13.3501342853
 30
0.0
 10
15.582457231
 20
13.3467817152
 30
0.0
 10
15.5818501022
 20
13.3418581797
 30
0.0
 10
15.5810248635
 20
13.337149936
 30
0.0
 10
15.57999286
 20
13.3327207385
 30
0.0
 10
15.5787683237
 20
13.328630241
 30
0.0
 10
15.5773677155
 20
13.3249327354
 30
0.0
 10
15.5758101504
 20
13.3216775248
 30
0.0
 10
15.5746150095
 20
13.3197236216
 30
0.0
 10
15.5739893436
 20
13.3188421685
 30
0.0
  0
SPLINE
  5
2D3
100
AcDbEntity
  8
LAYER_CUT_FEAT
100
AcDbSpline
 62
7
  6
CONTINUOUS
 70
0
 71
3
 72
15
 73
11
 74
0
 42
0.0000001
 43
0.0000001
 44
0.0000000001
 40
0.0
 40
0.0
 40
0.0
 40
0.0
 40
0.1167731402
 40
0.2407815925
 40
0.3697185492
 40
0.5010879699
 40
0.6323152322
 40
0.7608305474
 40
0.8841526462
 40
1.0
 40
1.0
 40
1.0
 40
1.0
 10
15.5775450233
 20
13.3952988224
 30
0.0
 10
15.5773979769
 20
13.394748041
 30
0.0
 10
15.5771421986
 20
13.3935993738
 30
0.0
 10
15.576873437
 20
13.3918133537
 30
0.0
 10
15.5767120929
 20
13.3899429153
 30
0.0
 10
15.5766620318
 20
13.3880310423
 30
0.0
 10
15.576724424
 20
13.3861215885
 30
0.0
 10
15.576897808
 20
13.3842583447
 30
0.0
 10
15.5771780321
 20
13.3824841207
 30
0.0
 10
15.5774414672
 20
13.3813452265
 30
0.0
 10
15.577592274
 20
13.3808001508
 30
0.0
  0
SPLINE
  5
2D4
100
AcDbEntity
  8
LAYER_CUT_FEAT
100
AcDbSpline
 62
7
  6
CONTINUOUS
 70
0
 71
3
 72
16
 73
12
 74
0
 42
0.0000001
 43
0.0000001
 44
0.0000000001
 40
0.0
 40
0.0
 40
0.0
 40
0.0
 40
0.0400436826
 40
0.0810153429
 40
0.168806844
 40
0.2688125369
 40
0.3839128341
 40
0.5151750767
 40
0.6624144569
 40
0.8245754234
 40
1.0
 40
1.0
 40
1.0
 40
1.0
 10
15.5398869978
 20
13.2321808824
 30
0.0
 10
15.5397798716
 20
13.2321808815
 30
0.0
 10
15.539562712
 20
13.2321625412
 30
0.0
 10
15.5391233041
 20
13.2320510101
 30
0.0
 10
15.538573959
 20
13.2317617219
 30
0.0
 10
15.5379652951
 20
13.231218495
 30
0.0
 10
15.5373936167
 20
13.2304843913
 30
0.0
 10
15.5368653805
 20
13.2295705976
 30
0.0
 10
15.5363874954
 20
13.2284909332
 30
0.0
 10
15.5359674858
 20
13.227262406
 30
0.0
 10
15.5357386706
 20
13.2263879024
 30
0.0
 10
15.5356340082
 20
13.2259304201
 30
0.0
  0
SPLINE
  5
2D5
100
AcDbEntity
  8
LAYER_CUT_FEAT
100
AcDbSpline
 62
7
  6
CONTINUOUS
 70
0
 71
3
 72
15
 73
11
 74
0
 42
0.0000001
 43
0.0000001
 44
0.0000000001
 40
0.0
 40
0.0
 40
0.0
 40
0.0
 40
0.1442263428
 40
0.2858760812
 40
0.4233437181
 40
0.5551016235
 40
0.6797528079
 40
0.7960712359
 40
0.9030536031
 40
1.0
 40
1.0
 40
1.0
 40
1.0
 10
15.5610787874
 20
13.266668766
 30
0.0
 10
15.5610365181
 20
13.2649519738
 30
0.0
 10
15.5608755397
 20
13.2615504172
 30
0.0
 10
15.5604027608
 20
13.2565300318
 30
0.0
 10
15.5597064897
 20
13.2516853956
 30
0.0
 10
15.5587963106
 20
13.2470822443
 30
0.0
 10
15.5576848102
 20
13.2427827769
 30
0.0
 10
15.5563870862
 20
13.2388444683
 30
0.0
 10
15.5549210092
 20
13.2353201778
 30
0.0
 10
15.5537863444
 20
13.2331676429
 30
0.0
 10
15.5531885103
 20
13.2321801655
 30
0.0
  0
SPLINE
  5
2D6
100
AcDbEntity
  8
02___PRT_ALL_AXES
100
AcDbSpline
 62
7
  6
CONTINUOUS
 70
0
 71
3
 72
60
 73
56
 74
0
 42
0.0000001
 43
0.0000001
 44
0.0000000001
 40
0.0
 40
0.0
 40
0.0
 40
0.0
 40
0.0078473385
 40
0.0157161867
 40
0.0236812972
 40
0.0318138358
 40
0.0401796752
 40
0.0488378149
 40
0.0578396104
 40
0.0672285557
 40
0.0770405021
 40
0.0873041472
 40
0.0980416629
 40
0.109269365
 40
0.1209983662
 40
0.1332351757
 40
0.1459822385
 40
0.1592384082
 40
0.1729993554
 40
0.1872579191
 40
0.2020044103
 40
0.2172268719
 40
0.2329113052
 40
0.2490418658
 40
0.2656010402
 40
0.282569801
 40
0.2999277448
 40
0.3176532191
 40
0.3357234365
 40
0.3541145818
 40
0.3917582308
 40
0.4303784666
 40
0.4697572643
 40
0.5096686574
 40
0.5498812216
 40
0.5901604924
 40
0.6302713363
 40
0.6699803108
 40
0.709058056
 40
0.7472817322
 40
0.7844375499
 40
0.8025522394
 40
0.8203253247
 40
0.8377338745
 40
0.8547560772
 40
0.8713713545
 40
0.8875604861
 40
0.9033057463
 40
0.9185910578
 40
0.9334021657
 40
0.9477268184
 40
0.9615550367
 40
0.9748792179
 40
0.9876948328
 40
1.0
 40
1.0
 40
1.0
 40
1.0
 10
15.6548633735
 20
13.2187301853
 30
0.0
 10
15.6586683845
 20
13.219019201
 30
0.0
 10
15.6663259469
 20
13.2191936372
 30
0.0
 10
15.6778214334
 20
13.2182238747
 30
0.0
 10
15.6892881253
 20
13.2160256219
 30
0.0
 10
15.7007020451
 20
13.2126047846
 30
0.0
 10
15.712042562
 20
13.2079702239
 30
0.0
 10
15.7232897723
 20
13.2021327472
 30
0.0
 10
15.7344249778
 20
13.1951048189
 30
0.0
 10
15.7454301462
 20
13.1869003071
 30
0.0
 10
15.7562876808
 20
13.1775344759
 30
0.0
 10
15.7669802158
 20
13.1670240631
 30
0.0
 10
15.7774905277
 20
13.1553873894
 30
0.0
 10
15.7878015148
 20
13.1426444559
 30
0.0
 10
15.7978962213
 20
13.1288170117
 30
0.0
 10
15.8077578885
 20
13.1139285934
 30
0.0
 10
15.8173700115
 20
13.0980045322
 30
0.0
 10
15.826716393
 20
13.0810719375
 30
0.0
 10
15.8357811994
 20
13.0631596674
 30
0.0
 10
15.8445490092
 20
13.0442982883
 30
0.0
 10
15.8530048573
 20
13.0245200259
 30
0.0
 10
15.8611342743
 20
13.0038587111
 30
0.0
 10
15.8689233225
 20
12.9823497216
 30
0.0
 10
15.8763586317
 20
12.9600299204
 30
0.0
 10
15.8834274236
 20
12.9369375867
 30
0.0
 10
15.890117538
 20
12.913112349
 30
0.0
 10
15.8964174641
 20
12.8885951054
 30
0.0
 10
15.902316335
 20
12.8634279879
 30
0.0
 10
15.9078040542
 20
12.8376541467
 30
0.0
 10
15.9146125433
 20
12.8022657382
 30
0.0
 10
15.9220067241
 20
12.7568233335
 30
0.0
 10
15.929041474
 20
12.7010196111
 30
0.0
 10
15.9342565382
 20
12.6439092455
 30
0.0
 10
15.9376157978
 20
12.5858846747
 30
0.0
 10
15.9390959742
 20
12.5273439688
 30
0.0
 10
15.9386868176
 20
12.4686890554
 30
0.0
 10
15.9363911598
 20
12.4103225863
 30
0.0
 10
15.9322248985
 20
12.3526452672
 30
0.0
 10
15.926216918
 20
12.29605271
 30
0.0
 10
15.9184088194
 20
12.2409337416
 30
0.0
 10
15.9103806964
 20
12.196171933
 30
0.0
 10
15.9030769137
 20
12.1614095642
 30
0.0
 10
15.8972325936
 20
12.1361584292
 30
0.0
 10
15.8909858862
 20
12.1115515176
 30
0.0
 10
15.8843474767
 20
12.087631006
 30
0.0
 10
15.8773288111
 20
12.064437988
 30
0.0
 10
15.8699419584
 20
12.0420122607
 30
0.0
 10
15.8621996158
 20
12.020392291
 30
0.0
 10
15.854115077
 20
11.9996151321
 30
0.0
 10
15.8457022059
 20
11.9797163714
 30
0.0
 10
15.8369754001
 20
11.9607300261
 30
0.0
 10
15.8279495764
 20
11.9426886153
 30
0.0
 10
15.8186400205
 20
11.925622725
 30
0.0
 10
15.8090627921
 20
11.9095619878
 30
0.0
 10
15.8023740851
 20
11.8993348512
 30
0.0
 10
15.7989845489
 20
11.8944037476
 30
0.0
  0
SPLINE
  5
2D7
100
AcDbEntity
  8
LAYER_CUT_FEAT
100
AcDbSpline
 62
7
  6
CONTINUOUS
 70
0
 71
3
 72
15
 73
11
 74
0
 42
0.0000001
 43
0.0000001
 44
0.0000000001
 40
0.0
 40
0.0
 40
0.0
 40
0.0
 40
0.1206589842
 40
0.247535252
 40
0.3782237397
 40
0.5101725064
 40
0.6407918957
 40
0.7675375832
 40
0.8879961526
 40
1.0
 40
1.0
 40
1.0
 40
1.0
 10
15.5546586256
 20
13.3090875034
 30
0.0
 10
15.5545275805
 20
13.3085147017
 30
0.0
 10
15.5543042862
 20
13.3073288539
 30
0.0
 10
15.5540841268
 20
13.3054989823
 30
0.0
 10
15.5539734602
 20
13.3036041443
 30
0.0
 10
15.5539749488
 20
13.3016879098
 30
0.0
 10
15.5540885431
 20
13.2997942515
 30
0.0
 10
15.5543115733
 20
13.2979665545
 30
0.0
 10
15.5546387096
 20
13.2962467655
 30
0.0
 10
15.5549334687
 20
13.2951521461
 30
0.0
 10
15.5550996097
 20
13.2946326139
 30
0.0
  0
SPLINE
  5
2D8
100
AcDbEntity
  8
02___PRT_ALL_AXES
100
AcDbSpline
 62
7
  6
CONTINUOUS
 70
0
 71
3
 72
30
 73
26
 74
0
 42
0.0000001
 43
0.0000001
 44
0.0000000001
 40
0.0
 40
0.0
 40
0.0
 40
0.0
 40
0.0165945224
 40
0.0334200385
 40
0.0506960218
 40
0.0686210657
 40
0.0873670968
 40
0.1070768368
 40
0.1278641469
 40
0.1498162531
 40
0.1729963673
 40
0.1974466947
 40
0.2231915145
 40
0.2502394706
 40
0.2785857014
 40
0.3082139157
 40
0.3711916767
 40
0.4388736142
 40
0.5108374062
 40
0.5865739358
 40
0.6655051707
 40
0.7469993133
 40
0.8303839165
 40
0.9149564616
 40
1.0
 40
1.0
 40
1.0
 40
1.0
 10
15.7584456376
 20
11.7865441918
 30
0.0
 10
15.7591254774
 20
11.7865441933
 30
0.0
 10
15.7604962205
 20
11.7866331303
 30
0.0
 10
15.7625397828
 20
11.7870318027
 30
0.0
 10
15.7645710301
 20
11.787694127
 30
0.0
 10
15.7665839763
 20
11.7886172975
 30
0.0
 10
15.7685737331
 20
11.7897979952
 30
0.0
 10
15.770535635
 20
11.7912324777
 30
0.0
 10
15.7724652733
 20
11.7929166501
 30
0.0
 10
15.7743582683
 20
11.7948460713
 30
0.0
 10
15.7762102836
 20
11.7970158227
 30
0.0
 10
15.778017011
 20
11.79942047
 30
0.0
 10
15.7797741412
 20
11.8020540663
 30
0.0
 10
15.7814774161
 20
11.8049100888
 30
0.0
 10
15.7831227476
 20
11.8079814609
 30
0.0
 10
15.7852776275
 20
11.8124448543
 30
0.0
 10
15.7877830762
 20
11.8185214768
 30
0.0
 10
15.7904394343
 20
11.8263911508
 30
0.0
 10
15.7927775721
 20
11.8349040142
 30
0.0
 10
15.7947739022
 20
11.8439752074
 30
0.0
 10
15.7964082608
 20
11.8535145258
 30
0.0
 10
15.7976640729
 20
11.8634266109
 30
0.0
 10
15.7985285543
 20
11.8736122741
 30
0.0
 10
15.7989929604
 20
11.8839692802
 30
0.0
 10
15.7990326738
 20
11.89092004
 30
0.0
 10
15.7989845489
 20
11.8944037476
 30
0.0
  0
SPLINE
  5
2D9
100
AcDbEntity
  8
LAYER_CUT_FEAT
100
AcDbSpline
 62
7
  6
CONTINUOUS
 70
0
 71
3
 72
15
 73
11
 74
0
 42
0.0000001
 43
0.0000001
 44
0.0000000001
 40
0.0
 40
0.0
 40
0.0
 40
0.0
 40
0.14074993
 40
0.2799585888
 40
0.4160328314
 40
0.5474342117
 40
0.6727282585
 40
0.7906200088
 40
0.8999976545
 40
1.0
 40
1.0
 40
1.0
 40
1.0
 10
15.5417266655
 20
13.177821188
 30
0.0
 10
15.5417311503
 20
13.1760950224
 30
0.0
 10
15.5416621815
 20
13.1726608695
 30
0.0
 10
15.5413260849
 20
13.1675679297
 30
0.0
 10
15.5407622123
 20
13.1626102937
 30
0.0
 10
15.5399783268
 20
13.1578553304
 30
0.0
 10
15.5389852881
 20
13.1533674397
 30
0.0
 10
15.5377966743
 20
13.149206929
 30
0.0
 10
15.5364289424
 20
13.1454299029
 30
0.0
 10
15.5353595701
 20
13.1430906678
 30
0.0
 10
15.5347924725
 20
13.1420032153
 30
0.0
  0
SPLINE
  5
2DA
100
AcDbEntity
  8
LAYER_CUT_FEAT
100
AcDbSpline
 62
7
  6
CONTINUOUS
 70
0
 71
3
 72
54
 73
50
 74
0
 42
0.0000001
 43
0.0000001
 44
0.0000000001
 40
0.0
 40
0.0
 40
0.0
 40
0.0
 40
0.0373559963
 40
0.075463282
 40
0.11420062
 40
0.1534427867
 40
0.1930616327
 40
0.2329268345
 40
0.2729066547
 40
0.3128687041
 40
0.3526806941
 40
0.3922111921
 40
0.4313303816
 40
0.4699108386
 40
0.5078283146
 40
0.5449625692
 40
0.5811982133
 40
0.6164256347
 40
0.6505419785
 40
0.6671541104
 40
0.683453561
 40
0.699429887
 40
0.7150732974
 40
0.7303747045
 40
0.7453257821
 40
0.7599190232
 40
0.7741478028
 40
0.7880064514
 40
0.8014903378
 40
0.8145959637
 40
0.8273210617
 40
0.8396647073
 40
0.8516274463
 40
0.8632114401
 40
0.8744206261
 40
0.8852608873
 40
0.895740242
 40
0.9058690472
 40
0.9156602159
 40
0.9251294311
 40
0.9342953482
 40
0.9431797738
 40
0.9518077991
 40
0.9602078592
 40
0.9684116848
 40
0.9764541191
 40
0.9843727824
 40
0.9922075706
 40
1.0
 40
1.0
 40
1.0
 40
1.0
 10
15.5174505032
 20
13.1326241576
 30
0.0
 10
15.5123487196
 20
13.1039893829
 30
0.0
 10
15.5028752692
 20
13.0459925736
 30
0.0
 10
15.4909373855
 20
12.9578698822
 30
0.0
 10
15.4811618417
 20
12.8680035341
 30
0.0
 10
15.4735870922
 20
12.7767445651
 30
0.0
 10
15.4682427766
 20
12.6844484228
 30
0.0
 10
15.4651498768
 20
12.5914749569
 30
0.0
 10
15.4643204793
 20
12.4981866008
 30
0.0
 10
15.4657578709
 20
12.4049470567
 30
0.0
 10
15.4694563895
 20
12.312119827
 30
0.0
 10
15.4754015518
 20
12.2200667874
 30
0.0
 10
15.483570061
 20
12.1291467501
 30
0.0
 10
15.4939298832
 20
12.0397140503
 30
0.0
 10
15.5064404595
 20
11.952117115
 30
0.0
 10
15.5210527388
 20
11.8666971648
 30
0.0
 10
15.5377095473
 20
11.7837865053
 30
0.0
 10
15.556345621
 20
11.7037084431
 30
0.0
 10
15.5736140245
 20
11.6390343312
 30
0.0
 10
15.5883915888
 20
11.58897926
 30
0.0
 10
15.599823822
 20
11.5526697305
 30
0.0
 10
15.6116918685
 20
11.5172949494
 30
0.0
 10
15.6239842399
 20
11.4828892879
 30
0.0
 10
15.6366889359
 20
11.4494862823
 30
0.0
 10
15.6497935787
 20
11.4171184447
 30
0.0
 10
15.6632854037
 20
11.3858172727
 30
0.0
 10
15.6771512854
 20
11.355613214
 30
0.0
 10
15.6913777506
 20
11.3265356395
 30
0.0
 10
15.7059509971
 20
11.2986128109
 30
0.0
 10
15.7208568956
 20
11.2718718435
 30
0.0
 10
15.7360810264
 20
11.246338691
 30
0.0
 10
15.7516086969
 20
11.2220381269
 30
0.0
 10
15.7674249655
 20
11.1989937255
 30
0.0
 10
15.7835146599
 20
11.1772278391
 30
0.0
 10
15.7998623909
 20
11.1567615777
 30
0.0
 10
15.816452592
 20
11.1376148171
 30
0.0
 10
15.8332695348
 20
11.1198062013
 30
0.0
 10
15.8502973517
 20
11.1033531531
 30
0.0
 10
15.8675200351
 20
11.0882718746
 30
0.0
 10
15.8849214371
 20
11.0745773673
 30
0.0
 10
15.9024852651
 20
11.0622834751
 30
0.0
 10
15.9201950376
 20
11.0514029049
 30
0.0
 10
15.9380340338
 20
11.0419472434
 30
0.0
 10
15.9559851846
 20
11.0339269142
 30
0.0
 10
15.9740310453
 20
11.027351136
 30
0.0
 10
15.9921535262
 20
11.0222278301
 30
0.0
 10
16.0103345333
 20
11.0185634643
 30
0.0
 10
16.0285534773
 20
11.0163628618
 30
0.0
 10
16.0407265678
 20
11.0158731817
 30
0.0
 10
16.0467938224
 20
11.0158731783
 30
0.0
  0
SPLINE
  5
2DB
100
AcDbEntity
  8
LAYER_CUT_FEAT
100
AcDbSpline
 62
7
  6
CONTINUOUS
 70
0
 71
3
 72
15
 73
11
 74
0
 42
0.0000001
 43
0.0000001
 44
0.0000000001
 40
0.0
 40
0.0
 40
0.0
 40
0.0
 40
0.124594498
 40
0.2543552902
 40
0.3867890939
 40
0.5192964916
 40
0.6492810105
 40
0.7742329719
 40
0.8918184019
 40
1.0
 40
1.0
 40
1.0
 40
1.0
 10
15.5341698612
 20
13.2189865525
 30
0.0
 10
15.5340552724
 20
13.2183946543
 30
0.0
 10
15.5338652299
 20
13.2171775155
 30
0.0
 10
15.5336947683
 20
13.215312594
 30
0.0
 10
15.5336353298
 20
13.2134024959
 30
0.0
 10
15.5336883607
 20
13.2114911525
 30
0.0
 10
15.5338525912
 20
13.2096224246
 30
0.0
 10
15.5341241606
 20
13.2078390595
 30
0.0
 10
15.5344965889
 20
13.206181919
 30
0.0
 10
15.5348215763
 20
13.205137103
 30
0.0
 10
15.5350024302
 20
13.2046458678
 30
0.0
  0
SPLINE
  5
2DC
100
AcDbEntity
  8
LAYER_CUT_FEAT
100
AcDbSpline
 62
7
  6
CONTINUOUS
 70
0
 71
3
 72
11
 73
7
 74
0
 42
0.0000001
 43
0.0000001
 44
0.0000000001
 40
0.0
 40
0.0
 40
0.0
 40
0.0
 40
0.2097979036
 40
0.4432154054
 40
0.7057137959
 40
1.0
 40
1.0
 40
1.0
 40
1.0
 10
15.5511452464
 20
13.2302368876
 30
0.0
 10
15.5513343046
 20
13.2303042144
 30
0.0
 10
15.5517156136
 20
13.2304997685
 30
0.0
 10
15.5522418679
 20
13.2309281972
 30
0.0
 10
15.5527440414
 20
13.2314967294
 30
0.0
 10
15.5530427176
 20
13.2319393512
 30
0.0
 10
15.5531885103
 20
13.2321801655
 30
0.0
  0
SPLINE
  5
2DD
100
AcDbEntity
  8
LAYER_CUT_FEAT
100
AcDbSpline
 62
7
  6
CONTINUOUS
 70
0
 71
3
 72
16
 73
12
 74
0
 42
0.0000001
 43
0.0000001
 44
0.0000000001
 40
0.0
 40
0.0
 40
0.0
 40
0.0
 40
0.0412932221
 40
0.0834204113
 40
0.172974002
 40
0.2737595229
 40
0.3886823477
 40
0.5190284041
 40
0.6649217671
 40
0.8256718005
 40
1.0
 40
1.0
 40
1.0
 40
1.0
 10
15.5603761693
 20
13.3212564367
 30
0.0
 10
15.5602762687
 20
13.3212564328
 30
0.0
 10
15.5600741033
 20
13.3212405119
 30
0.0
 10
15.5596654683
 20
13.3211439912
 30
0.0
 10
15.5591534843
 20
13.3208939078
 30
0.0
 10
15.558580406
 20
13.3204203965
 30
0.0
 10
15.5580380865
 20
13.3197780578
 30
0.0
 10
15.5575317505
 20
13.3189758508
 30
0.0
 10
15.5570670067
 20
13.3180244064
 30
0.0
 10
15.5566501062
 20
13.3169367438
 30
0.0
 10
15.5564166205
 20
13.3161596636
 30
0.0
 10
15.5563078324
 20
13.3157521836
 30
0.0
  0
SPLINE
  5
2DE
100
AcDbEntity
  8
LAYER_CUT_FEAT
100
AcDbSpline
 62
7
  6
CONTINUOUS
 70
0
 71
3
 72
9
 73
5
 74
0
 42
0.0000001
 43
0.0000001
 44
0.0000000001
 40
0.0
 40
0.0
 40
0.0
 40
0.0
 40
0.5071181818
 40
1.0
 40
1.0
 40
1.0
 40
1.0
 10
15.5610787874
 20
13.266668766
 30
0.0
 10
15.5611018563
 20
13.2676057201
 30
0.0
 10
15.5610698364
 20
13.269455996
 30
0.0
 10
15.560881387
 20
13.2712973467
 30
0.0
 10
15.5607450836
 20
13.2721980182
 30
0.0
  0
SPLINE
  5
2DF
100
AcDbEntity
  8
LAYER_CUT_FEAT
100
AcDbSpline
 62
7
  6
CONTINUOUS
 70
0
 71
3
 72
10
 73
6
 74
0
 42
0.0000001
 43
0.0000001
 44
0.0000000001
 40
0.0
 40
0.0
 40
0.0
 40
0.0
 40
0.5177096381
 40
0.7638299911
 40
1.0
 40
1.0
 40
1.0
 40
1.0
 10
15.5607450836
 20
13.2721980182
 30
0.0
 10
15.5603269401
 20
13.2749610437
 30
0.0
 10
15.5595784742
 20
13.2790202507
 30
0.0
 10
15.558298756
 20
13.2842651361
 30
0.0
 10
15.5575794055
 20
13.2867680992
 30
0.0
 10
15.5571996468
 20
13.2879850161
 30
0.0
  0
SPLINE
  5
2E0
100
AcDbEntity
  8
02___PRT_ALL_AXES
100
AcDbSpline
 62
7
  6
CONTINUOUS
 70
0
 71
3
 72
15
 73
11
 74
0
 42
0.0000001
 43
0.0000001
 44
0.0000000001
 40
0.0
 40
0.0
 40
0.0
 40
0.0
 40
0.1348101753
 40
0.2656296576
 40
0.3929780848
 40
0.5174479549
 40
0.6396811814
 40
0.7603661579
 40
0.8802254652
 40
1.0
 40
1.0
 40
1.0
 40
1.0
 10
15.7278781262
 20
11.822233251
 30
0.0
 10
15.7249438134
 20
11.8204103563
 30
0.0
 10
15.7190441898
 20
11.8170034278
 30
0.0
 10
15.7099869013
 20
11.8125836308
 30
0.0
 10
15.7008731601
 20
11.8089420194
 30
0.0
 10
15.6917138216
 20
11.8060838728
 30
0.0
 10
15.6825193605
 20
11.8040132712
 30
0.0
 10
15.6733005944
 20
11.8027334171
 30
0.0
 10
15.6640697003
 20
11.8022462825
 30
0.0
 10
15.6579237161
 20
11.8024503712
 30
0.0
 10
15.6548633734
 20
11.8026828099
 30
0.0
  0
SPLINE
  5
2E1
100
AcDbEntity
  8
LAYER_CUT_FEAT
100
AcDbSpline
 62
7
  6
CONTINUOUS
 70
0
 71
3
 72
15
 73
11
 74
0
 42
0.0000001
 43
0.0000001
 44
0.0000000001
 40
0.0
 40
0.0
 40
0.0
 40
0.0
 40
0.0858517463
 40
0.1774223729
 40
0.2792242515
 40
0.3941408117
 40
0.5236359598
 40
0.6681074693
 40
0.8272050169
 40
1.0
 40
1.0
 40
1.0
 40
1.0
 10
15.5832351187
 20
13.4064447766
 30
0.0
 10
15.5830486141
 20
13.4064447822
 30
0.0
 10
15.5826612384
 20
13.4063868
 30
0.0
 10
15.5821029387
 20
13.4061344893
 30
0.0
 10
15.5815662929
 20
13.4057262966
 30
0.0
 10
15.5810552656
 20
13.4051703825
 30
0.0
 10
15.5805734492
 20
13.4044738798
 30
0.0
 10
15.5801255221
 20
13.4036448358
 30
0.0
 10
15.5797165225
 20
13.4026930302
 30
0.0
 10
15.5794820851
 20
13.4020104917
 30
0.0
 10
15.5793712551
 20
13.4016518455
 30
0.0
  0
SPLINE
  5
2E2
100
AcDbEntity
  8
02___PRT_ALL_AXES
100
AcDbSpline
 62
7
  6
CONTINUOUS
 70
0
 71
3
 72
21
 73
17
 74
0
 42
0.0000001
 43
0.0000001
 44
0.0000000001
 40
0.0
 40
0.0
 40
0.0
 40
0.0
 40
0.1654436898
 40
0.3205956403
 40
0.3939575761
 40
0.4643418131
 40
0.5316545541
 40
0.5958263169
 40
0.6568168252
 40
0.7146193899
 40
0.7692663739
 40
0.8208362253
 40
0.8694618181
 40
0.9153390475
 40
0.9587358507
 40
1.0
 40
1.0
 40
1.0
 40
1.0
 10
15.6456998457
 20
13.217642336
 30
0.0
 10
15.6449659033
 20
13.2207665719
 30
0.0
 10
15.6433840334
 20
13.226784815
 30
0.0
 10
15.6409955947
 20
13.2340502114
 30
0.0
 10
15.6388931005
 20
13.2394548891
 30
0.0
 10
15.6372643694
 20
13.2432122937
 30
0.0
 10
15.6355591318
 20
13.2467387186
 30
0.0
 10
15.6337822095
 20
13.2500240146
 30
0.0
 10
15.6319386799
 20
13.2530587478
 30
0.0
 10
15.6300337299
 20
13.255834236
 30
0.0
 10
15.6280726321
 20
13.2583425336
 30
0.0
 10
15.6260606819
 20
13.2605764307
 30
0.0
 10
15.6240032618
 20
13.262529419
 30
0.0
 10
15.6219055634
 20
13.2641956752
 30
0.0
 10
15.6197734338
 20
13.265569642
 30
0.0
 10
15.6182995502
 20
13.2663038723
 30
0.0
 10
15.6175624032
 20
13.2666158431
 30
0.0
  0
SPLINE
  5
2E3
100
AcDbEntity
  8
LAYER_CHAMFER_FEAT
100
AcDbSpline
 62
7
  6
CONTINUOUS
 70
0
 71
3
 72
78
 73
74
 74
0
 42
0.0000001
 43
0.0000001
 44
0.0000000001
 40
0.0
 40
0.0
 40
0.0
 40
0.0
 40
0.0113885098
 40
0.0222284429
 40
0.0325470613
 40
0.0423805933
 40
0.051775176
 40
0.0607875567
 40
0.0651725854
 40
0.0694883037
 40
0.073744749
 40
0.0779525102
 40
0.0821226481
 40
0.0862666029
 40
0.0903960879
 40
0.0945229683
 40
0.0986591377
 40
0.1028163916
 40
0.1070063021
 40
0.1112401109
 40
0.1155286207
 40
0.1198821218
 40
0.1288195135
 40
0.1381252415
 40
0.1478584257
 40
0.1580674779
 40
0.1687907192
 40
0.1800572876
 40
0.1918881443
 40
0.2042970609
 40
0.2172915255
 40
0.2308735418
 40
0.2450403188
 40
0.2597848598
 40
0.275096461
 40
0.2909611357
 40
0.3073619767
 40
0.3242794668
 40
0.3416917489
 40
0.3595748625
 40
0.377902954
 40
0.3966484663
 40
0.4157823098
 40
0.4352740213
 40
0.4550919113
 40
0.4752032025
 40
0.4955741622
 40
0.5161702286
 40
0.5369561328
 40
0.5578960179
 40
0.578953555
 40
0.6000920578
 40
0.6212745956
 40
0.6424641051
 40
0.6636235021
 40
0.6847157931
 40
0.7057041868
 40
0.7265522067
 40
0.7472238051
 40
0.7676834781
 40
0.7878963838
 40
0.807828463
 40
0.8274465641
 40
0.8467185729
 40
0.8656135485
 40
0.8841018671
 40
0.9021553763
 40
0.919747561
 40
0.9368537274
 40
0.9534511954
 40
0.9695195586
 40
0.9850408393
 40
1.0
 40
1.0
 40
1.0
 40
1.0
 10
15.8267204334
 20
11.2993841807
 30
0.0
 10
15.8336900364
 20
11.2910342409
 30
0.0
 10
15.8477607372
 20
11.275117588
 30
0.0
 10
15.8698161719
 20
11.2531822225
 30
0.0
 10
15.8922491541
 20
11.2338312489
 30
0.0
 10
15.9150170573
 20
11.2171072665
 30
0.0
 10
15.9380750464
 20
11.2030487285
 30
0.0
 10
15.9576767714
 20
11.1934956724
 30
0.0
 10
15.9734141582
 20
11.1872723536
 30
0.0
 10
15.9851504154
 20
11.1833301902
 30
0.0
 10
15.9969196527
 20
11.1800740602
 30
0.0
 10
16.0087158973
 20
11.1775057152
 30
0.0
 10
16.0205327791
 20
11.1756267587
 30
0.0
 10
16.0323639489
 20
11.1744383675
 30
0.0
 10
16.0442029783
 20
11.1739412283
 30
0.0
 10
16.0560434203
 20
11.1741357352
 30
0.0
 10
16.0678788244
 20
11.1750216644
 30
0.0
 10
16.0797027397
 20
11.1765985729
 30
0.0
 10
16.0915088084
 20
11.1788653769
 30
0.0
 10
16.1032906017
 20
11.1818207556
 30
0.0
 10
16.1150421587
 20
11.1854630065
 30
0.0
 10
16.1307975529
 20
11.1912819965
 30
0.0
 10
16.1504326206
 20
11.2003313824
 30
0.0
 10
16.1735485271
 20
11.2138020985
 30
0.0
 10
16.196383994
 20
11.2299461277
 30
0.0
 10
16.2188936912
 20
11.2487255864
 30
0.0
 10
16.2410357681
 20
11.2700997359
 30
0.0
 10
16.2627679578
 20
11.2940236071
 30
0.0
 10
16.2840484498
 20
11.3204479109
 30
0.0
 10
16.3048356664
 20
11.3493186909
 30
0.0
 10
16.3250884993
 20
11.3805772013
 30
0.0
 10
16.3447664702
 20
11.4141598577
 30
0.0
 10
16.3638299227
 20
11.4499982747
 30
0.0
 10
16.3822401899
 20
11.4880193553
 30
0.0
 10
16.3999597468
 20
11.528145419
 30
0.0
 10
16.4169523424
 20
11.5702943551
 30
0.0
 10
16.4331831174
 20
11.6143797947
 30
0.0
 10
16.4486187066
 20
11.6603112954
 30
0.0
 10
16.4632273317
 20
11.707994536
 30
0.0
 10
16.4769788833
 20
11.7573315203
 30
0.0
 10
16.4898449948
 20
11.8082207881
 30
0.0
 10
16.5017991096
 20
11.8605576325
 30
0.0
 10
16.5128165422
 20
11.9142343228
 30
0.0
 10
16.5228745337
 20
11.9691403325
 30
0.0
 10
16.5319523019
 20
12.0251625724
 30
0.0
 10
16.5400310865
 20
12.0821856287
 30
0.0
 10
16.5470941895
 20
12.1400920041
 30
0.0
 10
16.5531270105
 20
12.1987623642
 30
0.0
 10
16.5581170781
 20
12.258075786
 30
0.0
 10
16.5620540756
 20
12.31791001
 30
0.0
 10
16.5649298639
 20
12.3781416942
 30
0.0
 10
16.5667384978
 20
12.4386466715
 30
0.0
 10
16.5674762384
 20
12.4993002071
 30
0.0
 10
16.5671415606
 20
12.5599772578
 30
0.0
 10
16.5657351564
 20
12.6205527317
 30
0.0
 10
16.5632599337
 20
12.6809017479
 30
0.0
 10
16.5597210098
 20
12.7408998958
 30
0.0
 10
16.5551257011
 20
12.8004234934
 30
0.0
 10
16.5494835076
 20
12.8593498443
 30
0.0
 10
16.5428060929
 20
12.9175574933
 30
0.0
 10
16.5351072599
 20
12.9749264788
 30
0.0
 10
16.5264029214
 20
13.0313385835
 30
0.0
 10
16.5167110671
 20
13.0866775814
 30
0.0
 10
16.5060517246
 20
13.1408294816
 30
0.0
 10
16.4944469157
 20
13.193682767
 30
0.0
 10
16.4819206085
 20
13.2451286289
 30
0.0
 10
16.4684986623
 20
13.2950611988
 30
0.0
 10
16.4542087744
 20
13.3433777678
 30
0.0
 10
16.4390803975
 20
13.3899790242
 30
0.0
 10
16.4231447236
 20
13.4347691988
 30
0.0
 10
16.4064344274
 20
13.4776565368
 30
0.0
 10
16.3889841836
 20
13.5185524181
 30
0.0
 10
16.3766496373
 20
13.5449279963
 30
0.0
 10
16.370355808
 20
13.5577534719
 30
0.0
  0
SPLINE
  5
2E4
100
AcDbEntity
  8
LAYER_CUT_FEAT
100
AcDbSpline
 62
7
  6
CONTINUOUS
 70
0
 71
3
 72
37
 73
33
 74
0
 42
0.0000001
 43
0.0000001
 44
0.0000000001
 40
0.0
 40
0.0
 40
0.0
 40
0.0
 40
0.0216124409
 40
0.0433134585
 40
0.0651902943
 40
0.0873276081
 40
0.1098063618
 40
0.1327029132
 40
0.1560883489
 40
0.1800280056
 40
0.2045812146
 40
0.2298012599
 40
0.2557354342
 40
0.2824252018
 40
0.309906498
 40
0.3382100247
 40
0.3673615449
 40
0.3973822684
 40
0.4282891853
 40
0.4600953396
 40
0.4928101746
 40
0.5264398271
 40
0.5609873374
 40
0.5964529148
 40
0.6328341808
 40
0.670126319
 40
0.7083222689
 40
0.7474129102
 40
0.7873871744
 40
0.828232261
 40
0.912471249
 40
1.0
 40
1.0
 40
1.0
 40
1.0
 10
16.0467938224
 20
14.0055398356
 30
0.0
 10
16.0415295934
 20
14.0055398326
 30
0.0
 10
16.030975895
 20
14.0051716566
 30
0.0
 10
16.0151716483
 20
14.0035165235
 30
0.0
 10
15.9993916365
 20
14.0007597512
 30
0.0
 10
15.9836491833
 20
13.9969038761
 30
0.0
 10
15.9679561034
 20
13.9919524285
 30
0.0
 10
15.9523243111
 20
13.9859098094
 30
0.0
 10
15.9367654051
 20
13.9787811628
 30
0.0
 10
15.9212907835
 20
13.9705724068
 30
0.0
 10
15.9059116287
 20
13.9612901926
 30
0.0
 10
15.8906389904
 20
13.9509418082
 30
0.0
 10
15.8754837888
 20
13.9395352271
 30
0.0
 10
15.8604568057
 20
13.9270791391
 30
0.0
 10
15.8455687556
 20
13.9135828787
 30
0.0
 10
15.8308302789
 20
13.8990564646
 30
0.0
 10
15.8162518938
 20
13.8835106557
 30
0.0
 10
15.8018440541
 20
13.8669568883
 30
0.0
 10
15.7876171415
 20
13.8494072918
 30
0.0
 10
15.7735813969
 20
13.8308747396
 30
0.0
 10
15.7597469642
 20
13.8113727986
 30
0.0
 10
15.7461238929
 20
13.7909157204
 30
0.0
 10
15.7327220675
 20
13.7695184794
 30
0.0
 10
15.7195512321
 20
13.7471967373
 30
0.0
 10
15.7066210078
 20
13.7239668176
 30
0.0
 10
15.6939408328
 20
13.6998457291
 30
0.0
 10
15.6815199569
 20
13.6748511415
 30
0.0
 10
15.6693675066
 20
13.6490013753
 30
0.0
 10
15.6574922976
 20
13.6223153063
 30
0.0
 10
15.6418798
 20
13.5852641617
 30
0.0
 10
15.6231506838
 20
13.5369693324
 30
0.0
 10
15.6093995153
 20
13.4974460453
 30
0.0
 10
15.602717554
 20
13.4772004964
 30
0.0
  0
SPLINE
  5
2E5
100
AcDbEntity
  8
LAYER_CUT_FEAT
100
AcDbSpline
 62
7
  6
CONTINUOUS
 70
0
 71
3
 72
11
 73
7
 74
0
 42
0.0000001
 43
0.0000001
 44
0.0000000001
 40
0.0
 40
0.0
 40
0.0
 40
0.0
 40
0.241303268
 40
0.4861931612
 40
0.7380893421
 40
1.0
 40
1.0
 40
1.0
 40
1.0
 10
15.5279908549
 20
13.1384102085
 30
0.0
 10
15.5283958067
 20
13.138410211
 30
0.0
 10
15.5292127403
 20
13.1384650459
 30
0.0
 10
15.5304301638
 20
13.1387107793
 30
0.0
 10
15.5316395094
 20
13.1391188385
 30
0.0
 10
15.5324203753
 20
13.1394895387
 30
0.0
 10
15.532806974
 20
13.1396986615
 30
0.0
  0
SPLINE
  5
2E6
100
AcDbEntity
  8
LAYER_CHAMFER_FEAT
100
AcDbSpline
 62
7
  6
CONTINUOUS
 70
0
 71
3
 72
40
 73
36
 74
0
 42
0.0000001
 43
0.0000001
 44
0.0000000001
 40
0.0
 40
0.0
 40
0.0
 40
0.0
 40
0.0439503602
 40
0.0865555438
 40
0.1278039716
 40
0.1676916592
 40
0.2062199282
 40
0.2433975299
 40
0.2792409217
 40
0.3137752509
 40
0.3470352658
 40
0.3790663135
 40
0.4099253845
 40
0.4396821332
 40
0.468419804
 40
0.4962359283
 40
0.5232426421
 40
0.5495664625
 40
0.5753473441
 40
0.600736891
 40
0.6258956913
 40
0.6509898756
 40
0.6761871598
 40
0.7016527357
 40
0.7275454055
 40
0.7540143037
 40
0.7811964223
 40
0.8092150243
 40
0.8235746305
 40
0.8381829088
 40
0.8681862215
 40
0.8993090425
 40
0.9316180342
 40
0.965167415
 40
1.0
 40
1.0
 40
1.0
 40
1.0
 10
16.370355808
 20
13.5577534719
 30
0.0
 10
16.3657232911
 20
13.5671935489
 30
0.0
 10
16.3563423552
 20
13.5856598909
 30
0.0
 10
16.3416839724
 20
13.612500846
 30
0.0
 10
16.3266723857
 20
13.6380251737
 30
0.0
 10
16.3113256124
 20
13.6622021784
 30
0.0
 10
16.2956615631
 20
13.6850032976
 30
0.0
 10
16.279698653
 20
13.7064014023
 30
0.0
 10
16.2634554728
 20
13.7263710787
 30
0.0
 10
16.2469508661
 20
13.7448885577
 30
0.0
 10
16.2302038563
 20
13.7619317153
 30
0.0
 10
16.2132336316
 20
13.77748004
 30
0.0
 10
16.1960595404
 20
13.7915145945
 30
0.0
 10
16.1787011097
 20
13.8040179626
 30
0.0
 10
16.1611781112
 20
13.8149742109
 30
0.0
 10
16.1435106651
 20
13.8243688602
 30
0.0
 10
16.1257193814
 20
13.8321888904
 30
0.0
 10
16.1078255329
 20
13.8384228368
 30
0.0
 10
16.0898512048
 20
13.8430609891
 30
0.0
 10
16.0718193608
 20
13.8460956834
 30
0.0
 10
16.0537537686
 20
13.84752167
 30
0.0
 10
16.0356787454
 20
13.8473364095
 30
0.0
 10
16.0176187761
 20
13.8455402391
 30
0.0
 10
15.999598073
 20
13.8421363434
 30
0.0
 10
15.9816402628
 20
13.837130571
 30
0.0
 10
15.963768
 20
13.8305310015
 30
0.0
 10
15.9460036075
 20
13.8223480422
 30
0.0
 10
15.9314268883
 20
13.8142852866
 30
0.0
 10
15.9198483527
 20
13.8070815784
 30
0.0
 10
15.9081216168
 20
13.7992315467
 30
0.0
 10
15.8935623644
 20
13.7884227088
 30
0.0
 10
15.8764337702
 20
13.7740387873
 30
0.0
 10
15.8595130003
 20
13.7581449146
 30
0.0
 10
15.8428203066
 20
13.7407612364
 30
0.0
 10
15.832060833
 20
13.7284268939
 30
0.0
 10
15.8267204335
 20
13.7220288241
 30
0.0
  0
SPLINE
  5
2E7
100
AcDbEntity
  8
LAYER_CHAMFER_FEAT
100
AcDbSpline
 62
7
  6
CONTINUOUS
 70
0
 71
3
 72
62
 73
58
 74
0
 42
0.0000001
 43
0.0000001
 44
0.0000000001
 40
0.0
 40
0.0
 40
0.0
 40
0.0
 40
0.0077261364
 40
0.0155162145
 40
0.0234322531
 40
0.0315326512
 40
0.0398708802
 40
0.048494639
 40
0.0574454516
 40
0.0667586307
 40
0.0764635036
 40
0.0865838007
 40
0.0971381268
 40
0.108140456
 40
0.1196006134
 40
0.1315247237
 40
0.1439156147
 40
0.1567731769
 40
0.170094677
 40
0.1838750324
 40
0.1981070485
 40
0.2127816269
 40
0.2278879456
 40
0.243413618
 40
0.2593448336
 40
0.2756664828
 40
0.2923622687
 40
0.3094148088
 40
0.3268057277
 40
0.3445157425
 40
0.3625247421
 40
0.3808118621
 40
0.3993555549
 40
0.4181336571
 40
0.4563004843
 40
0.4951264184
 40
0.5344182484
 40
0.573978642
 40
0.6136079193
 40
0.653105802
 40
0.6922731555
 40
0.7309137426
 40
0.7688360097
 40
0.7874703189
 40
0.8058563054
 40
0.8239721827
 40
0.841796822
 40
0.8593098214
 40
0.8764915781
 40
0.8933233668
 40
0.9097874212
 40
0.9258670273
 40
0.941546612
 40
0.9568118782
 40
0.9716498486
 40
0.9860491868
 40
1.0
 40
1.0
 40
1.0
 40
1.0
 10
16.0283726025
 20
11.194039836
 30
0.0
 10
16.0349773027
 20
11.1940398374
 30
0.0
 10
16.048250633
 20
11.1947004336
 30
0.0
 10
16.0680914749
 20
11.1976666535
 30
0.0
 10
16.0878664921
 20
11.202602619
 30
0.0
 10
16.1075410503
 20
11.2094974536
 30
0.0
 10
16.1270854384
 20
11.2183370641
 30
0.0
 10
16.1464705171
 20
11.229104761
 30
0.0
 10
16.1656685434
 20
11.2417816427
 30
0.0
 10
16.1846524828
 20
11.256346747
 30
0.0
 10
16.203395809
 20
11.2727770371
 30
0.0
 10
16.2218722933
 20
11.2910473037
 30
0.0
 10
16.2400559261
 20
11.3111300472
 30
0.0
 10
16.2579209016
 20
11.3329953752
 30
0.0
 10
16.275441652
 20
11.3566109326
 30
0.0
 10
16.2925929048
 20
11.3819418642
 30
0.0
 10
16.3093497523
 20
11.4089508081
 30
0.0
 10
16.3256877203
 20
11.4375979136
 30
0.0
 10
16.3415828355
 20
11.4678408783
 30
0.0
 10
16.3570116874
 20
11.4996349976
 30
0.0
 10
16.3719514852
 20
11.5329332253
 30
0.0
 10
16.3863801093
 20
11.5676862417
 30
0.0
 10
16.4002761584
 20
11.6038425271
 30
0.0
 10
16.413618992
 20
11.6413484409
 30
0.0
 10
16.4263887695
 20
11.6801483034
 30
0.0
 10
16.4385664863
 20
11.7201844824
 30
0.0
 10
16.4501340069
 20
11.7613974809
 30
0.0
 10
16.4610740954
 20
11.8037260291
 30
0.0
 10
16.471370445
 20
11.8471071782
 30
0.0
 10
16.4810077028
 20
11.8914763927
 30
0.0
 10
16.4899715011
 20
11.9367676641
 30
0.0
 10
16.4982484499
 20
11.9829135535
 30
0.0
 10
16.5058262755
 20
12.0298455122
 30
0.0
 10
16.5150319999
 20
12.0937196598
 30
0.0
 10
16.5246894496
 20
12.1750338142
 30
0.0
 10
16.5332753319
 20
12.2740841569
 30
0.0
 10
16.5388682803
 20
12.3745417089
 30
0.0
 10
16.5414348043
 20
12.4758085668
 30
0.0
 10
16.5409595138
 20
12.5772829547
 30
0.0
 10
16.5374452599
 20
12.6783614823
 30
0.0
 10
16.5309131145
 20
12.7784435254
 30
0.0
 10
16.5214021953
 20
12.8769334359
 30
0.0
 10
16.5109819698
 20
12.9576592198
 30
0.0
 10
16.5011754614
 20
13.0209716352
 30
0.0
 10
16.4931594999
 20
13.0674207649
 30
0.0
 10
16.4844520102
 20
13.1130407757
 30
0.0
 10
16.4750659032
 20
13.1577639079
 30
0.0
 10
16.465015199
 20
13.2015235768
 30
0.0
 10
16.4543148797
 20
13.2442546906
 30
0.0
 10
16.4429808982
 20
13.2858936914
 30
0.0
 10
16.4310301446
 20
13.3263786707
 30
0.0
 10
16.4184804196
 20
13.365649448
 30
0.0
 10
16.4053504039
 20
13.4036477018
 30
0.0
 10
16.3916596398
 20
13.4403169442
 30
0.0
 10
16.3774284163
 20
13.4756029456
 30
0.0
 10
16.3626780583
 20
13.5094528576
 30
0.0
 10
16.352347119
 20
13.5313806981
 30
0.0
 10
16.3470932617
 20
13.5420869337
 30
0.0
  0
ENDSEC
  0
SECTION
  2
OBJECTS
  0
DICTIONARY
  5
C
100
AcDbDictionary
280
0
281
1
  3
ACAD_GROUP
350
D
  3
ACAD_MLINESTYLE
350
17
  3
ACAD_LAYOUT
350
1A
  3
ACAD_PLOTSETTINGS
350
19
  3
ACAD_PLOTSTYLENAME
350
E
  0
DICTIONARY
  5
D
102
{ACAD_REACTORS
330
C
102
}
100
AcDbDictionary
280
0
281
1
  0
ACDBDICTIONARYWDFLT
  5
E
102
{ACAD_REACTORS
330
C
102
}
100
AcDbDictionary
281
1
  3
Normal
350
F
100
AcDbDictionaryWithDefault
340
F
  0
DICTIONARY
  5
17
102
{ACAD_REACTORS
330
C
102
}
100
AcDbDictionary
280
0
281
1
  3
Standard
350
18
  0
DICTIONARY
  5
19
102
{ACAD_REACTORS
330
C
102
}
100
AcDbDictionary
281
1
  0
DICTIONARY
  5
1A
102
{ACAD_REACTORS
330
C
102
}
100
AcDbDictionary
281
1
  3
Model
350
2E8
  3
Layout1
350
2E9
  0
ACDBPLACEHOLDER
  5
F
102
{ACAD_REACTORS
330
E
102
}
  0
MLINESTYLE
  5
18
102
{ACAD_REACTORS
330
17
102
}
100
AcDbMlineStyle
  2
STANDARD
 70
0
  3

 62
256
 51
90.0
 52
90.0
 71
2
 49
0.5
 62
256
  6
BYLAYER
 49
-0.5
 62
256
  6
BYLAYER
  0
LAYOUT
  5
2E8
102
{ACAD_REACTORS
330
1A
102
}
100
AcDbPlotSettings
  1

  2
none_device
  4
ANSI_C_(22.00_x_17.00_Inches)
  6

 40
0.0
 41
0.0
 42
0.0
 43
0.0
 44
558.8
 45
431.8
 46
0.0
 47
0.0
 48
0.0
 49
0.0
140
0.0
141
0.0
142
1.0
143
1.0
 70
1024
 72
0
 73
0
 74
0
  7

 75
0
147
1.0
148
0.0
149
0.0
100
AcDbLayout
  1
Model
 70
0
 71
0
 10
0.0
 20
0.0
 11
22.0
 21
17.0
 12
0.0
 22
0.0
 32
0.0
 14
0.0
 24
0.0
 34
0.0
 15
0.0
 25
0.0
 35
0.0
146
0.0
 13
0.0
 23
0.0
 33
0.0
 16
1.0
 26
0.0
 36
0.0
 17
0.0
 27
1.0
 37
0.0
 76
0
330
222
345
0
346
0
  0
LAYOUT
  5
2E9
102
{ACAD_REACTORS
330
1A
102
}
100
AcDbPlotSettings
  1

  2
none_device
  4
ANSI_C_(22.00_x_17.00_Inches)
  6

 40
0.0
 41
0.0
 42
0.0
 43
0.0
 44
558.8
 45
431.8
 46
0.0
 47
0.0
 48
0.0
 49
0.0
140
0.0
141
0.0
142
1.0
143
1.0
 70
0
 72
0
 73
0
 74
0
  7

 75
0
147
1.0
148
0.0
149
0.0
100
AcDbLayout
  1
Layout1
 70
0
 71
1
 10
0.0
 20
0.0
 11
22.0
 21
17.0
 12
0.0
 22
0.0
 32
0.0
 14
0.0
 24
0.0
 34
0.0
 15
0.0
 25
0.0
 35
0.0
146
0.0
 13
0.0
 23
0.0
 33
0.0
 16
1.0
 26
0.0
 36
0.0
 17
0.0
 27
1.0
 37
0.0
 76
0
330
223
345
0
346
0
  0
ENDSEC
  0
EOF