999
DXF file: _cgs_temp_output.dxf
999
Pro/ENGINEER 2016360 by Parametric Technology Corporation
  0
SECTION
  2
HEADER
  9
$ACADVER
  1
AC1021
  9
$DWGCODEPAGE
  3
ANSI_1252
  9
$EXTMAX
 10
22.0
 20
17.0
 30
0.0
  9
$EXTMIN
 10
0.0
 20
0.0
 30
0.0
  9
$LIMMIN
 10
0.0
 20
0.0
  9
$LIMMAX
 10
22.0
 20
17.0
  9
$VIEWCTR
 10
11.0
 20
8.5
  9
$VIEWSIZE
 40
17.0
  9
$CLAYER
  8
0
  9
$LTSCALE
 40
1.21
  9
$CELTYPE
  6
BYLAYER
  9
$DIMSCALE
 40
1.0
  9
$DIMASZ
 40
0.1875
  9
$DIMEXO
 40
0.0625
  9
$DIMDLI
 40
0.836
  9
$DIMEXE
 40
0.125
  9
$DIMCEN
 40
0.198
  9
$DIMLFAC
 40
1.0
  9
$DIMBLK
  1
_CLOSED
  9
$DIMALT
 70
0
  9
$DIMALTF
 40
25.4
  9
$DIMTXT
 40
0.15625
  9
$DIMTOL
 70
0
  9
$DIMLIM
 70
0
  9
$DIMTFAC
 40
1.0
  9
$DIMGAP
 40
0.09
  9
$DIMDSEP
 70
46
  9
$AUNITS
 70
0
  9
$PDMODE
 70
3
  9
$PDSIZE
 40
0.3125
  9
$HANDSEED
  5
47F
  9
$TILEMODE
 70
1
  9
$MEASUREMENT
 70
0
  9
$INSUNITS
 70
1
  0
ENDSEC
  0
SECTION
  2
CLASSES
  0
CLASS
  1
ACDBDICTIONARYWDFLT
  2
AcDbDictionaryWithDefault
  3
AutoCAD 2000
 90
0
 91
1
280
0
281
0
  0
CLASS
  1
ACDBPLACEHOLDER
  2
AcDbPlaceHolder
  3
AutoCAD 2000
 90
0
 91
1
280
0
281
0
  0
CLASS
  1
LAYOUT
  2
AcDbLayout
  3
AutoCAD 2000
 90
0
 91
0
280
0
281
0
  0
ENDSEC
  0
SECTION
  2
TABLES
  0
TABLE
  2
VPORT
  5
8
100
AcDbSymbolTable
 70
2
  0
VPORT
  5
1F4
100
AcDbSymbolTableRecord
100
AcDbViewportTableRecord
  2
*ACTIVE
 70
0
 10
0.0
 20
0.0
 11
1.0
 21
1.0
 12
11.0
 22
8.5
 13
0.0
 23
0.0
 14
1.0
 24
1.0
 15
0.0
 25
0.0
 16
0.0
 26
0.0
 36
1.0
 17
0.0
 27
0.0
 37
0.0
 40
17.0
 41
1.2941176471
 42
50.0
 43
0.0
 44
0.0
 50
0.0
 51
0.0
 71
0
 72
100
 73
1
 74
1
 75
0
 76
0
 77
0
 78
0
  0
ENDTAB
  0
TABLE
  2
LTYPE
  5
5
100
AcDbSymbolTable
 70
6
  0
LTYPE
  5
14
100
AcDbSymbolTableRecord
100
AcDbLinetypeTableRecord
  2
BYBLOCK
 70
0
  3

 72
65
 73
0
 40
0.0
  0
LTYPE
  5
15
100
AcDbSymbolTableRecord
100
AcDbLinetypeTableRecord
  2
BYLAYER
 70
0
  3

 72
65
 73
0
 40
0.0
  0
LTYPE
  5
16
100
AcDbSymbolTableRecord
100
AcDbLinetypeTableRecord
  2
CONTINUOUS
 70
64
  3
Solid line
 72
65
 73
0
 40
0.0
  0
LTYPE
  5
1F5
100
AcDbSymbolTableRecord
100
AcDbLinetypeTableRecord
  2
CENTER
 70
64
  3
____ _ ____ _ ____ _ ____ _ ____ _ ____ _ ____
 72
65
 73
4
 40
0.6
 49
0.375
 74
0
 49
-0.075
 74
0
 49
0.075
 74
0
 49
-0.075
 74
0
  0
LTYPE
  5
1F6
100
AcDbSymbolTableRecord
100
AcDbLinetypeTableRecord
  2
HIDDEN
 70
64
  3
- - - - - - - - - - - - - - - - - - - -
 72
65
 73
2
 40
0.2
 49
0.1
 74
0
 49
-0.1
 74
0
  0
LTYPE
  5
1F7
100
AcDbSymbolTableRecord
100
AcDbLinetypeTableRecord
  2
PHANTOM
 70
64
  3
_____ _ _ _____ _ _ _____ _ _ _____
 72
65
 73
6
 40
0.8
 49
0.45
 74
0
 49
-0.05
 74
0
 49
0.1
 74
0
 49
-0.05
 74
0
 49
0.1
 74
0
 49
-0.05
 74
0
  0
LTYPE
  5
1F8
100
AcDbSymbolTableRecord
100
AcDbLinetypeTableRecord
  2
DOT
 70
64
  3
. . . . . . . . . . . . . . . . . . . .
 72
65
 73
2
 40
0.2
 49
0.1
 74
0
 49
-0.1
 74
0
  0
LTYPE
  5
1F9
100
AcDbSymbolTableRecord
100
AcDbLinetypeTableRecord
  2
DASHED
 70
64
  3
- - - - - - - - - - - - - - - - - - - -
 72
65
 73
2
 40
0.2
 49
0.1
 74
0
 49
-0.1
 74
0
  0
ENDTAB
  0
TABLE
  2
LAYER
  5
2
100
AcDbSymbolTable
 70
36
  0
LAYER
  5
10
100
AcDbSymbolTableRecord
100
AcDbLayerTableRecord
  2
0
 70
0
 62
7
  6
CONTINUOUS
370
-3
390
F
  0
LAYER
  5
1FA
100
AcDbSymbolTableRecord
100
AcDbLayerTableRecord
  2
DEFAULT_1
 70
0
 62
7
  6
CENTER
370
-3
390
F
  0
LAYER
  5
1FB
100
AcDbSymbolTableRecord
100
AcDbLayerTableRecord
  2
DEFAULT_2
 70
0
 62
8
  6
HIDDEN
370
-3
390
F
  0
LAYER
  5
1FC
100
AcDbSymbolTableRecord
100
AcDbLayerTableRecord
  2
DEFAULT_3
 70
0
 62
7
  6
PHANTOM
370
-3
390
F
  0
LAYER
  5
1FD
100
AcDbSymbolTableRecord
100
AcDbLayerTableRecord
  2
01_ALL_DTM_PLN
 70
0
 62
7
  6
CONTINUOUS
370
-3
390
F
  0
LAYER
  5
1FE
100
AcDbSymbolTableRecord
100
AcDbLayerTableRecord
  2
01__ASM_ALL_DTM_PLN
 70
0
 62
7
  6
CONTINUOUS
370
-3
390
F
  0
LAYER
  5
1FF
100
AcDbSymbolTableRecord
100
AcDbLayerTableRecord
  2
01__ASM_DEF_DTM_PLN
 70
0
 62
7
  6
CONTINUOUS
370
-3
390
F
  0
LAYER
  5
200
100
AcDbSymbolTableRecord
100
AcDbLayerTableRecord
  2
01___PRT_ALL_DTM_PLN
 70
0
 62
7
  6
CONTINUOUS
370
-3
390
F
  0
LAYER
  5
201
100
AcDbSymbolTableRecord
100
AcDbLayerTableRecord
  2
01___PRT_DEF_DTM_PLN
 70
0
 62
7
  6
CONTINUOUS
370
-3
390
F
  0
LAYER
  5
202
100
AcDbSymbolTableRecord
100
AcDbLayerTableRecord
  2
02_ALL_AXES
 70
0
 62
7
  6
CONTINUOUS
370
-3
390
F
  0
LAYER
  5
203
100
AcDbSymbolTableRecord
100
AcDbLayerTableRecord
  2
02__ASM_ALL_AXES
 70
0
 62
7
  6
CONTINUOUS
370
-3
390
F
  0
LAYER
  5
204
100
AcDbSymbolTableRecord
100
AcDbLayerTableRecord
  2
02___PRT_ALL_AXES
 70
0
 62
7
  6
CONTINUOUS
370
-3
390
F
  0
LAYER
  5
205
100
AcDbSymbolTableRecord
100
AcDbLayerTableRecord
  2
03_ALL_CURVES
 70
0
 62
7
  6
CONTINUOUS
370
-3
390
F
  0
LAYER
  5
206
100
AcDbSymbolTableRecord
100
AcDbLayerTableRecord
  2
03__ASM_ALL_CURVES
 70
0
 62
7
  6
CONTINUOUS
370
-3
390
F
  0
LAYER
  5
207
100
AcDbSymbolTableRecord
100
AcDbLayerTableRecord
  2
03___PRT_ALL_CURVES
 70
0
 62
7
  6
CONTINUOUS
370
-3
390
F
  0
LAYER
  5
208
100
AcDbSymbolTableRecord
100
AcDbLayerTableRecord
  2
04_ALL_DTM_PNT
 70
0
 62
7
  6
CONTINUOUS
370
-3
390
F
  0
LAYER
  5
209
100
AcDbSymbolTableRecord
100
AcDbLayerTableRecord
  2
04__ASM_ALL_DTM_PNT
 70
0
 62
7
  6
CONTINUOUS
370
-3
390
F
  0
LAYER
  5
20A
100
AcDbSymbolTableRecord
100
AcDbLayerTableRecord
  2
04___PRT_ALL_DTM_PNT
 70
0
 62
7
  6
CONTINUOUS
370
-3
390
F
  0
LAYER
  5
20B
100
AcDbSymbolTableRecord
100
AcDbLayerTableRecord
  2
05_ALL_DTM_CSYS
 70
0
 62
7
  6
CONTINUOUS
370
-3
390
F
  0
LAYER
  5
20C
100
AcDbSymbolTableRecord
100
AcDbLayerTableRecord
  2
05__ASM_ALL_DTM_CSYS
 70
0
 62
7
  6
CONTINUOUS
370
-3
390
F
  0
LAYER
  5
20D
100
AcDbSymbolTableRecord
100
AcDbLayerTableRecord
  2
05__ASM_DEF_DTM_CSYS
 70
0
 62
7
  6
CONTINUOUS
370
-3
390
F
  0
LAYER
  5
20E
100
AcDbSymbolTableRecord
100
AcDbLayerTableRecord
  2
05___PRT_ALL_DTM_CSYS
 70
0
 62
7
  6
CONTINUOUS
370
-3
390
F
  0
LAYER
  5
20F
100
AcDbSymbolTableRecord
100
AcDbLayerTableRecord
  2
05___PRT_DEF_DTM_CSYS
 70
0
 62
7
  6
CONTINUOUS
370
-3
390
F
  0
LAYER
  5
210
100
AcDbSymbolTableRecord
100
AcDbLayerTableRecord
  2
06_ALL_SURFS
 70
0
 62
7
  6
CONTINUOUS
370
-3
390
F
  0
LAYER
  5
211
100
AcDbSymbolTableRecord
100
AcDbLayerTableRecord
  2
06__ASM_ALL_SURFS
 70
0
 62
7
  6
CONTINUOUS
370
-3
390
F
  0
LAYER
  5
212
100
AcDbSymbolTableRecord
100
AcDbLayerTableRecord
  2
06___PRT_ALL_SURFS
 70
0
 62
7
  6
CONTINUOUS
370
-3
390
F
  0
LAYER
  5
213
100
AcDbSymbolTableRecord
100
AcDbLayerTableRecord
  2
07__ASM_ALL_SKELETONS
 70
0
 62
7
  6
CONTINUOUS
370
-3
390
F
  0
LAYER
  5
214
100
AcDbSymbolTableRecord
100
AcDbLayerTableRecord
  2
LAYER_AXIS
 70
0
 62
7
  6
CONTINUOUS
370
-3
390
F
  0
LAYER
  5
215
100
AcDbSymbolTableRecord
100
AcDbLayerTableRecord
  2
LAYER_CHAMFER_FEAT
 70
0
 62
7
  6
CONTINUOUS
370
-3
390
F
  0
LAYER
  5
216
100
AcDbSymbolTableRecord
100
AcDbLayerTableRecord
  2
LAYER_CUT_FEAT
 70
0
 62
7
  6
CONTINUOUS
370
-3
390
F
  0
LAYER
  5
217
100
AcDbSymbolTableRecord
100
AcDbLayerTableRecord
  2
LAYER_DATUM
 70
0
 62
7
  6
CONTINUOUS
370
-3
390
F
  0
LAYER
  5
218
100
AcDbSymbolTableRecord
100
AcDbLayerTableRecord
  2
LAYER_DIM
 70
0
 62
7
  6
CONTINUOUS
370
-3
390
F
  0
LAYER
  5
219
100
AcDbSymbolTableRecord
100
AcDbLayerTableRecord
  2
LAYER_FEATURE
 70
0
 62
7
  6
CONTINUOUS
370
-3
390
F
  0
LAYER
  5
21A
100
AcDbSymbolTableRecord
100
AcDbLayerTableRecord
  2
LAYER_GEOM_FEAT
 70
0
 62
7
  6
CONTINUOUS
370
-3
390
F
  0
LAYER
  5
21B
100
AcDbSymbolTableRecord
100
AcDbLayerTableRecord
  2
LAYER_NOGEOM_FEAT
 70
0
 62
7
  6
CONTINUOUS
370
-3
390
F
  0
LAYER
  5
21C
100
AcDbSymbolTableRecord
100
AcDbLayerTableRecord
  2
LAYER_PARAMETER_DIM
 70
0
 62
7
  6
CONTINUOUS
370
-3
390
F
  0
LAYER
  5
21D
100
AcDbSymbolTableRecord
100
AcDbLayerTableRecord
  2
LAYER_PROTRUSION_FEAT
 70
0
 62
7
  6
CONTINUOUS
370
-3
390
F
  0
LAYER
  5
21E
100
AcDbSymbolTableRecord
100
AcDbLayerTableRecord
  2
LAYER_QUILT
 70
0
 62
7
  6
CONTINUOUS
370
-3
390
F
  0
LAYER
  5
21F
100
AcDbSymbolTableRecord
100
AcDbLayerTableRecord
  2
LAYER_ROUND_FEAT
 70
0
 62
7
  6
CONTINUOUS
370
-3
390
F
  0
ENDTAB
  0
TABLE
  2
STYLE
  5
3
100
AcDbSymbolTable
 70
1
  0
STYLE
  5
11
100
AcDbSymbolTableRecord
100
AcDbTextStyleTableRecord
  2
STANDARD
 70
0
 40
0.0
 41
0.8
 50
0.0
 71
0
 42
0.2
  3
txt
  4

  0
STYLE
  5
220
100
AcDbSymbolTableRecord
100
AcDbTextStyleTableRecord
  2
TEXTSTYLE_1
 70
0
 40
0.0
 41
0.8
 50
0.0
 71
0
 42
0.2
  3
gdt
  4

  0
ENDTAB
  0
TABLE
  2
VIEW
  5
6
100
AcDbSymbolTable
 70
0
  0
ENDTAB
  0
TABLE
  2
UCS
  5
7
100
AcDbSymbolTable
 70
0
  0
ENDTAB
  0
TABLE
  2
APPID
  5
9
100
AcDbSymbolTable
 70
1
  0
APPID
  5
221
100
AcDbSymbolTableRecord
100
AcDbRegAppTableRecord
  2
ACAD
 70
0
  0
ENDTAB
  0
TABLE
  2
BLOCK_RECORD
  5
1
100
AcDbSymbolTable
 70
0
  0
BLOCK_RECORD
  5
222
100
AcDbSymbolTableRecord
100
AcDbBlockTableRecord
  2
*Model_Space
  0
BLOCK_RECORD
  5
223
100
AcDbSymbolTableRecord
100
AcDbBlockTableRecord
  2
*Paper_Space
  0
ENDTAB
  0
TABLE
  2
DIMSTYLE
  5
A
100
AcDbSymbolTable
 70
1
100
AcDbDimStyleTable
 71
0
  0
DIMSTYLE
105
224
100
AcDbSymbolTableRecord
100
AcDbDimStyleTableRecord
  2
STANDARD
 70
0
  3

  4

 40
1.0
 41
0.1875
 42
0.0625
 43
0.38
 44
0.125
 45
0.0
 46
0.0
 47
0.0001
 48
0.0001
140
0.15625
141
0.09
142
0.0
143
25.4
144
1.0
145
0.0
146
1.0
147
0.09
 71
0.0
 72
0.0
 73
1
 74
1
 75
0
 76
0
 77
0
 78
4
 79
1
170
0
171
3
172
0
173
0
174
0
175
0
176
0
177
0
178
0
270
2
179
4
271
4
272
4
273
2
274
2
275
0
280
0
281
0
282
0
283
1
284
4
285
0
286
0
287
3
288
0
340
11
278
46
  0
ENDTAB
  0
ENDSEC
  0
SECTION
  2
BLOCKS
  0
BLOCK
  5
20
100
AcDbEntity
  8
0
100
AcDbBlockBegin
  2
*Model_Space
 70
0
 10
0.0
 20
0.0
 30
0.0
  3
*Model_Space
  1

  0
ENDBLK
  5
21
100
AcDbEntity
  8
0
100
AcDbBlockEnd
  0
BLOCK
  5
1C
100
AcDbEntity
  8
0
100
AcDbBlockBegin
  2
*Paper_Space
 70
0
 10
0.0
 20
0.0
 30
0.0
  3
*Paper_Space
  1

  0
ENDBLK
  5
1D
100
AcDbEntity
  8
0
100
AcDbBlockEnd
  0
ENDSEC
  0
SECTION
  2
ENTITIES
  0
MTEXT
  5
225
100
AcDbEntity
  8
0
100
AcDbMText
 62
7
  6
CONTINUOUS
  7
STANDARD
 71
1
 72
1
 10
15.9560215477
 20
0.9479130325
 30
0.0
 11
1.0
 21
0.0
 31
0.0
 44
0.9
  1
SCALE: 1:1.000
 40
0.3
 41
3.36
  0
LINE
  5
226
100
AcDbEntity
  8
0
100
AcDbLine
 62
7
  6
CONTINUOUS
 10
0.0
 20
0.0
 11
0.0
 21
17.0
  0
LINE
  5
227
100
AcDbEntity
  8
0
100
AcDbLine
 62
7
  6
CONTINUOUS
 10
0.0
 20
0.0
 11
22.0
 21
0.0
  0
LINE
  5
228
100
AcDbEntity
  8
0
100
AcDbLine
 62
7
  6
CONTINUOUS
 10
0.0
 20
17.0
 11
22.0
 21
17.0
  0
LINE
  5
229
100
AcDbEntity
  8
0
100
AcDbLine
 62
7
  6
CONTINUOUS
 10
22.0
 20
0.0
 11
22.0
 21
17.0
  0
LINE
  5
22A
100
AcDbEntity
  8
LAYER_FEATURE
100
AcDbLine
 62
7
  6
CONTINUOUS
 10
6.7733672762
 20
3.4981198968
 11
6.7086551916
 21
3.4981198968
  0
LINE
  5
22B
100
AcDbEntity
  8
LAYER_FEATURE
100
AcDbLine
 62
7
  6
CONTINUOUS
 10
5.4873672762
 20
3.4981198968
 11
5.5520793607
 21
3.4981198968
  0
LINE
  5
22C
100
AcDbEntity
  8
LAYER_FEATURE
100
AcDbLine
 62
7
  6
CONTINUOUS
 10
5.5903672762
 20
3.6644275679
 11
6.6703672762
 21
3.6644275679
  0
LINE
  5
22D
100
AcDbEntity
  8
LAYER_FEATURE
100
AcDbLine
 62
7
  6
CONTINUOUS
 10
5.5903672762
 20
3.6660294154
 11
6.6703672762
 21
3.6660294154
  0
LINE
  5
22E
100
AcDbEntity
  8
0
100
AcDbLine
 62
7
  6
CONTINUOUS
 10
5.5903672762
 20
3.6830365555
 11
6.6703672762
 21
3.6830365555
  0
LINE
  5
22F
100
AcDbEntity
  8
LAYER_FEATURE
100
AcDbLine
 62
7
  6
CONTINUOUS
 10
5.5903672762
 20
3.6831570738
 11
6.6703672762
 21
3.6831570738
  0
LINE
  5
230
100
AcDbEntity
  8
LAYER_FEATURE
100
AcDbLine
 62
7
  6
CONTINUOUS
 10
5.5903672762
 20
3.6879450663
 11
6.6703672762
 21
3.6879450663
  0
LINE
  5
231
100
AcDbEntity
  8
0
100
AcDbLine
 62
7
  6
CONTINUOUS
 10
5.5903672762
 20
3.721531976
 11
6.6703672762
 21
3.721531976
  0
LINE
  5
232
100
AcDbEntity
  8
LAYER_FEATURE
100
AcDbLine
 62
7
  6
CONTINUOUS
 10
5.5903672762
 20
3.7220127288
 11
6.6703672762
 21
3.7220127288
  0
LINE
  5
233
100
AcDbEntity
  8
LAYER_FEATURE
100
AcDbLine
 62
7
  6
CONTINUOUS
 10
5.5903672762
 20
3.729934408
 11
6.6703672762
 21
3.729934408
  0
LINE
  5
234
100
AcDbEntity
  8
0
100
AcDbLine
 62
7
  6
CONTINUOUS
 10
5.5903672762
 20
3.7794920656
 11
6.6703672762
 21
3.7794920656
  0
LINE
  5
235
100
AcDbEntity
  8
LAYER_FEATURE
100
AcDbLine
 62
7
  6
CONTINUOUS
 10
5.5903672762
 20
3.7805688222
 11
6.6703672762
 21
3.7805688222
  0
LINE
  5
236
100
AcDbEntity
  8
LAYER_FEATURE
100
AcDbLine
 62
7
  6
CONTINUOUS
 10
5.5903672762
 20
3.7915373966
 11
6.6703672762
 21
3.7915373966
  0
LINE
  5
237
100
AcDbEntity
  8
0
100
AcDbLine
 62
7
  6
CONTINUOUS
 10
5.5903672762
 20
3.8562818013
 11
6.6703672762
 21
3.8562818013
  0
LINE
  5
238
100
AcDbEntity
  8
LAYER_FEATURE
100
AcDbLine
 62
7
  6
CONTINUOUS
 10
5.5903672762
 20
3.8581838013
 11
6.6703672762
 21
3.8581838013
  0
LINE
  5
239
100
AcDbEntity
  8
LAYER_FEATURE
100
AcDbLine
 62
7
  6
CONTINUOUS
 10
5.5903672762
 20
3.8720790967
 11
6.6703672762
 21
3.8720790967
  0
LINE
  5
23A
100
AcDbEntity
  8
0
100
AcDbLine
 62
7
  6
CONTINUOUS
 10
5.5903672762
 20
3.9510598588
 11
6.6703672762
 21
3.9510598588
  0
LINE
  5
23B
100
AcDbEntity
  8
LAYER_FEATURE
100
AcDbLine
 62
7
  6
CONTINUOUS
 10
5.5903672762
 20
3.9540072999
 11
6.6703672762
 21
3.9540072999
  0
LINE
  5
23C
100
AcDbEntity
  8
LAYER_FEATURE
100
AcDbLine
 62
7
  6
CONTINUOUS
 10
5.5903672762
 20
3.9706770767
 11
6.6703672762
 21
3.9706770767
  0
LINE
  5
23D
100
AcDbEntity
  8
0
100
AcDbLine
 62
7
  6
CONTINUOUS
 10
5.5903672762
 20
4.0627878298
 11
6.6703672762
 21
4.0627878298
  0
LINE
  5
23E
100
AcDbEntity
  8
LAYER_FEATURE
100
AcDbLine
 62
7
  6
CONTINUOUS
 10
5.5903672762
 20
4.066989456
 11
6.6703672762
 21
4.066989456
  0
LINE
  5
23F
100
AcDbEntity
  8
LAYER_FEATURE
100
AcDbLine
 62
7
  6
CONTINUOUS
 10
5.5903672762
 20
4.0862510766
 11
6.6703672762
 21
4.0862510766
  0
LINE
  5
240
100
AcDbEntity
  8
0
100
AcDbLine
 62
7
  6
CONTINUOUS
 10
5.5903672762
 20
4.1902415993
 11
6.6703672762
 21
4.1902415993
  0
LINE
  5
241
100
AcDbEntity
  8
LAYER_FEATURE
100
AcDbLine
 62
7
  6
CONTINUOUS
 10
5.5903672762
 20
4.1958924132
 11
6.6703672762
 21
4.1958924132
  0
LINE
  5
242
100
AcDbEntity
  8
LAYER_FEATURE
100
AcDbLine
 62
7
  6
CONTINUOUS
 10
5.5903672762
 20
4.2175348432
 11
6.6703672762
 21
4.2175348432
  0
LINE
  5
243
100
AcDbEntity
  8
0
100
AcDbLine
 62
7
  6
CONTINUOUS
 10
5.5903672762
 20
4.3320247571
 11
6.6703672762
 21
4.3320247571
  0
LINE
  5
244
100
AcDbEntity
  8
LAYER_FEATURE
100
AcDbLine
 62
7
  6
CONTINUOUS
 10
5.5903672762
 20
4.3393038838
 11
6.6703672762
 21
4.3393038838
  0
LINE
  5
245
100
AcDbEntity
  8
LAYER_FEATURE
100
AcDbLine
 62
7
  6
CONTINUOUS
 10
5.5903672762
 20
4.3630900043
 11
6.6703672762
 21
4.3630900043
  0
LINE
  5
246
100
AcDbEntity
  8
0
100
AcDbLine
 62
7
  6
CONTINUOUS
 10
5.5903672762
 20
4.4865838973
 11
6.6703672762
 21
4.4865838973
  0
LINE
  5
247
100
AcDbEntity
  8
LAYER_FEATURE
100
AcDbLine
 62
7
  6
CONTINUOUS
 10
5.5903672762
 20
4.4956526218
 11
6.6703672762
 21
4.4956526218
  0
LINE
  5
248
100
AcDbEntity
  8
LAYER_FEATURE
100
AcDbLine
 62
7
  6
CONTINUOUS
 10
5.5903672762
 20
4.521321827
 11
6.6703672762
 21
4.521321827
  0
LINE
  5
249
100
AcDbEntity
  8
LAYER_FEATURE
100
AcDbLine
 62
7
  6
CONTINUOUS
 10
6.6703672762
 20
4.6522256376
 11
5.5903672762
 21
4.6522256376
  0
LINE
  5
24A
100
AcDbEntity
  8
LAYER_FEATURE
100
AcDbLine
 62
7
  6
CONTINUOUS
 10
5.5903672762
 20
4.6632256376
 11
6.6703672762
 21
4.6632256376
  0
LINE
  5
24B
100
AcDbEntity
  8
LAYER_FEATURE
100
AcDbLine
 62
7
  6
CONTINUOUS
 10
5.5903672762
 20
4.6904966904
 11
6.6703672762
 21
4.6904966904
  0
LINE
  5
24C
100
AcDbEntity
  8
0
100
AcDbLine
 62
7
  6
CONTINUOUS
 10
5.5903672762
 20
4.8271789972
 11
6.6703672762
 21
4.8271789972
  0
LINE
  5
24D
100
AcDbEntity
  8
LAYER_FEATURE
100
AcDbLine
 62
7
  6
CONTINUOUS
 10
5.4873672762
 20
7.5421198968
 11
5.4873672762
 21
3.4981198968
  0
LINE
  5
24E
100
AcDbEntity
  8
LAYER_FEATURE
100
AcDbLine
 62
7
  6
CONTINUOUS
 10
5.5520793607
 20
7.5421198968
 11
5.5520793607
 21
3.4981198968
  0
LINE
  5
24F
100
AcDbEntity
  8
LAYER_FEATURE
100
AcDbLine
 62
7
  6
CONTINUOUS
 10
5.5903672762
 20
4.8401869662
 11
6.6703672762
 21
4.8401869662
  0
LINE
  5
250
100
AcDbEntity
  8
LAYER_FEATURE
100
AcDbLine
 62
7
  6
CONTINUOUS
 10
5.5903672762
 20
4.8687610792
 11
6.6703672762
 21
4.8687610792
  0
LINE
  5
251
100
AcDbEntity
  8
LAYER_FEATURE
100
AcDbLine
 62
7
  6
CONTINUOUS
 10
5.5903672762
 20
7.4473539806
 11
5.5903672762
 21
3.5928858129
  0
LINE
  5
252
100
AcDbEntity
  8
0
100
AcDbLine
 62
7
  6
CONTINUOUS
 10
5.5903672762
 20
5.0095709754
 11
6.6703672762
 21
5.0095709754
  0
LINE
  5
253
100
AcDbEntity
  8
LAYER_FEATURE
100
AcDbLine
 62
7
  6
CONTINUOUS
 10
5.5903672762
 20
5.0245977823
 11
6.6703672762
 21
5.0245977823
  0
LINE
  5
254
100
AcDbEntity
  8
LAYER_FEATURE
100
AcDbLine
 62
7
  6
CONTINUOUS
 10
5.5903672762
 20
5.0541618916
 11
6.6703672762
 21
5.0541618916
  0
LINE
  5
255
100
AcDbEntity
  8
LAYER_FEATURE
100
AcDbLine
 62
7
  6
CONTINUOUS
 10
5.5903672762
 20
5.2144376424
 11
6.6703672762
 21
5.2144376424
  0
LINE
  5
256
100
AcDbEntity
  8
LAYER_FEATURE
100
AcDbLine
 62
7
  6
CONTINUOUS
 10
5.5903672762
 20
5.2446678374
 11
6.6703672762
 21
5.2446678374
  0
LINE
  5
257
100
AcDbEntity
  8
LAYER_FEATURE
100
AcDbLine
 62
7
  6
CONTINUOUS
 10
6.7086551916
 20
7.5421198968
 11
6.6703672762
 21
7.4473539806
  0
LINE
  5
258
100
AcDbEntity
  8
LAYER_FEATURE
100
AcDbLine
 62
7
  6
CONTINUOUS
 10
6.7086551916
 20
3.4981198968
 11
6.6703672762
 21
3.5928858129
  0
LINE
  5
259
100
AcDbEntity
  8
LAYER_FEATURE
100
AcDbLine
 62
7
  6
CONTINUOUS
 10
5.5903672762
 20
5.4076266213
 11
6.6703672762
 21
5.4076266213
  0
LINE
  5
25A
100
AcDbEntity
  8
LAYER_FEATURE
100
AcDbLine
 62
7
  6
CONTINUOUS
 10
5.5903672762
 20
5.4381916935
 11
6.6703672762
 21
5.4381916935
  0
LINE
  5
25B
100
AcDbEntity
  8
LAYER_FEATURE
100
AcDbLine
 62
7
  6
CONTINUOUS
 10
5.5903672762
 20
5.6020481
 11
6.6703672762
 21
5.6020481
  0
LINE
  5
25C
100
AcDbEntity
  8
LAYER_FEATURE
100
AcDbLine
 62
7
  6
CONTINUOUS
 10
5.5903672762
 20
5.6326131722
 11
6.6703672762
 21
5.6326131722
  0
LINE
  5
25D
100
AcDbEntity
  8
LAYER_FEATURE
100
AcDbLine
 62
7
  6
CONTINUOUS
 10
5.5520793607
 20
3.4981198968
 11
5.5903672762
 21
3.5928858129
  0
LINE
  5
25E
100
AcDbEntity
  8
LAYER_FEATURE
100
AcDbLine
 62
7
  6
CONTINUOUS
 10
5.5903672762
 20
5.7955719562
 11
6.6703672762
 21
5.7955719562
  0
LINE
  5
25F
100
AcDbEntity
  8
LAYER_FEATURE
100
AcDbLine
 62
7
  6
CONTINUOUS
 10
5.5520793607
 20
7.5421198968
 11
5.5903672762
 21
7.4473539806
  0
LINE
  5
260
100
AcDbEntity
  8
LAYER_FEATURE
100
AcDbLine
 62
7
  6
CONTINUOUS
 10
5.5903672762
 20
5.8258021511
 11
6.6703672762
 21
5.8258021511
  0
LINE
  5
261
100
AcDbEntity
  8
LAYER_FEATURE
100
AcDbLine
 62
7
  6
CONTINUOUS
 10
6.6703672762
 20
7.4473539806
 11
6.6703672762
 21
3.5928858129
  0
LINE
  5
262
100
AcDbEntity
  8
LAYER_FEATURE
100
AcDbLine
 62
7
  6
CONTINUOUS
 10
6.7086551916
 20
7.5421198968
 11
6.7086551916
 21
3.4981198968
  0
LINE
  5
263
100
AcDbEntity
  8
LAYER_FEATURE
100
AcDbLine
 62
7
  6
CONTINUOUS
 10
5.5903672762
 20
5.9860779019
 11
6.6703672762
 21
5.9860779019
  0
LINE
  5
264
100
AcDbEntity
  8
LAYER_FEATURE
100
AcDbLine
 62
7
  6
CONTINUOUS
 10
5.5903672762
 20
6.0156420112
 11
6.6703672762
 21
6.0156420112
  0
LINE
  5
265
100
AcDbEntity
  8
0
100
AcDbLine
 62
7
  6
CONTINUOUS
 10
5.5903672762
 20
6.0308317475
 11
6.6703672762
 21
6.0308317475
  0
LINE
  5
266
100
AcDbEntity
  8
LAYER_FEATURE
100
AcDbLine
 62
7
  6
CONTINUOUS
 10
6.7733672762
 20
7.5421198968
 11
6.7733672762
 21
3.4981198968
  0
LINE
  5
267
100
AcDbEntity
  8
LAYER_FEATURE
100
AcDbLine
 62
7
  6
CONTINUOUS
 10
5.5903672762
 20
6.1714787143
 11
6.6703672762
 21
6.1714787143
  0
LINE
  5
268
100
AcDbEntity
  8
LAYER_FEATURE
100
AcDbLine
 62
7
  6
CONTINUOUS
 10
5.5903672762
 20
6.2000528273
 11
6.6703672762
 21
6.2000528273
  0
LINE
  5
269
100
AcDbEntity
  8
0
100
AcDbLine
 62
7
  6
CONTINUOUS
 10
5.5903672762
 20
6.2130607963
 11
6.6703672762
 21
6.2130607963
  0
LINE
  5
26A
100
AcDbEntity
  8
LAYER_FEATURE
100
AcDbLine
 62
7
  6
CONTINUOUS
 10
5.5903672762
 20
6.3497431031
 11
6.6703672762
 21
6.3497431031
  0
LINE
  5
26B
100
AcDbEntity
  8
LAYER_FEATURE
100
AcDbLine
 62
7
  6
CONTINUOUS
 10
5.5903672762
 20
6.3770141559
 11
6.6703672762
 21
6.3770141559
  0
LINE
  5
26C
100
AcDbEntity
  8
LAYER_FEATURE
100
AcDbLine
 62
7
  6
CONTINUOUS
 10
6.6703672762
 20
6.3880141559
 11
5.5903672762
 21
6.3880141559
  0
LINE
  5
26D
100
AcDbEntity
  8
LAYER_FEATURE
100
AcDbLine
 62
7
  6
CONTINUOUS
 10
5.5903672762
 20
6.5189179665
 11
6.6703672762
 21
6.5189179665
  0
LINE
  5
26E
100
AcDbEntity
  8
LAYER_FEATURE
100
AcDbLine
 62
7
  6
CONTINUOUS
 10
5.5903672762
 20
6.5445871717
 11
6.6703672762
 21
6.5445871717
  0
LINE
  5
26F
100
AcDbEntity
  8
0
100
AcDbLine
 62
7
  6
CONTINUOUS
 10
5.5903672762
 20
6.5536558962
 11
6.6703672762
 21
6.5536558962
  0
LINE
  5
270
100
AcDbEntity
  8
LAYER_FEATURE
100
AcDbLine
 62
7
  6
CONTINUOUS
 10
5.5903672762
 20
6.6771497892
 11
6.6703672762
 21
6.6771497892
  0
LINE
  5
271
100
AcDbEntity
  8
LAYER_FEATURE
100
AcDbLine
 62
7
  6
CONTINUOUS
 10
5.5903672762
 20
6.7009359097
 11
6.6703672762
 21
6.7009359097
  0
LINE
  5
272
100
AcDbEntity
  8
0
100
AcDbLine
 62
7
  6
CONTINUOUS
 10
5.5903672762
 20
6.7082150364
 11
6.6703672762
 21
6.7082150364
  0
LINE
  5
273
100
AcDbEntity
  8
LAYER_FEATURE
100
AcDbLine
 62
7
  6
CONTINUOUS
 10
5.5903672762
 20
6.8227049503
 11
6.6703672762
 21
6.8227049503
  0
LINE
  5
274
100
AcDbEntity
  8
LAYER_FEATURE
100
AcDbLine
 62
7
  6
CONTINUOUS
 10
5.5903672762
 20
6.8443473803
 11
6.6703672762
 21
6.8443473803
  0
LINE
  5
275
100
AcDbEntity
  8
0
100
AcDbLine
 62
7
  6
CONTINUOUS
 10
5.5903672762
 20
6.8499981942
 11
6.6703672762
 21
6.8499981942
  0
LINE
  5
276
100
AcDbEntity
  8
LAYER_FEATURE
100
AcDbLine
 62
7
  6
CONTINUOUS
 10
5.5903672762
 20
6.953988717
 11
6.6703672762
 21
6.953988717
  0
LINE
  5
277
100
AcDbEntity
  8
LAYER_FEATURE
100
AcDbLine
 62
7
  6
CONTINUOUS
 10
5.5903672762
 20
6.9732503376
 11
6.6703672762
 21
6.9732503376
  0
LINE
  5
278
100
AcDbEntity
  8
0
100
AcDbLine
 62
7
  6
CONTINUOUS
 10
5.5903672762
 20
6.9774519637
 11
6.6703672762
 21
6.9774519637
  0
LINE
  5
279
100
AcDbEntity
  8
LAYER_FEATURE
100
AcDbLine
 62
7
  6
CONTINUOUS
 10
5.5903672762
 20
7.0695627168
 11
6.6703672762
 21
7.0695627168
  0
LINE
  5
27A
100
AcDbEntity
  8
LAYER_FEATURE
100
AcDbLine
 62
7
  6
CONTINUOUS
 10
5.5903672762
 20
7.0862324936
 11
6.6703672762
 21
7.0862324936
  0
LINE
  5
27B
100
AcDbEntity
  8
0
100
AcDbLine
 62
7
  6
CONTINUOUS
 10
5.5903672762
 20
7.0891799347
 11
6.6703672762
 21
7.0891799347
  0
LINE
  5
27C
100
AcDbEntity
  8
LAYER_FEATURE
100
AcDbLine
 62
7
  6
CONTINUOUS
 10
5.5903672762
 20
7.1681606968
 11
6.6703672762
 21
7.1681606968
  0
LINE
  5
27D
100
AcDbEntity
  8
LAYER_FEATURE
100
AcDbLine
 62
7
  6
CONTINUOUS
 10
5.5903672762
 20
7.1820559922
 11
6.6703672762
 21
7.1820559922
  0
LINE
  5
27E
100
AcDbEntity
  8
0
100
AcDbLine
 62
7
  6
CONTINUOUS
 10
5.5903672762
 20
7.1839579922
 11
6.6703672762
 21
7.1839579922
  0
LINE
  5
27F
100
AcDbEntity
  8
LAYER_FEATURE
100
AcDbLine
 62
7
  6
CONTINUOUS
 10
5.5903672762
 20
7.248702397
 11
6.6703672762
 21
7.248702397
  0
LINE
  5
280
100
AcDbEntity
  8
LAYER_FEATURE
100
AcDbLine
 62
7
  6
CONTINUOUS
 10
5.5903672762
 20
7.2596709713
 11
6.6703672762
 21
7.2596709713
  0
LINE
  5
281
100
AcDbEntity
  8
LAYER_CUT_FEAT
100
AcDbLine
 62
7
  6
CONTINUOUS
 10
5.5903672762
 20
7.2607477279
 11
6.6703672762
 21
7.2607477279
  0
LINE
  5
282
100
AcDbEntity
  8
LAYER_FEATURE
100
AcDbLine
 62
7
  6
CONTINUOUS
 10
5.5903672762
 20
7.3103053855
 11
6.6703672762
 21
7.3103053855
  0
LINE
  5
283
100
AcDbEntity
  8
LAYER_FEATURE
100
AcDbLine
 62
7
  6
CONTINUOUS
 10
5.5903672762
 20
7.3182270647
 11
6.6703672762
 21
7.3182270647
  0
LINE
  5
284
100
AcDbEntity
  8
LAYER_CUT_FEAT
100
AcDbLine
 62
7
  6
CONTINUOUS
 10
5.5903672762
 20
7.3187078175
 11
6.6703672762
 21
7.3187078175
  0
LINE
  5
285
100
AcDbEntity
  8
LAYER_FEATURE
100
AcDbLine
 62
7
  6
CONTINUOUS
 10
5.5903672762
 20
7.3522947272
 11
6.6703672762
 21
7.3522947272
  0
LINE
  5
286
100
AcDbEntity
  8
LAYER_FEATURE
100
AcDbLine
 62
7
  6
CONTINUOUS
 10
5.5903672762
 20
7.3570827197
 11
6.6703672762
 21
7.3570827197
  0
LINE
  5
287
100
AcDbEntity
  8
LAYER_CUT_FEAT
100
AcDbLine
 62
7
  6
CONTINUOUS
 10
5.5903672762
 20
7.357203238
 11
6.6703672762
 21
7.357203238
  0
LINE
  5
288
100
AcDbEntity
  8
LAYER_FEATURE
100
AcDbLine
 62
7
  6
CONTINUOUS
 10
5.5903672762
 20
7.3742103781
 11
6.6703672762
 21
7.3742103781
  0
LINE
  5
289
100
AcDbEntity
  8
LAYER_FEATURE
100
AcDbLine
 62
7
  6
CONTINUOUS
 10
5.5903672762
 20
7.3758122256
 11
6.6703672762
 21
7.3758122256
  0
LINE
  5
28A
100
AcDbEntity
  8
LAYER_FEATURE
100
AcDbLine
 62
7
  6
CONTINUOUS
 10
6.7733672762
 20
7.5421198968
 11
6.7086551916
 21
7.5421198968
  0
LINE
  5
28B
100
AcDbEntity
  8
LAYER_FEATURE
100
AcDbLine
 62
7
  6
CONTINUOUS
 10
5.4873672762
 20
7.5421198968
 11
5.5520793607
 21
7.5421198968
  0
LINE
  5
28C
100
AcDbEntity
  8
LAYER_FEATURE
100
AcDbLine
 62
7
  6
CONTINUOUS
 10
5.4278720839
 20
10.5780477814
 11
5.4925841684
 21
10.5780477814
  0
LINE
  5
28D
100
AcDbEntity
  8
LAYER_FEATURE
100
AcDbLine
 62
7
  6
CONTINUOUS
 10
6.6491599993
 20
10.5780477814
 11
6.7138720839
 21
10.5780477814
  0
LINE
  5
28E
100
AcDbEntity
  8
LAYER_FEATURE
100
AcDbLine
 62
7
  6
CONTINUOUS
 10
5.5308720839
 20
10.7443554525
 11
6.6108720839
 21
10.7443554525
  0
LINE
  5
28F
100
AcDbEntity
  8
LAYER_FEATURE
100
AcDbLine
 62
7
  6
CONTINUOUS
 10
5.5308720839
 20
10.7459573
 11
6.6108720839
 21
10.7459573
  0
LINE
  5
290
100
AcDbEntity
  8
0
100
AcDbLine
 62
7
  6
CONTINUOUS
 10
5.5308720839
 20
10.7629644401
 11
6.6108720839
 21
10.7629644401
  0
LINE
  5
291
100
AcDbEntity
  8
LAYER_FEATURE
100
AcDbLine
 62
7
  6
CONTINUOUS
 10
5.5308720839
 20
10.7630849584
 11
6.6108720839
 21
10.7630849584
  0
LINE
  5
292
100
AcDbEntity
  8
LAYER_FEATURE
100
AcDbLine
 62
7
  6
CONTINUOUS
 10
5.5308720839
 20
10.7678729509
 11
6.6108720839
 21
10.7678729509
  0
LINE
  5
293
100
AcDbEntity
  8
0
100
AcDbLine
 62
7
  6
CONTINUOUS
 10
5.5308720839
 20
10.8014598606
 11
6.6108720839
 21
10.8014598606
  0
LINE
  5
294
100
AcDbEntity
  8
LAYER_FEATURE
100
AcDbLine
 62
7
  6
CONTINUOUS
 10
5.5308720839
 20
10.8019406134
 11
6.6108720839
 21
10.8019406134
  0
LINE
  5
295
100
AcDbEntity
  8
LAYER_FEATURE
100
AcDbLine
 62
7
  6
CONTINUOUS
 10
5.5308720839
 20
10.8098622926
 11
6.6108720839
 21
10.8098622926
  0
LINE
  5
296
100
AcDbEntity
  8
0
100
AcDbLine
 62
7
  6
CONTINUOUS
 10
5.5308720839
 20
10.8594199502
 11
6.6108720839
 21
10.8594199502
  0
LINE
  5
297
100
AcDbEntity
  8
LAYER_FEATURE
100
AcDbLine
 62
7
  6
CONTINUOUS
 10
5.5308720839
 20
10.8604967069
 11
6.6108720839
 21
10.8604967069
  0
LINE
  5
298
100
AcDbEntity
  8
LAYER_FEATURE
100
AcDbLine
 62
7
  6
CONTINUOUS
 10
5.5308720839
 20
10.8714652812
 11
6.6108720839
 21
10.8714652812
  0
LINE
  5
299
100
AcDbEntity
  8
0
100
AcDbLine
 62
7
  6
CONTINUOUS
 10
5.5308720839
 20
10.9362096859
 11
6.6108720839
 21
10.9362096859
  0
LINE
  5
29A
100
AcDbEntity
  8
LAYER_FEATURE
100
AcDbLine
 62
7
  6
CONTINUOUS
 10
5.5308720839
 20
10.9381116859
 11
6.6108720839
 21
10.9381116859
  0
LINE
  5
29B
100
AcDbEntity
  8
LAYER_FEATURE
100
AcDbLine
 62
7
  6
CONTINUOUS
 10
5.5308720839
 20
10.9520069813
 11
6.6108720839
 21
10.9520069813
  0
LINE
  5
29C
100
AcDbEntity
  8
0
100
AcDbLine
 62
7
  6
CONTINUOUS
 10
5.5308720839
 20
11.0309877434
 11
6.6108720839
 21
11.0309877434
  0
LINE
  5
29D
100
AcDbEntity
  8
LAYER_FEATURE
100
AcDbLine
 62
7
  6
CONTINUOUS
 10
5.5308720839
 20
11.0339351846
 11
6.6108720839
 21
11.0339351846
  0
LINE
  5
29E
100
AcDbEntity
  8
LAYER_FEATURE
100
AcDbLine
 62
7
  6
CONTINUOUS
 10
5.5308720839
 20
11.0506049614
 11
6.6108720839
 21
11.0506049614
  0
LINE
  5
29F
100
AcDbEntity
  8
0
100
AcDbLine
 62
7
  6
CONTINUOUS
 10
5.5308720839
 20
11.1427157144
 11
6.6108720839
 21
11.1427157144
  0
LINE
  5
2A0
100
AcDbEntity
  8
LAYER_FEATURE
100
AcDbLine
 62
7
  6
CONTINUOUS
 10
5.5308720839
 20
11.1469173406
 11
6.6108720839
 21
11.1469173406
  0
LINE
  5
2A1
100
AcDbEntity
  8
LAYER_FEATURE
100
AcDbLine
 62
7
  6
CONTINUOUS
 10
5.5308720839
 20
11.1661789612
 11
6.6108720839
 21
11.1661789612
  0
LINE
  5
2A2
100
AcDbEntity
  8
0
100
AcDbLine
 62
7
  6
CONTINUOUS
 10
5.5308720839
 20
11.2701694839
 11
6.6108720839
 21
11.2701694839
  0
LINE
  5
2A3
100
AcDbEntity
  8
LAYER_FEATURE
100
AcDbLine
 62
7
  6
CONTINUOUS
 10
5.5308720839
 20
11.2758202978
 11
6.6108720839
 21
11.2758202978
  0
LINE
  5
2A4
100
AcDbEntity
  8
LAYER_FEATURE
100
AcDbLine
 62
7
  6
CONTINUOUS
 10
5.5308720839
 20
11.2974627278
 11
6.6108720839
 21
11.2974627278
  0
LINE
  5
2A5
100
AcDbEntity
  8
0
100
AcDbLine
 62
7
  6
CONTINUOUS
 10
5.5308720839
 20
11.4119526418
 11
6.6108720839
 21
11.4119526418
  0
LINE
  5
2A6
100
AcDbEntity
  8
LAYER_FEATURE
100
AcDbLine
 62
7
  6
CONTINUOUS
 10
5.5308720839
 20
11.4192317684
 11
6.6108720839
 21
11.4192317684
  0
LINE
  5
2A7
100
AcDbEntity
  8
LAYER_FEATURE
100
AcDbLine
 62
7
  6
CONTINUOUS
 10
5.5308720839
 20
11.4430178889
 11
6.6108720839
 21
11.4430178889
  0
LINE
  5
2A8
100
AcDbEntity
  8
0
100
AcDbLine
 62
7
  6
CONTINUOUS
 10
5.5308720839
 20
11.5665117819
 11
6.6108720839
 21
11.5665117819
  0
LINE
  5
2A9
100
AcDbEntity
  8
LAYER_FEATURE
100
AcDbLine
 62
7
  6
CONTINUOUS
 10
5.5308720839
 20
11.5755805064
 11
6.6108720839
 21
11.5755805064
  0
LINE
  5
2AA
100
AcDbEntity
  8
LAYER_FEATURE
100
AcDbLine
 62
7
  6
CONTINUOUS
 10
5.5308720839
 20
11.6012497116
 11
6.6108720839
 21
11.6012497116
  0
LINE
  5
2AB
100
AcDbEntity
  8
LAYER_FEATURE
100
AcDbLine
 62
7
  6
CONTINUOUS
 10
6.6108720839
 20
11.7321535222
 11
5.5308720839
 21
11.7321535222
  0
LINE
  5
2AC
100
AcDbEntity
  8
LAYER_FEATURE
100
AcDbLine
 62
7
  6
CONTINUOUS
 10
5.5308720839
 20
11.7431535222
 11
6.6108720839
 21
11.7431535222
  0
LINE
  5
2AD
100
AcDbEntity
  8
LAYER_FEATURE
100
AcDbLine
 62
7
  6
CONTINUOUS
 10
5.5308720839
 20
11.770424575
 11
6.6108720839
 21
11.770424575
  0
LINE
  5
2AE
100
AcDbEntity
  8
0
100
AcDbLine
 62
7
  6
CONTINUOUS
 10
5.5308720839
 20
11.9071068818
 11
6.6108720839
 21
11.9071068818
  0
LINE
  5
2AF
100
AcDbEntity
  8
LAYER_FEATURE
100
AcDbLine
 62
7
  6
CONTINUOUS
 10
5.4278720839
 20
10.5780477814
 11
5.4278720839
 21
14.6220477814
  0
LINE
  5
2B0
100
AcDbEntity
  8
LAYER_FEATURE
100
AcDbLine
 62
7
  6
CONTINUOUS
 10
5.4925841684
 20
10.5780477814
 11
5.4925841684
 21
14.6220477814
  0
LINE
  5
2B1
100
AcDbEntity
  8
LAYER_FEATURE
100
AcDbLine
 62
7
  6
CONTINUOUS
 10
5.5308720839
 20
11.9201148508
 11
6.6108720839
 21
11.9201148508
  0
LINE
  5
2B2
100
AcDbEntity
  8
LAYER_FEATURE
100
AcDbLine
 62
7
  6
CONTINUOUS
 10
5.5308720839
 20
11.9486889639
 11
6.6108720839
 21
11.9486889639
  0
LINE
  5
2B3
100
AcDbEntity
  8
LAYER_FEATURE
100
AcDbLine
 62
7
  6
CONTINUOUS
 10
5.5308720839
 20
10.6728138227
 11
5.5308720839
 21
14.5272817401
  0
LINE
  5
2B4
100
AcDbEntity
  8
LAYER_CUT_FEAT
100
AcDbLine
 62
7
  6
CONTINUOUS
 10
5.5308720839
 20
12.08949886
 11
6.6108720839
 21
12.08949886
  0
LINE
  5
2B5
100
AcDbEntity
  8
LAYER_FEATURE
100
AcDbLine
 62
7
  6
CONTINUOUS
 10
5.5308720839
 20
12.104525667
 11
6.6108720839
 21
12.104525667
  0
LINE
  5
2B6
100
AcDbEntity
  8
LAYER_FEATURE
100
AcDbLine
 62
7
  6
CONTINUOUS
 10
5.5308720839
 20
12.1340897762
 11
6.6108720839
 21
12.1340897762
  0
LINE
  5
2B7
100
AcDbEntity
  8
LAYER_FEATURE
100
AcDbLine
 62
7
  6
CONTINUOUS
 10
5.5308720839
 20
12.2943655271
 11
6.6108720839
 21
12.2943655271
  0
LINE
  5
2B8
100
AcDbEntity
  8
LAYER_FEATURE
100
AcDbLine
 62
7
  6
CONTINUOUS
 10
5.5308720839
 20
12.324595722
 11
6.6108720839
 21
12.324595722
  0
LINE
  5
2B9
100
AcDbEntity
  8
LAYER_FEATURE
100
AcDbLine
 62
7
  6
CONTINUOUS
 10
6.6108720839
 20
14.5272818652
 11
6.6491599993
 21
14.6220477814
  0
LINE
  5
2BA
100
AcDbEntity
  8
LAYER_FEATURE
100
AcDbLine
 62
7
  6
CONTINUOUS
 10
6.6108720839
 20
10.6728136975
 11
6.6491599993
 21
10.5780477814
  0
LINE
  5
2BB
100
AcDbEntity
  8
LAYER_FEATURE
100
AcDbLine
 62
7
  6
CONTINUOUS
 10
5.5308720839
 20
12.4875545059
 11
6.6108720839
 21
12.4875545059
  0
LINE
  5
2BC
100
AcDbEntity
  8
LAYER_FEATURE
100
AcDbLine
 62
7
  6
CONTINUOUS
 10
5.5308720839
 20
12.5181195781
 11
6.6108720839
 21
12.5181195781
  0
LINE
  5
2BD
100
AcDbEntity
  8
LAYER_FEATURE
100
AcDbLine
 62
7
  6
CONTINUOUS
 10
5.5308720839
 20
12.6819759846
 11
6.6108720839
 21
12.6819759846
  0
LINE
  5
2BE
100
AcDbEntity
  8
LAYER_FEATURE
100
AcDbLine
 62
7
  6
CONTINUOUS
 10
5.5308720839
 20
12.7125410568
 11
6.6108720839
 21
12.7125410568
  0
LINE
  5
2BF
100
AcDbEntity
  8
LAYER_FEATURE
100
AcDbLine
 62
7
  6
CONTINUOUS
 10
5.4925841684
 20
10.5780477814
 11
5.5308720839
 21
10.6728136975
  0
LINE
  5
2C0
100
AcDbEntity
  8
LAYER_FEATURE
100
AcDbLine
 62
7
  6
CONTINUOUS
 10
5.5308720839
 20
12.8754998408
 11
6.6108720839
 21
12.8754998408
  0
LINE
  5
2C1
100
AcDbEntity
  8
LAYER_FEATURE
100
AcDbLine
 62
7
  6
CONTINUOUS
 10
5.4925841684
 20
14.6220477814
 11
5.5308720839
 21
14.5272818652
  0
LINE
  5
2C2
100
AcDbEntity
  8
LAYER_FEATURE
100
AcDbLine
 62
7
  6
CONTINUOUS
 10
5.5308720839
 20
12.9057300357
 11
6.6108720839
 21
12.9057300357
  0
LINE
  5
2C3
100
AcDbEntity
  8
LAYER_FEATURE
100
AcDbLine
 62
7
  6
CONTINUOUS
 10
6.6108720839
 20
10.6728138105
 11
6.6108720839
 21
14.5272817523
  0
LINE
  5
2C4
100
AcDbEntity
  8
LAYER_FEATURE
100
AcDbLine
 62
7
  6
CONTINUOUS
 10
6.6491599993
 20
10.5780477814
 11
6.6491599993
 21
14.6220477814
  0
LINE
  5
2C5
100
AcDbEntity
  8
LAYER_FEATURE
100
AcDbLine
 62
7
  6
CONTINUOUS
 10
5.5308720839
 20
13.0660057865
 11
6.6108720839
 21
13.0660057865
  0
LINE
  5
2C6
100
AcDbEntity
  8
LAYER_FEATURE
100
AcDbLine
 62
7
  6
CONTINUOUS
 10
5.5308720839
 20
13.0955698958
 11
6.6108720839
 21
13.0955698958
  0
LINE
  5
2C7
100
AcDbEntity
  8
0
100
AcDbLine
 62
7
  6
CONTINUOUS
 10
5.5308720839
 20
13.1107596321
 11
6.6108720839
 21
13.1107596321
  0
LINE
  5
2C8
100
AcDbEntity
  8
LAYER_FEATURE
100
AcDbLine
 62
7
  6
CONTINUOUS
 10
6.7138720839
 20
10.5780477814
 11
6.7138720839
 21
14.6220477814
  0
LINE
  5
2C9
100
AcDbEntity
  8
LAYER_FEATURE
100
AcDbLine
 62
7
  6
CONTINUOUS
 10
5.5308720839
 20
13.2514065989
 11
6.6108720839
 21
13.2514065989
  0
LINE
  5
2CA
100
AcDbEntity
  8
LAYER_FEATURE
100
AcDbLine
 62
7
  6
CONTINUOUS
 10
5.5308720839
 20
13.2799807119
 11
6.6108720839
 21
13.2799807119
  0
LINE
  5
2CB
100
AcDbEntity
  8
0
100
AcDbLine
 62
7
  6
CONTINUOUS
 10
5.5308720839
 20
13.2929886809
 11
6.6108720839
 21
13.2929886809
  0
LINE
  5
2CC
100
AcDbEntity
  8
LAYER_FEATURE
100
AcDbLine
 62
7
  6
CONTINUOUS
 10
5.5308720839
 20
13.4296709877
 11
6.6108720839
 21
13.4296709877
  0
LINE
  5
2CD
100
AcDbEntity
  8
LAYER_FEATURE
100
AcDbLine
 62
7
  6
CONTINUOUS
 10
5.5308720839
 20
13.4569420405
 11
6.6108720839
 21
13.4569420405
  0
LINE
  5
2CE
100
AcDbEntity
  8
LAYER_FEATURE
100
AcDbLine
 62
7
  6
CONTINUOUS
 10
6.6108720839
 20
13.4679420405
 11
5.5308720839
 21
13.4679420405
  0
LINE
  5
2CF
100
AcDbEntity
  8
LAYER_FEATURE
100
AcDbLine
 62
7
  6
CONTINUOUS
 10
5.5308720839
 20
13.5988458511
 11
6.6108720839
 21
13.5988458511
  0
LINE
  5
2D0
100
AcDbEntity
  8
LAYER_FEATURE
100
AcDbLine
 62
7
  6
CONTINUOUS
 10
5.5308720839
 20
13.6245150564
 11
6.6108720839
 21
13.6245150564
  0
LINE
  5
2D1
100
AcDbEntity
  8
0
100
AcDbLine
 62
7
  6
CONTINUOUS
 10
5.5308720839
 20
13.6335837808
 11
6.6108720839
 21
13.6335837808
  0
LINE
  5
2D2
100
AcDbEntity
  8
LAYER_FEATURE
100
AcDbLine
 62
7
  6
CONTINUOUS
 10
5.5308720839
 20
13.7570776738
 11
6.6108720839
 21
13.7570776738
  0
LINE
  5
2D3
100
AcDbEntity
  8
LAYER_FEATURE
100
AcDbLine
 62
7
  6
CONTINUOUS
 10
5.5308720839
 20
13.7808637943
 11
6.6108720839
 21
13.7808637943
  0
LINE
  5
2D4
100
AcDbEntity
  8
0
100
AcDbLine
 62
7
  6
CONTINUOUS
 10
5.5308720839
 20
13.788142921
 11
6.6108720839
 21
13.788142921
  0
LINE
  5
2D5
100
AcDbEntity
  8
LAYER_FEATURE
100
AcDbLine
 62
7
  6
CONTINUOUS
 10
5.5308720839
 20
13.9026328349
 11
6.6108720839
 21
13.9026328349
  0
LINE
  5
2D6
100
AcDbEntity
  8
LAYER_FEATURE
100
AcDbLine
 62
7
  6
CONTINUOUS
 10
5.5308720839
 20
13.924275265
 11
6.6108720839
 21
13.924275265
  0
LINE
  5
2D7
100
AcDbEntity
  8
0
100
AcDbLine
 62
7
  6
CONTINUOUS
 10
5.5308720839
 20
13.9299260788
 11
6.6108720839
 21
13.9299260788
  0
LINE
  5
2D8
100
AcDbEntity
  8
LAYER_FEATURE
100
AcDbLine
 62
7
  6
CONTINUOUS
 10
5.5308720839
 20
14.0339166016
 11
6.6108720839
 21
14.0339166016
  0
LINE
  5
2D9
100
AcDbEntity
  8
LAYER_FEATURE
100
AcDbLine
 62
7
  6
CONTINUOUS
 10
5.5308720839
 20
14.0531782222
 11
6.6108720839
 21
14.0531782222
  0
LINE
  5
2DA
100
AcDbEntity
  8
0
100
AcDbLine
 62
7
  6
CONTINUOUS
 10
5.5308720839
 20
14.0573798483
 11
6.6108720839
 21
14.0573798483
  0
LINE
  5
2DB
100
AcDbEntity
  8
LAYER_FEATURE
100
AcDbLine
 62
7
  6
CONTINUOUS
 10
5.5308720839
 20
14.1494906014
 11
6.6108720839
 21
14.1494906014
  0
LINE
  5
2DC
100
AcDbEntity
  8
LAYER_FEATURE
100
AcDbLine
 62
7
  6
CONTINUOUS
 10
5.5308720839
 20
14.1661603782
 11
6.6108720839
 21
14.1661603782
  0
LINE
  5
2DD
100
AcDbEntity
  8
0
100
AcDbLine
 62
7
  6
CONTINUOUS
 10
5.5308720839
 20
14.1691078193
 11
6.6108720839
 21
14.1691078193
  0
LINE
  5
2DE
100
AcDbEntity
  8
LAYER_FEATURE
100
AcDbLine
 62
7
  6
CONTINUOUS
 10
5.5308720839
 20
14.2480885814
 11
6.6108720839
 21
14.2480885814
  0
LINE
  5
2DF
100
AcDbEntity
  8
LAYER_FEATURE
100
AcDbLine
 62
7
  6
CONTINUOUS
 10
5.5308720839
 20
14.2619838769
 11
6.6108720839
 21
14.2619838769
  0
LINE
  5
2E0
100
AcDbEntity
  8
0
100
AcDbLine
 62
7
  6
CONTINUOUS
 10
5.5308720839
 20
14.2638858768
 11
6.6108720839
 21
14.2638858768
  0
LINE
  5
2E1
100
AcDbEntity
  8
LAYER_FEATURE
100
AcDbLine
 62
7
  6
CONTINUOUS
 10
5.5308720839
 20
14.3286302816
 11
6.6108720839
 21
14.3286302816
  0
LINE
  5
2E2
100
AcDbEntity
  8
LAYER_FEATURE
100
AcDbLine
 62
7
  6
CONTINUOUS
 10
5.5308720839
 20
14.3395988559
 11
6.6108720839
 21
14.3395988559
  0
LINE
  5
2E3
100
AcDbEntity
  8
0
100
AcDbLine
 62
7
  6
CONTINUOUS
 10
5.5308720839
 20
14.3406756125
 11
6.6108720839
 21
14.3406756125
  0
LINE
  5
2E4
100
AcDbEntity
  8
LAYER_FEATURE
100
AcDbLine
 62
7
  6
CONTINUOUS
 10
5.5308720839
 20
14.3902332701
 11
6.6108720839
 21
14.3902332701
  0
LINE
  5
2E5
100
AcDbEntity
  8
LAYER_FEATURE
100
AcDbLine
 62
7
  6
CONTINUOUS
 10
5.5308720839
 20
14.3981549493
 11
6.6108720839
 21
14.3981549493
  0
LINE
  5
2E6
100
AcDbEntity
  8
0
100
AcDbLine
 62
7
  6
CONTINUOUS
 10
5.5308720839
 20
14.3986357021
 11
6.6108720839
 21
14.3986357021
  0
LINE
  5
2E7
100
AcDbEntity
  8
LAYER_FEATURE
100
AcDbLine
 62
7
  6
CONTINUOUS
 10
5.5308720839
 20
14.4322226118
 11
6.6108720839
 21
14.4322226118
  0
LINE
  5
2E8
100
AcDbEntity
  8
LAYER_FEATURE
100
AcDbLine
 62
7
  6
CONTINUOUS
 10
5.5308720839
 20
14.4370106043
 11
6.6108720839
 21
14.4370106043
  0
LINE
  5
2E9
100
AcDbEntity
  8
0
100
AcDbLine
 62
7
  6
CONTINUOUS
 10
5.5308720839
 20
14.4371311226
 11
6.6108720839
 21
14.4371311226
  0
LINE
  5
2EA
100
AcDbEntity
  8
LAYER_FEATURE
100
AcDbLine
 62
7
  6
CONTINUOUS
 10
5.5308720839
 20
14.4541382627
 11
6.6108720839
 21
14.4541382627
  0
LINE
  5
2EB
100
AcDbEntity
  8
LAYER_FEATURE
100
AcDbLine
 62
7
  6
CONTINUOUS
 10
5.5308720839
 20
14.4557401103
 11
6.6108720839
 21
14.4557401103
  0
LINE
  5
2EC
100
AcDbEntity
  8
LAYER_FEATURE
100
AcDbLine
 62
7
  6
CONTINUOUS
 10
5.4278720839
 20
14.6220477814
 11
5.4925841684
 21
14.6220477814
  0
LINE
  5
2ED
100
AcDbEntity
  8
LAYER_FEATURE
100
AcDbLine
 62
7
  6
CONTINUOUS
 10
6.6491599993
 20
14.6220477814
 11
6.7138720839
 21
14.6220477814
  0
LINE
  5
2EE
100
AcDbEntity
  8
LAYER_FEATURE
100
AcDbLine
 62
7
  6
CONTINUOUS
 10
14.8788341886
 20
10.4888049929
 11
14.9384379655
 21
10.4888049929
  0
LINE
  5
2EF
100
AcDbEntity
  8
LAYER_FEATURE
100
AcDbLine
 62
7
  6
CONTINUOUS
 10
16.00371485
 20
10.4888049929
 11
16.0633186269
 21
10.4888049929
  0
LINE
  5
2F0
100
AcDbEntity
  8
LAYER_FEATURE
100
AcDbLine
 62
7
  6
CONTINUOUS
 10
14.9748920859
 20
10.6533075007
 11
15.6929119227
 21
10.6533075007
  0
LINE
  5
2F1
100
AcDbEntity
  8
0
100
AcDbLine
 62
7
  6
CONTINUOUS
 10
14.9115047606
 20
10.6602458218
 11
15.6867884208
 21
10.6602458218
  0
LINE
  5
2F2
100
AcDbEntity
  8
LAYER_FEATURE
100
AcDbLine
 62
7
  6
CONTINUOUS
 10
14.9111409541
 20
10.6602656668
 11
15.6867709064
 21
10.6602656668
  0
LINE
  5
2F3
100
AcDbEntity
  8
LAYER_FEATURE
100
AcDbLine
 62
7
  6
CONTINUOUS
 10
14.8992755802
 20
10.6631640159
 11
15.6842129321
 21
10.6631640159
  0
LINE
  5
2F4
100
AcDbEntity
  8
0
100
AcDbLine
 62
7
  6
CONTINUOUS
 10
14.8374134404
 20
10.6869583645
 11
15.6640486568
 21
10.6869583645
  0
LINE
  5
2F5
100
AcDbEntity
  8
LAYER_FEATURE
100
AcDbLine
 62
7
  6
CONTINUOUS
 10
14.836156918
 20
10.6871962728
 11
15.6638591983
 21
10.6871962728
  0
LINE
  5
2F6
100
AcDbEntity
  8
LAYER_FEATURE
100
AcDbLine
 62
7
  6
CONTINUOUS
 10
14.8244745221
 20
10.6932636723
 11
15.6590274205
 21
10.6932636723
  0
LINE
  5
2F7
100
AcDbEntity
  8
0
100
AcDbLine
 62
7
  6
CONTINUOUS
 10
14.7648153423
 20
10.733412316
 11
15.6286158803
 21
10.733412316
  0
LINE
  5
2F8
100
AcDbEntity
  8
LAYER_FEATURE
100
AcDbLine
 62
7
  6
CONTINUOUS
 10
14.7626798708
 20
10.7341067176
 11
15.6281138541
 21
10.7341067176
  0
LINE
  5
2F9
100
AcDbEntity
  8
LAYER_FEATURE
100
AcDbLine
 62
7
  6
CONTINUOUS
 10
14.9111409541
 20
10.6602656668
 11
14.9115047606
 21
10.6602459429
  0
LINE
  5
2FA
100
AcDbEntity
  8
LAYER_FEATURE
100
AcDbLine
 62
7
  6
CONTINUOUS
 10
14.7513084476
 20
10.7432766917
 11
15.621484308
 21
10.7432766917
  0
LINE
  5
2FB
100
AcDbEntity
  8
0
100
AcDbLine
 62
7
  6
CONTINUOUS
 10
14.6945058662
 20
10.7990987171
 11
15.5847491541
 21
10.7990987171
  0
LINE
  5
2FC
100
AcDbEntity
  8
LAYER_FEATURE
100
AcDbLine
 62
7
  6
CONTINUOUS
 10
14.6915148423
 20
10.8004830405
 11
15.5839129462
 21
10.8004830405
  0
LINE
  5
2FD
100
AcDbEntity
  8
LAYER_FEATURE
100
AcDbLine
 62
7
  6
CONTINUOUS
 10
14.6805789794
 20
10.8126551211
 11
15.5765603371
 21
10.8126551211
  0
LINE
  5
2FE
100
AcDbEntity
  8
0
100
AcDbLine
 62
7
  6
CONTINUOUS
 10
14.6272553375
 20
10.8832978936
 11
15.5365475614
 21
10.8832978936
  0
LINE
  5
2FF
100
AcDbEntity
  8
LAYER_FEATURE
100
AcDbLine
 62
7
  6
CONTINUOUS
 10
14.6234415314
 20
10.8855980087
 11
15.5353721524
 21
10.8855980087
  0
LINE
  5
300
100
AcDbEntity
  8
LAYER_FEATURE
100
AcDbLine
 62
7
  6
CONTINUOUS
 10
14.6130610446
 20
10.9006388358
 11
15.5276859613
 21
10.9006388358
  0
LINE
  5
301
100
AcDbEntity
  8
0
100
AcDbLine
 62
7
  6
CONTINUOUS
 10
14.5638005671
 20
10.9850873419
 11
15.4871085654
 21
10.9850873419
  0
LINE
  5
302
100
AcDbEntity
  8
LAYER_FEATURE
100
AcDbLine
 62
7
  6
CONTINUOUS
 10
14.5592057637
 20
10.9885190846
 11
15.4856143636
 21
10.9885190846
  0
LINE
  5
303
100
AcDbEntity
  8
LAYER_FEATURE
100
AcDbLine
 62
7
  6
CONTINUOUS
 10
14.5494943836
 20
11.0062638679
 11
15.4778881761
 21
11.0062638679
  0
LINE
  5
304
100
AcDbEntity
  8
02___PRT_ALL_AXES
100
AcDbLine
 62
7
  6
CONTINUOUS
 10
16.0106331381
 20
10.8798354956
 11
15.9783303897
 21
10.8863556137
  0
LINE
  5
305
100
AcDbEntity
  8
0
100
AcDbLine
 62
7
  6
CONTINUOUS
 10
14.5048367786
 20
11.1033518355
 11
15.4385597128
 21
11.1033518355
  0
LINE
  5
306
100
AcDbEntity
  8
LAYER_FEATURE
100
AcDbLine
 62
7
  6
CONTINUOUS
 10
14.4995113195
 20
11.1081186435
 11
15.436786356
 21
11.1081186435
  0
LINE
  5
307
100
AcDbEntity
  8
LAYER_FEATURE
100
AcDbLine
 62
7
  6
CONTINUOUS
 10
14.4905754462
 20
11.1283729674
 11
15.4292513048
 21
11.1283729674
  0
LINE
  5
308
100
AcDbEntity
  8
0
100
AcDbLine
 62
7
  6
CONTINUOUS
 10
14.4510099918
 20
11.2367956438
 11
15.3924609961
 21
11.2367956438
  0
LINE
  5
309
100
AcDbEntity
  8
LAYER_FEATURE
100
AcDbLine
 62
7
  6
CONTINUOUS
 10
14.4450122238
 20
11.2430863276
 11
15.3904636896
 21
11.2430863276
  0
LINE
  5
30A
100
AcDbEntity
  8
LAYER_FEATURE
100
AcDbLine
 62
7
  6
CONTINUOUS
 10
14.4369497605
 20
11.2656282815
 11
15.3833443532
 21
11.2656282815
  0
LINE
  5
30B
100
AcDbEntity
  8
0
100
AcDbLine
 62
7
  6
CONTINUOUS
 10
14.4029099441
 20
11.3839567285
 11
15.3500073092
 21
11.3839567285
  0
LINE
  5
30C
100
AcDbEntity
  8
LAYER_FEATURE
100
AcDbLine
 62
7
  6
CONTINUOUS
 10
14.3963055801
 20
11.3919434027
 11
15.3478544407
 21
11.3919434027
  0
LINE
  5
30D
100
AcDbEntity
  8
LAYER_FEATURE
100
AcDbLine
 62
7
  6
CONTINUOUS
 10
14.3892048608
 20
11.4165260122
 11
15.3417498457
 21
11.4165260122
  0
LINE
  5
30E
100
AcDbEntity
  8
0
100
AcDbLine
 62
7
  6
CONTINUOUS
 10
14.3610636297
 20
11.543222762
 11
15.3124318116
 21
11.543222762
  0
LINE
  5
30F
100
AcDbEntity
  8
LAYER_FEATURE
100
AcDbLine
 62
7
  6
CONTINUOUS
 10
14.3539250285
 20
11.5530589595
 11
15.3104001935
 21
11.5530589595
  0
LINE
  5
310
100
AcDbEntity
  8
LAYER_FEATURE
100
AcDbLine
 62
7
  6
CONTINUOUS
 10
14.3478638502
 20
11.5794128924
 11
15.3049569185
 21
11.5794128924
  0
LINE
  5
311
100
AcDbEntity
  8
0
100
AcDbLine
 62
7
  6
CONTINUOUS
 10
14.3257972324
 20
11.7128560087
 11
15.2803780639
 21
11.7128560087
  0
LINE
  5
312
100
AcDbEntity
  8
LAYER_FEATURE
100
AcDbLine
 62
7
  6
CONTINUOUS
 10
14.3255657192
 20
11.7128686374
 11
14.3257972324
 21
11.7128560279
  0
LINE
  5
313
100
AcDbEntity
  8
LAYER_FEATURE
100
AcDbLine
 62
7
  6
CONTINUOUS
 10
14.3183348992
 20
11.7246677822
 11
15.2783836584
 21
11.7246677822
  0
LINE
  5
314
100
AcDbEntity
  8
LAYER_FEATURE
100
AcDbLine
 62
7
  6
CONTINUOUS
 10
14.3133796694
 20
11.7525042993
 11
15.2738530758
 21
11.7525042993
  0
LINE
  5
315
100
AcDbEntity
  8
0
100
AcDbLine
 62
7
  6
CONTINUOUS
 10
14.2974356513
 20
11.8910628733
 11
15.2542171372
 21
11.8910628733
  0
LINE
  5
316
100
AcDbEntity
  8
LAYER_FEATURE
100
AcDbLine
 62
7
  6
CONTINUOUS
 10
14.2899251251
 20
11.9048896887
 11
15.2525843805
 21
11.9048896887
  0
LINE
  5
317
100
AcDbEntity
  8
LAYER_FEATURE
100
AcDbLine
 62
7
  6
CONTINUOUS
 10
14.2861301344
 20
11.9339038074
 11
15.2491965201
 21
11.9339038074
  0
LINE
  5
318
100
AcDbEntity
  8
0
100
AcDbLine
 62
7
  6
CONTINUOUS
 10
14.2764834019
 20
12.0759063752
 11
15.2348884443
 21
12.0759063752
  0
LINE
  5
319
100
AcDbEntity
  8
LAYER_FEATURE
100
AcDbLine
 62
7
  6
CONTINUOUS
 10
14.2690069696
 20
12.0917501302
 11
15.2335554675
 21
12.0917501302
  0
LINE
  5
31A
100
AcDbEntity
  8
LAYER_FEATURE
100
AcDbLine
 62
7
  6
CONTINUOUS
 10
14.2664137967
 20
12.1216239655
 11
15.231042103
 21
12.1216239655
  0
LINE
  5
31B
100
AcDbEntity
  8
LAYER_FEATURE
100
AcDbLine
 62
7
  6
CONTINUOUS
 10
14.2558096165
 20
12.2832018243
 11
15.2213419344
 21
12.2832018243
  0
LINE
  5
31C
100
AcDbEntity
  8
LAYER_FEATURE
100
AcDbLine
 62
7
  6
CONTINUOUS
 10
14.2544466727
 20
12.3136080724
 11
15.2202140625
 21
12.3136080724
  0
LINE
  5
31D
100
AcDbEntity
  8
LAYER_FEATURE
100
AcDbLine
 62
7
  6
CONTINUOUS
 10
14.2504776587
 20
12.4771471865
 11
15.2165718385
 21
12.4771471865
  0
LINE
  5
31E
100
AcDbEntity
  8
LAYER_FEATURE
100
AcDbLine
 62
7
  6
CONTINUOUS
 10
14.2503598767
 20
12.5077527101
 11
15.2163760373
 21
12.5077527101
  0
LINE
  5
31F
100
AcDbEntity
  8
LAYER_FEATURE
100
AcDbLine
 62
7
  6
CONTINUOUS
 10
14.2530695142
 20
12.6714613106
 11
15.2188326246
 21
12.6714613106
  0
LINE
  5
320
100
AcDbEntity
  8
LAYER_FEATURE
100
AcDbLine
 62
7
  6
CONTINUOUS
 10
14.2541981845
 20
12.7019307892
 11
15.2199711352
 21
12.7019307892
  0
LINE
  5
321
100
AcDbEntity
  8
LAYER_FEATURE
100
AcDbLine
 62
7
  6
CONTINUOUS
 10
14.2635567862
 20
12.8640152504
 11
15.2285643374
 21
12.8640152504
  0
LINE
  5
322
100
AcDbEntity
  8
LAYER_FEATURE
100
AcDbLine
 62
7
  6
CONTINUOUS
 10
14.2659195428
 20
12.8940148541
 11
15.2306892419
 21
12.8940148541
  0
LINE
  5
323
100
AcDbEntity
  8
LAYER_FEATURE
100
AcDbLine
 62
7
  6
CONTINUOUS
 10
14.2818245739
 20
13.0526993448
 11
15.2452045918
 21
13.0526993448
  0
LINE
  5
324
100
AcDbEntity
  8
LAYER_FEATURE
100
AcDbLine
 62
7
  6
CONTINUOUS
 10
14.28539553
 20
13.0819003916
 11
15.2484756305
 21
13.0819003916
  0
LINE
  5
325
100
AcDbEntity
  8
LAYER_CUT_FEAT
100
AcDbLine
 62
7
  6
CONTINUOUS
 10
14.2929059221
 20
13.0961083981
 11
15.2501734057
 21
13.0961083981
  0
LINE
  5
326
100
AcDbEntity
  8
LAYER_FEATURE
100
AcDbLine
 62
7
  6
CONTINUOUS
 10
14.3076727315
 20
13.2354463312
 11
15.268736208
 21
13.2354463312
  0
LINE
  5
327
100
AcDbEntity
  8
LAYER_FEATURE
100
AcDbLine
 62
7
  6
CONTINUOUS
 10
14.3124127629
 20
13.2635288883
 11
15.2730569282
 21
13.2635288883
  0
LINE
  5
328
100
AcDbEntity
  8
LAYER_CUT_FEAT
100
AcDbLine
 62
7
  6
CONTINUOUS
 10
14.3198904794
 20
13.2757198006
 11
15.274932595
 21
13.2757198006
  0
LINE
  5
329
100
AcDbEntity
  8
LAYER_FEATURE
100
AcDbLine
 62
7
  6
CONTINUOUS
 10
14.3198904794
 20
13.2757198004
 11
14.3195513642
 21
13.2756926909
  0
LINE
  5
32A
100
AcDbEntity
  8
LAYER_FEATURE
100
AcDbLine
 62
7
  6
CONTINUOUS
 10
14.3408180613
 20
13.4102539955
 11
15.2986568772
 21
13.4102539955
  0
LINE
  5
32B
100
AcDbEntity
  8
LAYER_FEATURE
100
AcDbLine
 62
7
  6
CONTINUOUS
 10
14.3466752353
 20
13.4369103846
 11
15.3037786298
 21
13.4369103846
  0
LINE
  5
32C
100
AcDbEntity
  8
LAYER_CUT_FEAT
100
AcDbLine
 62
7
  6
CONTINUOUS
 10
14.3539060552
 20
13.4471112397
 11
15.3059183338
 21
13.4471112397
  0
LINE
  5
32D
100
AcDbEntity
  8
02___PRT_ALL_AXES
100
AcDbLine
 62
7
  6
CONTINUOUS
 10
15.7851386748
 20
13.6349050576
 11
15.789706253
 21
13.635313078
  0
LINE
  5
32E
100
AcDbEntity
  8
LAYER_FEATURE
100
AcDbLine
 62
7
  6
CONTINUOUS
 10
14.3808974161
 20
13.5752071083
 11
15.3342646362
 21
13.5752071083
  0
LINE
  5
32F
100
AcDbEntity
  8
LAYER_FEATURE
100
AcDbLine
 62
7
  6
CONTINUOUS
 10
14.3878075602
 20
13.6001452763
 11
15.3405253045
 21
13.6001452763
  0
LINE
  5
330
100
AcDbEntity
  8
LAYER_CUT_FEAT
100
AcDbLine
 62
7
  6
CONTINUOUS
 10
14.3945184812
 20
13.608469857
 11
15.3426151708
 21
13.608469857
  0
LINE
  5
331
100
AcDbEntity
  8
LAYER_FEATURE
100
AcDbLine
 62
7
  6
CONTINUOUS
 10
14.427471678
 20
13.7284984088
 11
15.3752869497
 21
13.7284984088
  0
LINE
  5
332
100
AcDbEntity
  8
LAYER_FEATURE
100
AcDbLine
 62
7
  6
CONTINUOUS
 10
14.4353590833
 20
13.751445128
 11
15.3820964297
 21
13.751445128
  0
LINE
  5
333
100
AcDbEntity
  8
0
100
AcDbLine
 62
7
  6
CONTINUOUS
 10
14.4414765791
 20
13.758043265
 11
15.3840544387
 21
13.758043265
  0
LINE
  5
334
100
AcDbEntity
  8
LAYER_FEATURE
100
AcDbLine
 62
7
  6
CONTINUOUS
 10
14.4800305698
 20
13.8684484054
 11
15.4203809549
 21
13.8684484054
  0
LINE
  5
335
100
AcDbEntity
  8
LAYER_FEATURE
100
AcDbLine
 62
7
  6
CONTINUOUS
 10
14.4888088201
 20
13.8891522667
 11
15.4276220025
 21
13.8891522667
  0
LINE
  5
336
100
AcDbEntity
  8
0
100
AcDbLine
 62
7
  6
CONTINUOUS
 10
14.4942658663
 20
13.8941927061
 11
15.4295213912
 21
13.8941927061
  0
LINE
  5
337
100
AcDbEntity
  8
LAYER_FEATURE
100
AcDbLine
 62
7
  6
CONTINUOUS
 10
14.5379982453
 20
13.9935237767
 11
15.4684420238
 21
13.9935237767
  0
LINE
  5
338
100
AcDbEntity
  8
02___PRT_ALL_AXES
100
AcDbLine
 62
7
  6
CONTINUOUS
 10
16.0106331381
 20
14.1417744902
 11
15.9783303897
 21
14.1352543721
  0
LINE
  5
339
100
AcDbEntity
  8
LAYER_FEATURE
100
AcDbLine
 62
7
  6
CONTINUOUS
 10
14.5475711643
 20
14.0117579443
 11
15.4762679627
 21
14.0117579443
  0
LINE
  5
33A
100
AcDbEntity
  8
0
100
AcDbLine
 62
7
  6
CONTINUOUS
 10
14.5523079721
 20
14.0154264985
 11
15.4778860468
 21
14.0154264985
  0
LINE
  5
33B
100
AcDbEntity
  8
LAYER_FEATURE
100
AcDbLine
 62
7
  6
CONTINUOUS
 10
14.6007395983
 20
14.1023541707
 11
15.5180476971
 21
14.1023541707
  0
LINE
  5
33C
100
AcDbEntity
  8
LAYER_FEATURE
100
AcDbLine
 62
7
  6
CONTINUOUS
 10
14.6110023032
 20
14.1179188672
 11
15.5260934896
 21
14.1179188672
  0
LINE
  5
33D
100
AcDbEntity
  8
0
100
AcDbLine
 62
7
  6
CONTINUOUS
 10
14.6149669753
 20
14.1204163794
 11
15.5273869025
 21
14.1204163794
  0
LINE
  5
33E
100
AcDbEntity
  8
LAYER_FEATURE
100
AcDbLine
 62
7
  6
CONTINUOUS
 10
14.6675672216
 20
14.1937472189
 11
15.5672990876
 21
14.1937472189
  0
LINE
  5
33F
100
AcDbEntity
  8
LAYER_FEATURE
100
AcDbLine
 62
7
  6
CONTINUOUS
 10
14.6784072719
 20
14.2064719142
 11
15.5750005276
 21
14.2064719142
  0
LINE
  5
340
100
AcDbEntity
  8
0
100
AcDbLine
 62
7
  6
CONTINUOUS
 10
14.6815563705
 20
14.2080120577
 11
15.5759440979
 21
14.2080120577
  0
LINE
  5
341
100
AcDbEntity
  8
LAYER_FEATURE
100
AcDbLine
 62
7
  6
CONTINUOUS
 10
14.7377489377
 20
14.2667015998
 11
15.6135142353
 21
14.2667015998
  0
LINE
  5
342
100
AcDbEntity
  8
LAYER_FEATURE
100
AcDbLine
 62
7
  6
CONTINUOUS
 10
14.7490475676
 20
14.2764468796
 11
15.6200369859
 21
14.2764468796
  0
LINE
  5
343
100
AcDbEntity
  8
0
100
AcDbLine
 62
7
  6
CONTINUOUS
 10
14.7513465905
 20
14.2772538169
 11
15.6205770885
 21
14.2772538169
  0
LINE
  5
344
100
AcDbEntity
  8
LAYER_FEATURE
100
AcDbLine
 62
7
  6
CONTINUOUS
 10
14.810515821
 20
14.3204180101
 11
15.6525912232
 21
14.3204180101
  0
LINE
  5
345
100
AcDbEntity
  8
LAYER_FEATURE
100
AcDbLine
 62
7
  6
CONTINUOUS
 10
14.8221492405
 20
14.327077103
 11
15.6579815566
 21
14.327077103
  0
LINE
  5
346
100
AcDbEntity
  8
0
100
AcDbLine
 62
7
  6
CONTINUOUS
 10
14.823572999
 20
14.3273830297
 11
15.658229195
 21
14.3273830297
  0
LINE
  5
347
100
AcDbEntity
  8
LAYER_FEATURE
100
AcDbLine
 62
7
  6
CONTINUOUS
 10
14.8974442684
 20
14.3578503845
 11
14.8969113731
 21
14.3578078691
  0
LINE
  5
348
100
AcDbEntity
  8
LAYER_FEATURE
100
AcDbLine
 62
7
  6
CONTINUOUS
 10
14.8850706224
 20
14.3543079215
 11
15.6804257806
 21
14.3543079215
  0
LINE
  5
349
100
AcDbEntity
  8
LAYER_FEATURE
100
AcDbLine
 62
7
  6
CONTINUOUS
 10
14.8969113731
 20
14.3578078691
 11
15.6835691542
 21
14.3578078691
  0
LINE
  5
34A
100
AcDbEntity
  8
0
100
AcDbLine
 62
7
  6
CONTINUOUS
 10
14.8974442684
 20
14.35785047
 11
15.683607415
 21
14.35785047
  0
LINE
  5
34B
100
AcDbEntity
  8
LAYER_FEATURE
100
AcDbLine
 62
7
  6
CONTINUOUS
 10
14.9605965038
 20
14.368000029
 11
15.692722939
 21
14.368000029
  0
LINE
  5
34C
100
AcDbEntity
  8
LAYER_FEATURE
100
AcDbLine
 62
7
  6
CONTINUOUS
 10
14.9725148561
 20
14.3683024851
 11
15.692994581
 21
14.3683024851
  0
LINE
  5
34D
100
AcDbEntity
  8
LAYER_FEATURE
100
AcDbLine
 62
7
  6
CONTINUOUS
 10
14.8788341886
 20
14.5328049929
 11
14.9384379655
 21
14.5328049929
  0
LINE
  5
34E
100
AcDbEntity
  8
LAYER_FEATURE
100
AcDbLine
 62
7
  6
CONTINUOUS
 10
16.00371485
 20
14.5328049929
 11
16.0633186269
 21
14.5328049929
  0
CIRCLE
  5
34F
100
AcDbEntity
  8
LAYER_FEATURE
100
AcDbCircle
 62
7
  6
CONTINUOUS
 10
15.5603552569
 20
5.4606247044
 40
2.022
  0
CIRCLE
  5
350
100
AcDbEntity
  8
LAYER_FEATURE
100
AcDbCircle
 62
7
  6
CONTINUOUS
 10
15.5603552569
 20
5.4606247044
 40
1.9272340839
  0
CIRCLE
  5
351
100
AcDbEntity
  8
02___PRT_ALL_AXES
100
AcDbCircle
 62
7
  6
CONTINUOUS
 10
15.5603552569
 20
5.4606247044
 40
1.636
  0
CIRCLE
  5
352
100
AcDbEntity
  8
LAYER_CHAMFER_FEAT
100
AcDbCircle
 62
7
  6
CONTINUOUS
 10
15.5603552569
 20
5.4606247044
 40
1.51
  0
CIRCLE
  5
353
100
AcDbEntity
  8
LAYER_CHAMFER_FEAT
100
AcDbCircle
 62
7
  6
CONTINUOUS
 10
15.5603552569
 20
5.4606247044
 40
1.45
  0
ARC
  5
354
100
AcDbEntity
  8
02___PRT_ALL_AXES
100
AcDbCircle
 62
7
  6
CONTINUOUS
 10
15.5603552569
 20
5.4606247044
 40
1.125
100
AcDbArc
 50
249.2742999592
 51
40.7257000408
  0
ARC
  5
355
100
AcDbEntity
  8
02___PRT_ALL_AXES
100
AcDbCircle
 62
7
  6
CONTINUOUS
 10
15.5603552569
 20
5.4606247044
 40
1.125
100
AcDbArc
 50
154.2742999592
 51
230.7257000408
  0
ARC
  5
356
100
AcDbEntity
  8
02___PRT_ALL_AXES
100
AcDbCircle
 62
7
  6
CONTINUOUS
 10
15.5603552569
 20
5.4606247044
 40
1.125
100
AcDbArc
 50
59.2742999592
 51
135.7257000408
  0
ARC
  5
357
100
AcDbEntity
  8
02___PRT_ALL_AXES
100
AcDbCircle
 62
7
  6
CONTINUOUS
 10
15.5603552569
 20
5.4606247044
 40
1.090036594
100
AcDbArc
 50
135.1134891248
 51
154.8865108752
  0
ARC
  5
358
100
AcDbEntity
  8
02___PRT_ALL_AXES
100
AcDbCircle
 62
7
  6
CONTINUOUS
 10
15.5603552569
 20
5.4606247044
 40
1.0550731881
100
AcDbArc
 50
60.151855491
 51
229.848144509
  0
ARC
  5
359
100
AcDbEntity
  8
02___PRT_ALL_AXES
100
AcDbCircle
 62
7
  6
CONTINUOUS
 10
15.5603552569
 20
5.4606247044
 40
1.0550731881
100
AcDbArc
 50
250.151855491
 51
39.848144509
  0
ARC
  5
35A
100
AcDbEntity
  8
02___PRT_ALL_AXES
100
AcDbCircle
 62
7
  6
CONTINUOUS
 10
16.2433170922
 20
6.2745469253
 40
0.1875
100
AcDbArc
 50
312.6629189116
 51
147.3370810884
  0
ARC
  5
35B
100
AcDbEntity
  8
02___PRT_ALL_AXES
100
AcDbCircle
 62
7
  6
CONTINUOUS
 10
15.0291052569
 20
4.5404727129
 40
0.1875
100
AcDbArc
 50
142.6629189116
 51
337.3370810884
  0
ARC
  5
35C
100
AcDbEntity
  8
02___PRT_ALL_AXES
100
AcDbCircle
 62
7
  6
CONTINUOUS
 10
14.6900062099
 20
6.0700496681
 40
0.1875
100
AcDbArc
 50
58.4702138564
 51
231.5297861436
  0
ARC
  5
35D
100
AcDbEntity
  8
02___PRT_ALL_AXES
100
AcDbCircle
 62
7
  6
CONTINUOUS
 10
11.6669422589
 20
-41.5492304917
 40
53.2728550262
100
AcDbArc
 50
85.3051717896
 51
85.7677974284
  0
ARC
  5
35E
100
AcDbEntity
  8
LAYER_FEATURE
100
AcDbCircle
 62
7
  6
CONTINUOUS
 10
14.6880247788
 20
11.4823281699
 40
0.360154823
100
AcDbArc
 50
158.2157354413
 51
160.3648258798
  0
ARC
  5
35F
100
AcDbEntity
  8
LAYER_FEATURE
100
AcDbCircle
 62
7
  6
CONTINUOUS
 10
14.5730940846
 20
11.6626379955
 40
0.2816431281
100
AcDbArc
 50
153.7194048092
 51
156.2527239764
  0
ARC
  5
360
100
AcDbEntity
  8
LAYER_FEATURE
100
AcDbCircle
 62
7
  6
CONTINUOUS
 10
14.4755875666
 20
11.8550241567
 40
0.2125492222
100
AcDbArc
 50
148.329048513
 51
151.3869396703
  0
ARC
  5
361
100
AcDbEntity
  8
LAYER_FEATURE
100
AcDbCircle
 62
7
  6
CONTINUOUS
 10
14.5498106039
 20
10.7853112341
 40
0.196286912
100
AcDbArc
 50
358.5353534761
 51
1.6913482848
  0
ARC
  5
362
100
AcDbEntity
  8
LAYER_FEATURE
100
AcDbCircle
 62
7
  6
CONTINUOUS
 10
14.6223078729
 20
10.725686387
 40
0.1954363394
100
AcDbArc
 50
0.872498085
 51
2.2661393756
  0
ARC
  5
363
100
AcDbEntity
  8
LAYER_FEATURE
100
AcDbCircle
 62
7
  6
CONTINUOUS
 10
14.4840539008
 20
10.8637776295
 40
0.1932162924
100
AcDbArc
 50
356.1742247425
 51
359.3669338364
  0
ARC
  5
364
100
AcDbEntity
  8
LAYER_FEATURE
100
AcDbCircle
 62
7
  6
CONTINUOUS
 10
14.4270846656
 20
10.9598262952
 40
0.184916206
100
AcDbArc
 50
353.7402336487
 51
357.0313222269
  0
ARC
  5
365
100
AcDbEntity
  8
LAYER_FEATURE
100
AcDbCircle
 62
7
  6
CONTINUOUS
 10
14.378992211
 20
11.0720156733
 40
0.1719721304
100
AcDbArc
 50
351.1828402484
 51
354.6409132543
  0
ARC
  5
366
100
AcDbEntity
  8
LAYER_FEATURE
100
AcDbCircle
 62
7
  6
CONTINUOUS
 10
14.3374705394
 20
11.1991554356
 40
0.1573258131
100
AcDbArc
 50
348.4665535041
 51
352.1243255455
  0
ARC
  5
367
100
AcDbEntity
  8
LAYER_FEATURE
100
AcDbCircle
 62
7
  6
CONTINUOUS
 10
14.589849283
 20
10.786500123
 40
0.1562305863
100
AcDbArc
 50
1.6889215893
 51
4.6302012438
  0
ARC
  5
368
100
AcDbEntity
  8
LAYER_FEATURE
100
AcDbCircle
 62
7
  6
CONTINUOUS
 10
14.3057551614
 20
11.3391239486
 40
0.1382503101
100
AcDbArc
 50
345.4787997902
 51
349.4659349167
  0
ARC
  5
369
100
AcDbEntity
  8
LAYER_FEATURE
100
AcDbCircle
 62
7
  6
CONTINUOUS
 10
14.5001822348
 20
10.9648112053
 40
0.1113310665
100
AcDbArc
 50
9.7792269668
 51
10.5045338821
  0
ARC
  5
36A
100
AcDbEntity
  8
LAYER_FEATURE
100
AcDbCircle
 62
7
  6
CONTINUOUS
 10
14.274775448
 20
12.314416032
 40
0.0504691138
100
AcDbArc
 50
256.0950727185
 51
260.1992821805
  0
ARC
  5
36B
100
AcDbEntity
  8
LAYER_FEATURE
100
AcDbCircle
 62
7
  6
CONTINUOUS
 10
14.7116434201
 20
10.8318574963
 40
0.0358118404
100
AcDbArc
 50
177.4460808837
 51
181.3935474728
  0
ARC
  5
36C
100
AcDbEntity
  8
LAYER_FEATURE
100
AcDbCircle
 62
7
  6
CONTINUOUS
 10
14.7814762606
 20
10.7625617154
 40
0.0357006775
100
AcDbArc
 50
179.784273698
 51
183.7347644428
  0
ARC
  5
36D
100
AcDbEntity
  8
LAYER_FEATURE
100
AcDbCircle
 62
7
  6
CONTINUOUS
 10
14.6440238573
 20
10.9195796197
 40
0.0349320012
100
AcDbArc
 50
175.0598461856
 51
179.0786484646
  0
ARC
  5
36E
100
AcDbEntity
  8
LAYER_FEATURE
100
AcDbCircle
 62
7
  6
CONTINUOUS
 10
14.5794155772
 20
11.0248446152
 40
0.0331236362
100
AcDbArc
 50
172.5784055582
 51
176.7478552277
  0
ARC
  5
36F
100
AcDbEntity
  8
LAYER_FEATURE
100
AcDbCircle
 62
7
  6
CONTINUOUS
 10
14.3033574204
 20
11.8758623726
 40
0.0177658676
100
AcDbArc
 50
55.5609598646
 51
59.1906251074
  0
ARC
  5
370
100
AcDbEntity
  8
LAYER_FEATURE
100
AcDbCircle
 62
7
  6
CONTINUOUS
 10
14.7366006512
 20
13.6769795183
 40
0.3771818405
100
AcDbArc
 50
199.6330700896
 51
200.7059945246
  0
ARC
  5
371
100
AcDbEntity
  8
LAYER_FEATURE
100
AcDbCircle
 62
7
  6
CONTINUOUS
 10
14.6142510756
 20
13.5052249018
 40
0.2971350938
100
AcDbArc
 50
203.7504810157
 51
205.0080056413
  0
ARC
  5
372
100
AcDbEntity
  8
LAYER_FEATURE
100
AcDbCircle
 62
7
  6
CONTINUOUS
 10
14.5083872425
 20
13.3194704027
 40
0.2258571482
100
AcDbArc
 50
208.6235987533
 51
210.1330368527
  0
ARC
  5
373
100
AcDbEntity
  8
LAYER_FEATURE
100
AcDbCircle
 62
7
  6
CONTINUOUS
 10
14.6105644261
 20
14.2891182066
 40
0.1938852001
100
AcDbArc
 50
356.488943492
 51
0.8475798404
  0
ARC
  5
374
100
AcDbEntity
  8
LAYER_FEATURE
100
AcDbCircle
 62
7
  6
CONTINUOUS
 10
14.5400689265
 20
14.2260178196
 40
0.1930837627
100
AcDbArc
 50
354.645736001
 51
3.1986746157
  0
ARC
  5
375
100
AcDbEntity
  8
LAYER_FEATURE
100
AcDbCircle
 62
7
  6
CONTINUOUS
 10
14.4718382078
 20
14.1440810634
 40
0.192976712
100
AcDbArc
 50
356.4944219375
 51
5.5327295923
  0
ARC
  5
376
100
AcDbEntity
  8
LAYER_FEATURE
100
AcDbCircle
 62
7
  6
CONTINUOUS
 10
14.4220186743
 20
13.1234130741
 40
0.1660058979
100
AcDbArc
 50
214.5283548837
 51
216.3812751003
  0
ARC
  5
377
100
AcDbEntity
  8
LAYER_FEATURE
100
AcDbCircle
 62
7
  6
CONTINUOUS
 10
14.5185728974
 20
14.1411046887
 40
0.146147839
100
AcDbArc
 50
351.855088596
 51
356.5387928311
  0
ARC
  5
378
100
AcDbEntity
  8
LAYER_FEATURE
100
AcDbCircle
 62
7
  6
CONTINUOUS
 10
14.3565320044
 20
12.9210040925
 40
0.1189274766
100
AcDbArc
 50
221.8333311001
 51
224.1473272089
  0
ARC
  5
379
100
AcDbEntity
  8
LAYER_FEATURE
100
AcDbCircle
 62
7
  6
CONTINUOUS
 10
14.3116326797
 20
12.7162289648
 40
0.0846924265
100
AcDbArc
 50
230.9864083548
 51
233.8883963549
  0
ARC
  5
37A
100
AcDbEntity
  8
LAYER_FEATURE
100
AcDbCircle
 62
7
  6
CONTINUOUS
 10
14.285447253
 20
12.5128908101
 40
0.0623554877
100
AcDbArc
 50
242.3957964606
 51
245.9566659378
  0
ARC
  5
37B
100
AcDbEntity
  8
LAYER_FEATURE
100
AcDbCircle
 62
7
  6
CONTINUOUS
 10
14.2846831022
 20
12.8621295894
 40
0.0494775586
100
AcDbArc
 50
95.7751362294
 51
103.8226120024
  0
ARC
  5
37C
100
AcDbEntity
  8
LAYER_FEATURE
100
AcDbCircle
 62
7
  6
CONTINUOUS
 10
14.7681726481
 20
14.2474142863
 40
0.0358081351
100
AcDbArc
 50
176.7114417861
 51
182.5339372347
  0
ARC
  5
37D
100
AcDbEntity
  8
LAYER_FEATURE
100
AcDbCircle
 62
7
  6
CONTINUOUS
 10
14.6984380191
 20
14.1745808334
 40
0.0354706443
100
AcDbArc
 50
179.0337971157
 51
184.8932274787
  0
ARC
  5
37E
100
AcDbEntity
  8
LAYER_FEATURE
100
AcDbCircle
 62
7
  6
CONTINUOUS
 10
14.6310793036
 20
14.0834514928
 40
0.0341628143
100
AcDbArc
 50
181.337148171
 51
187.3454320847
  0
ARC
  5
37F
100
AcDbEntity
  8
LAYER_FEATURE
100
AcDbCircle
 62
7
  6
CONTINUOUS
 10
15.2306193976
 20
11.2958338373
 40
0.7321243975
100
AcDbArc
 50
221.2974366991
 51
222.5780372179
  0
ARC
  5
380
100
AcDbEntity
  8
LAYER_FEATURE
100
AcDbCircle
 62
7
  6
CONTINUOUS
 10
15.2253907362
 20
10.9405477945
 40
0.6845757518
100
AcDbArc
 50
171.1680452734
 51
172.5658142859
  0
ARC
  5
381
100
AcDbEntity
  8
LAYER_FEATURE
100
AcDbCircle
 62
7
  6
CONTINUOUS
 10
15.0910187333
 20
11.0448928862
 40
0.6118502882
100
AcDbArc
 50
168.4212929185
 51
169.9284293094
  0
ARC
  5
382
100
AcDbEntity
  8
LAYER_FEATURE
100
AcDbCircle
 62
7
  6
CONTINUOUS
 10
14.9525910985
 20
11.1709866435
 40
0.5300811724
100
AcDbArc
 50
165.4161451802
 51
167.0753407251
  0
ARC
  5
383
100
AcDbEntity
  8
LAYER_FEATURE
100
AcDbCircle
 62
7
  6
CONTINUOUS
 10
15.0839403639
 20
11.144128366
 40
0.520889678
100
AcDbArc
 50
230.3136725816
 51
231.9205619287
  0
ARC
  5
384
100
AcDbEntity
  8
LAYER_FEATURE
100
AcDbCircle
 62
7
  6
CONTINUOUS
 10
14.8162735498
 20
11.317502544
 40
0.4444817697
100
AcDbArc
 50
162.0567931971
 51
163.9236519118
  0
ARC
  5
385
100
AcDbEntity
  8
LAYER_FEATURE
100
AcDbCircle
 62
7
  6
CONTINUOUS
 10
15.0058586504
 20
11.0282268421
 40
0.3809206311
100
AcDbArc
 50
241.56424707
 51
243.5443996023
  0
ARC
  5
386
100
AcDbEntity
  8
LAYER_FEATURE
100
AcDbCircle
 62
7
  6
CONTINUOUS
 10
14.977283623
 20
10.9567797247
 40
0.3038016445
100
AcDbArc
 50
255.1213341288
 51
257.4250452574
  0
ARC
  5
387
100
AcDbEntity
  8
LAYER_FEATURE
100
AcDbCircle
 62
7
  6
CONTINUOUS
 10
14.8527645253
 20
10.7123707867
 40
0.0346064283
100
AcDbArc
 50
182.1182605871
 51
186.1463433557
  0
ARC
  5
388
100
AcDbEntity
  8
LAYER_FEATURE
100
AcDbCircle
 62
7
  6
CONTINUOUS
 10
14.9247981054
 20
10.6817587258
 40
0.0326066631
100
AcDbArc
 50
184.4915738448
 51
188.6772113929
  0
ARC
  5
389
100
AcDbEntity
  8
LAYER_FEATURE
100
AcDbCircle
 62
7
  6
CONTINUOUS
 10
15.2618421195
 20
13.698469544
 40
0.7736036643
100
AcDbArc
 50
138.953595076
 51
140.1916640895
  0
ARC
  5
38A
100
AcDbEntity
  8
LAYER_FEATURE
100
AcDbCircle
 62
7
  6
CONTINUOUS
 10
15.2893725198
 20
14.1692432321
 40
0.6980228441
100
AcDbArc
 50
187.4212915039
 51
188.1337920237
  0
ARC
  5
38B
100
AcDbEntity
  8
LAYER_FEATURE
100
AcDbCircle
 62
7
  6
CONTINUOUS
 10
15.1535362363
 20
14.0790940488
 40
0.6277668945
100
AcDbArc
 50
190.0605793833
 51
190.8251172988
  0
ARC
  5
38C
100
AcDbEntity
  8
LAYER_FEATURE
100
AcDbCircle
 62
7
  6
CONTINUOUS
 10
15.1027040461
 20
13.8549968512
 40
0.550175455
100
AcDbArc
 50
130.0014292007
 51
131.5553400677
  0
ARC
  5
38D
100
AcDbEntity
  8
LAYER_FEATURE
100
AcDbCircle
 62
7
  6
CONTINUOUS
 10
15.0120243412
 20
13.9661558431
 40
0.5474253158
100
AcDbArc
 50
192.9158996645
 51
193.7533199337
  0
ARC
  5
38E
100
AcDbEntity
  8
LAYER_FEATURE
100
AcDbCircle
 62
7
  6
CONTINUOUS
 10
14.8710175882
 20
13.8314945049
 40
0.4621757963
100
AcDbArc
 50
196.0704237377
 51
197.0076528576
  0
ARC
  5
38F
100
AcDbEntity
  8
LAYER_FEATURE
100
AcDbCircle
 62
7
  6
CONTINUOUS
 10
15.0145964806
 20
13.9773809081
 40
0.3991533151
100
AcDbArc
 50
118.8251739669
 51
120.7493869037
  0
ARC
  5
390
100
AcDbEntity
  8
LAYER_FEATURE
100
AcDbCircle
 62
7
  6
CONTINUOUS
 10
14.9795318197
 20
14.0565134663
 40
0.3124171176
100
AcDbArc
 50
105.3346051409
 51
107.5991664497
  0
ARC
  5
391
100
AcDbEntity
  8
LAYER_FEATURE
100
AcDbCircle
 62
7
  6
CONTINUOUS
 10
14.9737052443
 20
14.0864210509
 40
0.2818839477
100
AcDbArc
 50
90.2419592236
 51
92.6654461473
  0
ARC
  5
392
100
AcDbEntity
  8
LAYER_FEATURE
100
AcDbCircle
 62
7
  6
CONTINUOUS
 10
14.8394971502
 20
14.3012341723
 40
0.0351512381
100
AcDbArc
 50
174.3273397863
 51
180.2222701532
  0
ARC
  5
393
100
AcDbEntity
  8
LAYER_FEATURE
100
AcDbCircle
 62
7
  6
CONTINUOUS
 10
19.019782969
 20
12.5108043173
 40
4.7694240685
100
AcDbArc
 50
180.0366594002
 51
180.4043313252
  0
ARC
  5
394
100
AcDbEntity
  8
LAYER_FEATURE
100
AcDbCircle
 62
7
  6
CONTINUOUS
 10
18.9643392581
 20
12.5121990266
 40
4.713960869
100
AcDbArc
 50
177.6932845314
 51
178.0638800777
  0
ARC
  5
395
100
AcDbEntity
  8
LAYER_FEATURE
100
AcDbCircle
 62
7
  6
CONTINUOUS
 10
18.942982282
 20
12.5085354998
 40
4.6925859461
100
AcDbArc
 50
182.3807200235
 51
182.7523492442
  0
ARC
  5
396
100
AcDbEntity
  8
LAYER_FEATURE
100
AcDbCircle
 62
7
  6
CONTINUOUS
 10
18.7808678281
 20
12.5233265098
 40
4.530139939
100
AcDbArc
 50
175.3064030959
 51
175.6870042933
  0
ARC
  5
397
100
AcDbEntity
  8
LAYER_FEATURE
100
AcDbCircle
 62
7
  6
CONTINUOUS
 10
18.739775156
 20
12.4948808342
 40
4.4889066087
100
AcDbArc
 50
184.7697059105
 51
185.1524459659
  0
ARC
  5
398
100
AcDbEntity
  8
LAYER_FEATURE
100
AcDbCircle
 62
7
  6
CONTINUOUS
 10
18.4832404454
 20
12.5537328076
 40
4.2309411401
100
AcDbArc
 50
172.8287993165
 51
173.2271891365
  0
ARC
  5
399
100
AcDbEntity
  8
LAYER_FEATURE
100
AcDbCircle
 62
7
  6
CONTINUOUS
 10
18.4255010507
 20
12.4605702842
 40
4.1727412046
100
AcDbArc
 50
187.2509805191
 51
187.6527667208
  0
ARC
  5
39A
100
AcDbEntity
  8
LAYER_FEATURE
100
AcDbCircle
 62
7
  6
CONTINUOUS
 10
18.0936708972
 20
12.6108521657
 40
3.8371734366
100
AcDbArc
 50
170.2067679075
 51
170.6320223324
  0
ARC
  5
39B
100
AcDbEntity
  8
LAYER_FEATURE
100
AcDbCircle
 62
7
  6
CONTINUOUS
 10
18.023549353
 20
12.3985991473
 40
3.7660055275
100
AcDbArc
 50
189.8785167724
 51
190.3086785619
  0
ARC
  5
39C
100
AcDbEntity
  8
LAYER_FEATURE
100
AcDbCircle
 62
7
  6
CONTINUOUS
 10
17.6406163987
 20
12.6991652535
 40
3.37554681
100
AcDbArc
 50
167.375781184
 51
167.8390358418
  0
ARC
  5
39D
100
AcDbEntity
  8
LAYER_FEATURE
100
AcDbCircle
 62
7
  6
CONTINUOUS
 10
17.5631505718
 20
12.3050272582
 40
3.2961469795
100
AcDbArc
 50
192.7172661517
 51
193.1873284997
  0
ARC
  5
39E
100
AcDbEntity
  8
LAYER_FEATURE
100
AcDbCircle
 62
7
  6
CONTINUOUS
 10
17.1560979702
 20
12.8196502221
 40
2.8762135393
100
AcDbArc
 50
164.2546702207
 51
164.7701728689
  0
ARC
  5
39F
100
AcDbEntity
  8
LAYER_FEATURE
100
AcDbCircle
 62
7
  6
CONTINUOUS
 10
17.076625938
 20
12.1794743188
 40
2.7936216932
100
AcDbArc
 50
195.8490364531
 51
196.3738269795
  0
ARC
  5
3A0
100
AcDbEntity
  8
LAYER_FEATURE
100
AcDbCircle
 62
7
  6
CONTINUOUS
 10
17.9724302437
 20
12.9889821952
 40
2.6432185784
100
AcDbArc
 50
159.9713860342
 51
162.8658579579
  0
ARC
  5
3A1
100
AcDbEntity
  8
LAYER_FEATURE
100
AcDbCircle
 62
7
  6
CONTINUOUS
 10
16.6727010931
 20
12.9695815212
 40
2.3700232
100
AcDbArc
 50
160.7374744498
 51
161.3240746636
  0
ARC
  5
3A2
100
AcDbEntity
  8
LAYER_FEATURE
100
AcDbCircle
 62
7
  6
CONTINUOUS
 10
16.5963631894
 20
12.0252616394
 40
2.2891284795
100
AcDbArc
 50
199.3807319328
 51
199.9799514347
  0
ARC
  5
3A3
100
AcDbEntity
  8
LAYER_FEATURE
100
AcDbCircle
 62
7
  6
CONTINUOUS
 10
16.2205486338
 20
13.1426973368
 40
1.8857671501
100
AcDbArc
 50
156.6818631807
 51
157.3651245372
  0
ARC
  5
3A4
100
AcDbEntity
  8
LAYER_FEATURE
100
AcDbCircle
 62
7
  6
CONTINUOUS
 10
16.1518131749
 20
11.8491852878
 40
1.8108785693
100
AcDbArc
 50
203.4560587675
 51
204.156501779
  0
ARC
  5
3A5
100
AcDbEntity
  8
LAYER_FEATURE
100
AcDbCircle
 62
7
  6
CONTINUOUS
 10
15.8245405764
 20
13.3297203592
 40
1.4476968422
100
AcDbArc
 50
151.8930378805
 51
152.7081098061
  0
ARC
  5
3A6
100
AcDbEntity
  8
LAYER_FEATURE
100
AcDbCircle
 62
7
  6
CONTINUOUS
 10
15.7667994132
 20
11.6609417786
 40
1.3821847568
100
AcDbArc
 50
208.271775148
 51
209.1103116628
  0
ARC
  5
3A7
100
AcDbEntity
  8
LAYER_FEATURE
100
AcDbCircle
 62
7
  6
CONTINUOUS
 10
15.5021287691
 20
13.5191818884
 40
1.0735885376
100
AcDbArc
 50
146.1033291215
 51
147.098320729
  0
ARC
  5
3A8
100
AcDbEntity
  8
LAYER_FEATURE
100
AcDbCircle
 62
7
  6
CONTINUOUS
 10
15.4574018075
 20
11.4722614997
 40
1.0196390507
100
AcDbArc
 50
214.0981848797
 51
215.1251196485
  0
ARC
  5
3A9
100
AcDbEntity
  8
LAYER_FEATURE
100
AcDbCircle
 62
7
  6
CONTINUOUS
 10
15.6101919807
 20
14.3038147562
 40
0.8058503842
100
AcDbArc
 50
180.1931747068
 51
180.8410337943
  0
ARC
  5
3AA
100
AcDbEntity
  8
LAYER_FEATURE
100
AcDbCircle
 62
7
  6
CONTINUOUS
 10
15.5501283952
 20
10.7597251437
 40
0.8043580458
100
AcDbArc
 50
178.5346776229
 51
179.7883709435
  0
ARC
  5
3AB
100
AcDbEntity
  8
LAYER_FEATURE
100
AcDbCircle
 62
7
  6
CONTINUOUS
 10
15.6198185384
 20
10.7408785929
 40
0.8021900089
100
AcDbArc
 50
180.8725676983
 51
182.1279972594
  0
ARC
  5
3AC
100
AcDbEntity
  8
LAYER_FEATURE
100
AcDbCircle
 62
7
  6
CONTINUOUS
 10
15.6766724602
 20
14.3067888852
 40
0.7990859869
100
AcDbArc
 50
177.851261913
 51
178.5029122581
  0
ARC
  5
3AD
100
AcDbEntity
  8
LAYER_FEATURE
100
AcDbCircle
 62
7
  6
CONTINUOUS
 10
15.5219004759
 20
14.2808358275
 40
0.7902765822
100
AcDbArc
 50
182.5387006293
 51
183.1949021338
  0
ARC
  5
3AE
100
AcDbEntity
  8
LAYER_FEATURE
100
AcDbCircle
 62
7
  6
CONTINUOUS
 10
15.4593756637
 20
10.798488521
 40
0.7842882907
100
AcDbArc
 50
176.1692973777
 51
177.4448223456
  0
ARC
  5
3AF
100
AcDbEntity
  8
LAYER_FEATURE
100
AcDbCircle
 62
7
  6
CONTINUOUS
 10
15.6616410001
 20
10.7399002809
 40
0.7717398643
100
AcDbArc
 50
183.9337818521
 51
184.5108023836
  0
ARC
  5
3B0
100
AcDbEntity
  8
LAYER_FEATURE
100
AcDbCircle
 62
7
  6
CONTINUOUS
 10
15.4137773244
 20
14.2363359897
 40
0.7534706503
100
AcDbArc
 50
184.9321799857
 51
185.6094331272
  0
ARC
  5
3B1
100
AcDbEntity
  8
LAYER_FEATURE
100
AcDbCircle
 62
7
  6
CONTINUOUS
 10
15.3498570004
 20
10.8584828434
 40
0.7434044718
100
AcDbArc
 50
173.7307134318
 51
175.0531500542
  0
ARC
  5
3B2
100
AcDbEntity
  8
02___PRT_ALL_AXES
100
AcDbCircle
 62
7
  6
CONTINUOUS
 10
16.11892682
 20
13.5519858201
 40
0.4722392274
100
AcDbArc
 50
175.8378229882
 51
178.7604907475
  0
ARC
  5
3B3
100
AcDbEntity
  8
02___PRT_ALL_AXES
100
AcDbCircle
 62
7
  6
CONTINUOUS
 10
15.9304048518
 20
13.2724526455
 40
0.4054467025
100
AcDbArc
 50
134.3862677034
 51
137.0876990889
  0
ARC
  5
3B4
100
AcDbEntity
  8
02___PRT_ALL_AXES
100
AcDbCircle
 62
7
  6
CONTINUOUS
 10
15.7197001233
 20
13.7107740681
 40
0.0284554644
100
AcDbArc
 50
90.000102234
 51
92.2296302415
  0
SPLINE
  5
3B5
100
AcDbEntity
  8
02___PRT_ALL_AXES
100
AcDbSpline
 62
7
  6
CONTINUOUS
 70
0
 71
3
 72
39
 73
35
 74
0
 42
0.0000001
 43
0.0000001
 44
0.0000000001
 40
0.0
 40
0.0
 40
0.0
 40
0.0
 40
0.0454991522
 40
0.0901085377
 40
0.1338004137
 40
0.1765517826
 40
0.2183402497
 40
0.2591459197
 40
0.2989512645
 40
0.3377412036
 40
0.3755034249
 40
0.4122286012
 40
0.4479106253
 40
0.4825469011
 40
0.5161386943
 40
0.5486914986
 40
0.5802154122
 40
0.6107255813
 40
0.6402427138
 40
0.6687935886
 40
0.6964115787
 40
0.7231372094
 40
0.7490187207
 40
0.7741125299
 40
0.7984835936
 40
0.8222056214
 40
0.8453610576
 40
0.8680407116
 40
0.8903430269
 40
0.9123729484
 40
0.9342403809
 40
0.9560582927
 40
0.9779406038
 40
1.0
 40
1.0
 40
1.0
 40
1.0
 10
16.5596039377
 20
11.4938510848
 30
0.0
 10
16.5556060832
 20
11.4809140227
 30
0.0
 10
16.5474637008
 20
11.4553616629
 30
0.0
 10
16.5346774674
 20
11.4176485653
 30
0.0
 10
16.5214483944
 20
11.3809563421
 30
0.0
 10
16.5077890568
 20
11.3453196201
 30
0.0
 10
16.4937120524
 20
11.3107713794
 30
0.0
 10
16.4792305585
 20
11.2773438877
 30
0.0
 10
16.4643580696
 20
11.2450682671
 30
0.0
 10
16.4491084094
 20
11.213974572
 30
0.0
 10
16.4334957494
 20
11.1840917469
 30
0.0
 10
16.4175345942
 20
11.1554475746
 30
0.0
 10
16.4012397331
 20
11.1280686816
 30
0.0
 10
16.3846262192
 20
11.1019805202
 30
0.0
 10
16.3677093728
 20
11.0772073259
 30
0.0
 10
16.3505047638
 20
11.0537720951
 30
0.0
 10
16.3330281603
 20
11.0316966004
 30
0.0
 10
16.3152955045
 20
11.0110013893
 30
0.0
 10
16.2973229274
 20
10.9917057464
 30
0.0
 10
16.2791267161
 20
10.9738277071
 30
0.0
 10
16.2607232844
 20
10.9573840981
 30
0.0
 10
16.2421291682
 20
10.9423905619
 30
0.0
 10
16.2233610777
 20
10.9288615255
 30
0.0
 10
16.2044358959
 20
10.9168102534
 30
0.0
 10
16.1853707228
 20
10.906248884
 30
0.0
 10
16.1661829476
 20
10.8971884264
 30
0.0
 10
16.1468903649
 20
10.8896386465
 30
0.0
 10
16.1275112168
 20
10.8836080447
 30
0.0
 10
16.1080642666
 20
10.8791037353
 30
0.0
 10
16.0885687654
 20
10.876131278
 30
0.0
 10
16.069044557
 20
10.8746943899
 30
0.0
 10
16.0495112931
 20
10.874795002
 30
0.0
 10
16.0299905451
 20
10.8764327155
 30
0.0
 10
16.0170683084
 20
10.8785366118
 30
0.0
 10
16.0106331384
 20
10.8798355053
 30
0.0
  0
SPLINE
  5
3B6
100
AcDbEntity
  8
02___PRT_ALL_AXES
100
AcDbSpline
 62
7
  6
CONTINUOUS
 70
0
 71
3
 72
47
 73
43
 74
0
 42
0.0000001
 43
0.0000001
 44
0.0000000001
 40
0.0
 40
0.0
 40
0.0
 40
0.0
 40
0.0108473073
 40
0.0216358279
 40
0.0323802776
 40
0.0430955957
 40
0.0537968779
 40
0.06449929
 40
0.0752179943
 40
0.0859680642
 40
0.0967644164
 40
0.1076217224
 40
0.1185543516
 40
0.1295763072
 40
0.1407011524
 40
0.1519419931
 40
0.1748177512
 40
0.1983014251
 40
0.2224774824
 40
0.2348503341
 40
0.2474234981
 40
0.2731989395
 40
0.2998624495
 40
0.3274610302
 40
0.3560334599
 40
0.3856109422
 40
0.4162177425
 40
0.4478717908
 40
0.4805852385
 40
0.514365003
 40
0.5492132488
 40
0.5851278119
 40
0.622102563
 40
0.660127761
 40
0.6991903682
 40
0.7392743203
 40
0.7803607538
 40
0.8224282203
 40
0.8654529003
 40
0.9094087791
 40
0.9542678006
 40
1.0
 40
1.0
 40
1.0
 40
1.0
 10
16.0106331381
 20
14.1417744878
 30
0.0
 10
16.0139938567
 20
14.1424528331
 30
0.0
 10
16.0207245473
 20
14.143673829
 30
0.0
 10
16.0308622537
 20
14.1450963822
 30
0.0
 10
16.0410078524
 20
14.1461039836
 30
0.0
 10
16.0511585059
 20
14.1466962288
 30
0.0
 10
16.0613116178
 20
14.1468730576
 30
0.0
 10
16.0714645312
 20
14.1466343581
 30
0.0
 10
16.0816145991
 20
14.1459801943
 30
0.0
 10
16.0917591841
 20
14.1449108143
 30
0.0
 10
16.1018956383
 20
14.1434264211
 30
0.0
 10
16.112021339
 20
14.1415275083
 30
0.0
 10
16.1221336764
 20
14.1392145747
 30
0.0
 10
16.132229992
 20
14.1364882339
 30
0.0
 10
16.142307857
 20
14.1333492401
 30
0.0
 10
16.1557941226
 20
14.1285876093
 30
0.0
 10
16.1726156762
 20
14.121579861
 30
0.0
 10
16.1925614986
 20
14.1115839868
 30
0.0
 10
16.2089391737
 20
14.1019748751
 30
0.0
 10
16.2219545267
 20
14.0935063652
 30
0.0
 10
16.2351245534
 20
14.0843615359
 30
0.0
 10
16.2514800039
 20
14.07190264
 30
0.0
 10
16.2707478139
 20
14.0554928807
 30
0.0
 10
16.2897990379
 20
14.0375186377
 30
0.0
 10
16.3086146241
 20
14.0179987171
 30
0.0
 10
16.3271763059
 20
13.9969528784
 30
0.0
 10
16.3454657965
 20
13.9744024443
 30
0.0
 10
16.3634650381
 20
13.9503701589
 30
0.0
 10
16.3811561888
 20
13.9248802576
 30
0.0
 10
16.3985216373
 20
13.89795842
 30
0.0
 10
16.4155440343
 20
13.8696317612
 30
0.0
 10
16.4322063137
 20
13.8399288165
 30
0.0
 10
16.4484917476
 20
13.8088795384
 30
0.0
 10
16.4643839527
 20
13.7765152562
 30
0.0
 10
16.4798669083
 20
13.7428686368
 30
0.0
 10
16.4949249776
 20
13.707973654
 30
0.0
 10
16.5095429407
 20
13.6718655682
 30
0.0
 10
16.5237060228
 20
13.6345808871
 30
0.0
 10
16.5373998845
 20
13.5961573315
 30
0.0
 10
16.5506106642
 20
13.5566337281
 30
0.0
 10
16.5633249207
 20
13.5160502368
 30
0.0
 10
16.5713857908
 20
13.4885733823
 30
0.0
 10
16.5753339511
 20
13.4746685186
 30
0.0
  0
SPLINE
  5
3B7
100
AcDbEntity
  8
02___PRT_ALL_AXES
100
AcDbSpline
 62
7
  6
CONTINUOUS
 70
0
 71
3
 72
39
 73
35
 74
0
 42
0.0000001
 43
0.0000001
 44
0.0000000001
 40
0.0
 40
0.0
 40
0.0
 40
0.0
 40
0.0281862204
 40
0.0569877677
 40
0.0863697681
 40
0.1162956493
 40
0.146727299
 40
0.1776252129
 40
0.2089486354
 40
0.2406556937
 40
0.2727035264
 40
0.3050484082
 40
0.3376458711
 40
0.3704508223
 40
0.4034176611
 40
0.4365003929
 40
0.4696527429
 40
0.5028282686
 40
0.5359804714
 40
0.5690629092
 40
0.6020293079
 40
0.634833674
 40
0.6674304081
 40
0.6997744194
 40
0.7318212419
 40
0.7635271527
 40
0.7948492937
 40
0.825745795
 40
0.8561759054
 40
0.886100123
 40
0.9154803453
 40
0.9442799914
 40
0.972464224
 40
1.0
 40
1.0
 40
1.0
 40
1.0
 10
16.5753339511
 20
13.4746685186
 30
0.0
 10
16.5804780257
 20
13.4565518127
 30
0.0
 10
16.5904635322
 20
13.4198038502
 30
0.0
 10
16.6044001383
 20
13.363799176
 30
0.0
 10
16.6174399377
 20
13.3063862737
 30
0.0
 10
16.6295612678
 20
13.2476602041
 30
0.0
 10
16.6407441106
 20
13.1877177349
 30
0.0
 10
16.6509699606
 20
13.1266577936
 30
0.0
 10
16.6602219031
 20
13.0645811317
 30
0.0
 10
16.6684846299
 20
13.0015902027
 30
0.0
 10
16.6757444696
 20
12.9377889781
 30
0.0
 10
16.6819894089
 20
12.8732827775
 30
0.0
 10
16.6872091137
 20
12.8081780919
 30
0.0
 10
16.6913949461
 20
12.7425824072
 30
0.0
 10
16.6945399789
 20
12.6766040248
 30
0.0
 10
16.6966390074
 20
12.6103518817
 30
0.0
 10
16.6976885578
 20
12.5439353697
 30
0.0
 10
16.6976868932
 20
12.4774641536
 30
0.0
 10
16.6966340162
 20
12.4110479891
 30
0.0
 10
16.6945316694
 20
12.3447965402
 30
0.0
 10
16.6913833321
 20
12.2788191977
 30
0.0
 10
16.6871942144
 20
12.2132248969
 30
0.0
 10
16.6819712489
 20
12.1481219369
 30
0.0
 10
16.6757230789
 20
12.0836178007
 30
0.0
 10
16.6684600439
 20
12.0198189759
 30
0.0
 10
16.6601941623
 20
11.9568307779
 30
0.0
 10
16.6509391111
 20
11.8947571747
 30
0.0
 10
16.6407102029
 20
11.8337006114
 30
0.0
 10
16.6295243599
 20
11.7737618452
 30
0.0
 10
16.617400083
 20
11.7150397573
 30
0.0
 10
16.6043574313
 20
11.6576312514
 30
0.0
 10
16.5904179376
 20
11.6016308752
 30
0.0
 10
16.5756047604
 20
11.547131379
 30
0.0
 10
16.5650359751
 20
11.511429164
 30
0.0
 10
16.5596039377
 20
11.4938510848
 30
0.0
  0
SPLINE
  5
3B8
100
AcDbEntity
  8
02___PRT_ALL_AXES
100
AcDbSpline
 62
7
  6
CONTINUOUS
 70
0
 71
3
 72
22
 73
18
 74
0
 42
0.0000001
 43
0.0000001
 44
0.0000000001
 40
0.0
 40
0.0
 40
0.0
 40
0.0
 40
0.055169644
 40
0.1107057048
 40
0.1667630494
 40
0.223491215
 40
0.2810330978
 40
0.3395239934
 40
0.3990907451
 40
0.4598513037
 40
0.5853472661
 40
0.6503039983
 40
0.7168336004
 40
0.7850082177
 40
0.8548916215
 40
0.926539498
 40
1.0
 40
1.0
 40
1.0
 40
1.0
 10
15.7897062514
 20
11.3862967709
 30
0.0
 10
15.7863500266
 20
11.3865516921
 30
0.0
 10
15.7796287089
 20
11.3872614305
 30
0.0
 10
15.7695845915
 20
11.388916365
 30
0.0
 10
15.7595584186
 20
11.3911631472
 30
0.0
 10
15.7495561298
 20
11.3940003975
 30
0.0
 10
15.7395829642
 20
11.3974263635
 30
0.0
 10
15.7296443641
 20
11.4014389956
 30
0.0
 10
15.7197452934
 20
11.4060360743
 30
0.0
 10
15.7064651239
 20
11.4130152995
 30
0.0
 10
15.6934204399
 20
11.4211087593
 30
0.0
 10
15.6806504894
 20
11.4302101687
 30
0.0
 10
15.6710267955
 20
11.4376838775
 30
0.0
 10
15.6614735981
 20
11.445721694
 30
0.0
 10
15.6519953182
 20
11.4543196818
 30
0.0
 10
15.642597076
 20
11.4634730527
 30
0.0
 10
15.6364655895
 20
11.4698616745
 30
0.0
 10
15.6334138321
 20
11.4731439665
 30
0.0
  0
SPLINE
  5
3B9
100
AcDbEntity
  8
LAYER_FEATURE
100
AcDbSpline
 62
7
  6
CONTINUOUS
 70
0
 71
3
 72
23
 73
19
 74
0
 42
0.0000001
 43
0.0000001
 44
0.0000000001
 40
0.0
 40
0.0
 40
0.0
 40
0.0
 40
0.0551798279
 40
0.1105574934
 40
0.166328212
 40
0.222682133
 40
0.279802112
 40
0.3378618103
 40
0.3970243164
 40
0.4574409953
 40
0.5192508763
 40
0.5825804197
 40
0.6475433591
 40
0.7142410921
 40
0.7827630475
 40
0.8531871168
 40
0.9255804628
 40
1.0
 40
1.0
 40
1.0
 40
1.0
 10
14.9384379655
 20
14.5328049816
 30
0.0
 10
14.9450960385
 20
14.5328049751
 30
0.0
 10
14.9584401131
 20
14.5323698139
 30
0.0
 10
14.9784272588
 20
14.5304131157
 30
0.0
 10
14.9983878411
 20
14.5271537881
 30
0.0
 10
15.0183072003
 20
14.5225943773
 30
0.0
 10
15.0381722791
 20
14.5167384269
 30
0.0
 10
15.0579698922
 20
14.5095904808
 30
0.0
 10
15.077687129
 20
14.5011557702
 30
0.0
 10
15.0973113028
 20
14.4914404365
 30
0.0
 10
15.1168299358
 20
14.4804513648
 30
0.0
 10
15.1362306518
 20
14.4681960745
 30
0.0
 10
15.1555013008
 20
14.4546829402
 30
0.0
 10
15.1746298045
 20
14.4399209526
 30
0.0
 10
15.1936041513
 20
14.4239198378
 30
0.0
 10
15.212412591
 20
14.4066900263
 30
0.0
 10
15.2310430212
 20
14.3882429508
 30
0.0
 10
15.2431676235
 20
14.3753216694
 30
0.0
 10
15.2491988858
 20
14.3686691199
 30
0.0
  0
SPLINE
  5
3BA
100
AcDbEntity
  8
LAYER_FEATURE
100
AcDbSpline
 62
7
  6
CONTINUOUS
 70
0
 71
3
 72
23
 73
19
 74
0
 42
0.0000001
 43
0.0000001
 44
0.0000000001
 40
0.0
 40
0.0
 40
0.0
 40
0.0
 40
0.0551773899
 40
0.1105526888
 40
0.1663212018
 40
0.222673126
 40
0.2797913889
 40
0.3378497321
 40
0.3970112415
 40
0.4574273767
 40
0.5192371867
 40
0.5825671088
 40
0.6475309822
 40
0.7142301466
 40
0.7827540399
 40
0.8531806209
 40
0.9255769475
 40
1.0
 40
1.0
 40
1.0
 40
1.0
 10
14.9384379655
 20
10.4888050042
 30
0.0
 10
14.9450974671
 20
10.4888049977
 30
0.0
 10
14.958444415
 20
10.4892403883
 30
0.0
 10
14.9784358599
 20
10.4911978714
 30
0.0
 10
14.9984007123
 20
10.4944586444
 30
0.0
 10
15.0183243214
 20
10.4990200001
 30
0.0
 10
15.0381936207
 20
10.5048784435
 30
0.0
 10
15.0579953866
 20
10.5120294909
 30
0.0
 10
15.077716754
 20
10.5204677739
 30
0.0
 10
15.0973449801
 20
10.530187265
 30
0.0
 10
15.1168675867
 20
10.5411810387
 30
0.0
 10
15.136272238
 20
10.5534415026
 30
0.0
 10
15.1555466972
 20
10.5669603924
 30
0.0
 10
15.1746789397
 20
10.5817286201
 30
0.0
 10
15.1936569445
 20
10.597736464
 30
0.0
 10
15.2124688927
 20
10.6149735456
 30
0.0
 10
15.2311027695
 20
10.6334283286
 30
0.0
 10
15.2432294947
 20
10.6463549814
 30
0.0
 10
15.2492618149
 20
10.6530102809
 30
0.0
  0
SPLINE
  5
3BB
100
AcDbEntity
  8
LAYER_FEATURE
100
AcDbSpline
 62
7
  6
CONTINUOUS
 70
0
 71
3
 72
76
 73
72
 74
0
 42
0.0000001
 43
0.0000001
 44
0.0000000001
 40
0.0
 40
0.0
 40
0.0
 40
0.0
 40
0.003844795
 40
0.0076961762
 40
0.0115606884
 40
0.0154447937
 40
0.019354833
 40
0.023296992
 40
0.0272772649
 40
0.0313014342
 40
0.0353750364
 40
0.0395033566
 40
0.0479424267
 40
0.0566568943
 40
0.0656787693
 40
0.0750354784
 40
0.0847500596
 40
0.0948414419
 40
0.1053247677
 40
0.1162117284
 40
0.1275108904
 40
0.1392280025
 40
0.1513662764
 40
0.1639266392
 40
0.1769079586
 40
0.1903072408
 40
0.2041198056
 40
0.2183394415
 40
0.2329585416
 40
0.2479682243
 40
0.2633584403
 40
0.279118068
 40
0.2952349999
 40
0.3116962198
 40
0.3284878741
 40
0.3455953363
 40
0.3630032677
 40
0.3806956735
 40
0.3986559559
 40
0.4168669632
 40
0.4353110373
 40
0.4539700591
 40
0.4728254919
 40
0.4918584232
 40
0.5110496059
 40
0.5303794977
 40
0.5498283011
 40
0.5693760014
 40
0.5890024044
 40
0.6086871742
 40
0.6284098701
 40
0.6481499834
 40
0.6678869744
 40
0.6876003086
 40
0.7072694942
 40
0.7268741183
 40
0.7463938841
 40
0.7658086482
 40
0.7850984578
 40
0.8042435891
 40
0.8232245854
 40
0.842022297
 40
0.8606179209
 40
0.8789930429
 40
0.8971296788
 40
0.9150103218
 40
0.9326179765
 40
0.9499362451
 40
0.9669492659
 40
0.9836420483
 40
1.0
 40
1.0
 40
1.0
 40
1.0
 10
16.0633186269
 20
14.5328049918
 30
0.0
 10
16.0679160089
 20
14.5328049955
 30
0.0
 10
16.0771199871
 20
14.5325978481
 30
0.0
 10
16.0909165659
 20
14.5316661765
 30
0.0
 10
16.104704689
 20
14.5301137092
 30
0.0
 10
16.1184796333
 20
14.5279410113
 30
0.0
 10
16.1322371668
 20
14.5251488413
 30
0.0
 10
16.1459729289
 20
14.5217380946
 30
0.0
 10
16.1596826775
 20
14.5177100025
 30
0.0
 10
16.1733620617
 20
14.5130658292
 30
0.0
 10
16.1870070883
 20
14.5078071163
 30
0.0
 10
16.2052809135
 20
14.4999214913
 30
0.0
 10
16.2280442552
 20
14.4884872502
 30
0.0
 10
16.2549451746
 20
14.4724398989
 30
0.0
 10
16.281601074
 20
14.4539875918
 30
0.0
 10
16.3079795418
 20
14.4331551776
 30
0.0
 10
16.334050253
 20
14.4099691967
 30
0.0
 10
16.3597827212
 20
14.3844587557
 30
0.0
 10
16.3851468466
 20
14.3566553847
 30
0.0
 10
16.4101127449
 20
14.3265931737
 30
0.0
 10
16.4346508266
 20
14.2943088038
 30
0.0
 10
16.4587318329
 20
14.259841576
 30
0.0
 10
16.4823268982
 20
14.2232334127
 30
0.0
 10
16.5054076096
 20
14.1845288405
 30
0.0
 10
16.5279460665
 20
14.1437749584
 30
0.0
 10
16.5499149383
 20
14.1010213954
 30
0.0
 10
16.5712875181
 20
14.056320258
 30
0.0
 10
16.5920377695
 20
14.0097260681
 30
0.0
 10
16.6121403719
 20
13.9612956966
 30
0.0
 10
16.6315707624
 20
13.9110882937
 30
0.0
 10
16.6503051739
 20
13.8591652145
 30
0.0
 10
16.668320671
 20
13.8055899419
 30
0.0
 10
16.6855951837
 20
13.7504280071
 30
0.0
 10
16.7021075379
 20
13.6937469068
 30
0.0
 10
16.7178374847
 20
13.6356160191
 30
0.0
 10
16.7327657304
 20
13.5761065173
 30
0.0
 10
16.7468739594
 20
13.5152912793
 30
0.0
 10
16.7601448586
 20
13.4532447964
 30
0.0
 10
16.7725621391
 20
13.39004308
 30
0.0
 10
16.784110558
 20
13.3257635672
 30
0.0
 10
16.794775937
 20
13.2604850252
 30
0.0
 10
16.8045451807
 20
13.1942874529
 30
0.0
 10
16.813406293
 20
13.1272519829
 30
0.0
 10
16.8213483917
 20
13.0594607808
 30
0.0
 10
16.8283617245
 20
12.9909969443
 30
0.0
 10
16.83443768
 20
12.9219444002
 30
0.0
 10
16.8395687969
 20
12.8523878
 30
0.0
 10
16.8437487743
 20
12.7824124161
 30
0.0
 10
16.8469724789
 20
12.7121040361
 30
0.0
 10
16.8492359515
 20
12.641548858
 30
0.0
 10
16.8505364118
 20
12.5708333834
 30
0.0
 10
16.8508722621
 20
12.5000443115
 30
0.0
 10
16.8502430889
 20
12.4292684326
 30
0.0
 10
16.8486496647
 20
12.3585925205
 30
0.0
 10
16.8460939477
 20
12.288103226
 30
0.0
 10
16.8425790772
 20
12.2178869699
 30
0.0
 10
16.8381093702
 20
12.1480298363
 30
0.0
 10
16.8326903161
 20
12.0786174675
 30
0.0
 10
16.8263285698
 20
12.0097349578
 30
0.0
 10
16.8190319433
 20
11.941466749
 30
0.0
 10
16.8108093966
 20
11.8738965268
 30
0.0
 10
16.8016710258
 20
11.8071071167
 30
0.0
 10
16.7916280516
 20
11.7411803816
 30
0.0
 10
16.7806928063
 20
11.676197121
 30
0.0
 10
16.7688787174
 20
11.6122369672
 30
0.0
 10
16.7562002872
 20
11.5493783019
 30
0.0
 10
16.7426730821
 20
11.4876981101
 30
0.0
 10
16.7283137044
 20
11.4272720327
 30
0.0
 10
16.7131397559
 20
11.3681738685
 30
0.0
 10
16.6971699321
 20
11.3104764532
 30
0.0
 10
16.6858882863
 20
11.2725975603
 30
0.0
 10
16.6801132812
 20
11.2539096371
 30
0.0
  0
SPLINE
  5
3BC
100
AcDbEntity
  8
LAYER_FEATURE
100
AcDbSpline
 62
7
  6
CONTINUOUS
 70
0
 71
3
 72
40
 73
36
 74
0
 42
0.0000001
 43
0.0000001
 44
0.0000000001
 40
0.0
 40
0.0
 40
0.0
 40
0.0
 40
0.0212769315
 40
0.0426476445
 40
0.0642044008
 40
0.0860365287
 40
0.1082291822
 40
0.1308623282
 40
0.1540100245
 40
0.1777399511
 40
0.1898437623
 40
0.2021154598
 40
0.2271863395
 40
0.2530027765
 40
0.2796063772
 40
0.3070327675
 40
0.3353119866
 40
0.3644688756
 40
0.394523432
 40
0.4254911924
 40
0.4573836119
 40
0.4902083816
 40
0.5239697055
 40
0.5586686149
 40
0.5943032267
 40
0.6308689408
 40
0.6683586538
 40
0.7067629766
 40
0.746070388
 40
0.7862673365
 40
0.8273385109
 40
0.869266801
 40
0.9120332894
 40
0.9556187955
 40
1.0
 40
1.0
 40
1.0
 40
1.0
 10
16.0633186269
 20
10.488804994
 30
0.0
 10
16.0707043769
 20
10.488805
 30
0.0
 10
16.0855139607
 20
10.48934093
 30
0.0
 10
16.1076885404
 20
10.4917500432
 30
0.0
 10
16.1298263446
 20
10.4957624003
 30
0.0
 10
16.1519072272
 20
10.5013739409
 30
0.0
 10
16.1739133109
 20
10.5085791131
 30
0.0
 10
16.1958267341
 20
10.5173710347
 30
0.0
 10
16.2176297004
 20
10.5277413545
 30
0.0
 10
16.2355737652
 20
10.5376255703
 30
0.0
 10
16.2498497257
 20
10.5462915024
 30
0.0
 10
16.2642733694
 20
10.5555990078
 30
0.0
 10
16.2822089871
 20
10.5682264893
 30
0.0
 10
16.3034028574
 20
10.5848077333
 30
0.0
 10
16.3244038376
 20
10.6029108307
 30
0.0
 10
16.3451954287
 20
10.6225208921
 30
0.0
 10
16.3657618207
 20
10.6436223529
 30
0.0
 10
16.3860871495
 20
10.6661984727
 30
0.0
 10
16.4061557574
 20
10.6902314091
 30
0.0
 10
16.4259521306
 20
10.7157021988
 30
0.0
 10
16.4454609002
 20
10.7425907988
 30
0.0
 10
16.4646668668
 20
10.7708760655
 30
0.0
 10
16.4835550672
 20
10.8005357313
 30
0.0
 10
16.5021107338
 20
10.8315464609
 30
0.0
 10
16.5203193104
 20
10.8638838655
 30
0.0
 10
16.538166511
 20
10.8975224854
 30
0.0
 10
16.5556383245
 20
10.9324358193
 30
0.0
 10
16.5727209969
 20
10.9685963685
 30
0.0
 10
16.5894010523
 20
11.0059756382
 30
0.0
 10
16.6056653714
 20
11.0445441548
 30
0.0
 10
16.6215011178
 20
11.0842715021
 30
0.0
 10
16.636895747
 20
11.1251262658
 30
0.0
 10
16.6518372352
 20
11.1670764744
 30
0.0
 10
16.6663135559
 20
11.2100885731
 30
0.0
 10
16.6755647547
 20
11.2391905999
 30
0.0
 10
16.6801132812
 20
11.2539096371
 30
0.0
  0
SPLINE
  5
3BD
100
AcDbEntity
  8
02___PRT_ALL_AXES
100
AcDbSpline
 62
7
  6
CONTINUOUS
 70
0
 71
3
 72
26
 73
22
 74
0
 42
0.0000001
 43
0.0000001
 44
0.0000000001
 40
0.0
 40
0.0
 40
0.0
 40
0.0
 40
0.0883957577
 40
0.1735566563
 40
0.2552964731
 40
0.3334660862
 40
0.407940654
 40
0.4786328926
 40
0.5454962711
 40
0.6085331839
 40
0.6678039226
 40
0.7234376961
 40
0.7756455652
 40
0.8247343866
 40
0.8711197346
 40
0.8934723804
 40
0.9153584949
 40
0.9368621925
 40
0.9580732947
 40
0.9790865546
 40
1.0
 40
1.0
 40
1.0
 40
1.0
 10
15.8959255464
 20
11.4115948583
 30
0.0
 10
15.8967551002
 20
11.4086984919
 30
0.0
 10
15.8984745512
 20
11.403037157
 30
0.0
 10
15.9012916675
 20
11.3948025337
 30
0.0
 10
15.9042912341
 20
11.3870045801
 30
0.0
 10
15.9074628984
 20
11.3796699377
 30
0.0
 10
15.9107960346
 20
11.3728233012
 30
0.0
 10
15.9142794176
 20
11.3664877855
 30
0.0
 10
15.9179015099
 20
11.3606846544
 30
0.0
 10
15.921650472
 20
11.3554333326
 30
0.0
 10
15.925514344
 20
11.3507513881
 30
0.0
 10
15.9294810685
 20
11.34665464
 30
0.0
 10
15.9335388893
 20
11.3431572373
 30
0.0
 10
15.9376752174
 20
11.3402723004
 30
0.0
 10
15.9412219509
 20
11.3383649763
 30
0.0
 10
15.9440737185
 20
11.337173292
 30
0.0
 10
15.9461962704
 20
11.3364496101
 30
0.0
 10
15.9483266002
 20
11.3358858983
 30
0.0
 10
15.9504629382
 20
11.3354828298
 30
0.0
 10
15.952603132
 20
11.3352407776
 30
0.0
 10
15.9540327124
 20
11.3351869216
 30
0.0
 10
15.9547455124
 20
11.3351869269
 30
0.0
  0
SPLINE
  5
3BE
100
AcDbEntity
  8
LAYER_CHAMFER_FEAT
100
AcDbSpline
 62
7
  6
CONTINUOUS
 70
0
 71
3
 72
15
 73
11
 74
0
 42
0.0000001
 43
0.0000001
 44
0.0000000001
 40
0.0
 40
0.0
 40
0.0
 40
0.0
 40
0.1375060016
 40
0.2714667399
 40
0.4018485959
 40
0.5286396659
 40
0.6518353097
 40
0.7714433989
 40
0.887486029
 40
1.0
 40
1.0
 40
1.0
 40
1.0
 10
15.6950352956
 20
11.3279813594
 30
0.0
 10
15.6994743816
 20
11.3189354531
 30
0.0
 10
15.7084480644
 20
11.3011788481
 30
0.0
 10
15.7223847749
 20
11.2752347229
 30
0.0
 10
15.736611574
 20
11.2503485556
 30
0.0
 10
15.7511160896
 20
11.2265419833
 30
0.0
 10
15.7658861247
 20
11.2038350915
 30
0.0
 10
15.7809092407
 20
11.182247184
 30
0.0
 10
15.7961724566
 20
11.1617970657
 30
0.0
 10
15.8066604773
 20
11.1487332233
 30
0.0
 10
15.8119438601
 20
11.1424034687
 30
0.0
  0
SPLINE
  5
3BF
100
AcDbEntity
  8
LAYER_CHAMFER_FEAT
100
AcDbSpline
 62
7
  6
CONTINUOUS
 70
0
 71
3
 72
63
 73
59
 74
0
 42
0.0000001
 43
0.0000001
 44
0.0000000001
 40
0.0
 40
0.0
 40
0.0
 40
0.0
 40
0.0101613709
 40
0.0206685404
 40
0.0315252142
 40
0.0427334051
 40
0.05429358
 40
0.0662048086
 40
0.0784648886
 40
0.0910704462
 40
0.1040170317
 40
0.1172992177
 40
0.1309106762
 40
0.1448442392
 40
0.1590919636
 40
0.173645197
 40
0.188494627
 40
0.2036303196
 40
0.2190417686
 40
0.2347179413
 40
0.2506473131
 40
0.2668178949
 40
0.2832172744
 40
0.2998326495
 40
0.3166508549
 40
0.3336583864
 40
0.3508414352
 40
0.3681859156
 40
0.3856774869
 40
0.4033015772
 40
0.4388873106
 40
0.4748236889
 40
0.5109884139
 40
0.5472578355
 40
0.5835076856
 40
0.6196138109
 40
0.6554529077
 40
0.6909032591
 40
0.7084456225
 40
0.7258462657
 40
0.7430907617
 40
0.7601649271
 40
0.7770548452
 40
0.7937468963
 40
0.8102277888
 40
0.8264845817
 40
0.8425047118
 40
0.8582760314
 40
0.8737868426
 40
0.8890259236
 40
0.903982566
 40
0.9186466239
 40
0.9330085447
 40
0.9470594353
 40
0.9607910817
 40
0.9741959357
 40
0.9872676774
 40
1.0
 40
1.0
 40
1.0
 40
1.0
 10
15.8119438594
 20
13.8792065212
 30
0.0
 10
15.8062015355
 20
13.87232694
 30
0.0
 10
15.7948105173
 20
13.8580901542
 30
0.0
 10
15.7782774177
 20
13.8357312749
 30
0.0
 10
15.7620298789
 20
13.8120359181
 30
0.0
 10
15.7460844311
 20
13.7870283396
 30
0.0
 10
15.7304568174
 20
13.7607335063
 30
0.0
 10
15.7151626689
 20
13.7331778502
 30
0.0
 10
15.7002172922
 20
13.7043890209
 30
0.0
 10
15.685635678
 20
13.6743959463
 30
0.0
 10
15.6714324523
 20
13.6432287914
 30
0.0
 10
15.6576218974
 20
13.6109189074
 30
0.0
 10
15.6442179295
 20
13.5774988023
 30
0.0
 10
15.6312340502
 20
13.5430021284
 30
0.0
 10
15.6186833375
 20
13.5074636424
 30
0.0
 10
15.6065784543
 20
13.4709191526
 30
0.0
 10
15.5949316335
 20
13.4334054869
 30
0.0
 10
15.5837546256
 20
13.394960472
 30
0.0
 10
15.5730587104
 20
13.3556228841
 30
0.0
 10
15.5628546967
 20
13.3154323991
 30
0.0
 10
15.5531529098
 20
13.2744295579
 30
0.0
 10
15.5439631416
 20
13.2326557371
 30
0.0
 10
15.535294675
 20
13.1901530955
 30
0.0
 10
15.5271562781
 20
13.1469645256
 30
0.0
 10
15.5195561903
 20
13.103133616
 30
0.0
 10
15.5125020812
 20
13.0587046169
 30
0.0
 10
15.5060010776
 20
13.0137223748
 30
0.0
 10
15.5000597698
 20
12.9682323231
 30
0.0
 10
15.4946841396
 20
12.9222802975
 30
0.0
 10
15.4882578394
 20
12.860260152
 30
0.0
 10
15.4816868139
 20
12.7819087548
 30
0.0
 10
15.4761568007
 20
12.6870924017
 30
0.0
 10
15.4729795009
 20
12.5915646434
 30
0.0
 10
15.4721678227
 20
12.4957112237
 30
0.0
 10
15.4737250342
 20
12.399918687
 30
0.0
 10
15.4776448365
 20
12.3045733248
 30
0.0
 10
15.4839113283
 20
12.2100601447
 30
0.0
 10
15.4910924622
 20
12.1320406167
 30
0.0
 10
15.4980024879
 20
12.0703458223
 30
0.0
 10
15.5037349771
 20
12.0246792417
 30
0.0
 10
15.5100294125
 20
11.9795036073
 30
0.0
 10
15.5168794628
 20
11.9348644351
 30
0.0
 10
15.5242782016
 20
11.890806817
 30
0.0
 10
15.5322181579
 20
11.847375223
 30
0.0
 10
15.5406912897
 20
11.8046134894
 30
0.0
 10
15.5496890306
 20
11.7625647734
 30
0.0
 10
15.5592022981
 20
11.7212715151
 30
0.0
 10
15.5692214788
 20
11.6807753823
 30
0.0
 10
15.5797364353
 20
11.6411172263
 30
0.0
 10
15.5907365443
 20
11.6023370522
 30
0.0
 10
15.6022107097
 20
11.5644739777
 30
0.0
 10
15.6141473413
 20
11.5275661841
 30
0.0
 10
15.6265343756
 20
11.4916508638
 30
0.0
 10
15.6393593257
 20
11.4567642029
 30
0.0
 10
15.6526092492
 20
11.4229414462
 30
0.0
 10
15.6662708513
 20
11.3902163589
 30
0.0
 10
15.6803302278
 20
11.3586224404
 30
0.0
 10
15.6900886702
 20
11.338061522
 30
0.0
 10
15.6950352956
 20
11.3279813594
 30
0.0
  0
SPLINE
  5
3C0
100
AcDbEntity
  8
LAYER_CHAMFER_FEAT
100
AcDbSpline
 62
7
  6
CONTINUOUS
 70
0
 71
3
 72
23
 73
19
 74
0
 42
0.0000001
 43
0.0000001
 44
0.0000000001
 40
0.0
 40
0.0
 40
0.0
 40
0.0
 40
0.0738846854
 40
0.1458216554
 40
0.2158690907
 40
0.2840945764
 40
0.3505759016
 40
0.4154014935
 40
0.4786707838
 40
0.5404947241
 40
0.6009956619
 40
0.6603075613
 40
0.7185754231
 40
0.7759547962
 40
0.8326107211
 40
0.8887163673
 40
0.9444514145
 40
1.0
 40
1.0
 40
1.0
 40
1.0
 10
15.7893032607
 20
11.1710773852
 30
0.0
 10
15.7935128546
 20
11.1666020927
 30
0.0
 10
15.801972775
 20
11.1579104875
 30
0.0
 10
15.8149577355
 20
11.1455099439
 30
0.0
 10
15.8280584712
 20
11.1339299819
 30
0.0
 10
15.8412671483
 20
11.1231778933
 30
0.0
 10
15.8545760507
 20
11.1132602012
 30
0.0
 10
15.8679773437
 20
11.1041830338
 30
0.0
 10
15.8814631925
 20
11.0959521281
 30
0.0
 10
15.8950255865
 20
11.088572631
 30
0.0
 10
15.9086565407
 20
11.0820494184
 30
0.0
 10
15.9223478545
 20
11.0763867039
 30
0.0
 10
15.9360912922
 20
11.071588387
 30
0.0
 10
15.9498784545
 20
11.067657761
 30
0.0
 10
15.9637007563
 20
11.0645975952
 30
0.0
 10
15.9775497463
 20
11.0624101805
 30
0.0
 10
15.9914159118
 20
11.0610970213
 30
0.0
 10
16.0006725407
 20
11.0608050084
 30
0.0
 10
16.0052917843
 20
11.0608050051
 30
0.0
  0
SPLINE
  5
3C1
100
AcDbEntity
  8
LAYER_CHAMFER_FEAT
100
AcDbSpline
 62
7
  6
CONTINUOUS
 70
0
 71
3
 72
22
 73
18
 74
0
 42
0.0000001
 43
0.0000001
 44
0.0000000001
 40
0.0
 40
0.0
 40
0.0
 40
0.0
 40
0.055547619
 40
0.1112817903
 40
0.1673867511
 40
0.2240422439
 40
0.2814215535
 40
0.3396897508
 40
0.3990024848
 40
0.4595047915
 40
0.5213306674
 40
0.5846025406
 40
0.7158831813
 40
0.7841131941
 40
0.8541658683
 40
0.926108749
 40
1.0
 40
1.0
 40
1.0
 40
1.0
 10
16.0052917843
 20
13.9608049807
 30
0.0
 10
16.0006713496
 20
13.960804984
 30
0.0
 10
15.9914123254
 20
13.9605128004
 30
0.0
 10
15.9775425774
 20
13.9591989896
 30
0.0
 10
15.9636900272
 20
13.957010413
 30
0.0
 10
15.9498641732
 20
13.953948702
 30
0.0
 10
15.9360735022
 20
13.9500160187
 30
0.0
 10
15.922326579
 20
13.9452152552
 30
0.0
 10
15.9086318123
 20
13.9395496095
 30
0.0
 10
15.8949975261
 20
13.9330230814
 30
0.0
 10
15.8814315551
 20
13.9256396766
 30
0.0
 10
15.8632240238
 20
13.9145239607
 30
0.0
 10
15.8454051044
 20
13.9018029398
 30
0.0
 10
15.8280146186
 20
13.8876428402
 30
0.0
 10
15.814910497
 20
13.8760566992
 30
0.0
 10
15.8019227529
 20
13.8636499894
 30
0.0
 10
15.7934609887
 20
13.854954025
 30
0.0
 10
15.7892504983
 20
13.8504765043
 30
0.0
  0
LINE
  5
3C2
100
AcDbEntity
  8
02___PRT_ALL_AXES
100
AcDbLine
 62
7
  6
CONTINUOUS
 10
15.7851386748
 20
13.6349050576
 11
15.6642924971
 21
13.6257605963
  0
LINE
  5
3C3
100
AcDbEntity
  8
02___PRT_ALL_AXES
100
AcDbLine
 62
7
  6
CONTINUOUS
 10
15.8959255464
 20
11.4115948583
 11
15.6875186732
 21
11.4254978306
  0
SPLINE
  5
3C4
100
AcDbEntity
  8
LAYER_FEATURE
100
AcDbSpline
 62
7
  6
CONTINUOUS
 70
0
 71
3
 72
42
 73
38
 74
0
 42
0.0000001
 43
0.0000001
 44
0.0000000001
 40
0.0
 40
0.0
 40
0.0
 40
0.0
 40
0.0443808407
 40
0.0879661222
 40
0.1307323088
 40
0.1726602914
 40
0.2137311955
 40
0.2539278687
 40
0.2932350055
 40
0.3316390636
 40
0.3691285232
 40
0.4056939865
 40
0.4413283464
 40
0.4760270214
 40
0.5097881186
 40
0.5426126541
 40
0.5745048542
 40
0.60547241
 40
0.6355267564
 40
0.6646834376
 40
0.6929624699
 40
0.7203886753
 40
0.7469920829
 40
0.7728083449
 40
0.79787906
 40
0.8101506641
 40
0.8222543949
 40
0.8459841545
 40
0.8691316982
 40
0.8917646888
 40
0.9139571846
 40
0.9357891645
 40
0.9573457748
 40
0.9680502976
 40
0.9787197543
 40
0.9893657539
 40
1.0
 40
1.0
 40
1.0
 40
1.0
 10
14.2620395343
 20
13.7677003487
 30
0.0
 10
14.2665880548
 20
13.7824193664
 30
0.0
 10
14.275839258
 20
13.8115213978
 30
0.0
 10
14.2903155758
 20
13.8545335005
 30
0.0
 10
14.3052570678
 20
13.8964837255
 30
0.0
 10
14.3206517012
 20
13.9373384821
 30
0.0
 10
14.3364874442
 20
13.9770658283
 30
0.0
 10
14.3527517602
 20
14.0156343497
 30
0.0
 10
14.3694318198
 20
14.0530136159
 30
0.0
 10
14.3865144947
 20
14.0891741636
 30
0.0
 10
14.4039863025
 20
14.1240875019
 30
0.0
 10
14.4218335008
 20
14.1577261223
 30
0.0
 10
14.4400420884
 20
14.1900635199
 30
0.0
 10
14.4585977492
 20
14.2210742537
 30
0.0
 10
14.4774859407
 20
14.2507339259
 30
0.0
 10
14.4966919206
 20
14.2790191823
 30
0.0
 10
14.5162006901
 20
14.3059077817
 30
0.0
 10
14.5359970513
 20
14.3313785829
 30
0.0
 10
14.5560656637
 20
14.355411515
 30
0.0
 10
14.5763910043
 20
14.3779876222
 30
0.0
 10
14.5969573846
 20
14.3990890959
 30
0.0
 10
14.6177489691
 20
14.4186991656
 30
0.0
 10
14.6387499661
 20
14.436802242
 30
0.0
 10
14.6599438347
 20
14.4533834858
 30
0.0
 10
14.6778794308
 20
14.4660110008
 30
0.0
 10
14.6923030985
 20
14.4753184697
 30
0.0
 10
14.7065790439
 20
14.4839844202
 30
0.0
 10
14.7245231231
 20
14.4938686102
 30
0.0
 10
14.7463260827
 20
14.504238963
 30
0.0
 10
14.7682394769
 20
14.5130308824
 30
0.0
 10
14.790245683
 20
14.5202360302
 30
0.0
 10
14.8123261459
 20
14.5258475622
 30
0.0
 10
14.8308190465
 20
14.5291991719
 30
0.0
 10
14.845606092
 20
14.5310705216
 30
0.0
 10
14.8566784993
 20
14.5320711048
 30
0.0
 10
14.8677551013
 20
14.5326715384
 30
0.0
 10
14.875142753
 20
14.5328049852
 30
0.0
 10
14.8788341886
 20
14.5328049816
 30
0.0
  0
SPLINE
  5
3C5
100
AcDbEntity
  8
LAYER_FEATURE
100
AcDbSpline
 62
7
  6
CONTINUOUS
 70
0
 71
3
 72
76
 73
72
 74
0
 42
0.0000001
 43
0.0000001
 44
0.0000000001
 40
0.0
 40
0.0
 40
0.0
 40
0.0
 40
0.0163579517
 40
0.0330507341
 40
0.0500637549
 40
0.0673820235
 40
0.0849896782
 40
0.1028703212
 40
0.1210069571
 40
0.1393820791
 40
0.157977703
 40
0.1767754146
 40
0.1957564109
 40
0.2149015422
 40
0.2341913518
 40
0.2536061159
 40
0.2731258817
 40
0.2927305058
 40
0.3123996914
 40
0.3321130256
 40
0.3518500166
 40
0.3715901299
 40
0.3913128258
 40
0.4109975956
 40
0.4306239986
 40
0.4501716989
 40
0.4696205023
 40
0.4889503941
 40
0.5081415768
 40
0.5271745081
 40
0.5460299409
 40
0.5646889627
 40
0.5831330368
 40
0.6013440441
 40
0.6193043265
 40
0.6369967323
 40
0.6544046637
 40
0.6715121259
 40
0.6883037802
 40
0.7047650001
 40
0.720881932
 40
0.7366415597
 40
0.7520317757
 40
0.7670414584
 40
0.7816605585
 40
0.7958801944
 40
0.8096927592
 40
0.8230920414
 40
0.8360733608
 40
0.8486337236
 40
0.8607719975
 40
0.8724891096
 40
0.8837882716
 40
0.8946752323
 40
0.9051585581
 40
0.9152499404
 40
0.9249645216
 40
0.9343212307
 40
0.9433431057
 40
0.9520575733
 40
0.9604966434
 40
0.9646249636
 40
0.9686985658
 40
0.9727227351
 40
0.976703008
 40
0.980645167
 40
0.9845552063
 40
0.9884393116
 40
0.9923038238
 40
0.996155205
 40
1.0
 40
1.0
 40
1.0
 40
1.0
 10
15.3869201956
 20
13.7677003487
 30
0.0
 10
15.3811451906
 20
13.7490124255
 30
0.0
 10
15.3698635448
 20
13.7111335326
 30
0.0
 10
15.353893721
 20
13.6534361173
 30
0.0
 10
15.3387197725
 20
13.5943379531
 30
0.0
 10
15.3243603948
 20
13.5339118757
 30
0.0
 10
15.3108331896
 20
13.4722316839
 30
0.0
 10
15.2981547595
 20
13.4093730186
 30
0.0
 10
15.2863406706
 20
13.3454128648
 30
0.0
 10
15.2754054253
 20
13.2804296042
 30
0.0
 10
15.2653624511
 20
13.2145028691
 30
0.0
 10
15.2562240802
 20
13.147713459
 30
0.0
 10
15.2480015335
 20
13.0801432368
 30
0.0
 10
15.2407049071
 20
13.0118750281
 30
0.0
 10
15.2343431608
 20
12.9429925183
 30
0.0
 10
15.2289241066
 20
12.8735801495
 30
0.0
 10
15.2244543997
 20
12.8037230159
 30
0.0
 10
15.2209395292
 20
12.7335067598
 30
0.0
 10
15.2183838122
 20
12.6630174653
 30
0.0
 10
15.216790388
 20
12.5923415532
 30
0.0
 10
15.2161612147
 20
12.5215656743
 30
0.0
 10
15.2164970651
 20
12.4507766025
 30
0.0
 10
15.2177975254
 20
12.3800611278
 30
0.0
 10
15.220060998
 20
12.3095059497
 30
0.0
 10
15.2232847026
 20
12.2391975697
 30
0.0
 10
15.22746468
 20
12.1692221858
 30
0.0
 10
15.2325957969
 20
12.0996655857
 30
0.0
 10
15.2386717523
 20
12.0306130415
 30
0.0
 10
15.2456850852
 20
11.962149205
 30
0.0
 10
15.2536271839
 20
11.8943580029
 30
0.0
 10
15.2624882961
 20
11.8273225329
 30
0.0
 10
15.2722575399
 20
11.7611249607
 30
0.0
 10
15.2829229189
 20
11.6958464186
 30
0.0
 10
15.2944713378
 20
11.6315669059
 30
0.0
 10
15.3068886183
 20
11.5683651894
 30
0.0
 10
15.3201595174
 20
11.5063187065
 30
0.0
 10
15.3342677465
 20
11.4455034685
 30
0.0
 10
15.3491959922
 20
11.3859939667
 30
0.0
 10
15.364925939
 20
11.327863079
 30
0.0
 10
15.3814382932
 20
11.2711819787
 30
0.0
 10
15.3987128058
 20
11.2160200439
 30
0.0
 10
15.416728303
 20
11.1624447713
 30
0.0
 10
15.4354627145
 20
11.1105216921
 30
0.0
 10
15.4548931049
 20
11.0603142892
 30
0.0
 10
15.4749957074
 20
11.0118839177
 30
0.0
 10
15.4957459588
 20
10.9652897278
 30
0.0
 10
15.5171185386
 20
10.9205885904
 30
0.0
 10
15.5390874103
 20
10.8778350274
 30
0.0
 10
15.5616258673
 20
10.8370811453
 30
0.0
 10
15.5847065787
 20
10.7983765731
 30
0.0
 10
15.608301644
 20
10.7617684098
 30
0.0
 10
15.6323826503
 20
10.7273011821
 30
0.0
 10
15.656920732
 20
10.6950168121
 30
0.0
 10
15.6818866303
 20
10.6649546012
 30
0.0
 10
15.7072507557
 20
10.6371512301
 30
0.0
 10
15.7329832239
 20
10.6116407891
 30
0.0
 10
15.7590539351
 20
10.5884548082
 30
0.0
 10
15.7854324029
 20
10.567622394
 30
0.0
 10
15.8120883023
 20
10.5491700869
 30
0.0
 10
15.8389892217
 20
10.5331227356
 30
0.0
 10
15.8617525634
 20
10.5216884946
 30
0.0
 10
15.8800263886
 20
10.5138028695
 30
0.0
 10
15.8936714152
 20
10.5085441566
 30
0.0
 10
15.9073507993
 20
10.5038999833
 30
0.0
 10
15.921060548
 20
10.4998718912
 30
0.0
 10
15.9347963101
 20
10.4964611445
 30
0.0
 10
15.9485538436
 20
10.4936689745
 30
0.0
 10
15.9623287878
 20
10.4914962766
 30
0.0
 10
15.9761169109
 20
10.4899438093
 30
0.0
 10
15.9899134898
 20
10.4890121377
 30
0.0
 10
15.9991174679
 20
10.4888049903
 30
0.0
 10
16.00371485
 20
10.488804994
 30
0.0
  0
SPLINE
  5
3C6
100
AcDbEntity
  8
LAYER_FEATURE
100
AcDbSpline
 62
7
  6
CONTINUOUS
 70
0
 71
3
 72
76
 73
72
 74
0
 42
0.0000001
 43
0.0000001
 44
0.0000000001
 40
0.0
 40
0.0
 40
0.0
 40
0.0
 40
0.0163579391
 40
0.0330507417
 40
0.0500637526
 40
0.0673820244
 40
0.084989678
 40
0.1028703208
 40
0.1210069567
 40
0.139382079
 40
0.1579777035
 40
0.1767754153
 40
0.1957564115
 40
0.2149015424
 40
0.2341913517
 40
0.2536061156
 40
0.2731258815
 40
0.2927305059
 40
0.3123996917
 40
0.332113026
 40
0.3518500167
 40
0.3715901299
 40
0.3913128258
 40
0.4109975959
 40
0.4306239992
 40
0.4501716995
 40
0.4696205027
 40
0.488950394
 40
0.5081415762
 40
0.5271745075
 40
0.5460299407
 40
0.5646889633
 40
0.583133038
 40
0.6013440452
 40
0.619304327
 40
0.6369967322
 40
0.6544046631
 40
0.6715121251
 40
0.6883037798
 40
0.7047650006
 40
0.7208819329
 40
0.7366415605
 40
0.7520317762
 40
0.7670414586
 40
0.7816605585
 40
0.7958801945
 40
0.8096927595
 40
0.8230920417
 40
0.8360733608
 40
0.8486337234
 40
0.8607719972
 40
0.8724891095
 40
0.8837882721
 40
0.8946752333
 40
0.9051585595
 40
0.9152499414
 40
0.9249645215
 40
0.9343212298
 40
0.9433431047
 40
0.9520575728
 40
0.9604966435
 40
0.964624963
 40
0.9686985664
 40
0.9727227343
 40
0.9767030087
 40
0.9806451665
 40
0.9845552067
 40
0.9884393115
 40
0.9923038238
 40
0.996155205
 40
1.0
 40
1.0
 40
1.0
 40
1.0
 10
14.2620395343
 20
13.7677003487
 30
0.0
 10
14.2562645337
 20
13.74901244
 30
0.0
 10
14.2449828876
 20
13.7111335378
 30
0.0
 10
14.2290130606
 20
13.6534361262
 30
0.0
 10
14.2138391124
 20
13.5943379452
 30
0.0
 10
14.199479734
 20
13.5339118776
 30
0.0
 10
14.1859525281
 20
13.4722316837
 30
0.0
 10
14.1732740966
 20
13.4093730204
 30
0.0
 10
14.1614600069
 20
13.3454128666
 30
0.0
 10
14.1505247627
 20
13.2804296047
 30
0.0
 10
14.1404817916
 20
13.2145028678
 30
0.0
 10
14.1313434225
 20
13.1477134566
 30
0.0
 10
14.1231208757
 20
13.0801432347
 30
0.0
 10
14.1158242477
 20
13.0118750272
 30
0.0
 10
14.1094624987
 20
12.9429925188
 30
0.0
 10
14.104043442
 20
12.8735801508
 30
0.0
 10
14.0995737336
 20
12.8037230172
 30
0.0
 10
14.096058865
 20
12.7335067603
 30
0.0
 10
14.0935031519
 20
12.6630174651
 30
0.0
 10
14.0919097313
 20
12.5923415529
 30
0.0
 10
14.091280559
 20
12.5215656743
 30
0.0
 10
14.0916164075
 20
12.4507766028
 30
0.0
 10
14.0929168643
 20
12.380061128
 30
0.0
 10
14.0951803332
 20
12.3095059491
 30
0.0
 10
14.0984040357
 20
12.2391975684
 30
0.0
 10
14.1025840149
 20
12.1692221845
 30
0.0
 10
14.1077151353
 20
12.0996655855
 30
0.0
 10
14.1137910942
 20
12.0306130432
 30
0.0
 10
14.1208044291
 20
11.9621492081
 30
0.0
 10
14.1287465272
 20
11.8943580061
 30
0.0
 10
14.1376076363
 20
11.8273225342
 30
0.0
 10
14.1473768762
 20
11.7611249592
 30
0.0
 10
14.1580422532
 20
11.6958464153
 30
0.0
 10
14.1695906733
 20
11.6315669029
 30
0.0
 10
14.1820079562
 20
11.5683651885
 30
0.0
 10
14.1952788575
 20
11.5063187082
 30
0.0
 10
14.209387088
 20
11.4455034722
 30
0.0
 10
14.2243153339
 20
11.3859939708
 30
0.0
 10
14.2400452795
 20
11.3278630816
 30
0.0
 10
14.2565576309
 20
11.2711819784
 30
0.0
 10
14.2738321426
 20
11.2160200418
 30
0.0
 10
14.2918476405
 20
11.1624447695
 30
0.0
 10
14.3105820529
 20
11.1105216916
 30
0.0
 10
14.3300124442
 20
11.0603142901
 30
0.0
 10
14.3501150468
 20
11.0118839193
 30
0.0
 10
14.3708652979
 20
10.9652897289
 30
0.0
 10
14.3922378771
 20
10.9205885908
 30
0.0
 10
14.4142067484
 20
10.8778350276
 30
0.0
 10
14.4367452063
 20
10.8370811468
 30
0.0
 10
14.4598259183
 20
10.798376576
 30
0.0
 10
14.4834209837
 20
10.761768413
 30
0.0
 10
14.5075019896
 20
10.727301184
 30
0.0
 10
14.5320400705
 20
10.6950168113
 30
0.0
 10
14.5570059678
 20
10.6649545973
 30
0.0
 10
14.5823700923
 20
10.6371512245
 30
0.0
 10
14.608102561
 20
10.6116407858
 30
0.0
 10
14.6341732747
 20
10.5884548118
 30
0.0
 10
14.6605517437
 20
10.5676224034
 30
0.0
 10
14.6872076422
 20
10.5491700954
 30
0.0
 10
14.7141085628
 20
10.5331227458
 30
0.0
 10
14.7368718958
 20
10.5216884834
 30
0.0
 10
14.7551457337
 20
10.5138028858
 30
0.0
 10
14.7687907449
 20
10.5085441349
 30
0.0
 10
14.7824701478
 20
10.5039000131
 30
0.0
 10
14.7961798775
 20
10.4998718612
 30
0.0
 10
14.8099156556
 20
10.4964611722
 30
0.0
 10
14.8236731778
 20
10.4936689542
 30
0.0
 10
14.8374481283
 20
10.4914962869
 30
0.0
 10
14.8512362493
 20
10.4899438131
 30
0.0
 10
14.8650328279
 20
10.4890121215
 30
0.0
 10
14.8742368066
 20
10.4888050087
 30
0.0
 10
14.8788341886
 20
10.4888050042
 30
0.0
  0
SPLINE
  5
3C7
100
AcDbEntity
  8
LAYER_FEATURE
100
AcDbSpline
 62
7
  6
CONTINUOUS
 70
0
 71
3
 72
40
 73
36
 74
0
 42
0.0000001
 43
0.0000001
 44
0.0000000001
 40
0.0
 40
0.0
 40
0.0
 40
0.0
 40
0.0443812045
 40
0.0879667106
 40
0.130733199
 40
0.1726614891
 40
0.2137326635
 40
0.253929612
 40
0.2932370234
 40
0.3316413462
 40
0.3691310592
 40
0.4056967733
 40
0.4413313851
 40
0.4760302945
 40
0.5097916184
 40
0.5426163881
 40
0.5745088076
 40
0.605476568
 40
0.6355311244
 40
0.6646880134
 40
0.6929672325
 40
0.7203936228
 40
0.7469972235
 40
0.7728136605
 40
0.7978845402
 40
0.8101562377
 40
0.8222600489
 40
0.8459899755
 40
0.8691376718
 40
0.8917708178
 40
0.9139634713
 40
0.9357955992
 40
0.9573523555
 40
0.9787230685
 40
1.0
 40
1.0
 40
1.0
 40
1.0
 10
15.3869201956
 20
13.7677003487
 30
0.0
 10
15.3914687221
 20
13.7824193859
 30
0.0
 10
15.400719921
 20
13.8115214127
 30
0.0
 10
15.4151962417
 20
13.8545335114
 30
0.0
 10
15.4301377298
 20
13.89648372
 30
0.0
 10
15.4455323591
 20
13.9373384837
 30
0.0
 10
15.4613681054
 20
13.977065831
 30
0.0
 10
15.4776324246
 20
14.0156343476
 30
0.0
 10
15.4943124799
 20
14.0530136173
 30
0.0
 10
15.5113951523
 20
14.0891741665
 30
0.0
 10
15.5288669659
 20
14.1240875004
 30
0.0
 10
15.5467141664
 20
14.1577261203
 30
0.0
 10
15.5649227431
 20
14.1900635249
 30
0.0
 10
15.5834784097
 20
14.2210742545
 30
0.0
 10
15.6023666101
 20
14.2507339203
 30
0.0
 10
15.6215725767
 20
14.279019187
 30
0.0
 10
15.6410813463
 20
14.305907787
 30
0.0
 10
15.6608777195
 20
14.3313785767
 30
0.0
 10
15.6809463274
 20
14.3554115131
 30
0.0
 10
15.7012716561
 20
14.3779876329
 30
0.0
 10
15.7218380482
 20
14.3990890937
 30
0.0
 10
15.7426296393
 20
14.4186991551
 30
0.0
 10
15.7636306195
 20
14.4368022525
 30
0.0
 10
15.7848244898
 20
14.4533834965
 30
0.0
 10
15.8027601075
 20
14.466010978
 30
0.0
 10
15.8171837511
 20
14.4753184834
 30
0.0
 10
15.8314597117
 20
14.4839844155
 30
0.0
 10
15.8494037765
 20
14.4938686313
 30
0.0
 10
15.8712067428
 20
14.5042389511
 30
0.0
 10
15.893120166
 20
14.5130308727
 30
0.0
 10
15.9151262497
 20
14.5202360449
 30
0.0
 10
15.9372071323
 20
14.5258475855
 30
0.0
 10
15.9593449364
 20
14.5298599427
 30
0.0
 10
15.9815195161
 20
14.5322690559
 30
0.0
 10
15.9963291
 20
14.5328049858
 30
0.0
 10
16.00371485
 20
14.5328049918
 30
0.0
  0
SPLINE
  5
3C8
100
AcDbEntity
  8
LAYER_FEATURE
100
AcDbSpline
 62
7
  6
CONTINUOUS
 70
0
 71
3
 72
15
 73
11
 74
0
 42
0.0000001
 43
0.0000001
 44
0.0000000001
 40
0.0
 40
0.0
 40
0.0
 40
0.0
 40
0.1005954625
 40
0.2041294704
 40
0.3132459932
 40
0.4301038807
 40
0.5563074105
 40
0.6929665063
 40
0.8407822855
 40
1.0
 40
1.0
 40
1.0
 40
1.0
 10
14.5523079721
 20
14.0154264984
 30
0.0
 10
14.5520981107
 20
14.0154264997
 30
0.0
 10
14.551671236
 20
14.0153857475
 30
0.0
 10
14.5510400294
 20
14.0152043588
 30
0.0
 10
14.5504180304
 20
14.0149048355
 30
0.0
 10
14.5498087294
 20
14.0144901599
 30
0.0
 10
14.5492145987
 20
14.0139634296
 30
0.0
 10
14.5486381581
 20
14.0133276461
 30
0.0
 10
14.5480820613
 20
14.0125863143
 30
0.0
 10
14.5477392853
 20
14.0120444138
 30
0.0
 10
14.5475711643
 20
14.0117579443
 30
0.0
  0
SPLINE
  5
3C9
100
AcDbEntity
  8
LAYER_FEATURE
100
AcDbSpline
 62
7
  6
CONTINUOUS
 70
0
 71
3
 72
15
 73
11
 74
0
 42
0.0000001
 43
0.0000001
 44
0.0000000001
 40
0.0
 40
0.0
 40
0.0
 40
0.0
 40
0.106335346
 40
0.2147840515
 40
0.327313558
 40
0.4456249078
 40
0.5711118361
 40
0.7048651131
 40
0.8476805009
 40
1.0
 40
1.0
 40
1.0
 40
1.0
 10
14.6149669753
 20
14.1204163765
 30
0.0
 10
14.6147948237
 20
14.1204163821
 30
0.0
 10
14.614446525
 20
14.1203892014
 30
0.0
 10
14.6139288193
 20
14.1202677609
 30
0.0
 10
14.6134158856
 20
14.1200663682
 30
0.0
 10
14.6129097954
 20
14.1197864393
 30
0.0
 10
14.6124121995
 20
14.1194293425
 30
0.0
 10
14.611924582
 20
14.1189966312
 30
0.0
 10
14.6114485924
 20
14.1184900064
 30
0.0
 10
14.6111497501
 20
14.1181165279
 30
0.0
 10
14.6110023032
 20
14.1179188672
 30
0.0
  0
SPLINE
  5
3CA
100
AcDbEntity
  8
LAYER_FEATURE
100
AcDbSpline
 62
7
  6
CONTINUOUS
 70
0
 71
3
 72
13
 73
9
 74
0
 42
0.0000001
 43
0.0000001
 44
0.0000000001
 40
0.0
 40
0.0
 40
0.0
 40
0.0
 40
0.1122031477
 40
0.2257813452
 40
0.342043251
 40
0.4621925615
 40
0.7179923293
 40
1.0
 40
1.0
 40
1.0
 40
1.0
 10
14.6815563705
 20
14.2080120539
 30
0.0
 10
14.6814218113
 20
14.2080120577
 30
0.0
 10
14.6811507636
 20
14.2079955819
 30
0.0
 10
14.6807463628
 20
14.2079216927
 30
0.0
 10
14.6803440443
 20
14.2077989248
 30
0.0
 10
14.6798006458
 20
14.2075657811
 30
0.0
 10
14.679127963
 20
14.2071438978
 30
0.0
 10
14.6786446304
 20
14.2067128247
 30
0.0
 10
14.6784072719
 20
14.2064719142
 30
0.0
  0
SPLINE
  5
3CB
100
AcDbEntity
  8
LAYER_FEATURE
100
AcDbSpline
 62
7
  6
CONTINUOUS
 70
0
 71
3
 72
11
 73
7
 74
0
 42
0.0000001
 43
0.0000001
 44
0.0000000001
 40
0.0
 40
0.0
 40
0.0
 40
0.0
 40
0.2358603296
 40
0.4776760377
 40
0.730917876
 40
1.0
 40
1.0
 40
1.0
 40
1.0
 10
14.7513465905
 20
14.2772538038
 30
0.0
 10
14.7511520472
 20
14.2772538095
 30
0.0
 10
14.7507572295
 20
14.2772189524
 30
0.0
 10
14.7501720251
 20
14.2770633664
 30
0.0
 10
14.7495941134
 20
14.2768060041
 30
0.0
 10
14.7492280814
 20
14.2765760096
 30
0.0
 10
14.7490475676
 20
14.2764468796
 30
0.0
  0
LINE
  5
3CC
100
AcDbEntity
  8
LAYER_FEATURE
100
AcDbLine
 62
7
  6
CONTINUOUS
 10
14.823572999
 20
14.3273830303
 11
14.8221492405
 21
14.327077103
  0
SPLINE
  5
3CD
100
AcDbEntity
  8
02___PRT_ALL_AXES
100
AcDbSpline
 62
7
  6
CONTINUOUS
 70
0
 71
3
 72
38
 73
34
 74
0
 42
0.0000001
 43
0.0000001
 44
0.0000000001
 40
0.0
 40
0.0
 40
0.0
 40
0.0
 40
0.0081435689
 40
0.0163187677
 40
0.024556794
 40
0.0328879411
 40
0.0499361015
 40
0.0676844949
 40
0.0768824663
 40
0.0863205519
 40
0.1059795633
 40
0.1267830211
 40
0.1488165632
 40
0.1721397557
 40
0.19678958
 40
0.2227836742
 40
0.2501232531
 40
0.2787954696
 40
0.3087752786
 40
0.3400270751
 40
0.3725061297
 40
0.4061596982
 40
0.440927885
 40
0.4767445105
 40
0.5135378935
 40
0.5512314663
 40
0.5897442826
 40
0.6289916076
 40
0.6688854422
 40
0.7502421819
 40
0.8330668502
 40
0.9165817834
 40
1.0
 40
1.0
 40
1.0
 40
1.0
 10
15.9547455124
 20
11.3351869269
 30
0.0
 10
15.9553882905
 20
11.3351869316
 30
0.0
 10
15.956676769
 20
11.3352306949
 30
0.0
 10
15.9586064389
 20
11.3354273657
 30
0.0
 10
15.9605333607
 20
11.3357550552
 30
0.0
 10
15.9631160704
 20
11.3363706255
 30
0.0
 10
15.9663446997
 20
11.3374790311
 30
0.0
 10
15.9694783493
 20
11.3389932318
 30
0.0
 10
15.9719559792
 20
11.3404475499
 30
0.0
 10
15.9744811597
 20
11.3421110671
 30
0.0
 10
15.9776046568
 20
11.3445207574
 30
0.0
 10
15.9812353451
 20
11.347868064
 30
0.0
 10
15.9847899145
 20
11.3517001795
 30
0.0
 10
15.9882590623
 20
11.3560062022
 30
0.0
 10
15.991633906
 20
11.360774363
 30
0.0
 10
15.9949055343
 20
11.3659915926
 30
0.0
 10
15.9980651893
 20
11.371643632
 30
0.0
 10
16.0011042897
 20
11.3777150015
 30
0.0
 10
16.0040145259
 20
11.3841890171
 30
0.0
 10
16.0067878991
 20
11.3910478361
 30
0.0
 10
16.0094167406
 20
11.3982725246
 30
0.0
 10
16.0118937461
 20
11.405843108
 30
0.0
 10
16.0142120344
 20
11.4137386141
 30
0.0
 10
16.0163651604
 20
11.421937143
 30
0.0
 10
16.0183471203
 20
11.4304159404
 30
0.0
 10
16.0201523744
 20
11.439151464
 30
0.0
 10
16.0217758828
 20
11.4481194227
 30
0.0
 10
16.0232131505
 20
11.4572949254
 30
0.0
 10
16.0248865565
 20
11.4698530585
 30
0.0
 10
16.0264789487
 20
11.4858875337
 30
0.0
 10
16.027586442
 20
11.5054125728
 30
0.0
 10
16.0278902281
 20
11.5251291056
 30
0.0
 10
16.0275534011
 20
11.5383053706
 30
0.0
 10
16.0272480591
 20
11.54488255
 30
0.0
  0
SPLINE
  5
3CE
100
AcDbEntity
  8
02___PRT_ALL_AXES
100
AcDbSpline
 62
7
  6
CONTINUOUS
 70
0
 71
3
 72
76
 73
72
 74
0
 42
0.0000001
 43
0.0000001
 44
0.0000000001
 40
0.0
 40
0.0
 40
0.0
 40
0.0
 40
0.0039194859
 40
0.0078349941
 40
0.011755616
 40
0.0156906246
 40
0.019649171
 40
0.0236401338
 40
0.0276721203
 40
0.0317534194
 40
0.0358919547
 40
0.0400952225
 40
0.0487216432
 40
0.0576856827
 40
0.0670304373
 40
0.0767915473
 40
0.0869976571
 40
0.0976710139
 40
0.1088281138
 40
0.1204803334
 40
0.1326345164
 40
0.145293499
 40
0.1584565725
 40
0.1721198842
 40
0.1862767836
 40
0.2009181203
 40
0.2160325015
 40
0.2316065155
 40
0.247624926
 40
0.2640708444
 40
0.2809258814
 40
0.2981702833
 40
0.3157830564
 40
0.3337420805
 40
0.3520242131
 40
0.3706053872
 40
0.3894607032
 40
0.4085645161
 40
0.4278905192
 40
0.4474118241
 40
0.467101039
 40
0.4869303445
 40
0.5068715682
 40
0.5268962586
 40
0.5469757567
 40
0.5670812683
 40
0.587183935
 40
0.6072549055
 40
0.6272654066
 40
0.6471868143
 40
0.6669907263
 40
0.6866490339
 40
0.7061339964
 40
0.7254183151
 40
0.7444752102
 40
0.7632784988
 40
0.781802676
 40
0.8000229994
 40
0.8179155765
 40
0.8354574584
 40
0.852626738
 40
0.869402657
 40
0.885765721
 40
0.9016978254
 40
0.9171823942
 40
0.9322045384
 40
0.9467512211
 40
0.960811493
 40
0.9743766198
 40
0.987440601
 40
1.0
 40
1.0
 40
1.0
 40
1.0
 10
15.7897062515
 20
13.635313211
 30
0.0
 10
15.7927045066
 20
13.6355409251
 30
0.0
 10
15.7987111479
 20
13.6358387669
 30
0.0
 10
15.8077335894
 20
13.6358089782
 30
0.0
 10
15.8167539932
 20
13.6353020272
 30
0.0
 10
15.8257680104
 20
13.6343182681
 30
0.0
 10
15.8347718279
 20
13.632858103
 30
0.0
 10
15.8437615202
 20
13.6309223717
 30
0.0
 10
15.8527331352
 20
13.6285118644
 30
0.0
 10
15.8616827676
 20
13.625627874
 30
0.0
 10
15.8706067199
 20
13.6222715822
 30
0.0
 10
15.8825679526
 20
13.6171252449
 30
0.0
 10
15.8974606121
 20
13.6094747856
 30
0.0
 10
15.9150033294
 20
13.5985141495
 30
0.0
 10
15.9323458655
 20
13.585715049
 30
0.0
 10
15.9494597113
 20
13.5711013773
 30
0.0
 10
15.9663182805
 20
13.5546987192
 30
0.0
 10
15.9828947713
 20
13.5365352514
 30
0.0
 10
15.9991627004
 20
13.5166416793
 30
0.0
 10
16.0150957727
 20
13.4950514011
 30
0.0
 10
16.0306679998
 20
13.4718005493
 30
0.0
 10
16.0458537724
 20
13.4469280112
 30
0.0
 10
16.0606279485
 20
13.4204754072
 30
0.0
 10
16.0749659361
 20
13.3924870497
 30
0.0
 10
16.0888437677
 20
13.3630098816
 30
0.0
 10
16.1022381692
 20
13.3320934044
 30
0.0
 10
16.1151266198
 20
13.2997895949
 30
0.0
 10
16.1274874071
 20
13.2661528164
 30
0.0
 10
16.1392996767
 20
13.2312397235
 30
0.0
 10
16.1505434765
 20
13.1951091629
 30
0.0
 10
16.1611997981
 20
13.1578220705
 30
0.0
 10
16.1712506158
 20
13.1194413651
 30
0.0
 10
16.1806789194
 20
13.0800318379
 30
0.0
 10
16.189468746
 20
13.0396600392
 30
0.0
 10
16.1976052094
 20
12.9983941632
 30
0.0
 10
16.2050745267
 20
12.9563039303
 30
0.0
 10
16.2118640427
 20
12.9134604671
 30
0.0
 10
16.2179622527
 20
12.8699361847
 30
0.0
 10
16.223358822
 20
12.8258046543
 30
0.0
 10
16.2280446041
 20
12.7811404816
 30
0.0
 10
16.2320116565
 20
12.7360191798
 30
0.0
 10
16.235253256
 20
12.6905170407
 30
0.0
 10
16.2377639088
 20
12.6447110039
 30
0.0
 10
16.2395393599
 20
12.5986785265
 30
0.0
 10
16.2405766002
 20
12.55249745
 30
0.0
 10
16.2408738717
 20
12.5062458688
 30
0.0
 10
16.2404306705
 20
12.4600019974
 30
0.0
 10
16.2392477476
 20
12.4138440368
 30
0.0
 10
16.2373271077
 20
12.3678500425
 30
0.0
 10
16.2346720058
 20
12.3220977908
 30
0.0
 10
16.2312869414
 20
12.2766646474
 30
0.0
 10
16.2271776522
 20
12.2316274344
 30
0.0
 10
16.2223511037
 20
12.1870623
 30
0.0
 10
16.2168154767
 20
12.1430445884
 30
0.0
 10
16.2105801529
 20
12.0996487114
 30
0.0
 10
16.2036556989
 20
12.0569480217
 30
0.0
 10
16.1960538478
 20
12.0150146868
 30
0.0
 10
16.1877874785
 20
11.9739195662
 30
0.0
 10
16.1788705932
 20
11.9337320891
 30
0.0
 10
16.1693182926
 20
11.8945201354
 30
0.0
 10
16.159146748
 20
11.8563499178
 30
0.0
 10
16.1483731726
 20
11.8192858671
 30
0.0
 10
16.13701579
 20
11.7833905186
 30
0.0
 10
16.1250937973
 20
11.748724405
 30
0.0
 10
16.1126273279
 20
11.7153459462
 30
0.0
 10
16.0996374088
 20
11.6833113627
 30
0.0
 10
16.0861459118
 20
11.652674525
 30
0.0
 10
16.0721755351
 20
11.6234870197
 30
0.0
 10
16.0577495864
 20
11.5957975889
 30
0.0
 10
16.0428925549
 20
11.5696534034
 30
0.0
 10
16.0325116023
 20
11.5529529109
 30
0.0
 10
16.0272480591
 20
11.54488255
 30
0.0
  0
SPLINE
  5
3CF
100
AcDbEntity
  8
02___PRT_ALL_AXES
100
AcDbSpline
 62
7
  6
CONTINUOUS
 70
0
 71
3
 72
32
 73
28
 74
0
 42
0.0000001
 43
0.0000001
 44
0.0000000001
 40
0.0
 40
0.0
 40
0.0
 40
0.0
 40
0.0894225239
 40
0.1759637356
 40
0.2593162696
 40
0.3392022996
 40
0.4153769942
 40
0.4876352725
 40
0.5222475186
 40
0.5558257873
 40
0.5883589826
 40
0.6198404873
 40
0.6502680678
 40
0.6796448429
 40
0.7079794146
 40
0.7352868604
 40
0.7615891145
 40
0.7869159695
 40
0.8347855759
 40
0.8574541554
 40
0.8793596644
 40
0.9005819935
 40
0.9212123777
 40
0.9413531128
 40
0.9611164845
 40
0.980623204
 40
1.0
 40
1.0
 40
1.0
 40
1.0
 10
15.7851386748
 20
13.6349050576
 30
0.0
 10
15.7843998977
 20
13.6387378842
 30
0.0
 10
15.7828256143
 20
13.6462575123
 30
0.0
 10
15.780125844
 20
13.6572525988
 30
0.0
 10
15.7771363576
 20
13.6677406624
 30
0.0
 10
15.7738715802
 20
13.6776714543
 30
0.0
 10
15.7703472094
 20
13.6869973977
 30
0.0
 10
15.7671637697
 20
13.6943301658
 30
0.0
 10
15.7644931284
 20
13.6998494088
 30
0.0
 10
15.7624649163
 20
13.7037510729
 30
0.0
 10
15.760385172
 20
13.7074697346
 30
0.0
 10
15.7582563871
 20
13.7110009747
 30
0.0
 10
15.7560810569
 20
13.714340549
 30
0.0
 10
15.7538617941
 20
13.7174844779
 30
0.0
 10
15.7516011652
 20
13.7204290026
 30
0.0
 10
15.7493019056
 20
13.7231705516
 30
0.0
 10
15.7469664598
 20
13.7257060435
 30
0.0
 10
15.7438668481
 20
13.7287499578
 30
0.0
 10
15.740649221
 20
13.7314432108
 30
0.0
 10
15.7373196861
 20
13.7337273563
 30
0.0
 10
15.7348453035
 20
13.7351902292
 30
0.0
 10
15.7323516474
 20
13.7364317949
 30
0.0
 10
15.729841551
 20
13.7374503092
 30
0.0
 10
15.7273181305
 20
13.7382442555
 30
0.0
 10
15.7247844701
 20
13.7388123153
 30
0.0
 10
15.722244153
 20
13.739153583
 30
0.0
 10
15.7205458879
 20
13.7392295279
 30
0.0
 10
15.7197000726
 20
13.7392295325
 30
0.0
  0
LINE
  5
3D0
100
AcDbEntity
  8
LAYER_FEATURE
100
AcDbLine
 62
7
  6
CONTINUOUS
 10
14.2929059221
 20
13.0961083978
 11
14.291999894
 21
13.0959137174
  0
SPLINE
  5
3D1
100
AcDbEntity
  8
LAYER_FEATURE
100
AcDbSpline
 62
7
  6
CONTINUOUS
 70
0
 71
3
 72
10
 73
6
 74
0
 42
0.0000001
 43
0.0000001
 44
0.0000000001
 40
0.0
 40
0.0
 40
0.0
 40
0.0
 40
0.4763490265
 40
0.7321753485
 40
1.0
 40
1.0
 40
1.0
 40
1.0
 10
14.340390511
 20
13.2757017169
 30
0.0
 10
14.341092394
 20
13.2763500349
 30
0.0
 10
14.3421006206
 20
13.2774248439
 30
0.0
 10
14.343347287
 20
13.2789966795
 30
0.0
 10
14.3439569442
 20
13.2798527563
 30
0.0
 10
14.3442583798
 20
13.2802974351
 30
0.0
  0
SPLINE
  5
3D2
100
AcDbEntity
  8
02___PRT_ALL_AXES
100
AcDbSpline
 62
7
  6
CONTINUOUS
 70
0
 71
3
 72
40
 73
36
 74
0
 42
0.0000001
 43
0.0000001
 44
0.0000000001
 40
0.0
 40
0.0
 40
0.0
 40
0.0
 40
0.0431151535
 40
0.0855275731
 40
0.1272171815
 40
0.1681683988
 40
0.2083659079
 40
0.2477950984
 40
0.2864429279
 40
0.3242976407
 40
0.3613487967
 40
0.3975875299
 40
0.4330065355
 40
0.4676002342
 40
0.501364923
 40
0.5342988331
 40
0.5664023849
 40
0.5976782886
 40
0.628131721
 40
0.657770602
 40
0.6866057074
 40
0.714650972
 40
0.741923729
 40
0.7684449031
 40
0.7942393661
 40
0.81933612
 40
0.8437685564
 40
0.8675747231
 40
0.8907974186
 40
0.9022057267
 40
0.9134864752
 40
0.9356903057
 40
0.9574684511
 40
0.9788829479
 40
1.0
 40
1.0
 40
1.0
 40
1.0
 10
15.5615069501
 20
13.527758901
 30
0.0
 10
15.5648689964
 20
13.5386384867
 30
0.0
 10
15.5716975849
 20
13.5601715224
 30
0.0
 10
15.5823451014
 20
13.5920407529
 30
0.0
 10
15.5933076582
 20
13.6231979205
 30
0.0
 10
15.6045778676
 20
13.6536221165
 30
0.0
 10
15.6161483489
 20
13.6832935938
 30
0.0
 10
15.6280115476
 20
13.7121927973
 30
0.0
 10
15.6401596143
 20
13.7403006937
 30
0.0
 10
15.6525845527
 20
13.7675988244
 30
0.0
 10
15.6652782443
 20
13.7940692323
 30
0.0
 10
15.6782323039
 20
13.819694539
 30
0.0
 10
15.6914382582
 20
13.8444579025
 30
0.0
 10
15.7048874591
 20
13.8683430564
 30
0.0
 10
15.7185710605
 20
13.8913343393
 30
0.0
 10
15.7324801631
 20
13.9134166364
 30
0.0
 10
15.7466056505
 20
13.9345754749
 30
0.0
 10
15.7609383098
 20
13.9547969765
 30
0.0
 10
15.7754688527
 20
13.9740678468
 30
0.0
 10
15.7901877909
 20
13.9923754715
 30
0.0
 10
15.8050856242
 20
14.009707801
 30
0.0
 10
15.8201527205
 20
14.0260534338
 30
0.0
 10
15.835379331
 20
14.0414016266
 30
0.0
 10
15.8507557103
 20
14.0557421815
 30
0.0
 10
15.8662719522
 20
14.0690656119
 30
0.0
 10
15.8819180913
 20
14.0813629902
 30
0.0
 10
15.8976842215
 20
14.0926260232
 30
0.0
 10
15.9135598511
 20
14.1028469161
 30
0.0
 10
15.9269513748
 20
14.1105352297
 30
0.0
 10
15.9377029241
 20
14.1161452473
 30
0.0
 10
15.9483616056
 20
14.1213418046
 30
0.0
 10
15.9617435921
 20
14.1271898629
 30
0.0
 10
15.9779551279
 20
14.1331777992
 30
0.0
 10
15.9942234726
 20
14.1380944689
 30
0.0
 10
16.005166132
 20
14.1406709982
 30
0.0
 10
16.0106331381
 20
14.1417744878
 30
0.0
  0
SPLINE
  5
3D3
100
AcDbEntity
  8
LAYER_FEATURE
100
AcDbSpline
 62
7
  6
CONTINUOUS
 70
0
 71
3
 72
21
 73
17
 74
0
 42
0.0000001
 43
0.0000001
 44
0.0000000001
 40
0.0
 40
0.0
 40
0.0
 40
0.0
 40
0.0406394502
 40
0.0821552549
 40
0.125357472
 40
0.1709500146
 40
0.2194912698
 40
0.2714042602
 40
0.3269857332
 40
0.3864277707
 40
0.4498296934
 40
0.5172185967
 40
0.5885594645
 40
0.6637626557
 40
0.825161606
 40
1.0
 40
1.0
 40
1.0
 40
1.0
 10
14.3539060552
 20
13.4471112203
 30
0.0
 10
14.3537262412
 20
13.447111211
 30
0.0
 10
14.3533620801
 20
13.4470815602
 30
0.0
 10
14.3528213477
 20
13.4469489213
 30
0.0
 10
14.3522861345
 20
13.4467292256
 30
0.0
 10
14.3517588076
 20
13.4464240004
 30
0.0
 10
14.3512410919
 20
13.4460350339
 30
0.0
 10
14.3507347905
 20
13.4455640483
 30
0.0
 10
14.3502415271
 20
13.4450130632
 30
0.0
 10
14.3497630517
 20
13.444384201
 30
0.0
 10
14.3493010405
 20
13.4436799074
 30
0.0
 10
14.3488572281
 20
13.4429028645
 30
0.0
 10
14.3484332702
 20
13.4420560648
 30
0.0
 10
14.3478836957
 20
13.4408087831
 30
0.0
 10
14.347263348
 20
13.4390949423
 30
0.0
 10
14.3468610597
 20
13.4376613279
 30
0.0
 10
14.3466752353
 20
13.4369103846
 30
0.0
  0
SPLINE
  5
3D4
100
AcDbEntity
  8
LAYER_FEATURE
100
AcDbSpline
 62
7
  6
CONTINUOUS
 70
0
 71
3
 72
20
 73
16
 74
0
 42
0.0000001
 43
0.0000001
 44
0.0000000001
 40
0.0
 40
0.0
 40
0.0
 40
0.0
 40
0.0426322769
 40
0.0860067734
 40
0.1308227544
 40
0.1776941529
 40
0.2271357977
 40
0.2795567333
 40
0.3352673523
 40
0.3944860821
 40
0.4573570573
 40
0.5239563664
 40
0.6683319964
 40
0.8273196121
 40
1.0
 40
1.0
 40
1.0
 40
1.0
 10
14.3945184812
 20
13.6084698595
 30
0.0
 10
14.3943575154
 20
13.6084698579
 30
0.0
 10
14.394032308
 20
13.6084461711
 30
0.0
 10
14.3935483201
 20
13.6083401128
 30
0.0
 10
14.3930681244
 20
13.6081641528
 30
0.0
 10
14.3925934676
 20
13.6079192548
 30
0.0
 10
14.3921257549
 20
13.6076065124
 30
0.0
 10
14.3916662771
 20
13.6072271707
 30
0.0
 10
14.3912163195
 20
13.6067825105
 30
0.0
 10
14.3907771072
 20
13.6062740012
 30
0.0
 10
14.3903499186
 20
13.6057032041
 30
0.0
 10
14.3897827458
 20
13.6048380365
 30
0.0
 10
14.3891175879
 20
13.6036066898
 30
0.0
 10
14.3884072435
 20
13.6019536974
 30
0.0
 10
14.3880000572
 20
13.600768197
 30
0.0
 10
14.3878075602
 20
13.6001452763
 30
0.0
  0
SPLINE
  5
3D5
100
AcDbEntity
  8
LAYER_CHAMFER_FEAT
100
AcDbSpline
 62
7
  6
CONTINUOUS
 70
0
 71
3
 72
48
 73
44
 74
0
 42
0.0000001
 43
0.0000001
 44
0.0000000001
 40
0.0
 40
0.0
 40
0.0
 40
0.0
 40
0.0439481831
 40
0.0865513876
 40
0.127797792
 40
0.1676835606
 40
0.2062099712
 40
0.2433857697
 40
0.2792274299
 40
0.3137600935
 40
0.3470185067
 40
0.379048009
 40
0.4099055838
 40
0.4396608906
 40
0.4683971752
 40
0.4962119607
 40
0.523217373
 40
0.5364581857
 40
0.549545282
 40
0.5624965483
 40
0.5753306237
 40
0.5880667982
 40
0.6007249212
 40
0.6133253175
 40
0.6258886502
 40
0.638435817
 40
0.6509878125
 40
0.663565604
 40
0.6761899943
 40
0.6888815098
 40
0.7016602661
 40
0.7145458684
 40
0.7275573229
 40
0.7407129203
 40
0.7540302152
 40
0.781211015
 40
0.809228263
 40
0.8381907279
 40
0.8681925975
 40
0.8993139141
 40
0.9316213364
 40
0.9651690924
 40
1.0
 40
1.0
 40
1.0
 40
1.0
 10
16.4260755923
 20
13.6936286264
 30
0.0
 10
16.4208423564
 20
13.70429284
 30
0.0
 10
16.4102449339
 20
13.7251538241
 30
0.0
 10
16.3936857193
 20
13.7554754029
 30
0.0
 10
16.3767274822
 20
13.7843096296
 30
0.0
 10
16.3593906101
 20
13.8116218042
 30
0.0
 10
16.3416953132
 20
13.8373796785
 30
0.0
 10
16.3236623947
 20
13.8615525942
 30
0.0
 10
16.3053128673
 20
13.8841118528
 30
0.0
 10
16.2866680137
 20
13.9050306042
 30
0.0
 10
16.2677493233
 20
13.9242838532
 30
0.0
 10
16.2485784771
 20
13.9418484215
 30
0.0
 10
16.2291773036
 20
13.9577029132
 30
0.0
 10
16.2095679491
 20
13.9718276423
 30
0.0
 10
16.1897724749
 20
13.9842047085
 30
0.0
 10
16.169814591
 20
13.994817436
 30
0.0
 10
16.1529546485
 20
14.0022278912
 30
0.0
 10
16.1394325664
 20
14.0072342892
 30
0.0
 10
16.1293324242
 20
14.0105166387
 30
0.0
 10
16.1192112807
 20
14.0133495183
 30
0.0
 10
16.1090720712
 20
14.0157321283
 30
0.0
 10
16.0989179311
 20
14.0176636864
 30
0.0
 10
16.0887519467
 20
14.0191434736
 30
0.0
 10
16.0785772633
 20
14.020171107
 30
0.0
 10
16.0683970046
 20
14.0207461411
 30
0.0
 10
16.0582143237
 20
14.0208684351
 30
0.0
 10
16.0480323645
 20
14.0205379637
 30
0.0
 10
16.0378542811
 20
14.0197547584
 30
0.0
 10
16.0276832059
 20
14.0185191957
 30
0.0
 10
16.0175222821
 20
14.0168315841
 30
0.0
 10
16.0073746253
 20
14.0146925478
 30
0.0
 10
15.9972433216
 20
14.0121027938
 30
0.0
 10
15.9871315173
 20
14.0090631259
 30
0.0
 10
15.9770420931
 20
14.005574549
 30
0.0
 10
15.9635330275
 20
14.0002906912
 30
0.0
 10
15.9466944647
 20
13.9925344219
 30
0.0
 10
15.9267720482
 20
13.9815147572
 30
0.0
 10
15.907017327
 20
13.9687343561
 30
0.0
 10
15.8874538821
 20
13.9542102781
 30
0.0
 10
15.8681037313
 20
13.9379608483
 30
0.0
 10
15.8489888532
 20
13.9200060109
 30
0.0
 10
15.8301314808
 20
13.9003680784
 30
0.0
 10
15.8179767878
 20
13.8864342607
 30
0.0
 10
15.8119438594
 20
13.8792065212
 30
0.0
  0
SPLINE
  5
3D6
100
AcDbEntity
  8
LAYER_CHAMFER_FEAT
100
AcDbSpline
 62
7
  6
CONTINUOUS
 70
0
 71
3
 72
101
 73
97
 74
0
 42
0.0000001
 43
0.0000001
 44
0.0000000001
 40
0.0
 40
0.0
 40
0.0
 40
0.0
 40
0.0057646792
 40
0.0113895004
 40
0.0168771153
 40
0.022230654
 40
0.0274537936
 40
0.0325507554
 40
0.0423839899
 40
0.0471338646
 40
0.0517806673
 40
0.0563318317
 40
0.0607954702
 40
0.0651803667
 40
0.0694959546
 40
0.0737522709
 40
0.0779599054
 40
0.0821299166
 40
0.0862737467
 40
0.0904031065
 40
0.0945298621
 40
0.0986659069
 40
0.1028230342
 40
0.1070128192
 40
0.1112464986
 40
0.1155348802
 40
0.1198882484
 40
0.1243163095
 40
0.1288281329
 40
0.1334321291
 40
0.1381360277
 40
0.1429468775
 40
0.1478710572
 40
0.1529142851
 40
0.1580816547
 40
0.1633776445
 40
0.1688061713
 40
0.1743705941
 40
0.1800737779
 40
0.1859180898
 40
0.1919054675
 40
0.1980374094
 40
0.2043150406
 40
0.2107391028
 40
0.2173100108
 40
0.2240278465
 40
0.2308924032
 40
0.237903187
 40
0.2450594456
 40
0.2523601796
 40
0.2598041561
 40
0.2673899304
 40
0.275115844
 40
0.2829800569
 40
0.2909805332
 40
0.2991150803
 40
0.3073813257
 40
0.3242983045
 40
0.3417100601
 40
0.3595926328
 40
0.3779201701
 40
0.3966651157
 40
0.4157983808
 40
0.4352895032
 40
0.4551067941
 40
0.4752174775
 40
0.4955878215
 40
0.5161832653
 40
0.5369685409
 40
0.5579077927
 40
0.578964693
 40
0.6001025566
 40
0.6212844539
 40
0.6424733228
 40
0.6636320803
 40
0.6847237337
 40
0.7057114928
 40
0.7265588823
 40
0.7472298553
 40
0.7676889093
 40
0.7879012035
 40
0.8078326799
 40
0.827450188
 40
0.8467216144
 40
0.865616019
 40
0.884103779
 40
0.9021567428
 40
0.9197483957
 40
0.936854045
 40
0.9534510116
 40
0.9615525067
 40
0.9695193621
 40
0.9773493822
 40
0.9850407073
 40
0.9925916098
 40
1.0
 40
1.0
 40
1.0
 40
1.0
 10
15.8119438601
 20
11.1424034687
 30
0.0
 10
15.8159293669
 20
11.137628634
 30
0.0
 10
15.82394005
 20
11.1283074867
 30
0.0
 10
15.8362273487
 20
11.114865317
 30
0.0
 10
15.8486310523
 20
11.1021423927
 30
0.0
 10
15.8611446994
 20
11.090145635
 30
0.0
 10
15.873762426
 20
11.0788807332
 30
0.0
 10
15.8905136743
 20
11.0650123881
 30
0.0
 10
15.9076495073
 20
11.0524255663
 30
0.0
 10
15.9251407106
 20
11.0412567216
 30
0.0
 10
15.9381803632
 20
11.0337339811
 30
0.0
 10
15.9512845256
 20
11.0269734871
 30
0.0
 10
15.9644468055
 20
11.0209787992
 30
0.0
 10
15.9776603593
 20
11.0157533544
 30
0.0
 10
15.9909183386
 20
11.0113001031
 30
0.0
 10
16.0042138133
 20
11.0076217137
 30
0.0
 10
16.0175397272
 20
11.0047202985
 30
0.0
 10
16.0308889821
 20
11.0025977239
 30
0.0
 10
16.0442543626
 20
11.0012551761
 30
0.0
 10
16.0576286302
 20
11.0006936315
 30
0.0
 10
16.0710044929
 20
11.0009132928
 30
0.0
 10
16.0843746557
 20
11.0019141773
 30
0.0
 10
16.0977318606
 20
11.0036955037
 30
0.0
 10
16.1110688638
 20
11.0062563153
 30
0.0
 10
16.1243785373
 20
11.0095949092
 30
0.0
 10
16.1376537764
 20
11.0137093968
 30
0.0
 10
16.1508876293
 20
11.018597249
 30
0.0
 10
16.1640731723
 20
11.0242557155
 30
0.0
 10
16.177203623
 20
11.0306815279
 30
0.0
 10
16.1902722378
 20
11.0378711384
 30
0.0
 10
16.2032723671
 20
11.0458205921
 30
0.0
 10
16.216197426
 20
11.0545255845
 30
0.0
 10
16.2290408588
 20
11.0639814907
 30
0.0
 10
16.2417962155
 20
11.0741832702
 30
0.0
 10
16.2544570107
 20
11.0851256205
 30
0.0
 10
16.2670169131
 20
11.0968027736
 30
0.0
 10
16.279469503
 20
11.1092087327
 30
0.0
 10
16.2918085597
 20
11.122337009
 30
0.0
 10
16.3040277413
 20
11.1361808954
 30
0.0
 10
16.316120935
 20
11.1507331902
 30
0.0
 10
16.3280818991
 20
11.1659864662
 30
0.0
 10
16.3399046291
 20
11.1819328202
 30
0.0
 10
16.3515830112
 20
11.1985641035
 30
0.0
 10
16.3631111527
 20
11.2158717244
 30
0.0
 10
16.3744830935
 20
11.2338468198
 30
0.0
 10
16.3856930604
 20
11.2524801238
 30
0.0
 10
16.3967352696
 20
11.2717620735
 30
0.0
 10
16.407604078
 20
11.2916827431
 30
0.0
 10
16.4182938959
 20
11.3122318901
 30
0.0
 10
16.4287992242
 20
11.3333989451
 30
0.0
 10
16.439114681
 20
11.3551730091
 30
0.0
 10
16.4492349268
 20
11.377542887
 30
0.0
 10
16.4591547969
 20
11.4004970484
 30
0.0
 10
16.4688691311
 20
11.4240236944
 30
0.0
 10
16.4783729791
 20
11.4481106804
 30
0.0
 10
16.4876614153
 20
11.4727456637
 30
0.0
 10
16.4998459574
 20
11.5065657972
 30
0.0
 10
16.5144873227
 20
11.5501342647
 30
0.0
 10
16.5309902984
 20
11.6040006545
 30
0.0
 10
16.5465251038
 20
11.6597355114
 30
0.0
 10
16.5610596363
 20
11.7172238693
 30
0.0
 10
16.5745639114
 20
11.7763475411
 30
0.0
 10
16.587010038
 20
11.8369847988
 30
0.0
 10
16.5983723072
 20
11.8990107907
 30
0.0
 10
16.6086272414
 20
11.9622977607
 30
0.0
 10
16.6177536479
 20
12.0267153288
 30
0.0
 10
16.6257326633
 20
12.0921307609
 30
0.0
 10
16.6325477945
 20
12.1584092477
 30
0.0
 10
16.638184953
 20
12.2254141853
 30
0.0
 10
16.6426324848
 20
12.2930074601
 30
0.0
 10
16.6458811951
 20
12.3610497362
 30
0.0
 10
16.6479243673
 20
12.4294007451
 30
0.0
 10
16.648757777
 20
12.497919577
 30
0.0
 10
16.648379701
 20
12.5664649736
 30
0.0
 10
16.6467909209
 20
12.6348956216
 30
0.0
 10
16.6439947212
 20
12.7030704456
 30
0.0
 10
16.6399968833
 20
12.7708489018
 30
0.0
 10
16.6348056724
 20
12.8380912694
 30
0.0
 10
16.6284318207
 20
12.9046589415
 30
0.0
 10
16.6208885049
 20
12.9704147131
 30
0.0
 10
16.6121913181
 20
13.035223067
 30
0.0
 10
16.6023582372
 20
13.0989504565
 30
0.0
 10
16.5914095846
 20
13.161465584
 30
0.0
 10
16.5793679843
 20
13.222639677
 30
0.0
 10
16.5662583138
 20
13.2823467549
 30
0.0
 10
16.5521076476
 20
13.3404639073
 30
0.0
 10
16.5369452041
 20
13.3968715062
 30
0.0
 10
16.5208022506
 20
13.4514536331
 30
0.0
 10
16.5037121365
 20
13.504097707
 30
0.0
 10
16.488591315
 20
13.5465979045
 30
0.0
 10
16.4760340747
 20
13.579529196
 30
0.0
 10
16.4664775282
 20
13.6034782574
 30
0.0
 10
16.4567117192
 20
13.6268638954
 30
0.0
 10
16.4467415804
 20
13.649674312
 30
0.0
 10
16.4365723565
 20
13.6718973311
 30
0.0
 10
16.4295968559
 20
13.6864530456
 30
0.0
 10
16.4260755923
 20
13.6936286264
 30
0.0
  0
SPLINE
  5
3D7
100
AcDbEntity
  8
LAYER_CHAMFER_FEAT
100
AcDbSpline
 62
7
  6
CONTINUOUS
 70
0
 71
3
 72
37
 73
33
 74
0
 42
0.0000001
 43
0.0000001
 44
0.0000000001
 40
0.0
 40
0.0
 40
0.0
 40
0.0
 40
0.0421403603
 40
0.0835090101
 40
0.1240983021
 40
0.1639047209
 40
0.2029265273
 40
0.2411626118
 40
0.2786128694
 40
0.315278943
 40
0.3511639689
 40
0.3862727596
 40
0.4206117446
 40
0.4541892979
 40
0.4870156874
 40
0.5191033353
 40
0.5504668218
 40
0.5811231304
 40
0.6110916909
 40
0.6403945845
 40
0.6970950717
 40
0.7514670824
 40
0.7778725133
 40
0.8038057754
 40
0.8293098365
 40
0.8544306168
 40
0.8792168792
 40
0.9037199575
 40
0.9279935117
 40
0.9520931216
 40
0.9760759025
 40
1.0
 40
1.0
 40
1.0
 40
1.0
 10
16.3562879532
 20
13.6466290119
 30
0.0
 10
16.3532254258
 20
13.6528697867
 30
0.0
 10
16.3470520017
 20
13.6651861503
 30
0.0
 10
16.3375565096
 20
13.6833239628
 30
0.0
 10
16.3279149066
 20
13.7009470256
 30
0.0
 10
16.3181316713
 20
13.7180472885
 30
0.0
 10
16.3082109545
 20
13.7346173829
 30
0.0
 10
16.298157128
 20
13.7506501644
 30
0.0
 10
16.2879745093
 20
13.7661385342
 30
0.0
 10
16.2776676315
 20
13.7810757212
 30
0.0
 10
16.2672409167
 20
13.7954551535
 30
0.0
 10
16.2566989686
 20
13.8092705769
 30
0.0
 10
16.2460463092
 20
13.822515896
 30
0.0
 10
16.2352876258
 20
13.835185339
 30
0.0
 10
16.2244275333
 20
13.8472733139
 30
0.0
 10
16.213470788
 20
13.8587745421
 30
0.0
 10
16.2024220738
 20
13.8696839501
 30
0.0
 10
16.1912862639
 20
13.8799966996
 30
0.0
 10
16.1800679068
 20
13.889708419
 30
0.0
 10
16.1651711174
 20
13.9017174901
 30
0.0
 10
16.1463608927
 20
13.9152640959
 30
0.0
 10
16.1269332766
 20
13.9270205244
 30
0.0
 10
16.1113027595
 20
13.9351292375
 30
0.0
 10
16.0996453497
 20
13.9405259678
 30
0.0
 10
16.0879454466
 20
13.9452939845
 30
0.0
 10
16.0762080042
 20
13.9494310601
 30
0.0
 10
16.0644383083
 20
13.9529352122
 30
0.0
 10
16.0526415823
 20
13.9558046383
 30
0.0
 10
16.0408232073
 20
13.9580379809
 30
0.0
 10
16.028988413
 20
13.9596340048
 30
0.0
 10
16.0171430801
 20
13.9605919981
 30
0.0
 10
16.0092384405
 20
13.9608049779
 30
0.0
 10
16.0052917843
 20
13.9608049807
 30
0.0
  0
SPLINE
  5
3D8
100
AcDbEntity
  8
LAYER_CHAMFER_FEAT
100
AcDbSpline
 62
7
  6
CONTINUOUS
 70
0
 71
3
 72
76
 73
72
 74
0
 42
0.0000001
 43
0.0000001
 44
0.0000000001
 40
0.0
 40
0.0
 40
0.0
 40
0.0
 40
0.0038601511
 40
0.007728334
 40
0.0116125171
 40
0.0155205504
 40
0.0194601022
 40
0.023438616
 40
0.0274632595
 40
0.0315408903
 40
0.0356780271
 40
0.03988082
 40
0.0485043939
 40
0.0574550154
 40
0.066767996
 40
0.0764726621
 40
0.0865927434
 40
0.097146844
 40
0.1081489375
 40
0.1196088489
 40
0.1315327027
 40
0.1439233273
 40
0.1567806137
 40
0.1701018287
 40
0.1838818895
 40
0.1981136014
 40
0.2127878659
 40
0.2278938612
 40
0.2434192011
 40
0.2593500754
 40
0.2756713748
 40
0.2923668031
 40
0.3094189784
 40
0.3268095252
 40
0.3445191609
 40
0.3625277748
 40
0.3808145029
 40
0.3993577983
 40
0.418135498
 40
0.4371248873
 40
0.4563027615
 40
0.4756454863
 40
0.495129056
 40
0.5147291509
 40
0.5344211943
 40
0.5541804077
 40
0.5739818664
 40
0.5938005535
 40
0.613611415
 40
0.6333894137
 40
0.6531095837
 40
0.6727470852
 40
0.6922772591
 40
0.7116756827
 40
0.7309182263
 40
0.7499811092
 40
0.7688409587
 40
0.7874748688
 40
0.8058604619
 40
0.823975952
 40
0.8418002104
 40
0.8593128352
 40
0.8764942239
 40
0.8933256517
 40
0.9097893531
 40
0.9258686147
 40
0.9415478622
 40
0.9568128051
 40
0.9716504484
 40
0.9860494972
 40
1.0
 40
1.0
 40
1.0
 40
1.0
 10
16.0052917843
 20
11.0608050051
 30
0.0
 10
16.0089258811
 20
11.0608050025
 30
0.0
 10
16.0162029229
 20
11.0609855208
 30
0.0
 10
16.0271094343
 20
11.0617975805
 30
0.0
 10
16.0380077767
 20
11.0631505332
 30
0.0
 10
16.0488933744
 20
11.065043932
 30
0.0
 10
16.0597621617
 20
11.0674768612
 30
0.0
 10
16.070609941
 20
11.0704483796
 30
0.0
 10
16.0814326228
 20
11.0739572161
 30
0.0
 10
16.0922260798
 20
11.0780019105
 30
0.0
 10
16.1029864172
 20
11.0825809584
 30
0.0
 10
16.1174061448
 20
11.0894543912
 30
0.0
 10
16.1353495509
 20
11.0994210328
 30
0.0
 10
16.1564909519
 20
11.1133813343
 30
0.0
 10
16.1773975218
 20
11.1294214812
 30
0.0
 10
16.1980388462
 20
11.1475155777
 30
0.0
 10
16.2183863828
 20
11.1676360096
 30
0.0
 10
16.2384113905
 20
11.1897524488
 30
0.0
 10
16.2580854787
 20
11.2138319878
 30
0.0
 10
16.2773804823
 20
11.2398389913
 30
0.0
 10
16.2962685724
 20
11.2677350763
 30
0.0
 10
16.3147223175
 20
11.297479099
 30
0.0
 10
16.3327147639
 20
11.3290271754
 30
0.0
 10
16.3502195106
 20
11.3623327193
 30
0.0
 10
16.3672107772
 20
11.3973464978
 30
0.0
 10
16.3836634651
 20
11.4340166998
 30
0.0
 10
16.3995532152
 20
11.4722890102
 30
0.0
 10
16.4148564589
 20
11.5121066921
 30
0.0
 10
16.4295504657
 20
11.5534106729
 30
0.0
 10
16.4436133856
 20
11.5961396348
 30
0.0
 10
16.4570242894
 20
11.6402301097
 30
0.0
 10
16.4697632047
 20
11.6856165765
 30
0.0
 10
16.4818111495
 20
11.7322315608
 30
0.0
 10
16.4931501664
 20
11.7800057381
 30
0.0
 10
16.5037633493
 20
11.8288680398
 30
0.0
 10
16.5136348704
 20
11.8787457624
 30
0.0
 10
16.5227500052
 20
11.9295646774
 30
0.0
 10
16.5310951553
 20
11.9812491438
 30
0.0
 10
16.5386578697
 20
12.0337222224
 30
0.0
 10
16.5454268632
 20
12.086905791
 30
0.0
 10
16.5513920347
 20
12.1407206625
 30
0.0
 10
16.5565444813
 20
12.1950867036
 30
0.0
 10
16.560876513
 20
12.2499229544
 30
0.0
 10
16.5643816658
 20
12.3051477508
 30
0.0
 10
16.5670547091
 20
12.3606788465
 30
0.0
 10
16.5688916541
 20
12.416433537
 30
0.0
 10
16.5698897594
 20
12.4723287832
 30
0.0
 10
16.5700475355
 20
12.5282813357
 30
0.0
 10
16.5693647468
 20
12.5842078592
 30
0.0
 10
16.5678424118
 20
12.6400250573
 30
0.0
 10
16.565482802
 20
12.6956497971
 30
0.0
 10
16.5622894381
 20
12.7509992335
 30
0.0
 10
16.5582670857
 20
12.8059909339
 30
0.0
 10
16.5534217489
 20
12.8605430014
 30
0.0
 10
16.5477606595
 20
12.9145741983
 30
0.0
 10
16.5412922659
 20
12.9680040671
 30
0.0
 10
16.5340262208
 20
13.0207530513
 30
0.0
 10
16.5259733666
 20
13.072742615
 30
0.0
 10
16.5171457182
 20
13.1238953609
 30
0.0
 10
16.5075564455
 20
13.1741351465
 30
0.0
 10
16.4972198525
 20
13.2233871994
 30
0.0
 10
16.486151355
 20
13.2715782301
 30
0.0
 10
16.4743674587
 20
13.3186365446
 30
0.0
 10
16.461885731
 20
13.3644921519
 30
0.0
 10
16.4487247737
 20
13.4090768745
 30
0.0
 10
16.4349041893
 20
13.4523244369
 30
0.0
 10
16.420444552
 20
13.4941706172
 30
0.0
 10
16.405367381
 20
13.5345531932
 30
0.0
 10
16.3896950215
 20
13.5734124743
 30
0.0
 10
16.3734509529
 20
13.6106902218
 30
0.0
 10
16.3620738419
 20
13.6348386104
 30
0.0
 10
16.3562879532
 20
13.6466290119
 30
0.0
  0
SPLINE
  5
3D9
100
AcDbEntity
  8
LAYER_FEATURE
100
AcDbSpline
 62
7
  6
CONTINUOUS
 70
0
 71
3
 72
17
 73
13
 74
0
 42
0.0000001
 43
0.0000001
 44
0.0000000001
 40
0.0
 40
0.0
 40
0.0
 40
0.0
 40
0.044899608
 40
0.0904125174
 40
0.1371214538
 40
0.1855541989
 40
0.2892343827
 40
0.4043611217
 40
0.5325741974
 40
0.674612213
 40
0.8305706012
 40
1.0
 40
1.0
 40
1.0
 40
1.0
 10
14.4414765792
 20
13.7580432587
 30
0.0
 10
14.4413344046
 20
13.7580432522
 30
0.0
 10
14.4410477867
 20
13.7580248289
 30
0.0
 10
14.4406204231
 20
13.7579423175
 30
0.0
 10
14.4401955746
 20
13.7578051438
 30
0.0
 10
14.4396212408
 20
13.7575444318
 30
0.0
 10
14.4389118269
 20
13.7570725496
 30
0.0
 10
14.4381112175
 20
13.7563140767
 30
0.0
 10
14.4373464634
 20
13.7553591304
 30
0.0
 10
14.4366235643
 20
13.7542168256
 30
0.0
 10
14.4359485999
 20
13.752897722
 30
0.0
 10
14.4355504436
 20
13.7519463378
 30
0.0
 10
14.4353590833
 20
13.751445128
 30
0.0
  0
SPLINE
  5
3DA
100
AcDbEntity
  8
LAYER_FEATURE
100
AcDbSpline
 62
7
  6
CONTINUOUS
 70
0
 71
3
 72
72
 73
68
 74
0
 42
0.0000001
 43
0.0000001
 44
0.0000000001
 40
0.0
 40
0.0
 40
0.0
 40
0.0
 40
0.0038535171
 40
0.007740021
 40
0.0116649105
 40
0.0156333909
 40
0.0237193733
 40
0.0320365469
 40
0.0406179334
 40
0.0494924552
 40
0.0540480756
 40
0.0586859826
 40
0.0682175656
 40
0.0781055816
 40
0.0883640705
 40
0.0990040013
 40
0.1100335542
 40
0.1214583861
 40
0.1332818729
 40
0.1455053303
 40
0.1581282072
 40
0.1711482604
 40
0.1845617128
 40
0.1983633905
 40
0.2125468443
 40
0.2271044564
 40
0.2420275338
 40
0.2573063965
 40
0.272930456
 40
0.2888882854
 40
0.3051676823
 40
0.3217557257
 40
0.3386388289
 40
0.3558027931
 40
0.3732328535
 40
0.3909137234
 40
0.4088296357
 40
0.4269643807
 40
0.4453013466
 40
0.4638235572
 40
0.4825137071
 40
0.5013541961
 40
0.5203271627
 40
0.539414517
 40
0.5585979753
 40
0.5778590915
 40
0.5971792895
 40
0.6359213191
 40
0.6746748806
 40
0.6940094751
 40
0.7132907131
 40
0.7324999838
 40
0.7516187979
 40
0.7706288186
 40
0.789511894
 40
0.8082500887
 40
0.8268257176
 40
0.8452213808
 40
0.863419998
 40
0.8814048421
 40
0.8991595776
 40
0.916668295
 40
0.9339155498
 40
0.9508864433
 40
0.9675664908
 40
0.9839421877
 40
1.0
 40
1.0
 40
1.0
 40
1.0
 10
15.97833039
 20
10.8863556234
 30
0.0
 10
15.9747535427
 20
10.8870775847
 30
0.0
 10
15.9675989056
 20
10.8886792268
 30
0.0
 10
15.9569260289
 20
10.8915362666
 30
0.0
 10
15.9462736271
 20
10.8948562567
 30
0.0
 10
15.932014854
 20
10.8999297963
 30
0.0
 10
15.9142319385
 20
10.9074577474
 30
0.0
 10
15.8931659725
 20
10.9182686084
 30
0.0
 10
15.8722620992
 20
10.9308989765
 30
0.0
 10
15.8551480068
 20
10.9428219669
 30
0.0
 10
15.8415631569
 20
10.9532258173
 30
0.0
 10
15.8278057206
 20
10.9644155286
 30
0.0
 10
15.8107533059
 20
10.9795395221
 30
0.0
 10
15.7907263765
 20
10.9992712601
 30
0.0
 10
15.7709735211
 20
11.0207262166
 30
0.0
 10
15.7515169421
 20
11.0438794507
 30
0.0
 10
15.7323780101
 20
11.0687047479
 30
0.0
 10
15.7135780389
 20
11.0951739083
 30
0.0
 10
15.695138018
 20
11.1232569433
 30
0.0
 10
15.6770786404
 20
11.1529220295
 30
0.0
 10
15.6594202385
 20
11.184135537
 30
0.0
 10
15.6421827467
 20
11.2168620515
 30
0.0
 10
15.6253856767
 20
11.2510644206
 30
0.0
 10
15.6090480806
 20
11.2867037927
 30
0.0
 10
15.5931885214
 20
11.3237396603
 30
0.0
 10
15.5778250465
 20
11.3621299021
 30
0.0
 10
15.5629751475
 20
11.4018308259
 30
0.0
 10
15.5486557472
 20
11.4427972251
 30
0.0
 10
15.534883177
 20
11.4849824361
 30
0.0
 10
15.5216731547
 20
11.5283383923
 30
0.0
 10
15.5090407659
 20
11.5728156793
 30
0.0
 10
15.4970004391
 20
11.6183635871
 30
0.0
 10
15.4855659235
 20
11.6649301701
 30
0.0
 10
15.4747502838
 20
11.7124623116
 30
0.0
 10
15.4645658806
 20
11.7609057876
 30
0.0
 10
15.4550243569
 20
11.8102053278
 30
0.0
 10
15.446136625
 20
11.8603046776
 30
0.0
 10
15.4379128414
 20
11.9111466604
 30
0.0
 10
15.4303624057
 20
11.9626732463
 30
0.0
 10
15.4234939505
 20
12.0148256219
 30
0.0
 10
15.4173153304
 20
12.0675442565
 30
0.0
 10
15.4118336148
 20
12.1207689709
 30
0.0
 10
15.4070550733
 20
12.174439001
 30
0.0
 10
15.4029851634
 20
12.2284930805
 30
0.0
 10
15.399628546
 20
12.2828694667
 30
0.0
 10
15.3969890293
 20
12.3375061874
 30
0.0
 10
15.394427754
 20
12.4106823733
 30
0.0
 10
15.393037966
 20
12.5023601723
 30
0.0
 10
15.394057774
 20
12.5940564498
 30
0.0
 10
15.3963229987
 20
12.6672860194
 30
0.0
 10
15.3987416876
 20
12.7219901407
 30
0.0
 10
15.4018784977
 20
12.7764530505
 30
0.0
 10
15.4057298669
 20
12.8306126781
 30
0.0
 10
15.4102913818
 20
12.8844071609
 30
0.0
 10
15.4155578285
 20
12.9377750916
 30
0.0
 10
15.4215231867
 20
12.9906555408
 30
0.0
 10
15.42818064
 20
13.0429881407
 30
0.0
 10
15.4355225715
 20
13.0947131536
 30
0.0
 10
15.4435405839
 20
13.1457715398
 30
0.0
 10
15.4522255092
 20
13.1961050247
 30
0.0
 10
15.4615674196
 20
13.2456561636
 30
0.0
 10
15.4715556407
 20
13.2943684024
 30
0.0
 10
15.4821787544
 20
13.3421861887
 30
0.0
 10
15.4934246141
 20
13.3890548723
 30
0.0
 10
15.5052803839
 20
13.4349212489
 30
0.0
 10
15.5177324694
 20
13.4797325429
 30
0.0
 10
15.526510287
 20
13.5091657772
 30
0.0
 10
15.5309996712
 20
13.5236934297
 30
0.0
  0
SPLINE
  5
3DB
100
AcDbEntity
  8
LAYER_FEATURE
100
AcDbSpline
 62
7
  6
CONTINUOUS
 70
0
 71
3
 72
15
 73
11
 74
0
 42
0.0000001
 43
0.0000001
 44
0.0000000001
 40
0.0
 40
0.0
 40
0.0
 40
0.0
 40
0.0951941799
 40
0.1942144203
 40
0.3003693996
 40
0.4161726639
 40
0.5433184568
 40
0.6827849658
 40
0.8350312218
 40
1.0
 40
1.0
 40
1.0
 40
1.0
 10
14.4942658663
 20
13.894192706
 30
0.0
 10
14.4940181556
 20
13.8941927036
 30
0.0
 10
14.493511139
 20
13.8941353411
 30
0.0
 10
14.4927664903
 20
13.8938813098
 30
0.0
 10
14.4920377969
 20
13.89346419
 30
0.0
 10
14.4913299397
 20
13.8928896521
 30
0.0
 10
14.490646466
 20
13.8921630258
 30
0.0
 10
14.4899911286
 20
13.8912897843
 30
0.0
 10
14.4893681246
 20
13.8902762051
 30
0.0
 10
14.488991828
 20
13.889540578
 30
0.0
 10
14.4888088201
 20
13.8891522667
 30
0.0
  0
SPLINE
  5
3DC
100
AcDbEntity
  8
02___PRT_ALL_AXES
100
AcDbSpline
 62
7
  6
CONTINUOUS
 70
0
 71
3
 72
15
 73
11
 74
0
 42
0.0000001
 43
0.0000001
 44
0.0000000001
 40
0.0
 40
0.0
 40
0.0
 40
0.0
 40
0.1332296199
 40
0.2630657974
 40
0.3899734729
 40
0.5144749401
 40
0.637127814
 40
0.7585217737
 40
0.8792705874
 40
1.0
 40
1.0
 40
1.0
 40
1.0
 10
15.8959255464
 20
11.4115948583
 30
0.0
 10
15.8916320826
 20
11.4091925811
 30
0.0
 10
15.8830054028
 20
11.404709085
 30
0.0
 10
15.8698073878
 20
11.3989213764
 30
0.0
 10
15.8565421483
 20
11.3941704768
 30
0.0
 10
15.8432231002
 20
11.3904621563
 30
0.0
 10
15.8298630141
 20
11.3878006574
 30
0.0
 10
15.8164749609
 20
11.3861893626
 30
0.0
 10
15.8030735865
 20
11.3856302894
 30
0.0
 10
15.7941516797
 20
11.3859591194
 30
0.0
 10
15.7897062514
 20
11.3862967709
 30
0.0
  0
SPLINE
  5
3DD
100
AcDbEntity
  8
LAYER_FEATURE
100
AcDbSpline
 62
7
  6
CONTINUOUS
 70
0
 71
3
 72
42
 73
38
 74
0
 42
0.0000001
 43
0.0000001
 44
0.0000000001
 40
0.0
 40
0.0
 40
0.0
 40
0.0
 40
0.0443808407
 40
0.0879661222
 40
0.1307323088
 40
0.1726602914
 40
0.2137311955
 40
0.2539278687
 40
0.2932350055
 40
0.3316390636
 40
0.3691285232
 40
0.4056939865
 40
0.4413283464
 40
0.4760270214
 40
0.5097881186
 40
0.5426126541
 40
0.5745048542
 40
0.60547241
 40
0.6355267564
 40
0.6646834376
 40
0.6929624699
 40
0.7203886753
 40
0.7469920829
 40
0.7728083449
 40
0.79787906
 40
0.8101506641
 40
0.8222543949
 40
0.8459841545
 40
0.8691316982
 40
0.8917646888
 40
0.9139571846
 40
0.9357891645
 40
0.9573457748
 40
0.9680502976
 40
0.9787197543
 40
0.9893657539
 40
1.0
 40
1.0
 40
1.0
 40
1.0
 10
14.3216433112
 20
13.7677003487
 30
0.0
 10
14.3261918317
 20
13.7824193664
 30
0.0
 10
14.335443035
 20
13.8115213978
 30
0.0
 10
14.3499193527
 20
13.8545335005
 30
0.0
 10
14.3648608447
 20
13.8964837255
 30
0.0
 10
14.3802554781
 20
13.9373384821
 30
0.0
 10
14.3960912212
 20
13.9770658283
 30
0.0
 10
14.4123555371
 20
14.0156343497
 30
0.0
 10
14.4290355967
 20
14.0530136159
 30
0.0
 10
14.4461182716
 20
14.0891741636
 30
0.0
 10
14.4635900794
 20
14.1240875019
 30
0.0
 10
14.4814372778
 20
14.1577261223
 30
0.0
 10
14.4996458653
 20
14.1900635199
 30
0.0
 10
14.5182015262
 20
14.2210742537
 30
0.0
 10
14.5370897176
 20
14.2507339259
 30
0.0
 10
14.5562956975
 20
14.2790191823
 30
0.0
 10
14.575804467
 20
14.3059077817
 30
0.0
 10
14.5956008282
 20
14.3313785829
 30
0.0
 10
14.6156694406
 20
14.355411515
 30
0.0
 10
14.6359947812
 20
14.3779876222
 30
0.0
 10
14.6565611615
 20
14.3990890959
 30
0.0
 10
14.677352746
 20
14.4186991656
 30
0.0
 10
14.698353743
 20
14.436802242
 30
0.0
 10
14.7195476116
 20
14.4533834858
 30
0.0
 10
14.7374832077
 20
14.4660110008
 30
0.0
 10
14.7519068754
 20
14.4753184697
 30
0.0
 10
14.7661828209
 20
14.4839844202
 30
0.0
 10
14.7841269
 20
14.4938686102
 30
0.0
 10
14.8059298596
 20
14.504238963
 30
0.0
 10
14.8278432538
 20
14.5130308824
 30
0.0
 10
14.8498494599
 20
14.5202360302
 30
0.0
 10
14.8719299228
 20
14.5258475622
 30
0.0
 10
14.8904228234
 20
14.5291991719
 30
0.0
 10
14.9052098689
 20
14.5310705216
 30
0.0
 10
14.9162822762
 20
14.5320711048
 30
0.0
 10
14.9273588782
 20
14.5326715384
 30
0.0
 10
14.93474653
 20
14.5328049852
 30
0.0
 10
14.9384379655
 20
14.5328049816
 30
0.0
  0
SPLINE
  5
3DE
100
AcDbEntity
  8
LAYER_FEATURE
100
AcDbSpline
 62
7
  6
CONTINUOUS
 70
0
 71
3
 72
15
 73
11
 74
0
 42
0.0000001
 43
0.0000001
 44
0.0000000001
 40
0.0
 40
0.0
 40
0.0
 40
0.0
 40
0.1027989106
 40
0.2133340689
 40
0.3310565625
 40
0.4552795414
 40
0.5852051573
 40
0.7199473472
 40
0.8585484854
 40
1.0
 40
1.0
 40
1.0
 40
1.0
 10
14.4268720413
 20
13.6084397616
 30
0.0
 10
14.4274244293
 20
13.6095406292
 30
0.0
 10
14.4284791264
 20
13.6118718488
 30
0.0
 10
14.4298723813
 20
13.6155881038
 30
0.0
 10
14.4311244198
 20
13.6196237293
 30
0.0
 10
14.4322240786
 20
13.6239432782
 30
0.0
 10
14.4331616507
 20
13.6285090527
 30
0.0
 10
14.4339287751
 20
13.6332809545
 30
0.0
 10
14.4345186198
 20
13.6382169212
 30
0.0
 10
14.4347880886
 20
13.6415624781
 30
0.0
 10
14.4348928145
 20
13.6432540372
 30
0.0
  0
SPLINE
  5
3DF
100
AcDbEntity
  8
LAYER_FEATURE
100
AcDbSpline
 62
7
  6
CONTINUOUS
 70
0
 71
3
 72
11
 73
7
 74
0
 42
0.0000001
 43
0.0000001
 44
0.0000000001
 40
0.0
 40
0.0
 40
0.0
 40
0.0
 40
0.2505870063
 40
0.5023475343
 40
0.7529296079
 40
1.0
 40
1.0
 40
1.0
 40
1.0
 10
14.4348928145
 20
13.6432540372
 30
0.0
 10
14.4350263617
 20
13.6454111258
 30
0.0
 10
14.4352034315
 20
13.649741518
 30
0.0
 10
14.4352033868
 20
13.656236987
 30
0.0
 10
14.4349392419
 20
13.6626967432
 30
0.0
 10
14.4345853833
 20
13.6669757292
 30
0.0
 10
14.4343633677
 20
13.669095021
 30
0.0
  0
SPLINE
  5
3E0
100
AcDbEntity
  8
LAYER_FEATURE
100
AcDbSpline
 62
7
  6
CONTINUOUS
 70
0
 71
3
 72
11
 73
7
 74
0
 42
0.0000001
 43
0.0000001
 44
0.0000000001
 40
0.0
 40
0.0
 40
0.0
 40
0.0
 40
0.2644650718
 40
0.520633666
 40
0.766442071
 40
1.0
 40
1.0
 40
1.0
 40
1.0
 10
14.4343633677
 20
13.669095021
 30
0.0
 10
14.4341083469
 20
13.6715293712
 30
0.0
 10
14.4335080046
 20
13.6763120963
 30
0.0
 10
14.4323169716
 20
13.6833073633
 30
0.0
 10
14.4308594979
 20
13.689959642
 30
0.0
 10
14.4296872224
 20
13.6942413305
 30
0.0
 10
14.4290547287
 20
13.6963083463
 30
0.0
  0
LINE
  5
3E1
100
AcDbEntity
  8
LAYER_FEATURE
100
AcDbLine
 62
7
  6
CONTINUOUS
 10
14.4262151557
 20
13.7067363171
 11
14.426902616
 21
13.7035556207
  0
SPLINE
  5
3E2
100
AcDbEntity
  8
LAYER_FEATURE
100
AcDbSpline
 62
7
  6
CONTINUOUS
 70
0
 71
3
 72
15
 73
11
 74
0
 42
0.0000001
 43
0.0000001
 44
0.0000000001
 40
0.0
 40
0.0
 40
0.0
 40
0.0
 40
0.1115851416
 40
0.230441338
 40
0.3549993375
 40
0.4835219616
 40
0.6141727251
 40
0.7450614359
 40
0.8742866137
 40
1.0
 40
1.0
 40
1.0
 40
1.0
 10
14.427471678
 20
13.7284984088
 30
0.0
 10
14.4272304778
 20
13.7277178845
 30
0.0
 10
14.426795124
 20
13.7260861804
 30
0.0
 10
14.4262894283
 20
13.7235352875
 30
0.0
 10
14.425916442
 20
13.7208364366
 30
0.0
 10
14.4256827085
 20
13.7180354891
 30
0.0
 10
14.4255922553
 20
13.7151799441
 30
0.0
 10
14.425646685
 20
13.7123183234
 30
0.0
 10
14.4258450088
 20
13.709499355
 30
0.0
 10
14.4260751434
 20
13.7076459845
 30
0.0
 10
14.4262151557
 20
13.7067363171
 30
0.0
  0
SPLINE
  5
3E3
100
AcDbEntity
  8
LAYER_FEATURE
100
AcDbSpline
 62
7
  6
CONTINUOUS
 70
0
 71
3
 72
13
 73
9
 74
0
 42
0.0000001
 43
0.0000001
 44
0.0000000001
 40
0.0
 40
0.0
 40
0.0
 40
0.0
 40
0.1113838471
 40
0.2273323584
 40
0.3475452507
 40
0.4716909028
 40
0.7302820432
 40
1.0
 40
1.0
 40
1.0
 40
1.0
 10
14.4787620437
 20
13.7580039836
 30
0.0
 10
14.4790758334
 20
13.7588496324
 30
0.0
 10
14.4796805117
 20
13.7605890279
 30
0.0
 10
14.4805050125
 20
13.7632805676
 30
0.0
 10
14.481262798
 20
13.7660988102
 30
0.0
 10
14.4821928155
 20
13.7700647235
 30
0.0
 10
14.4831614423
 20
13.775261983
 30
0.0
 10
14.4837139544
 20
13.779506679
 30
0.0
 10
14.4839411547
 20
13.7816790148
 30
0.0
  0
SPLINE
  5
3E4
100
AcDbEntity
  8
LAYER_FEATURE
100
AcDbSpline
 62
7
  6
CONTINUOUS
 70
0
 71
3
 72
11
 73
7
 74
0
 42
0.0000001
 43
0.0000001
 44
0.0000000001
 40
0.0
 40
0.0
 40
0.0
 40
0.0
 40
0.2470841118
 40
0.4976708041
 40
0.7494267449
 40
1.0
 40
1.0
 40
1.0
 40
1.0
 10
14.4839411547
 20
13.7816790148
 30
0.0
 10
14.4841628275
 20
13.7837985004
 30
0.0
 10
14.4845159994
 20
13.7880777797
 30
0.0
 10
14.4847791173
 20
13.7945378138
 30
0.0
 10
14.4847781292
 20
13.8010332822
 30
0.0
 10
14.4846003676
 20
13.8053635667
 30
0.0
 10
14.4844664734
 20
13.8075205543
 30
0.0
  0
SPLINE
  5
3E5
100
AcDbEntity
  8
LAYER_FEATURE
100
AcDbSpline
 62
7
  6
CONTINUOUS
 70
0
 71
3
 72
11
 73
7
 74
0
 42
0.0000001
 43
0.0000001
 44
0.0000000001
 40
0.0
 40
0.0
 40
0.0
 40
0.0
 40
0.2607669083
 40
0.515748371
 40
0.7628244654
 40
1.0
 40
1.0
 40
1.0
 40
1.0
 10
14.4844664734
 20
13.8075205543
 30
0.0
 10
14.4843112255
 20
13.8100215401
 30
0.0
 10
14.4839060052
 20
13.8149625542
 30
0.0
 10
14.4830047254
 20
13.8222393444
 30
0.0
 10
14.4818243885
 20
13.8292464484
 30
0.0
 10
14.4808366546
 20
13.8337960441
 30
0.0
 10
14.4802946422
 20
13.8360097578
 30
0.0
  0
LINE
  5
3E6
100
AcDbEntity
  8
LAYER_FEATURE
100
AcDbLine
 62
7
  6
CONTINUOUS
 10
14.4778950984
 20
13.847142807
 11
14.4784493215
 21
13.8437950053
  0
SPLINE
  5
3E7
100
AcDbEntity
  8
LAYER_FEATURE
100
AcDbSpline
 62
7
  6
CONTINUOUS
 70
0
 71
3
 72
15
 73
11
 74
0
 42
0.0000001
 43
0.0000001
 44
0.0000000001
 40
0.0
 40
0.0
 40
0.0
 40
0.0
 40
0.1066023233
 40
0.2217264577
 40
0.3439495536
 40
0.4716283775
 40
0.6029746533
 40
0.7361052794
 40
0.8690864736
 40
1.0
 40
1.0
 40
1.0
 40
1.0
 10
14.4800305698
 20
13.8684484054
 30
0.0
 10
14.4797569571
 20
13.8677317606
 30
0.0
 10
14.4792549535
 20
13.8662151287
 30
0.0
 10
14.4786492539
 20
13.8638135963
 30
0.0
 10
14.4781694244
 20
13.8612294424
 30
0.0
 10
14.4778238645
 20
13.8585064753
 30
0.0
 10
14.4776185288
 20
13.8556907547
 30
0.0
 10
14.4775570186
 20
13.852830093
 30
0.0
 10
14.4776403646
 20
13.8499731847
 30
0.0
 10
14.4777935017
 20
13.8480793546
 30
0.0
 10
14.4778950984
 20
13.847142807
 30
0.0
  0
SPLINE
  5
3E8
100
AcDbEntity
  8
LAYER_FEATURE
100
AcDbSpline
 62
7
  6
CONTINUOUS
 70
0
 71
3
 72
9
 73
5
 74
0
 42
0.0000001
 43
0.0000001
 44
0.0000000001
 40
0.0
 40
0.0
 40
0.0
 40
0.0
 40
0.4864804228
 40
1.0
 40
1.0
 40
1.0
 40
1.0
 10
14.5358519467
 20
13.8941650188
 30
0.0
 10
14.5363805542
 20
13.8960846556
 30
0.0
 10
14.5373309865
 20
13.9000688499
 30
0.0
 10
14.5380441774
 20
13.904101451
 30
0.0
 10
14.5383554334
 20
13.9061800308
 30
0.0
  0
SPLINE
  5
3E9
100
AcDbEntity
  8
LAYER_FEATURE
100
AcDbSpline
 62
7
  6
CONTINUOUS
 70
0
 71
3
 72
11
 73
7
 74
0
 42
0.0000001
 43
0.0000001
 44
0.0000000001
 40
0.0
 40
0.0
 40
0.0
 40
0.0
 40
0.2435691706
 40
0.4929669131
 40
0.7458954147
 40
1.0
 40
1.0
 40
1.0
 40
1.0
 10
14.5383554334
 20
13.9061800308
 30
0.0
 10
14.5386636679
 20
13.9082384326
 30
0.0
 10
14.5391907111
 20
13.9124195078
 30
0.0
 10
14.5397140761
 20
13.9187736439
 30
0.0
 10
14.5399762571
 20
13.9252339607
 30
0.0
 10
14.5399749097
 20
13.9295680903
 30
0.0
 10
14.5399297619
 20
13.9317390004
 30
0.0
  0
SPLINE
  5
3EA
100
AcDbEntity
  8
LAYER_FEATURE
100
AcDbSpline
 62
7
  6
CONTINUOUS
 70
0
 71
3
 72
11
 73
7
 74
0
 42
0.0000001
 43
0.0000001
 44
0.0000000001
 40
0.0
 40
0.0
 40
0.0
 40
0.0
 40
0.2572140253
 40
0.5110390112
 40
0.7593234953
 40
1.0
 40
1.0
 40
1.0
 40
1.0
 10
14.5399297619
 20
13.9317390004
 30
0.0
 10
14.5398769295
 20
13.93427942
 30
0.0
 10
14.5396732165
 20
13.939325313
 30
0.0
 10
14.5390716501
 20
13.9468043691
 30
0.0
 10
14.538181485
 20
13.9540901126
 30
0.0
 10
14.5373871201
 20
13.9588566854
 30
0.0
 10
14.5369404461
 20
13.9611919486
 30
0.0
  0
LINE
  5
3EB
100
AcDbEntity
  8
LAYER_FEATURE
100
AcDbLine
 62
7
  6
CONTINUOUS
 10
14.5350072213
 20
13.9729081002
 11
14.535422135
 21
13.9694298724
  0
SPLINE
  5
3EC
100
AcDbEntity
  8
LAYER_FEATURE
100
AcDbSpline
 62
7
  6
CONTINUOUS
 70
0
 71
3
 72
15
 73
11
 74
0
 42
0.0000001
 43
0.0000001
 44
0.0000000001
 40
0.0
 40
0.0
 40
0.0
 40
0.0
 40
0.1015995108
 40
0.2129151716
 40
0.3327145372
 40
0.4594783138
 40
0.5914880176
 40
0.7268840407
 40
0.8637135498
 40
1.0
 40
1.0
 40
1.0
 40
1.0
 10
14.5379982453
 20
13.9935237767
 30
0.0
 10
14.5376947107
 20
13.9928797286
 30
0.0
 10
14.537130525
 20
13.9914956649
 30
0.0
 10
14.5364314868
 20
13.9892692132
 30
0.0
 10
14.5358501241
 20
13.9868276477
 30
0.0
 10
14.5353965807
 20
13.9842121951
 30
0.0
 10
14.5350786479
 20
13.9814669104
 30
0.0
 10
14.5349018833
 20
13.9786383384
 30
0.0
 10
14.5348693223
 20
13.975774582
 30
0.0
 10
14.5349446756
 20
13.9738611208
 30
0.0
 10
14.5350072213
 20
13.9729081002
 30
0.0
  0
SPLINE
  5
3ED
100
AcDbEntity
  8
LAYER_FEATURE
100
AcDbSpline
 62
7
  6
CONTINUOUS
 70
0
 71
3
 72
11
 73
7
 74
0
 42
0.0000001
 43
0.0000001
 44
0.0000000001
 40
0.0
 40
0.0
 40
0.0
 40
0.0
 40
0.240002668
 40
0.4881814209
 40
0.7422939728
 40
1.0
 40
1.0
 40
1.0
 40
1.0
 10
14.5975394763
 20
14.0153930258
 30
0.0
 10
14.5979317921
 20
14.0173673888
 30
0.0
 10
14.5986285989
 20
14.0214040302
 30
0.0
 10
14.5994064148
 20
14.0275830062
 30
0.0
 10
14.599928863
 20
14.0339377069
 30
0.0
 10
14.6001023016
 20
14.0382283835
 30
0.0
 10
14.600145566
 20
14.0403893963
 30
0.0
  0
SPLINE
  5
3EE
100
AcDbEntity
  8
LAYER_FEATURE
100
AcDbSpline
 62
7
  6
CONTINUOUS
 70
0
 71
3
 72
11
 73
7
 74
0
 42
0.0000001
 43
0.0000001
 44
0.0000000001
 40
0.0
 40
0.0
 40
0.0
 40
0.0
 40
0.2537662073
 40
0.5064564988
 40
0.7559065605
 40
1.0
 40
1.0
 40
1.0
 40
1.0
 10
14.600145566
 20
14.0403893963
 30
0.0
 10
14.6001966601
 20
14.0429414936
 30
0.0
 10
14.6001985752
 20
14.0480374247
 30
0.0
 10
14.5999033749
 20
14.0556371905
 30
0.0
 10
14.5993132254
 20
14.0631222073
 30
0.0
 10
14.598719004
 20
14.0680527983
 30
0.0
 10
14.5983715171
 20
14.0704833963
 30
0.0
  0
SPLINE
  5
3EF
100
AcDbEntity
  8
LAYER_FEATURE
100
AcDbSpline
 62
7
  6
CONTINUOUS
 70
0
 71
3
 72
17
 73
13
 74
0
 42
0.0000001
 43
0.0000001
 44
0.0000000001
 40
0.0
 40
0.0
 40
0.0
 40
0.0
 40
0.0469065619
 40
0.0966163663
 40
0.1490302034
 40
0.204043541
 40
0.321290839
 40
0.4470338437
 40
0.5796541236
 40
0.7173370593
 40
0.8581265777
 40
1.0
 40
1.0
 40
1.0
 40
1.0
 10
14.6007395983
 20
14.1023541707
 30
0.0
 10
14.6005790733
 20
14.1020806445
 30
0.0
 10
14.6002663273
 20
14.1015066116
 30
0.0
 10
14.5998331439
 20
14.1005963755
 30
0.0
 10
14.5994240141
 20
14.0996154176
 30
0.0
 10
14.5989018502
 20
14.0981884457
 30
0.0
 10
14.5983265463
 20
14.0962552305
 30
0.0
 10
14.5977700308
 20
14.093775642
 30
0.0
 10
14.5973430414
 20
14.0911305627
 30
0.0
 10
14.5970529896
 20
14.0883648469
 30
0.0
 10
14.5969048839
 20
14.0855254107
 30
0.0
 10
14.5969025184
 20
14.0836132577
 30
0.0
 10
14.5969257922
 20
14.0826542858
 30
0.0
  0
SPLINE
  5
3F0
100
AcDbEntity
  8
LAYER_FEATURE
100
AcDbSpline
 62
7
  6
CONTINUOUS
 70
0
 71
3
 72
17
 73
13
 74
0
 42
0.0000001
 43
0.0000001
 44
0.0000000001
 40
0.0
 40
0.0
 40
0.0
 40
0.0
 40
0.0443452366
 40
0.0916684103
 40
0.141934479
 40
0.1950890656
 40
0.3096343541
 40
0.4342253728
 40
0.5673882219
 40
0.7073833125
 40
0.8522720306
 40
1.0
 40
1.0
 40
1.0
 40
1.0
 10
14.6675672216
 20
14.1937472189
 30
0.0
 10
14.6673958973
 20
14.1935175494
 30
0.0
 10
14.6670603656
 20
14.1930287147
 30
0.0
 10
14.6665924948
 20
14.192239313
 30
0.0
 10
14.666145731
 20
14.191373222
 30
0.0
 10
14.6655662887
 20
14.1900890089
 30
0.0
 10
14.6649141275
 20
14.1883138107
 30
0.0
 10
14.6642607987
 20
14.1859966859
 30
0.0
 10
14.6637294846
 20
14.1834804432
 30
0.0
 10
14.6633293743
 20
14.1808076104
 30
0.0
 10
14.6630673723
 20
14.1780233844
 30
0.0
 10
14.6629882149
 20
14.1761333564
 30
0.0
 10
14.6629724182
 20
14.1751789615
 30
0.0
  0
SPLINE
  5
3F1
100
AcDbEntity
  8
LAYER_FEATURE
100
AcDbSpline
 62
7
  6
CONTINUOUS
 70
0
 71
3
 72
18
 73
14
 74
0
 42
0.0000001
 43
0.0000001
 44
0.0000000001
 40
0.0
 40
0.0
 40
0.0
 40
0.0
 40
0.0419469743
 40
0.0869433216
 40
0.1350493407
 40
0.1862854031
 40
0.2406195444
 40
0.2979714092
 40
0.4212112067
 40
0.554779616
 40
0.6970571204
 40
0.8461525948
 40
1.0
 40
1.0
 40
1.0
 40
1.0
 10
14.7377489377
 20
14.2667015998
 30
0.0
 10
14.7375688776
 20
14.2665188452
 30
0.0
 10
14.737214262
 20
14.2661214558
 30
0.0
 10
14.7367165687
 20
14.2654613075
 30
0.0
 10
14.736236921
 20
14.2647193564
 30
0.0
 10
14.7357773023
 20
14.2638988625
 30
0.0
 10
14.7353395216
 20
14.2630031896
 30
0.0
 10
14.7347738706
 20
14.2616818241
 30
0.0
 10
14.7341403575
 20
14.2598651998
 30
0.0
 10
14.7335105866
 20
14.2575050666
 30
0.0
 10
14.7330048614
 20
14.254954006
 30
0.0
 10
14.7326318783
 20
14.2522552551
 30
0.0
 10
14.7324777184
 20
14.2504078036
 30
0.0
 10
14.7324234786
 20
14.2494684078
 30
0.0
  0
SPLINE
  5
3F2
100
AcDbEntity
  8
LAYER_FEATURE
100
AcDbSpline
 62
7
  6
CONTINUOUS
 70
0
 71
3
 72
19
 73
15
 74
0
 42
0.0000001
 43
0.0000001
 44
0.0000000001
 40
0.0
 40
0.0
 40
0.0
 40
0.0
 40
0.0399296878
 40
0.0827991165
 40
0.1288127167
 40
0.1781054924
 40
0.2307366185
 40
0.2866982986
 40
0.3459320978
 40
0.4083394483
 40
0.5420706813
 40
0.6864980441
 40
0.8398236957
 40
1.0
 40
1.0
 40
1.0
 40
1.0
 10
14.810515821
 20
14.3204180101
 30
0.0
 10
14.8103295382
 20
14.3202847533
 30
0.0
 10
14.8099601523
 20
14.3199843328
 30
0.0
 10
14.8094375726
 20
14.3194604921
 30
0.0
 10
14.808929928
 20
14.3188505785
 30
0.0
 10
14.8084392445
 20
14.3181573452
 30
0.0
 10
14.8079673777
 20
14.3173836218
 30
0.0
 10
14.8075162764
 20
14.3165326172
 30
0.0
 10
14.8070877561
 20
14.3156079016
 30
0.0
 10
14.8065362727
 20
14.3142503479
 30
0.0
 10
14.805921774
 20
14.312393568
 30
0.0
 10
14.8053160231
 20
14.3099919931
 30
0.0
 10
14.8048362049
 20
14.3074079063
 30
0.0
 10
14.8046096836
 20
14.3056228921
 30
0.0
 10
14.8045180531
 20
14.3047086939
 30
0.0
  0
LINE
  5
3F3
100
AcDbEntity
  8
LAYER_FEATURE
100
AcDbLine
 62
7
  6
CONTINUOUS
 10
14.8778516143
 20
14.3273822562
 11
14.877859238
 21
14.3276659154
  0
LINE
  5
3F4
100
AcDbEntity
  8
LAYER_FEATURE
100
AcDbLine
 62
7
  6
CONTINUOUS
 10
14.8784662584
 20
14.3402945956
 11
14.8781483414
 21
14.3367496267
  0
SPLINE
  5
3F5
100
AcDbEntity
  8
LAYER_FEATURE
100
AcDbSpline
 62
7
  6
CONTINUOUS
 70
0
 71
3
 72
20
 73
16
 74
0
 42
0.0000001
 43
0.0000001
 44
0.0000000001
 40
0.0
 40
0.0
 40
0.0
 40
0.0
 40
0.0386871928
 40
0.0799042556
 40
0.1240661754
 40
0.1714831189
 40
0.2223557328
 40
0.276789065
 40
0.3348137017
 40
0.3964012368
 40
0.4614689556
 40
0.5298944185
 40
0.6761202795
 40
0.8334826475
 40
1.0
 40
1.0
 40
1.0
 40
1.0
 10
14.8850706224
 20
14.3543079215
 30
0.0
 10
14.8848812081
 20
14.3542259476
 30
0.0
 10
14.8845023328
 20
14.3540270772
 30
0.0
 10
14.8839597148
 20
14.353645451
 30
0.0
 10
14.8834289675
 20
14.3531741655
 30
0.0
 10
14.8829121459
 20
14.3526155787
 30
0.0
 10
14.8824110583
 20
14.3519720472
 30
0.0
 10
14.8819276683
 20
14.3512462434
 30
0.0
 10
14.8814638688
 20
14.3504412026
 30
0.0
 10
14.8810216039
 20
14.349560265
 30
0.0
 10
14.8806026329
 20
14.3486071375
 30
0.0
 10
14.8800656401
 20
14.3472143692
 30
0.0
 10
14.8794705648
 20
14.3453187083
 30
0.0
 10
14.8788892188
 20
14.3428773829
 30
0.0
 10
14.8785938092
 20
14.3411737414
 30
0.0
 10
14.8784662584
 20
14.3402945956
 30
0.0
  0
SPLINE
  5
3F6
100
AcDbEntity
  8
LAYER_FEATURE
100
AcDbSpline
 62
7
  6
CONTINUOUS
 70
0
 71
3
 72
20
 73
16
 74
0
 42
0.0000001
 43
0.0000001
 44
0.0000000001
 40
0.0
 40
0.0
 40
0.0
 40
0.0
 40
0.0405334112
 40
0.082580636
 40
0.1267337925
 40
0.1734946397
 40
0.2232586986
 40
0.2763091366
 40
0.3328411301
 40
0.3929698036
 40
0.4567489137
 40
0.5241730229
 40
0.6696881796
 40
0.8287287338
 40
1.0
 40
1.0
 40
1.0
 40
1.0
 10
14.9605965038
 20
14.368000029
 30
0.0
 10
14.9604267557
 20
14.3679728625
 30
0.0
 10
14.9600846473
 20
14.3678913261
 30
0.0
 10
14.9595829363
 20
14.3676942547
 30
0.0
 10
14.9590875845
 20
14.3674218174
 30
0.0
 10
14.9586003234
 20
14.367075504
 30
0.0
 10
14.9581225779
 20
14.3666566844
 30
0.0
 10
14.9576557078
 20
14.3661669665
 30
0.0
 10
14.9572012165
 20
14.3656079945
 30
0.0
 10
14.9567604689
 20
14.3649817278
 30
0.0
 10
14.9563349327
 20
14.3642902441
 30
0.0
 10
14.9557754191
 20
14.3632580457
 30
0.0
 10
14.9551292262
 20
14.3618162131
 30
0.0
 10
14.9544540818
 20
14.3599126999
 30
0.0
 10
14.9540771815
 20
14.3585622545
 30
0.0
 10
14.9539024041
 20
14.3578572077
 30
0.0
  0
SPLINE
  5
3F7
100
AcDbEntity
  8
LAYER_FEATURE
100
AcDbSpline
 62
7
  6
CONTINUOUS
 70
0
 71
3
 72
16
 73
12
 74
0
 42
0.0000001
 43
0.0000001
 44
0.0000000001
 40
0.0
 40
0.0
 40
0.0
 40
0.0
 40
0.1678847312
 40
0.3231390811
 40
0.4652766009
 40
0.5942245882
 40
0.7104624457
 40
0.8151969903
 40
0.9105877474
 40
0.9558228984
 40
1.0
 40
1.0
 40
1.0
 40
1.0
 10
14.9690124748
 20
10.6602227046
 30
0.0
 10
14.9691950554
 20
10.6597237428
 30
0.0
 10
14.9695753964
 20
10.6587734888
 30
0.0
 10
14.9702198092
 20
10.6574479027
 30
0.0
 10
14.9709111851
 20
10.6562869803
 30
0.0
 10
14.9716437255
 20
10.6553009835
 30
0.0
 10
14.9724121657
 20
10.6544986031
 30
0.0
 10
14.9732111459
 20
10.6538875592
 30
0.0
 10
14.9739118915
 20
10.653538518
 30
0.0
 10
14.9744734296
 20
10.6533709638
 30
0.0
 10
14.9747531006
 20
10.6533226704
 30
0.0
 10
14.9748920859
 20
10.6533075007
 30
0.0
  0
SPLINE
  5
3F8
100
AcDbEntity
  8
LAYER_FEATURE
100
AcDbSpline
 62
7
  6
CONTINUOUS
 70
0
 71
3
 72
20
 73
16
 74
0
 42
0.0000001
 43
0.0000001
 44
0.0000000001
 40
0.0
 40
0.0
 40
0.0
 40
0.0
 40
0.1676855308
 40
0.3257579744
 40
0.4722557975
 40
0.5406661893
 40
0.6056277829
 40
0.6670286852
 40
0.7247996305
 40
0.7789294247
 40
0.8294704912
 40
0.8765554439
 40
0.9204191561
 40
0.9614131996
 40
1.0
 40
1.0
 40
1.0
 40
1.0
 10
14.8925646592
 20
10.6768394352
 30
0.0
 10
14.8926987909
 20
10.6759679744
 30
0.0
 10
14.8930067477
 20
10.6742817372
 30
0.0
 10
14.8936065665
 20
10.6718703296
 30
0.0
 10
14.8942163293
 20
10.6700038974
 30
0.0
 10
14.8947642968
 20
10.6686376211
 30
0.0
 10
14.8951905069
 20
10.6677058877
 30
0.0
 10
14.8956394616
 20
10.6668474922
 30
0.0
 10
14.896109384
 20
10.6660660433
 30
0.0
 10
14.8965983176
 20
10.6653647775
 30
0.0
 10
14.897104367
 20
10.6647466298
 30
0.0
 10
14.897625573
 20
10.6642141781
 30
0.0
 10
14.8981601397
 20
10.6637697072
 30
0.0
 10
14.8987059961
 20
10.6634155222
 30
0.0
 10
14.8990859627
 20
10.6632362122
 30
0.0
 10
14.8992755802
 20
10.6631640159
 30
0.0
  0
LINE
  5
3F9
100
AcDbEntity
  8
LAYER_FEATURE
100
AcDbLine
 62
7
  6
CONTINUOUS
 10
14.836156918
 20
10.6871962728
 11
14.8374134404
 21
10.686958362
  0
SPLINE
  5
3FA
100
AcDbEntity
  8
LAYER_FEATURE
100
AcDbSpline
 62
7
  6
CONTINUOUS
 70
0
 71
3
 72
19
 73
15
 74
0
 42
0.0000001
 43
0.0000001
 44
0.0000000001
 40
0.0
 40
0.0
 40
0.0
 40
0.0
 40
0.1613990594
 40
0.2395156519
 40
0.3155460959
 40
0.46036477
 40
0.5941000414
 40
0.6563786896
 40
0.7154068813
 40
0.7710969897
 40
0.8234044563
 40
0.8723391044
 40
0.9179822855
 40
1.0
 40
1.0
 40
1.0
 40
1.0
 10
14.8183570262
 20
10.7086655353
 30
0.0
 10
14.8184555612
 20
10.7077572106
 30
0.0
 10
14.8186375903
 20
10.7064126705
 30
0.0
 10
14.8189552581
 20
10.7046546709
 30
0.0
 10
14.8193073665
 20
10.7029990718
 30
0.0
 10
14.8198187195
 20
10.7010564177
 30
0.0
 10
14.820447605
 20
10.6992298588
 30
0.0
 10
14.8210098088
 20
10.6978995312
 30
0.0
 10
14.8214453472
 20
10.6969966858
 30
0.0
 10
14.8219029274
 20
10.6961686402
 30
0.0
 10
14.8223806392
 20
10.6954189509
 30
0.0
 10
14.8228767927
 20
10.6947504314
 30
0.0
 10
14.8235361174
 20
10.6939986244
 30
0.0
 10
14.8240871912
 20
10.6935196778
 30
0.0
 10
14.8244745221
 20
10.6932636723
 30
0.0
  0
SPLINE
  5
3FB
100
AcDbEntity
  8
LAYER_FEATURE
100
AcDbSpline
 62
7
  6
CONTINUOUS
 70
0
 71
3
 72
11
 73
7
 74
0
 42
0.0000001
 43
0.0000001
 44
0.0000000001
 40
0.0
 40
0.0
 40
0.0
 40
0.0
 40
0.2667530807
 40
0.5195576431
 40
0.7623710433
 40
1.0
 40
1.0
 40
1.0
 40
1.0
 10
14.7626798708
 20
10.7341067176
 30
0.0
 10
14.7628487321
 20
10.7339951091
 30
0.0
 10
14.7631907735
 20
10.7337965901
 30
0.0
 10
14.7637274553
 20
10.7335755734
 30
0.0
 10
14.7642698148
 20
10.7334421717
 30
0.0
 10
14.7646350296
 20
10.7334123142
 30
0.0
 10
14.7648153423
 20
10.7334123224
 30
0.0
  0
SPLINE
  5
3FC
100
AcDbEntity
  8
LAYER_FEATURE
100
AcDbSpline
 62
7
  6
CONTINUOUS
 70
0
 71
3
 72
18
 73
14
 74
0
 42
0.0000001
 43
0.0000001
 44
0.0000000001
 40
0.0
 40
0.0
 40
0.0
 40
0.0
 40
0.1550302885
 40
0.3049275561
 40
0.4476265138
 40
0.5812494965
 40
0.7042065098
 40
0.7613063166
 40
0.8153255582
 40
0.8661953081
 40
0.913897916
 40
0.9584717615
 40
1.0
 40
1.0
 40
1.0
 40
1.0
 10
14.7458514014
 20
10.7602362523
 30
0.0
 10
14.7459127915
 20
10.7593008402
 30
0.0
 10
14.7460808363
 20
10.7574636737
 30
0.0
 10
14.7464743366
 20
10.7547843703
 30
0.0
 10
14.7469994015
 20
10.7522594342
 30
0.0
 10
14.7476470075
 20
10.7499316294
 30
0.0
 10
14.7482946293
 20
10.7481461572
 30
0.0
 10
14.7488707329
 20
10.7468527446
 30
0.0
 10
14.749315316
 20
10.7459793926
 30
0.0
 10
14.7497811714
 20
10.7451822883
 30
0.0
 10
14.7502664808
 20
10.7444646943
 30
0.0
 10
14.7507692472
 20
10.7438297714
 30
0.0
 10
14.7511270042
 20
10.743450284
 30
0.0
 10
14.7513084476
 20
10.7432766917
 30
0.0
  0
SPLINE
  5
3FD
100
AcDbEntity
  8
LAYER_FEATURE
100
AcDbSpline
 62
7
  6
CONTINUOUS
 70
0
 71
3
 72
13
 73
9
 74
0
 42
0.0000001
 43
0.0000001
 44
0.0000000001
 40
0.0
 40
0.0
 40
0.0
 40
0.0
 40
0.2794967011
 40
0.5347425748
 40
0.6552494522
 40
0.7722079971
 40
0.8867270709
 40
1.0
 40
1.0
 40
1.0
 40
1.0
 10
14.6915148423
 20
10.8004830405
 30
0.0
 10
14.691742119
 20
10.800265598
 30
0.0
 10
14.6922045868
 20
10.7998767399
 30
0.0
 10
14.6928428408
 20
10.7994987674
 30
0.0
 10
14.6933574274
 20
10.7992898826
 30
0.0
 10
14.6937387403
 20
10.7991797423
 30
0.0
 10
14.6941217999
 20
10.7991134997
 30
0.0
 10
14.6943783907
 20
10.7990987159
 30
0.0
 10
14.6945058662
 20
10.7990987171
 30
0.0
  0
SPLINE
  5
3FE
100
AcDbEntity
  8
LAYER_FEATURE
100
AcDbSpline
 62
7
  6
CONTINUOUS
 70
0
 71
3
 72
18
 73
14
 74
0
 42
0.0000001
 43
0.0000001
 44
0.0000000001
 40
0.0
 40
0.0
 40
0.0
 40
0.0
 40
0.1488596479
 40
0.2945320809
 40
0.4349590083
 40
0.5682081577
 40
0.6925586066
 40
0.7509463813
 40
0.8065982247
 40
0.8593935314
 40
0.9092501747
 40
0.9561256288
 40
1.0
 40
1.0
 40
1.0
 40
1.0
 10
14.6758421716
 20
10.8309865669
 30
0.0
 10
14.6758652848
 20
10.8300342102
 30
0.0
 10
14.6759587607
 20
10.8281506647
 30
0.0
 10
14.6762419702
 20
10.8253802897
 30
0.0
 10
14.6766623877
 20
10.8227282299
 30
0.0
 10
14.6772127732
 20
10.8202395415
 30
0.0
 10
14.6777831685
 20
10.8182973124
 30
0.0
 10
14.6783016582
 20
10.8168620987
 30
0.0
 10
14.6787083294
 20
10.815874493
 30
0.0
 10
14.6791391989
 20
10.8149571305
 30
0.0
 10
14.6795925259
 20
10.8141138009
 30
0.0
 10
14.6800664057
 20
10.8133481913
 30
0.0
 10
14.6804058371
 20
10.8128761582
 30
0.0
 10
14.6805789794
 20
10.8126551211
 30
0.0
  0
SPLINE
  5
3FF
100
AcDbEntity
  8
LAYER_FEATURE
100
AcDbSpline
 62
7
  6
CONTINUOUS
 70
0
 71
3
 72
40
 73
36
 74
0
 42
0.0000001
 43
0.0000001
 44
0.0000000001
 40
0.0
 40
0.0
 40
0.0
 40
0.0
 40
0.0431151535
 40
0.0855275731
 40
0.1272171815
 40
0.1681683988
 40
0.2083659079
 40
0.2477950984
 40
0.2864429279
 40
0.3242976407
 40
0.3613487967
 40
0.3975875299
 40
0.4330065355
 40
0.4676002342
 40
0.501364923
 40
0.5342988331
 40
0.5664023849
 40
0.5976782886
 40
0.628131721
 40
0.657770602
 40
0.6866057074
 40
0.714650972
 40
0.741923729
 40
0.7684449031
 40
0.7942393661
 40
0.81933612
 40
0.8437685564
 40
0.8675747231
 40
0.8907974186
 40
0.9022057267
 40
0.9134864752
 40
0.9356903057
 40
0.9574684511
 40
0.9788829479
 40
1.0
 40
1.0
 40
1.0
 40
1.0
 10
15.5309996712
 20
13.5236934297
 30
0.0
 10
15.534348277
 20
13.5345295222
 30
0.0
 10
15.5411495669
 20
13.5559764754
 30
0.0
 10
15.5517545179
 20
13.5877183025
 30
0.0
 10
15.5626732498
 20
13.6187509131
 30
0.0
 10
15.5738984043
 20
13.6490534825
 30
0.0
 10
15.5854226303
 20
13.6786063424
 30
0.0
 10
15.5972384036
 20
13.7073900156
 30
0.0
 10
15.609337906
 20
13.7353855452
 30
0.0
 10
15.6217131733
 20
13.7625745463
 30
0.0
 10
15.6343561194
 20
13.7889391336
 30
0.0
 10
15.6472583927
 20
13.8144619982
 30
0.0
 10
15.6604115536
 20
13.8391263654
 30
0.0
 10
15.6738069887
 20
13.8629160337
 30
0.0
 10
15.6874358872
 20
13.8858154044
 30
0.0
 10
15.7012893854
 20
13.9078094232
 30
0.0
 10
15.7153584035
 20
13.9288836752
 30
0.0
 10
15.7296337652
 20
13.9490243374
 30
0.0
 10
15.7441062194
 20
13.9682181686
 30
0.0
 10
15.7587663158
 20
13.986452605
 30
0.0
 10
15.7736045921
 20
14.0037156451
 30
0.0
 10
15.7886114547
 20
14.0199959331
 30
0.0
 10
15.8037771939
 20
14.0352827686
 30
0.0
 10
15.8190921031
 20
14.0495659943
 30
0.0
 10
15.8345463158
 20
14.0628361617
 30
0.0
 10
15.8501299065
 20
14.0750843788
 30
0.0
 10
15.8658330085
 20
14.0863023857
 30
0.0
 10
15.8816451721
 20
14.0964824185
 30
0.0
 10
15.8949831606
 20
14.1041399966
 30
0.0
 10
15.9056917285
 20
14.1097275871
 30
0.0
 10
15.9163077999
 20
14.1149033701
 30
0.0
 10
15.9296362892
 20
14.1207280497
 30
0.0
 10
15.9457830163
 20
14.126692048
 30
0.0
 10
15.9619863251
 20
14.1315890624
 30
0.0
 10
15.9728852391
 20
14.1341552915
 30
0.0
 10
15.9783303898
 20
14.1352543697
 30
0.0
  0
SPLINE
  5
400
100
AcDbEntity
  8
LAYER_FEATURE
100
AcDbSpline
 62
7
  6
CONTINUOUS
 70
0
 71
3
 72
111
 73
107
 74
0
 42
0.0000001
 43
0.0000001
 44
0.0000000001
 40
0.0
 40
0.0
 40
0.0
 40
0.0
 40
0.0088561227
 40
0.0178415044
 40
0.0269519347
 40
0.03618371
 40
0.054994746
 40
0.0742412236
 40
0.093887635
 40
0.1138968393
 40
0.1342302778
 40
0.1548481574
 40
0.1757096247
 40
0.1967729327
 40
0.2179956053
 40
0.2393345978
 40
0.2607464542
 40
0.2821874612
 40
0.3036138036
 40
0.3249817175
 40
0.3462476446
 40
0.3673683861
 40
0.3883012611
 40
0.4090042644
 40
0.4294362281
 40
0.4495569879
 40
0.4693275579
 40
0.4887103106
 40
0.5076691648
 40
0.5169790126
 40
0.5261701694
 40
0.5352386499
 40
0.5441806129
 40
0.5529923616
 40
0.5616703493
 40
0.5702112009
 40
0.5786117068
 40
0.5868688437
 40
0.5949797862
 40
0.6029419062
 40
0.6107528046
 40
0.6184103093
 40
0.6259124946
 40
0.6332577064
 40
0.640444563
 40
0.6474719909
 40
0.6543392388
 40
0.6610458944
 40
0.6675919271
 40
0.6739776965
 40
0.6802039936
 40
0.6862720757
 40
0.6921836878
 40
0.697941119
 40
0.7035472294
 40
0.7090054935
 40
0.714320055
 40
0.7194957538
 40
0.7245381834
 40
0.7294537264
 40
0.7342495834
 40
0.738933814
 40
0.7435153395
 40
0.74800395
 40
0.7524102887
 40
0.7567458029
 40
0.7610226873
 40
0.7652537857
 40
0.7694524732
 40
0.7736325162
 40
0.7778079096
 40
0.7819927065
 40
0.7862008429
 40
0.7904459707
 40
0.7947412991
 40
0.7990994643
 40
0.8035324176
 40
0.8080513388
 40
0.8126665872
 40
0.8222204136
 40
0.8271781558
 40
0.8322650354
 40
0.8374871649
 40
0.8428498781
 40
0.8483577722
 40
0.8540147625
 40
0.8598241083
 40
0.8657884718
 40
0.8719099556
 40
0.8781901323
 40
0.8846301003
 40
0.8912304999
 40
0.8979915539
 40
0.9049131026
 40
0.9119946133
 40
0.9192352244
 40
0.9266337561
 40
0.9341887309
 40
0.9418984037
 40
0.9497607579
 40
0.9577735492
 40
0.96593431
 40
0.9742402946
 40
0.9826886439
 40
0.9912764566
 40
1.0
 40
1.0
 40
1.0
 40
1.0
 10
15.4401660391
 20
13.7087929106
 30
0.0
 10
15.4363209017
 20
13.6963500416
 30
0.0
 10
15.4287539038
 20
13.6712268912
 30
0.0
 10
15.4178477744
 20
13.6331213587
 30
0.0
 10
15.407308893
 20
13.5943397837
 30
0.0
 10
15.3936705366
 20
13.5414320565
 30
0.0
 10
15.377605373
 20
13.4737633983
 30
0.0
 10
15.3600082785
 20
13.3907432021
 30
0.0
 10
15.3440164362
 20
13.305605615
 30
0.0
 10
15.3296684718
 20
13.2185557019
 30
0.0
 10
15.3169989972
 20
13.1298026926
 30
0.0
 10
15.3060386006
 20
13.0395600991
 30
0.0
 10
15.2968137514
 20
12.9480450149
 30
0.0
 10
15.2893467243
 20
12.85547764
 30
0.0
 10
15.2836555403
 20
12.7620807293
 30
0.0
 10
15.279753942
 20
12.6680790516
 30
0.0
 10
15.2776513566
 20
12.5736988427
 30
0.0
 10
15.2773528678
 20
12.4791672578
 30
0.0
 10
15.2788591864
 20
12.3847118201
 30
0.0
 10
15.282166673
 20
12.2905598671
 30
0.0
 10
15.2872673432
 20
12.1969380008
 30
0.0
 10
15.2941488898
 20
12.104071537
 30
0.0
 10
15.3027946877
 20
12.0121839544
 30
0.0
 10
15.3131838565
 20
11.9214963562
 30
0.0
 10
15.3252913141
 20
11.8322269213
 30
0.0
 10
15.3390878395
 20
11.7445904206
 30
0.0
 10
15.3545401359
 20
11.6587975086
 30
0.0
 10
15.3716108752
 20
11.5750548526
 30
0.0
 10
15.3872437875
 20
11.5067387629
 30
0.0
 10
15.4005434329
 20
11.4532801454
 30
0.0
 10
15.4108358254
 20
11.4140645933
 30
0.0
 10
15.421499731
 20
11.3755094636
 30
0.0
 10
15.4325287415
 20
11.3376378918
 30
0.0
 10
15.4439161977
 20
11.3004726813
 30
0.0
 10
15.4556552798
 20
11.2640361975
 30
0.0
 10
15.4677388745
 20
11.2283503509
 30
0.0
 10
15.4801597392
 20
11.1934366145
 30
0.0
 10
15.4929103967
 20
11.1593159865
 30
0.0
 10
15.5059831458
 20
11.1260089762
 30
0.0
 10
15.5193701708
 20
11.0935356235
 30
0.0
 10
15.5330633822
 20
11.0619154352
 30
0.0
 10
15.5470545616
 20
11.0311674175
 30
0.0
 10
15.5613353283
 20
11.0013100544
 30
0.0
 10
15.5758970624
 20
10.9723612628
 30
0.0
 10
15.5907310737
 20
10.9443384455
 30
0.0
 10
15.6058284482
 20
10.9172584179
 30
0.0
 10
15.6211801287
 20
10.8911374253
 30
0.0
 10
15.6367769767
 20
10.8659911659
 30
0.0
 10
15.6526096204
 20
10.8418346983
 30
0.0
 10
15.6686686435
 20
10.8186825292
 30
0.0
 10
15.684944484
 20
10.7965485519
 30
0.0
 10
15.7014274228
 20
10.77544602
 30
0.0
 10
15.7181077299
 20
10.7553876385
 30
0.0
 10
15.7349754832
 20
10.7363854298
 30
0.0
 10
15.7520207173
 20
10.7184508287
 30
0.0
 10
15.7692334096
 20
10.7015946816
 30
0.0
 10
15.7866033743
 20
10.6858271385
 30
0.0
 10
15.8041204469
 20
10.6711578278
 30
0.0
 10
15.8217743248
 20
10.6575957113
 30
0.0
 10
15.8395546226
 20
10.6451491294
 30
0.0
 10
15.8574509332
 20
10.633825912
 30
0.0
 10
15.8754526598
 20
10.6236331596
 30
0.0
 10
15.8935491611
 20
10.6145774637
 30
0.0
 10
15.9117296453
 20
10.6066647923
 30
0.0
 10
15.9299831344
 20
10.599900391
 30
0.0
 10
15.9482985434
 20
10.5942889953
 30
0.0
 10
15.9666645542
 20
10.5898345042
 30
0.0
 10
15.9850697002
 20
10.5865401249
 30
0.0
 10
16.0035023598
 20
10.5844083488
 30
0.0
 10
16.021950767
 20
10.5834406748
 30
0.0
 10
16.0404030973
 20
10.5836379062
 30
0.0
 10
16.0588474928
 20
10.5849998773
 30
0.0
 10
16.0772721497
 20
10.5875255135
 30
0.0
 10
16.0956653386
 20
10.5912130291
 30
0.0
 10
16.1140154857
 20
10.5960596364
 30
0.0
 10
16.1323112109
 20
10.6020619245
 30
0.0
 10
16.1505411229
 20
10.6092156381
 30
0.0
 10
16.1686947348
 20
10.6175161617
 30
0.0
 10
16.1930599221
 20
10.6302496615
 30
0.0
 10
16.2169632886
 20
10.6451729396
 30
0.0
 10
16.2403236643
 20
10.6620630022
 30
0.0
 10
16.2579330101
 20
10.6760013663
 30
0.0
 10
16.2754012457
 20
10.6910434622
 30
0.0
 10
16.2927191405
 20
10.7071807436
 30
0.0
 10
16.3098762579
 20
10.7244032095
 30
0.0
 10
16.3268625165
 20
10.7427005501
 30
0.0
 10
16.3436679127
 20
10.7620616864
 30
0.0
 10
16.3602824983
 20
10.7824749922
 30
0.0
 10
16.3766963967
 20
10.8039282231
 30
0.0
 10
16.3928999089
 20
10.8264084709
 30
0.0
 10
16.4088833432
 20
10.8499022806
 30
0.0
 10
16.4246371951
 20
10.8743955436
 30
0.0
 10
16.4401520747
 20
10.8998735604
 30
0.0
 10
16.4554186616
 20
10.9263210679
 30
0.0
 10
16.4704278707
 20
10.9537221692
 30
0.0
 10
16.485170679
 20
10.9820604307
 30
0.0
 10
16.4996382426
 20
11.0113188391
 30
0.0
 10
16.5138219155
 20
11.0414798093
 30
0.0
 10
16.5277131292
 20
11.0725252376
 30
0.0
 10
16.5413035795
 20
11.104436457
 30
0.0
 10
16.5545850951
 20
11.1371943072
 30
0.0
 10
16.5675496368
 20
11.1707790656
 30
0.0
 10
16.5801894697
 20
11.205170502
 30
0.0
 10
16.5924970293
 20
11.2403482145
 30
0.0
 10
16.6044647321
 20
11.2762906191
 30
0.0
 10
16.6121526296
 20
11.3005604804
 30
0.0
 10
16.6159402038
 20
11.3128170752
 30
0.0
  0
SPLINE
  5
401
100
AcDbEntity
  8
LAYER_FEATURE
100
AcDbSpline
 62
7
  6
CONTINUOUS
 70
0
 71
3
 72
39
 73
35
 74
0
 42
0.0000001
 43
0.0000001
 44
0.0000000001
 40
0.0
 40
0.0
 40
0.0
 40
0.0
 40
0.0279689777
 40
0.0566626871
 40
0.0860398491
 40
0.1160563439
 40
0.1466659331
 40
0.1778202977
 40
0.209469314
 40
0.2415612496
 40
0.2740429644
 40
0.3068601029
 40
0.3399572797
 40
0.3732782602
 40
0.4067661382
 40
0.4403635095
 40
0.4740126457
 40
0.507655665
 40
0.541234704
 40
0.5746920886
 40
0.6079705056
 40
0.6410131755
 40
0.6737640277
 40
0.7061678793
 40
0.7381706166
 40
0.7697193817
 40
0.8007627648
 40
0.8312510059
 40
0.8611362049
 40
0.8903725458
 40
0.9189165378
 40
0.9467272738
 40
0.9737667138
 40
1.0
 40
1.0
 40
1.0
 40
1.0
 10
15.4465239726
 20
13.7677003487
 30
0.0
 10
15.4390762645
 20
13.7435995566
 30
0.0
 10
15.42463212
 20
13.6945722049
 30
0.0
 10
15.4045456292
 20
13.6196100008
 30
0.0
 10
15.3857918247
 20
13.5424015883
 30
0.0
 10
15.3684089778
 20
13.4631037208
 30
0.0
 10
15.352432316
 20
13.3818767572
 30
0.0
 10
15.3378943014
 20
13.2988851418
 30
0.0
 10
15.3248244565
 20
13.2142969009
 30
0.0
 10
15.3132493344
 20
13.1282833388
 30
0.0
 10
15.3031924475
 20
13.0410186729
 30
0.0
 10
15.2946742275
 20
12.9526796787
 30
0.0
 10
15.2877119816
 20
12.8634453252
 30
0.0
 10
15.2823198571
 20
12.7734964096
 30
0.0
 10
15.2785088118
 20
12.683015188
 30
0.0
 10
15.2762865924
 20
12.5921850029
 30
0.0
 10
15.2756577153
 20
12.50118991
 30
0.0
 10
15.2766234556
 20
12.4102143013
 30
0.0
 10
15.2791818497
 20
12.3194425284
 30
0.0
 10
15.2833276984
 20
12.2290585272
 30
0.0
 10
15.2890525774
 20
12.139245442
 30
0.0
 10
15.296344855
 20
12.0501852524
 30
0.0
 10
15.3051897164
 20
11.9620584012
 30
0.0
 10
15.3155691899
 20
11.8750434245
 30
0.0
 10
15.3274621849
 20
11.7893165852
 30
0.0
 10
15.3408445394
 20
11.7050515131
 30
0.0
 10
15.3556890697
 20
11.6224188491
 30
0.0
 10
15.3719656286
 20
11.541585892
 30
0.0
 10
15.3896411661
 20
11.462716262
 30
0.0
 10
15.4086798135
 20
11.385969531
 30
0.0
 10
15.4290429158
 20
11.3115009941
 30
0.0
 10
15.4506892639
 20
11.239460967
 30
0.0
 10
15.4735746874
 20
11.1699958307
 30
0.0
 10
15.4898806797
 20
11.1247920856
 30
0.0
 10
15.4982444232
 20
11.1026597979
 30
0.0
  0
SPLINE
  5
402
100
AcDbEntity
  8
LAYER_FEATURE
100
AcDbSpline
 62
7
  6
CONTINUOUS
 70
0
 71
3
 72
39
 73
35
 74
0
 42
0.0000001
 43
0.0000001
 44
0.0000000001
 40
0.0
 40
0.0
 40
0.0
 40
0.0
 40
0.0436162521
 40
0.0864245753
 40
0.1284112756
 40
0.169564003
 40
0.2098717589
 40
0.2493250185
 40
0.2879158699
 40
0.3256380454
 40
0.362487109
 40
0.3984605795
 40
0.4335580191
 40
0.4677812772
 40
0.5011346077
 40
0.5336248422
 40
0.565261668
 40
0.5960577658
 40
0.6260290723
 40
0.6551950617
 40
0.6835789222
 40
0.7112078718
 40
0.7381133975
 40
0.7643314397
 40
0.7899026598
 40
0.8148725472
 40
0.8392914911
 40
0.8632148163
 40
0.8867026058
 40
0.9098194561
 40
0.9326340782
 40
0.9552186947
 40
0.9776483398
 40
1.0
 40
1.0
 40
1.0
 40
1.0
 10
15.4982444232
 20
11.1026597979
 30
0.0
 10
15.5027749043
 20
11.0906711575
 30
0.0
 10
15.5119468563
 20
11.0669890059
 30
0.0
 10
15.5261763346
 20
11.0320408565
 30
0.0
 10
15.5407416754
 20
10.9980171455
 30
0.0
 10
15.5556336955
 20
10.9649392176
 30
0.0
 10
15.5708431335
 20
10.9328276865
 30
0.0
 10
15.5863605213
 20
10.9017026016
 30
0.0
 10
15.6021761509
 20
10.8715833543
 30
0.0
 10
15.6182802106
 20
10.8424887395
 30
0.0
 10
15.6346626792
 20
10.8144368903
 30
0.0
 10
15.6513133495
 20
10.7874452713
 30
0.0
 10
15.6682219349
 20
10.7615307234
 30
0.0
 10
15.6853779298
 20
10.736709373
 30
0.0
 10
15.7027707142
 20
10.7129966746
 30
0.0
 10
15.7203895901
 20
10.6904074311
 30
0.0
 10
15.7382236566
 20
10.6689556922
 30
0.0
 10
15.7562619652
 20
10.6486548523
 30
0.0
 10
15.7744934715
 20
10.6295176185
 30
0.0
 10
15.792906972
 20
10.6115559391
 30
0.0
 10
15.8114912549
 20
10.5947811381
 30
0.0
 10
15.8302349823
 20
10.5792038141
 30
0.0
 10
15.849126706
 20
10.5648338425
 30
0.0
 10
15.8681549593
 20
10.5516805056
 30
0.0
 10
15.8873081047
 20
10.5397523217
 30
0.0
 10
15.9065744117
 20
10.5290571477
 30
0.0
 10
15.9259420519
 20
10.5196022345
 30
0.0
 10
15.9453989748
 20
10.5113940141
 30
0.0
 10
15.9649329905
 20
10.5044382824
 30
0.0
 10
15.9845317323
 20
10.4987401003
 30
0.0
 10
16.0041824939
 20
10.4943036131
 30
0.0
 10
16.0238727759
 20
10.4911322421
 30
0.0
 10
16.0435885159
 20
10.4892284436
 30
0.0
 10
16.0567508593
 20
10.4888049887
 30
0.0
 10
16.0633186269
 20
10.488804994
 30
0.0
  0
SPLINE
  5
403
100
AcDbEntity
  8
LAYER_FEATURE
100
AcDbSpline
 62
7
  6
CONTINUOUS
 70
0
 71
3
 72
11
 73
7
 74
0
 42
0.0000001
 43
0.0000001
 44
0.0000000001
 40
0.0
 40
0.0
 40
0.0
 40
0.0
 40
0.2533555434
 40
0.5055825163
 40
0.7550078771
 40
1.0
 40
1.0
 40
1.0
 40
1.0
 10
14.6772583992
 20
10.861642809
 30
0.0
 10
14.6772790808
 20
10.8634768657
 30
0.0
 10
14.677257348
 20
10.8671378287
 30
0.0
 10
14.6770365258
 20
10.8726003243
 30
0.0
 10
14.6766292318
 20
10.8779913937
 30
0.0
 10
14.6762310688
 20
10.881549491
 30
0.0
 10
14.6760003288
 20
10.883308044
 30
0.0
  0
SPLINE
  5
404
100
AcDbEntity
  8
LAYER_FEATURE
100
AcDbSpline
 62
7
  6
CONTINUOUS
 70
0
 71
3
 72
15
 73
11
 74
0
 42
0.0000001
 43
0.0000001
 44
0.0000000001
 40
0.0
 40
0.0
 40
0.0
 40
0.0
 40
0.1509092397
 40
0.2927335674
 40
0.4259392605
 40
0.5513205518
 40
0.6699463195
 40
0.7831578399
 40
0.8925621298
 40
1.0
 40
1.0
 40
1.0
 40
1.0
 10
14.6234415314
 20
10.8855980087
 30
0.0
 10
14.6235844904
 20
10.8854155042
 30
0.0
 10
14.6238739738
 20
10.8850707335
 30
0.0
 10
14.6243335218
 20
10.8846038821
 30
0.0
 10
14.6248033774
 20
10.8842054254
 30
0.0
 10
14.6252820505
 20
10.8838768238
 30
0.0
 10
14.6257682124
 20
10.8836194268
 30
0.0
 10
14.6262603622
 20
10.8834343608
 30
0.0
 10
14.6267566648
 20
10.8833228383
 30
0.0
 10
14.6270902892
 20
10.8832978946
 30
0.0
 10
14.6272553375
 20
10.8832978937
 30
0.0
  0
SPLINE
  5
405
100
AcDbEntity
  8
LAYER_FEATURE
100
AcDbSpline
 62
7
  6
CONTINUOUS
 70
0
 71
3
 72
17
 73
13
 74
0
 42
0.0000001
 43
0.0000001
 44
0.0000000001
 40
0.0
 40
0.0
 40
0.0
 40
0.0
 40
0.1429575417
 40
0.284510568
 40
0.4226291885
 40
0.555358823
 40
0.6808963579
 40
0.7976466604
 40
0.8523141177
 40
0.9043251911
 40
0.9535834371
 40
1.0
 40
1.0
 40
1.0
 40
1.0
 10
14.6090963725
 20
10.9201413236
 30
0.0
 10
14.609080501
 20
10.9191824112
 30
0.0
 10
14.6090974569
 20
10.9172728479
 30
0.0
 10
14.6092672237
 20
10.9144414815
 30
0.0
 10
14.6095783319
 20
10.9116910247
 30
0.0
 10
14.6100254089
 20
10.9090681123
 30
0.0
 10
14.6106006988
 20
10.9066172001
 30
0.0
 10
14.6111909664
 20
10.9047122225
 30
0.0
 10
14.6117243548
 20
10.9033109891
 30
0.0
 10
14.6121409366
 20
10.9023509385
 30
0.0
 10
14.6125810307
 20
10.9014627995
 30
0.0
 10
14.612898339
 20
10.9009043363
 30
0.0
 10
14.6130610446
 20
10.9006388358
 30
0.0
  0
SPLINE
  5
406
100
AcDbEntity
  8
LAYER_FEATURE
100
AcDbSpline
 62
7
  6
CONTINUOUS
 70
0
 71
3
 72
11
 73
7
 74
0
 42
0.0000001
 43
0.0000001
 44
0.0000000001
 40
0.0
 40
0.0
 40
0.0
 40
0.0
 40
0.2542133687
 40
0.5083050215
 40
0.7582149684
 40
1.0
 40
1.0
 40
1.0
 40
1.0
 10
14.6117527134
 20
10.9502494809
 30
0.0
 10
14.611901543
 20
10.9530916214
 30
0.0
 10
14.6120443934
 20
10.9587837548
 30
0.0
 10
14.6118054537
 20
10.9672728717
 30
0.0
 10
14.6111190854
 20
10.9755980729
 30
0.0
 10
14.610355423
 20
10.98105348
 30
0.0
 10
14.6098956102
 20
10.9837210342
 30
0.0
  0
SPLINE
  5
407
100
AcDbEntity
  8
LAYER_FEATURE
100
AcDbSpline
 62
7
  6
CONTINUOUS
 70
0
 71
3
 72
15
 73
11
 74
0
 42
0.0000001
 43
0.0000001
 44
0.0000000001
 40
0.0
 40
0.0
 40
0.0
 40
0.0
 40
0.157998026
 40
0.3049087613
 40
0.4410231219
 40
0.567072355
 40
0.6841755975
 40
0.7939049336
 40
0.898341224
 40
1.0
 40
1.0
 40
1.0
 40
1.0
 10
14.5592057637
 20
10.9885190846
 30
0.0
 10
14.5593704025
 20
10.9882504293
 30
0.0
 10
14.5597056461
 20
10.9877423452
 30
0.0
 10
14.5602475776
 20
10.9870483049
 30
0.0
 10
14.5608079718
 20
10.9864535608
 30
0.0
 10
14.5613844002
 20
10.9859612161
 30
0.0
 10
14.5619745455
 20
10.9855739144
 30
0.0
 10
14.5625761245
 20
10.9852944273
 30
0.0
 10
14.5631858983
 20
10.9851252896
 30
0.0
 10
14.5635978326
 20
10.9850873513
 30
0.0
 10
14.5638005671
 20
10.9850873448
 30
0.0
  0
SPLINE
  5
408
100
AcDbEntity
  8
LAYER_FEATURE
100
AcDbSpline
 62
7
  6
CONTINUOUS
 70
0
 71
3
 72
16
 73
12
 74
0
 42
0.0000001
 43
0.0000001
 44
0.0000000001
 40
0.0
 40
0.0
 40
0.0
 40
0.0
 40
0.1373201639
 40
0.2748848819
 40
0.4107079699
 40
0.5428347028
 40
0.6694121553
 40
0.7887381085
 40
0.8993211077
 40
0.9509693008
 40
1.0
 40
1.0
 40
1.0
 40
1.0
 10
14.546345285
 20
11.0267237244
 30
0.0
 10
14.5462901471
 20
11.0257687733
 30
0.0
 10
14.546229493
 20
11.0238539562
 30
0.0
 10
14.5462839281
 20
11.0209924088
 30
0.0
 10
14.5464822631
 20
11.0181733563
 30
0.0
 10
14.5468210864
 20
11.0154447546
 30
0.0
 10
14.5472944847
 20
11.0128527513
 30
0.0
 10
14.5478943097
 20
11.0104412887
 30
0.0
 10
14.5485040649
 20
11.0085747862
 30
0.0
 10
14.5490520688
 20
11.0072085657
 30
0.0
 10
14.549343922
 20
11.0065704764
 30
0.0
 10
14.5494943836
 20
11.0062638679
 30
0.0
  0
SPLINE
  5
409
100
AcDbEntity
  8
LAYER_FEATURE
100
AcDbSpline
 62
7
  6
CONTINUOUS
 70
0
 71
3
 72
11
 73
7
 74
0
 42
0.0000001
 43
0.0000001
 44
0.0000000001
 40
0.0
 40
0.0
 40
0.0
 40
0.0
 40
0.2495979093
 40
0.5021527883
 40
0.7536237841
 40
1.0
 40
1.0
 40
1.0
 40
1.0
 10
14.5502126359
 20
11.0559539256
 30
0.0
 10
14.5504779786
 20
11.0587578587
 30
0.0
 10
14.5508521401
 20
11.064415143
 30
0.0
 10
14.5509573034
 20
11.0729222433
 30
0.0
 10
14.5506107423
 20
11.0813865761
 30
0.0
 10
14.5500746339
 20
11.0869821715
 30
0.0
 10
14.5497281757
 20
11.0897406057
 30
0.0
  0
SPLINE
  5
40A
100
AcDbEntity
  8
LAYER_FEATURE
100
AcDbSpline
 62
7
  6
CONTINUOUS
 70
0
 71
3
 72
10
 73
6
 74
0
 42
0.0000001
 43
0.0000001
 44
0.0000000001
 40
0.0
 40
0.0
 40
0.0
 40
0.0
 40
0.5136118793
 40
0.7606706226
 40
1.0
 40
1.0
 40
1.0
 40
1.0
 10
14.5497281757
 20
11.0897406057
 30
0.0
 10
14.5494324987
 20
11.0920947296
 30
0.0
 10
14.5488955075
 20
11.0955703176
 30
0.0
 10
14.5479704911
 20
11.1000968183
 30
0.0
 10
14.5474462826
 20
11.1022822698
 30
0.0
 10
14.5471686426
 20
11.103352418
 30
0.0
  0
SPLINE
  5
40B
100
AcDbEntity
  8
LAYER_FEATURE
100
AcDbSpline
 62
7
  6
CONTINUOUS
 70
0
 71
3
 72
15
 73
11
 74
0
 42
0.0000001
 43
0.0000001
 44
0.0000000001
 40
0.0
 40
0.0
 40
0.0
 40
0.0
 40
0.1639773243
 40
0.3154369745
 40
0.4543861644
 40
0.5813396891
 40
0.6973097101
 40
0.8039849755
 40
0.9038201407
 40
1.0
 40
1.0
 40
1.0
 40
1.0
 10
14.4995113195
 20
11.1081186435
 30
0.0
 10
14.499691996
 20
11.1077504635
 30
0.0
 10
14.5000628213
 20
11.1070531911
 30
0.0
 10
14.500674292
 20
11.1060936781
 30
0.0
 10
14.5013155642
 20
11.105267761
 30
0.0
 10
14.5019827716
 20
11.1045810936
 30
0.0
 10
14.5026724329
 20
11.1040386132
 30
0.0
 10
14.5033812026
 20
11.1036451596
 30
0.0
 10
14.5041044614
 20
11.1034058093
 30
0.0
 10
14.5045962239
 20
11.1033518461
 30
0.0
 10
14.5048367786
 20
11.1033518393
 30
0.0
  0
SPLINE
  5
40C
100
AcDbEntity
  8
LAYER_FEATURE
100
AcDbSpline
 62
7
  6
CONTINUOUS
 70
0
 71
3
 72
15
 73
11
 74
0
 42
0.0000001
 43
0.0000001
 44
0.0000000001
 40
0.0
 40
0.0
 40
0.0
 40
0.0
 40
0.1319127664
 40
0.2656122228
 40
0.3991682484
 40
0.5306424066
 40
0.6581546624
 40
0.779928059
 40
0.8943401203
 40
1.0
 40
1.0
 40
1.0
 40
1.0
 10
14.4882764233
 20
11.1495660301
 30
0.0
 10
14.4881821607
 20
11.1486255719
 30
0.0
 10
14.4880436694
 20
11.1467264357
 30
0.0
 10
14.487982167
 20
11.1438658473
 30
0.0
 10
14.4880655212
 20
11.1410088651
 30
0.0
 10
14.4882923211
 20
11.1382041145
 30
0.0
 10
14.4886585923
 20
11.1354992115
 30
0.0
 10
14.4891580252
 20
11.1329398806
 30
0.0
 10
14.4897818816
 20
11.1305694831
 30
0.0
 10
14.4902959832
 20
11.1290765642
 30
0.0
 10
14.4905754462
 20
11.1283729674
 30
0.0
  0
LINE
  5
40D
100
AcDbEntity
  8
LAYER_FEATURE
100
AcDbLine
 62
7
  6
CONTINUOUS
 10
14.4885970133
 20
11.1518921686
 11
14.4882764233
 21
11.1495660301
  0
SPLINE
  5
40E
100
AcDbEntity
  8
LAYER_FEATURE
100
AcDbSpline
 62
7
  6
CONTINUOUS
 70
0
 71
3
 72
11
 73
7
 74
0
 42
0.0000001
 43
0.0000001
 44
0.0000000001
 40
0.0
 40
0.0
 40
0.0
 40
0.0
 40
0.2450149747
 40
0.4960251993
 40
0.7490366767
 40
1.0
 40
1.0
 40
1.0
 40
1.0
 10
14.4933124125
 20
11.1775980231
 30
0.0
 10
14.4936928392
 20
11.1803326429
 30
0.0
 10
14.4942969855
 20
11.1858929856
 30
0.0
 10
14.4947450754
 20
11.1943255415
 30
0.0
 10
14.4947421914
 20
11.2028369714
 30
0.0
 10
14.4944367252
 20
11.208511108
 30
0.0
 10
14.4942059032
 20
11.2113296559
 30
0.0
  0
SPLINE
  5
40F
100
AcDbEntity
  8
LAYER_FEATURE
100
AcDbSpline
 62
7
  6
CONTINUOUS
 70
0
 71
3
 72
14
 73
10
 74
0
 42
0.0000001
 43
0.0000001
 44
0.0000000001
 40
0.0
 40
0.0
 40
0.0
 40
0.0
 40
0.2687095467
 40
0.3994861137
 40
0.5272615778
 40
0.6515963863
 40
0.7720794131
 40
0.888329998
 40
1.0
 40
1.0
 40
1.0
 40
1.0
 10
14.4942059032
 20
11.2113296559
 30
0.0
 10
14.4940154026
 20
11.2136558438
 30
0.0
 10
14.4936419671
 20
11.2171078879
 30
0.0
 10
14.4929560258
 20
11.2216364142
 30
0.0
 10
14.4923613174
 20
11.2249090595
 30
0.0
 10
14.4916843622
 20
11.2280743078
 30
0.0
 10
14.4909280785
 20
11.231118579
 30
0.0
 10
14.4900957765
 20
11.2340287084
 30
0.0
 10
14.4894796115
 20
11.2359107139
 30
0.0
 10
14.4891584923
 20
11.2368259662
 30
0.0
  0
SPLINE
  5
410
100
AcDbEntity
  8
LAYER_FEATURE
100
AcDbSpline
 62
7
  6
CONTINUOUS
 70
0
 71
3
 72
17
 73
13
 74
0
 42
0.0000001
 43
0.0000001
 44
0.0000000001
 40
0.0
 40
0.0
 40
0.0
 40
0.0
 40
0.1686731925
 40
0.3239755578
 40
0.4655379793
 40
0.5935322479
 40
0.7087500266
 40
0.8128511585
 40
0.8616073268
 40
0.9087017177
 40
0.9546454254
 40
1.0
 40
1.0
 40
1.0
 40
1.0
 10
14.4450122238
 20
11.2430863276
 30
0.0
 10
14.4452025406
 20
11.2426071719
 30
0.0
 10
14.4455975197
 20
11.2416980296
 30
0.0
 10
14.446263898
 20
11.2404389232
 30
0.0
 10
14.4469749679
 20
11.2393496826
 30
0.0
 10
14.4477250558
 20
11.2384399148
 30
0.0
 10
14.4485085911
 20
11.2377179535
 30
0.0
 10
14.4492010047
 20
11.2372696403
 30
0.0
 10
14.4497609416
 20
11.2370219721
 30
0.0
 10
14.4501753117
 20
11.2368915845
 30
0.0
 10
14.4505919922
 20
11.2368131494
 30
0.0
 10
14.4508713605
 20
11.236795661
 30
0.0
 10
14.4510099918
 20
11.2367956569
 30
0.0
  0
SPLINE
  5
411
100
AcDbEntity
  8
LAYER_FEATURE
100
AcDbSpline
 62
7
  6
CONTINUOUS
 70
0
 71
3
 72
15
 73
11
 74
0
 42
0.0000001
 43
0.0000001
 44
0.0000000001
 40
0.0
 40
0.0
 40
0.0
 40
0.0
 40
0.1266840237
 40
0.2566125743
 40
0.3879232523
 40
0.5187075134
 40
0.6470753908
 40
0.7711981138
 40
0.8893543932
 40
1.0
 40
1.0
 40
1.0
 40
1.0
 10
14.4355260019
 20
11.2873223548
 30
0.0
 10
14.4353931725
 20
11.286406826
 30
0.0
 10
14.435177471
 20
11.2845442373
 30
0.0
 10
14.4350007168
 20
11.2817157434
 30
0.0
 10
14.4349681617
 20
11.278851915
 30
0.0
 10
14.4350804133
 20
11.2760015164
 30
0.0
 10
14.4353354896
 20
11.2732129786
 30
0.0
 10
14.4357289943
 20
11.2705335721
 30
0.0
 10
14.4362540268
 20
11.2680088118
 30
0.0
 10
14.4367022704
 20
11.266397438
 30
0.0
 10
14.4369497605
 20
11.2656282815
 30
0.0
  0
LINE
  5
412
100
AcDbEntity
  8
LAYER_FEATURE
100
AcDbLine
 62
7
  6
CONTINUOUS
 10
14.4359395218
 20
11.2895496971
 11
14.4355260019
 21
11.2873223548
  0
SPLINE
  5
413
100
AcDbEntity
  8
LAYER_FEATURE
100
AcDbSpline
 62
7
  6
CONTINUOUS
 70
0
 71
3
 72
11
 73
7
 74
0
 42
0.0000001
 43
0.0000001
 44
0.0000000001
 40
0.0
 40
0.0
 40
0.0
 40
0.0
 40
0.2404127767
 40
0.4898521495
 40
0.7444013207
 40
1.0
 40
1.0
 40
1.0
 40
1.0
 10
14.4416754541
 20
11.3138490151
 30
0.0
 10
14.4421683284
 20
11.3164837419
 30
0.0
 10
14.4429986361
 20
11.3218857815
 30
0.0
 10
14.4437846503
 20
11.3301521264
 30
0.0
 10
14.4441254785
 20
11.3386180763
 30
0.0
 10
14.4440512284
 20
11.3443085729
 30
0.0
 10
14.4439371065
 20
11.3471560299
 30
0.0
  0
SPLINE
  5
414
100
AcDbEntity
  8
LAYER_FEATURE
100
AcDbSpline
 62
7
  6
CONTINUOUS
 70
0
 71
3
 72
15
 73
11
 74
0
 42
0.0000001
 43
0.0000001
 44
0.0000000001
 40
0.0
 40
0.0
 40
0.0
 40
0.0
 40
0.1401572658
 40
0.2779955304
 40
0.4124302004
 40
0.5424210815
 40
0.66699848
 40
0.785279173
 40
0.896490913
 40
1.0
 40
1.0
 40
1.0
 40
1.0
 10
14.4439371065
 20
11.3471560299
 30
0.0
 10
14.4438662547
 20
11.3489238542
 30
0.0
 10
14.4436590614
 20
11.3524279778
 30
0.0
 10
14.4431485104
 20
11.3576104265
 30
0.0
 10
14.442444853
 20
11.3626408371
 30
0.0
 10
14.4415548046
 20
11.3674716604
 30
0.0
 10
14.4404868948
 20
11.372057372
 30
0.0
 10
14.4392512509
 20
11.376355015
 30
0.0
 10
14.4378597129
 20
11.3803240966
 30
0.0
 10
14.4367968301
 20
11.382820454
 30
0.0
 10
14.4362377395
 20
11.3840014209
 30
0.0
  0
SPLINE
  5
415
100
AcDbEntity
  8
LAYER_FEATURE
100
AcDbSpline
 62
7
  6
CONTINUOUS
 70
0
 71
3
 72
18
 73
14
 74
0
 42
0.0000001
 43
0.0000001
 44
0.0000000001
 40
0.0
 40
0.0
 40
0.0
 40
0.0
 40
0.1721737154
 40
0.3306570352
 40
0.4746249381
 40
0.6038117175
 40
0.7186885812
 40
0.7712398278
 40
0.8208873081
 40
0.8680372337
 40
0.9131940028
 40
0.956956504
 40
1.0
 40
1.0
 40
1.0
 40
1.0
 10
14.3963055801
 20
11.3919434027
 30
0.0
 10
14.396498444
 20
11.391344015
 30
0.0
 10
14.3969049596
 20
11.3902039404
 30
0.0
 10
14.397609965
 20
11.3886158109
 30
0.0
 10
14.3983786301
 20
11.3872340237
 30
0.0
 10
14.3992023671
 20
11.3860745381
 30
0.0
 10
14.3999499706
 20
11.3852815112
 30
0.0
 10
14.4005688187
 20
11.3847825046
 30
0.0
 10
14.4010269631
 20
11.3844832739
 30
0.0
 10
14.4014915581
 20
11.3842489991
 30
0.0
 10
14.4019613425
 20
11.3840807641
 30
0.0
 10
14.40243463
 20
11.3839793598
 30
0.0
 10
14.4027525308
 20
11.3839567294
 30
0.0
 10
14.4029099441
 20
11.3839567279
 30
0.0
  0
SPLINE
  5
416
100
AcDbEntity
  8
LAYER_FEATURE
100
AcDbSpline
 62
7
  6
CONTINUOUS
 70
0
 71
3
 72
15
 73
11
 74
0
 42
0.0000001
 43
0.0000001
 44
0.0000000001
 40
0.0
 40
0.0
 40
0.0
 40
0.0
 40
0.1215857258
 40
0.24780787
 40
0.3768844191
 40
0.5069494368
 40
0.6361172538
 40
0.7625246199
 40
0.8843741395
 40
1.0
 40
1.0
 40
1.0
 40
1.0
 10
14.3886719655
 20
11.4384834112
 30
0.0
 10
14.3885015321
 20
11.4376030525
 30
0.0
 10
14.3882100832
 20
11.4357975862
 30
0.0
 10
14.3879200468
 20
11.433031951
 30
0.0
 10
14.3877719444
 20
11.4301924433
 30
0.0
 10
14.3877683979
 20
11.4273274098
 30
0.0
 10
14.3879094397
 20
11.4244855348
 30
0.0
 10
14.3881926487
 20
11.4217150706
 30
0.0
 10
14.3886130463
 20
11.4190631495
 30
0.0
 10
14.3889915192
 20
11.4173516441
 30
0.0
 10
14.3892048608
 20
11.4165260122
 30
0.0
  0
LINE
  5
417
100
AcDbEntity
  8
LAYER_FEATURE
100
AcDbLine
 62
7
  6
CONTINUOUS
 10
14.3891738847
 20
11.440587554
 11
14.3886719655
 21
11.4384834112
  0
LINE
  5
418
100
AcDbEntity
  8
LAYER_FEATURE
100
AcDbLine
 62
7
  6
CONTINUOUS
 10
14.3934103264
 20
11.4544358779
 11
14.3958675061
 21
11.4632141072
  0
SPLINE
  5
419
100
AcDbEntity
  8
LAYER_FEATURE
100
AcDbSpline
 62
7
  6
CONTINUOUS
 70
0
 71
3
 72
13
 73
9
 74
0
 42
0.0000001
 43
0.0000001
 44
0.0000000001
 40
0.0
 40
0.0
 40
0.0
 40
0.0
 40
0.1161392377
 40
0.2357596382
 40
0.3583959087
 40
0.4835944533
 40
0.7396792311
 40
1.0
 40
1.0
 40
1.0
 40
1.0
 10
14.3958675061
 20
11.4632141072
 30
0.0
 10
14.3961638639
 20
11.4644483059
 30
0.0
 10
14.3967210686
 20
11.4669645434
 30
0.0
 10
14.3974424831
 20
11.4708150558
 30
0.0
 10
14.3980593863
 20
11.4747839437
 30
0.0
 10
14.3987437045
 20
11.480249264
 30
0.0
 10
14.3993151369
 20
11.4872418158
 30
0.0
 10
14.3994701457
 20
11.4928865514
 30
0.0
 10
14.3994725409
 20
11.4957315855
 30
0.0
  0
SPLINE
  5
41A
100
AcDbEntity
  8
LAYER_FEATURE
100
AcDbSpline
 62
7
  6
CONTINUOUS
 70
0
 71
3
 72
20
 73
16
 74
0
 42
0.0000001
 43
0.0000001
 44
0.0000000001
 40
0.0
 40
0.0
 40
0.0
 40
0.0
 40
0.1449656393
 40
0.287884477
 40
0.4267346563
 40
0.49403436
 40
0.5596073543
 40
0.6232395077
 40
0.6847308957
 40
0.743897883
 40
0.8005763237
 40
0.854625113
 40
0.9059283589
 40
0.9544006862
 40
1.0
 40
1.0
 40
1.0
 40
1.0
 10
14.3994725409
 20
11.4957315855
 30
0.0
 10
14.3994745458
 20
11.4981130087
 30
0.0
 10
14.3993592976
 20
11.5028432547
 30
0.0
 10
14.3988305499
 20
11.5098363727
 30
0.0
 10
14.3980938826
 20
11.5155264932
 30
0.0
 10
14.3973286273
 20
11.5199247006
 30
0.0
 10
14.3966792714
 20
11.5230873464
 30
0.0
 10
14.3959513947
 20
11.5261348584
 30
0.0
 10
14.3951480645
 20
11.5290544173
 30
0.0
 10
14.394272674
 20
11.5318337214
 30
0.0
 10
14.3933289267
 20
11.534461107
 30
0.0
 10
14.3923208041
 20
11.536925554
 30
0.0
 10
14.3912525025
 20
11.5392167962
 30
0.0
 10
14.3901285113
 20
11.5413252353
 30
0.0
 10
14.3893201622
 20
11.5426438227
 30
0.0
 10
14.388906387
 20
11.5432682549
 30
0.0
  0
SPLINE
  5
41B
100
AcDbEntity
  8
LAYER_FEATURE
100
AcDbSpline
 62
7
  6
CONTINUOUS
 70
0
 71
3
 72
21
 73
17
 74
0
 42
0.0000001
 43
0.0000001
 44
0.0000000001
 40
0.0
 40
0.0
 40
0.0
 40
0.0
 40
0.1745114604
 40
0.3355014937
 40
0.4105027641
 40
0.4816619154
 40
0.5489005418
 40
0.6121957657
 40
0.6715842733
 40
0.7271751036
 40
0.7791657865
 40
0.8278571693
 40
0.873670583
 40
0.9171563382
 40
0.9590016217
 40
1.0
 40
1.0
 40
1.0
 40
1.0
 10
14.3539250285
 20
11.5530589595
 30
0.0
 10
14.3541127333
 20
11.5523325417
 30
0.0
 10
14.354517052
 20
11.5509466631
 30
0.0
 10
14.3551358335
 20
11.5492915375
 30
0.0
 10
14.3556813934
 20
11.5480884765
 30
0.0
 10
14.3561012089
 20
11.5472722245
 30
0.0
 10
14.3565398037
 20
11.5465236206
 30
0.0
 10
14.35699558
 20
11.5458454247
 30
0.0
 10
14.3574669279
 20
11.5452401386
 30
0.0
 10
14.3579522276
 20
11.5447100072
 30
0.0
 10
14.3584498571
 20
11.5442570277
 30
0.0
 10
14.3589582463
 20
11.543883051
 30
0.0
 10
14.3594757062
 20
11.5435897144
 30
0.0
 10
14.3600005574
 20
11.5433786464
 30
0.0
 10
14.3605305753
 20
11.5432512457
 30
0.0
 10
14.3608873654
 20
11.5432227859
 30
0.0
 10
14.3610636297
 20
11.543222786
 30
0.0
  0
SPLINE
  5
41C
100
AcDbEntity
  8
LAYER_FEATURE
100
AcDbSpline
 62
7
  6
CONTINUOUS
 70
0
 71
3
 72
15
 73
11
 74
0
 42
0.0000001
 43
0.0000001
 44
0.0000000001
 40
0.0
 40
0.0
 40
0.0
 40
0.0
 40
0.1165677164
 40
0.2391113894
 40
0.3659449659
 40
0.4952587259
 40
0.6251845789
 40
0.753839157
 40
0.8793660365
 40
1.0
 40
1.0
 40
1.0
 40
1.0
 10
14.3482276567
 20
11.6013930473
 30
0.0
 10
14.3480209736
 20
11.6005578115
 30
0.0
 10
14.3476560491
 20
11.5988295394
 30
0.0
 10
14.3472559595
 20
11.5961567993
 30
0.0
 10
14.3469939581
 20
11.5933724977
 30
0.0
 10
14.3468746535
 20
11.5905240114
 30
0.0
 10
14.3469000898
 20
11.5876597145
 30
0.0
 10
14.3470698537
 20
11.5848282761
 30
0.0
 10
14.3473809457
 20
11.5820779019
 30
0.0
 10
14.3476864599
 20
11.5802854867
 30
0.0
 10
14.3478638502
 20
11.5794128924
 30
0.0
  0
LINE
  5
41D
100
AcDbEntity
  8
LAYER_FEATURE
100
AcDbLine
 62
7
  6
CONTINUOUS
 10
14.3488124761
 20
11.6033509373
 11
14.3482276567
 21
11.6013930473
  0
LINE
  5
41E
100
AcDbEntity
  8
LAYER_FEATURE
100
AcDbLine
 62
7
  6
CONTINUOUS
 10
14.3535894103
 20
11.6159862442
 11
14.3563904497
 21
11.6240568244
  0
SPLINE
  5
41F
100
AcDbEntity
  8
LAYER_FEATURE
100
AcDbSpline
 62
7
  6
CONTINUOUS
 70
0
 71
3
 72
14
 73
10
 74
0
 42
0.0000001
 43
0.0000001
 44
0.0000000001
 40
0.0
 40
0.0
 40
0.0
 40
0.0
 40
0.1133737697
 40
0.2309723203
 40
0.3523630257
 40
0.4771160485
 40
0.6047586534
 40
0.7347952623
 40
1.0
 40
1.0
 40
1.0
 40
1.0
 10
14.3563904497
 20
11.6240568244
 30
0.0
 10
14.3567366713
 20
11.6252088681
 30
0.0
 10
14.3573952482
 20
11.6275701533
 30
0.0
 10
14.3582690183
 20
11.6312060677
 30
0.0
 10
14.3590436656
 20
11.6349877094
 30
0.0
 10
14.3597155304
 20
11.6388970493
 30
0.0
 10
14.3602814113
 20
11.6429158119
 30
0.0
 10
14.3608949562
 20
11.6484303404
 30
0.0
 10
14.3611819033
 20
11.6526170154
 30
0.0
 10
14.3612993695
 20
11.6554284977
 30
0.0
  0
SPLINE
  5
420
100
AcDbEntity
  8
LAYER_FEATURE
100
AcDbSpline
 62
7
  6
CONTINUOUS
 70
0
 71
3
 72
20
 73
16
 74
0
 42
0.0000001
 43
0.0000001
 44
0.0000000001
 40
0.0
 40
0.0
 40
0.0
 40
0.0
 40
0.141341077
 40
0.2821720913
 40
0.4202457777
 40
0.4875714718
 40
0.5534025126
 40
0.6174903357
 40
0.679600093
 40
0.7395129692
 40
0.7970292842
 40
0.85197152
 40
0.9041869611
 40
0.9535604239
 40
1.0
 40
1.0
 40
1.0
 40
1.0
 10
14.3612993695
 20
11.6554284977
 30
0.0
 10
14.3614045622
 20
11.6579462209
 30
0.0
 10
14.3614786093
 20
11.6629792979
 30
0.0
 10
14.3611894882
 20
11.6704694259
 30
0.0
 10
14.3606154128
 20
11.6766191296
 30
0.0
 10
14.3599560065
 20
11.6814102328
 30
0.0
 10
14.3593714999
 20
11.6848785073
 30
0.0
 10
14.3586957555
 20
11.6882353785
 30
0.0
 10
14.3579319653
 20
11.6914650556
 30
0.0
 10
14.3570837633
 20
11.6945523317
 30
0.0
 10
14.3561551562
 20
11.6974827044
 30
0.0
 10
14.355150519
 20
11.70024239
 30
0.0
 10
14.3540745699
 20
11.7028186142
 30
0.0
 10
14.3529323659
 20
11.7051991359
 30
0.0
 10
14.3521045454
 20
11.7066948734
 30
0.0
 10
14.3516791482
 20
11.7074051876
 30
0.0
  0
SPLINE
  5
421
100
AcDbEntity
  8
LAYER_FEATURE
100
AcDbSpline
 62
7
  6
CONTINUOUS
 70
0
 71
3
 72
11
 73
7
 74
0
 42
0.0000001
 43
0.0000001
 44
0.0000000001
 40
0.0
 40
0.0
 40
0.0
 40
0.0
 40
0.2687852376
 40
0.5249594838
 40
0.7685938653
 40
1.0
 40
1.0
 40
1.0
 40
1.0
 10
14.3516791482
 20
11.7074051876
 30
0.0
 10
14.3513629736
 20
11.7079331255
 30
0.0
 10
14.3507220727
 20
11.7089505019
 30
0.0
 10
14.3497094649
 20
11.7103906174
 30
0.0
 10
14.3486708907
 20
11.7117047593
 30
0.0
 10
14.3479443754
 20
11.7125153389
 30
0.0
 10
14.3475770765
 20
11.7128971438
 30
0.0
  0
SPLINE
  5
422
100
AcDbEntity
  8
LAYER_FEATURE
100
AcDbSpline
 62
7
  6
CONTINUOUS
 70
0
 71
3
 72
21
 73
17
 74
0
 42
0.0000001
 43
0.0000001
 44
0.0000000001
 40
0.0
 40
0.0
 40
0.0
 40
0.0
 40
0.1734330194
 40
0.3347195516
 40
0.4102460663
 40
0.4820995879
 40
0.5501398932
 40
0.6142726063
 40
0.6744603884
 40
0.7307289232
 40
0.7831880304
 40
0.8320427738
 40
0.8776154999
 40
0.9203698591
 40
0.9609195232
 40
1.0
 40
1.0
 40
1.0
 40
1.0
 10
14.3183348992
 20
11.7246677822
 30
0.0
 10
14.3185026771
 20
11.7238424713
 30
0.0
 10
14.3188743811
 20
11.7222588344
 30
0.0
 10
14.3194646472
 20
11.7203539177
 30
0.0
 10
14.3199980365
 20
11.7189526784
 30
0.0
 10
14.3204146156
 20
11.7179926766
 30
0.0
 10
14.320854678
 20
11.7171044923
 30
0.0
 10
14.321316457
 20
11.7162918639
 30
0.0
 10
14.3217979981
 20
11.7155581486
 30
0.0
 10
14.3222974427
 20
11.714906428
 30
0.0
 10
14.3228128189
 20
11.7143393962
 30
0.0
 10
14.3233422558
 20
11.7138595037
 30
0.0
 10
14.3238838314
 20
11.7134689199
 30
0.0
 10
14.3244357298
 20
11.7131696896
 30
0.0
 10
14.3249955772
 20
11.7129639238
 30
0.0
 10
14.3253770644
 20
11.7128892282
 30
0.0
 10
14.3255657192
 20
11.7128686374
 30
0.0
  0
SPLINE
  5
423
100
AcDbEntity
  8
LAYER_FEATURE
100
AcDbSpline
 62
7
  6
CONTINUOUS
 70
0
 71
3
 72
15
 73
11
 74
0
 42
0.0000001
 43
0.0000001
 44
0.0000000001
 40
0.0
 40
0.0
 40
0.0
 40
0.0
 40
0.1115851416
 40
0.230441338
 40
0.3549993375
 40
0.4835219616
 40
0.6141727251
 40
0.7450614359
 40
0.8742866137
 40
1.0
 40
1.0
 40
1.0
 40
1.0
 10
14.3146361917
 20
11.774266391
 30
0.0
 10
14.3143949915
 20
11.7734858667
 30
0.0
 10
14.3139596377
 20
11.7718541626
 30
0.0
 10
14.313453942
 20
11.7693032697
 30
0.0
 10
14.3130809557
 20
11.7666044188
 30
0.0
 10
14.3128472222
 20
11.7638034713
 30
0.0
 10
14.312756769
 20
11.7609479263
 30
0.0
 10
14.3128111987
 20
11.7580863056
 30
0.0
 10
14.3130095225
 20
11.7552673372
 30
0.0
 10
14.3132396571
 20
11.7534139667
 30
0.0
 10
14.3133796694
 20
11.7525042993
 30
0.0
  0
LINE
  5
424
100
AcDbEntity
  8
LAYER_FEATURE
100
AcDbLine
 62
7
  6
CONTINUOUS
 10
14.315297504
 20
11.776056577
 11
14.3146361917
 21
11.774266391
  0
SPLINE
  5
425
100
AcDbEntity
  8
LAYER_FEATURE
100
AcDbSpline
 62
7
  6
CONTINUOUS
 70
0
 71
3
 72
9
 73
5
 74
0
 42
0.0000001
 43
0.0000001
 44
0.0000000001
 40
0.0
 40
0.0
 40
0.0
 40
0.0
 40
0.4860742555
 40
1.0
 40
1.0
 40
1.0
 40
1.0
 10
14.3205625936
 20
11.7873404321
 30
0.0
 10
14.3211307633
 20
11.7884902523
 30
0.0
 10
14.3222297572
 20
11.7908907081
 30
0.0
 10
14.3232044637
 20
11.7933438379
 30
0.0
 10
14.323676804
 20
11.79461494
 30
0.0
  0
SPLINE
  5
426
100
AcDbEntity
  8
LAYER_FEATURE
100
AcDbSpline
 62
7
  6
CONTINUOUS
 70
0
 71
3
 72
14
 73
10
 74
0
 42
0.0000001
 43
0.0000001
 44
0.0000000001
 40
0.0
 40
0.0
 40
0.0
 40
0.0
 40
0.1105352575
 40
0.2260416516
 40
0.3461311762
 40
0.4704073889
 40
0.5984223536
 40
0.7296967681
 40
1.0
 40
1.0
 40
1.0
 40
1.0
 10
14.323676804
 20
11.79461494
 30
0.0
 10
14.3240695075
 20
11.7956717337
 30
0.0
 10
14.3248230388
 20
11.7978515089
 30
0.0
 10
14.3258395725
 20
11.8012332165
 30
0.0
 10
14.3267634708
 20
11.8047863853
 30
0.0
 10
14.3275903621
 20
11.808494085
 30
0.0
 10
14.3283163232
 20
11.812339018
 30
0.0
 10
14.3291531482
 20
11.8176759688
 30
0.0
 10
14.3296059997
 20
11.8217497448
 30
0.0
 10
14.3298358257
 20
11.8244970938
 30
0.0
  0
SPLINE
  5
427
100
AcDbEntity
  8
LAYER_FEATURE
100
AcDbSpline
 62
7
  6
CONTINUOUS
 70
0
 71
3
 72
19
 73
15
 74
0
 42
0.0000001
 43
0.0000001
 44
0.0000000001
 40
0.0
 40
0.0
 40
0.0
 40
0.0
 40
0.1355140172
 40
0.2722029214
 40
0.4078788172
 40
0.5403768477
 40
0.6047881216
 40
0.6676384256
 40
0.72869352
 40
0.7877336
 40
0.8445556018
 40
0.8989747672
 40
0.9508366857
 40
1.0
 40
1.0
 40
1.0
 40
1.0
 10
14.3298358257
 20
11.8244970938
 30
0.0
 10
14.3300442087
 20
11.8269881119
 30
0.0
 10
14.3303227551
 20
11.8320044311
 30
0.0
 10
14.3303376944
 20
11.8395316315
 30
0.0
 10
14.3299534934
 20
11.8469934889
 30
0.0
 10
14.3293009758
 20
11.8530972967
 30
0.0
 10
14.3285799179
 20
11.8578349444
 30
0.0
 10
14.3279513787
 20
11.8612519437
 30
0.0
 10
14.3272330983
 20
11.8645499065
 30
0.0
 10
14.3264284543
 20
11.8677133276
 30
0.0
 10
14.3255412565
 20
11.8707272787
 30
0.0
 10
14.3245757067
 20
11.873577729
 30
0.0
 10
14.3235363633
 20
11.8762511121
 30
0.0
 10
14.3227766766
 20
11.8779538607
 30
0.0
 10
14.3223840318
 20
11.8787713293
 30
0.0
  0
SPLINE
  5
428
100
AcDbEntity
  8
LAYER_FEATURE
100
AcDbSpline
 62
7
  6
CONTINUOUS
 70
0
 71
3
 72
14
 73
10
 74
0
 42
0.0000001
 43
0.0000001
 44
0.0000000001
 40
0.0
 40
0.0
 40
0.0
 40
0.0
 40
0.1489626745
 40
0.2910152216
 40
0.4260615486
 40
0.5541295374
 40
0.6753187016
 40
0.7898253295
 40
1.0
 40
1.0
 40
1.0
 40
1.0
 10
14.3223840318
 20
11.8787713293
 30
0.0
 10
14.3220629081
 20
11.8794398939
 30
0.0
 10
14.3214087411
 20
11.8807333951
 30
0.0
 10
14.3203652766
 20
11.8825812788
 30
0.0
 10
14.319285279
 20
11.884286328
 30
0.0
 10
14.3181717988
 20
11.8858436906
 30
0.0
 10
14.3170274078
 20
11.8872496088
 30
0.0
 10
14.3155086386
 20
11.8888697169
 30
0.0
 10
14.3142677331
 20
11.889922803
 30
0.0
 10
14.3134045354
 20
11.8905143873
 30
0.0
  0
LINE
  5
429
100
AcDbEntity
  8
LAYER_FEATURE
100
AcDbLine
 62
7
  6
CONTINUOUS
 10
14.2966360461
 20
11.8912142694
 11
14.2974356513
 21
11.8910628714
  0
SPLINE
  5
42A
100
AcDbEntity
  8
LAYER_FEATURE
100
AcDbSpline
 62
7
  6
CONTINUOUS
 70
0
 71
3
 72
20
 73
16
 74
0
 42
0.0000001
 43
0.0000001
 44
0.0000000001
 40
0.0
 40
0.0
 40
0.0
 40
0.0
 40
0.1676855308
 40
0.3257579744
 40
0.4722557975
 40
0.5406661893
 40
0.6056277829
 40
0.6670286852
 40
0.7247996305
 40
0.7789294247
 40
0.8294704912
 40
0.8765554439
 40
0.9204191561
 40
0.9614131996
 40
1.0
 40
1.0
 40
1.0
 40
1.0
 10
14.2899251251
 20
11.9048896887
 30
0.0
 10
14.2900592568
 20
11.9040182279
 30
0.0
 10
14.2903672136
 20
11.9023319908
 30
0.0
 10
14.2909670324
 20
11.8999205832
 30
0.0
 10
14.2915767952
 20
11.8980541509
 30
0.0
 10
14.2921247627
 20
11.8966878747
 30
0.0
 10
14.2925509728
 20
11.8957561413
 30
0.0
 10
14.2929999275
 20
11.8948977457
 30
0.0
 10
14.2934698499
 20
11.8941162969
 30
0.0
 10
14.2939587835
 20
11.8934150311
 30
0.0
 10
14.2944648329
 20
11.8927968834
 30
0.0
 10
14.2949860389
 20
11.8922644317
 30
0.0
 10
14.2955206056
 20
11.8918199608
 30
0.0
 10
14.296066462
 20
11.8914657758
 30
0.0
 10
14.2964464286
 20
11.8912864658
 30
0.0
 10
14.2966360461
 20
11.8912142694
 30
0.0
  0
SPLINE
  5
42B
100
AcDbEntity
  8
LAYER_FEATURE
100
AcDbSpline
 62
7
  6
CONTINUOUS
 70
0
 71
3
 72
15
 73
11
 74
0
 42
0.0000001
 43
0.0000001
 44
0.0000000001
 40
0.0
 40
0.0
 40
0.0
 40
0.0
 40
0.1066023233
 40
0.2217264577
 40
0.3439495536
 40
0.4716283775
 40
0.6029746533
 40
0.7361052794
 40
0.8690864736
 40
1.0
 40
1.0
 40
1.0
 40
1.0
 10
14.2882656058
 20
11.9552094058
 30
0.0
 10
14.2879919931
 20
11.954492761
 30
0.0
 10
14.2874899895
 20
11.952976129
 30
0.0
 10
14.2868842899
 20
11.9505745966
 30
0.0
 10
14.2864044604
 20
11.9479904427
 30
0.0
 10
14.2860589005
 20
11.9452674757
 30
0.0
 10
14.2858535648
 20
11.942451755
 30
0.0
 10
14.2857920546
 20
11.9395910933
 30
0.0
 10
14.2858754006
 20
11.936734185
 30
0.0
 10
14.2860285377
 20
11.934840355
 30
0.0
 10
14.2861301344
 20
11.9339038074
 30
0.0
  0
LINE
  5
42C
100
AcDbEntity
  8
LAYER_FEATURE
100
AcDbLine
 62
7
  6
CONTINUOUS
 10
14.2889961654
 20
11.9568122741
 11
14.2882656058
 21
11.9552094058
  0
SPLINE
  5
42D
100
AcDbEntity
  8
LAYER_FEATURE
100
AcDbSpline
 62
7
  6
CONTINUOUS
 70
0
 71
3
 72
9
 73
5
 74
0
 42
0.0000001
 43
0.0000001
 44
0.0000000001
 40
0.0
 40
0.0
 40
0.0
 40
0.0
 40
0.4840729617
 40
1.0
 40
1.0
 40
1.0
 40
1.0
 10
14.2946917251
 20
11.966621049
 30
0.0
 10
14.2953059766
 20
11.9676159331
 30
0.0
 10
14.2965010807
 20
11.9697172602
 30
0.0
 10
14.2975655934
 20
11.9718870119
 30
0.0
 10
14.2980849865
 20
11.9730197837
 30
0.0
  0
SPLINE
  5
42E
100
AcDbEntity
  8
LAYER_FEATURE
100
AcDbSpline
 62
7
  6
CONTINUOUS
 70
0
 71
3
 72
15
 73
11
 74
0
 42
0.0000001
 43
0.0000001
 44
0.0000000001
 40
0.0
 40
0.0
 40
0.0
 40
0.0
 40
0.1076134191
 40
0.2209380397
 40
0.3396490283
 40
0.4633980053
 40
0.5917735642
 40
0.72432209
 40
0.8605768451
 40
1.0
 40
1.0
 40
1.0
 40
1.0
 10
14.2980849865
 20
11.9730197837
 30
0.0
 10
14.2985202557
 20
11.9739690852
 30
0.0
 10
14.2993612826
 20
11.975942504
 30
0.0
 10
14.3005094642
 20
11.9790332739
 30
0.0
 10
14.3015724872
 20
11.9823193016
 30
0.0
 10
14.3025453332
 20
11.985784961
 30
0.0
 10
14.303423372
 20
11.9894140726
 30
0.0
 10
14.3042025153
 20
11.9931896353
 30
0.0
 10
14.3048789694
 20
11.9970937058
 30
0.0
 10
14.3052555557
 20
11.9997428507
 30
0.0
 10
14.3054266305
 20
12.0010850228
 30
0.0
  0
SPLINE
  5
42F
100
AcDbEntity
  8
LAYER_FEATURE
100
AcDbSpline
 62
7
  6
CONTINUOUS
 70
0
 71
3
 72
18
 73
14
 74
0
 42
0.0000001
 43
0.0000001
 44
0.0000000001
 40
0.0
 40
0.0
 40
0.0
 40
0.0
 40
0.129908949
 40
0.262572655
 40
0.3958755984
 40
0.5276795518
 40
0.6558890647
 40
0.718024881
 40
0.7785271515
 40
0.8371737728
 40
0.8937560696
 40
0.9480906899
 40
1.0
 40
1.0
 40
1.0
 40
1.0
 10
14.3054266305
 20
12.0010850228
 30
0.0
 10
14.3057372183
 20
12.0035217495
 30
0.0
 10
14.3062196733
 20
12.0084663751
 30
0.0
 10
14.3065384681
 20
12.0159485619
 30
0.0
 10
14.3064576852
 20
12.0234732102
 30
0.0
 10
14.3059788464
 20
12.0308985143
 30
0.0
 10
14.3052484154
 20
12.0369498622
 30
0.0
 10
14.304466372
 20
12.0416288703
 30
0.0
 10
14.3037944972
 20
12.0449909201
 30
0.0
 10
14.3030344456
 20
12.048226389
 30
0.0
 10
14.3021898101
 20
12.0513201852
 30
0.0
 10
14.3012645885
 20
12.0542575618
 30
0.0
 10
14.3005807262
 20
12.0561473779
 30
0.0
 10
14.3002249073
 20
12.0570621641
 30
0.0
  0
SPLINE
  5
430
100
AcDbEntity
  8
LAYER_FEATURE
100
AcDbSpline
 62
7
  6
CONTINUOUS
 70
0
 71
3
 72
15
 73
11
 74
0
 42
0.0000001
 43
0.0000001
 44
0.0000000001
 40
0.0
 40
0.0
 40
0.0
 40
0.0
 40
0.1465765314
 40
0.2871879465
 40
0.4216383184
 40
0.5498307952
 40
0.6717115787
 40
0.7872899407
 40
0.8966666676
 40
1.0
 40
1.0
 40
1.0
 40
1.0
 10
14.3002249073
 20
12.0570621641
 30
0.0
 10
14.2999318791
 20
12.05781552
 30
0.0
 10
14.299332027
 20
12.0592817625
 30
0.0
 10
14.2983694426
 20
12.0613990652
 30
0.0
 10
14.2973648551
 20
12.0633838932
 30
0.0
 10
14.2963210548
 20
12.0652307147
 30
0.0
 10
14.2952408707
 20
12.0669346044
 30
0.0
 10
14.2941270622
 20
12.0684909864
 30
0.0
 10
14.2929826772
 20
12.0698954439
 30
0.0
 10
14.2921790373
 20
12.0707517429
 30
0.0
 10
14.2917726063
 20
12.0711511871
 30
0.0
  0
SPLINE
  5
431
100
AcDbEntity
  8
LAYER_FEATURE
100
AcDbSpline
 62
7
  6
CONTINUOUS
 70
0
 71
3
 72
12
 73
8
 74
0
 42
0.0000001
 43
0.0000001
 44
0.0000000001
 40
0.0
 40
0.0
 40
0.0
 40
0.0
 40
0.276763414
 40
0.5331171825
 40
0.7725596979
 40
0.8874668964
 40
1.0
 40
1.0
 40
1.0
 40
1.0
 10
14.2917726063
 20
12.0711511871
 30
0.0
 10
14.2911270815
 20
12.0717856149
 30
0.0
 10
14.2898180581
 20
12.0729443413
 30
0.0
 10
14.2877228847
 20
12.0743693272
 30
0.0
 10
14.2859152064
 20
12.075240328
 30
0.0
 10
14.2844651223
 20
12.0757233704
 30
0.0
 10
14.2837403728
 20
12.0758959161
 30
0.0
 10
14.2833788315
 20
12.0759646457
 30
0.0
  0
SPLINE
  5
432
100
AcDbEntity
  8
LAYER_FEATURE
100
AcDbSpline
 62
7
  6
CONTINUOUS
 70
0
 71
3
 72
11
 73
7
 74
0
 42
0.0000001
 43
0.0000001
 44
0.0000000001
 40
0.0
 40
0.0
 40
0.0
 40
0.0
 40
0.2667840712
 40
0.5195484191
 40
0.7623596121
 40
1.0
 40
1.0
 40
1.0
 40
1.0
 10
14.2751244655
 20
12.0763482672
 30
0.0
 10
14.2752319353
 20
12.0762772352
 30
0.0
 10
14.2754495868
 20
12.0761508926
 30
0.0
 10
14.275791116
 20
12.0760102692
 30
0.0
 10
14.2761362383
 20
12.0759253776
 30
0.0
 10
14.2763686519
 20
12.0759063785
 30
0.0
 10
14.2764834019
 20
12.0759063758
 30
0.0
  0
SPLINE
  5
433
100
AcDbEntity
  8
LAYER_FEATURE
100
AcDbSpline
 62
7
  6
CONTINUOUS
 70
0
 71
3
 72
19
 73
15
 74
0
 42
0.0000001
 43
0.0000001
 44
0.0000000001
 40
0.0
 40
0.0
 40
0.0
 40
0.0
 40
0.1613990594
 40
0.2395156519
 40
0.3155460959
 40
0.46036477
 40
0.5941000414
 40
0.6563786896
 40
0.7154068813
 40
0.7710969897
 40
0.8234044563
 40
0.8723391044
 40
0.9179822855
 40
1.0
 40
1.0
 40
1.0
 40
1.0
 10
14.2690069696
 20
12.0917501302
 30
0.0
 10
14.2691055047
 20
12.0908418055
 30
0.0
 10
14.2692875337
 20
12.0894972654
 30
0.0
 10
14.2696052015
 20
12.0877392658
 30
0.0
 10
14.2699573099
 20
12.0860836667
 30
0.0
 10
14.2704686629
 20
12.0841410126
 30
0.0
 10
14.2710975484
 20
12.0823144537
 30
0.0
 10
14.2716597522
 20
12.0809841261
 30
0.0
 10
14.2720952906
 20
12.0800812807
 30
0.0
 10
14.2725528708
 20
12.0792532351
 30
0.0
 10
14.2730305826
 20
12.0785035458
 30
0.0
 10
14.2735267361
 20
12.0778350263
 30
0.0
 10
14.2741860608
 20
12.0770832193
 30
0.0
 10
14.2747371346
 20
12.0766042727
 30
0.0
 10
14.2751244655
 20
12.0763482672
 30
0.0
  0
SPLINE
  5
434
100
AcDbEntity
  8
LAYER_FEATURE
100
AcDbSpline
 62
7
  6
CONTINUOUS
 70
0
 71
3
 72
15
 73
11
 74
0
 42
0.0000001
 43
0.0000001
 44
0.0000000001
 40
0.0
 40
0.0
 40
0.0
 40
0.0
 40
0.1015995108
 40
0.2129151716
 40
0.3327145372
 40
0.4594783138
 40
0.5914880176
 40
0.7268840407
 40
0.8637135498
 40
1.0
 40
1.0
 40
1.0
 40
1.0
 10
14.2694048206
 20
12.142239642
 30
0.0
 10
14.2691012861
 20
12.1415955939
 30
0.0
 10
14.2685371004
 20
12.1402115302
 30
0.0
 10
14.2678380622
 20
12.1379850785
 30
0.0
 10
14.2672566995
 20
12.1355435131
 30
0.0
 10
14.2668031561
 20
12.1329280604
 30
0.0
 10
14.2664852233
 20
12.1301827757
 30
0.0
 10
14.2663084587
 20
12.1273542037
 30
0.0
 10
14.2662758976
 20
12.1244904473
 30
0.0
 10
14.266351251
 20
12.1225769861
 30
0.0
 10
14.2664137967
 20
12.1216239655
 30
0.0
  0
LINE
  5
435
100
AcDbEntity
  8
LAYER_FEATURE
100
AcDbLine
 62
7
  6
CONTINUOUS
 10
14.2701966234
 20
12.1436376314
 11
14.2694048206
 21
12.142239642
  0
LINE
  5
436
100
AcDbEntity
  8
LAYER_FEATURE
100
AcDbLine
 62
7
  6
CONTINUOUS
 10
14.2762602513
 20
12.1518638591
 11
14.2701966234
 21
12.1436376314
  0
SPLINE
  5
437
100
AcDbEntity
  8
LAYER_FEATURE
100
AcDbSpline
 62
7
  6
CONTINUOUS
 70
0
 71
3
 72
9
 73
5
 74
0
 42
0.0000001
 43
0.0000001
 44
0.0000000001
 40
0.0
 40
0.0
 40
0.0
 40
0.0
 40
0.4822483958
 40
1.0
 40
1.0
 40
1.0
 40
1.0
 10
14.2762602513
 20
12.1518638591
 30
0.0
 10
14.2769137426
 20
12.1526910824
 30
0.0
 10
14.2781924367
 20
12.1544675058
 30
0.0
 10
14.279334921
 20
12.1563334109
 30
0.0
 10
14.2798953865
 20
12.1573167148
 30
0.0
  0
SPLINE
  5
438
100
AcDbEntity
  8
LAYER_FEATURE
100
AcDbSpline
 62
7
  6
CONTINUOUS
 70
0
 71
3
 72
15
 73
11
 74
0
 42
0.0000001
 43
0.0000001
 44
0.0000000001
 40
0.0
 40
0.0
 40
0.0
 40
0.0
 40
0.1046391216
 40
0.2156995657
 40
0.3329494784
 40
0.4561117518
 40
0.5848297388
 40
0.7186898886
 40
0.8572537724
 40
1.0
 40
1.0
 40
1.0
 40
1.0
 10
14.2798953865
 20
12.1573167148
 30
0.0
 10
14.2803687462
 20
12.1581471964
 30
0.0
 10
14.2812887953
 20
12.1598912852
 30
0.0
 10
14.282556156
 20
12.162657699
 30
0.0
 10
14.2837467099
 20
12.1656409526
 30
0.0
 10
14.2848548558
 20
12.1688268821
 30
0.0
 10
14.2858753607
 20
12.1722006902
 30
0.0
 10
14.286803483
 20
12.1757466138
 30
0.0
 10
14.2876347219
 20
12.1794478341
 30
0.0
 10
14.2881151869
 20
12.1819729048
 30
0.0
 10
14.2883392162
 20
12.1832575505
 30
0.0
  0
SPLINE
  5
439
100
AcDbEntity
  8
LAYER_FEATURE
100
AcDbSpline
 62
7
  6
CONTINUOUS
 70
0
 71
3
 72
17
 73
13
 74
0
 42
0.0000001
 43
0.0000001
 44
0.0000000001
 40
0.0
 40
0.0
 40
0.0
 40
0.0
 40
0.1244752156
 40
0.2532018588
 40
0.3841499385
 40
0.5152223144
 40
0.6443194959
 40
0.7693974016
 40
0.8298280745
 40
0.8885425066
 40
0.9453350152
 40
1.0
 40
1.0
 40
1.0
 40
1.0
 10
14.2883392162
 20
12.1832575505
 30
0.0
 10
14.2887499477
 20
12.1856127982
 30
0.0
 10
14.2894334881
 20
12.19043123
 30
0.0
 10
14.2900525897
 20
12.1977871074
 30
0.0
 10
14.2902760895
 20
12.2052924963
 30
0.0
 10
14.2900996847
 20
12.2128062143
 30
0.0
 10
14.2895266949
 20
12.220187044
 30
0.0
 10
14.2887190416
 20
12.2261793691
 30
0.0
 10
14.2878767047
 20
12.2307945921
 30
0.0
 10
14.2871622162
 20
12.234098102
 30
0.0
 10
14.2863612267
 20
12.23726759
 30
0.0
 10
14.28575998
 20
12.2393228509
 30
0.0
 10
14.285444555
 20
12.2403243002
 30
0.0
  0
SPLINE
  5
43A
100
AcDbEntity
  8
LAYER_FEATURE
100
AcDbSpline
 62
7
  6
CONTINUOUS
 70
0
 71
3
 72
14
 73
10
 74
0
 42
0.0000001
 43
0.0000001
 44
0.0000000001
 40
0.0
 40
0.0
 40
0.0
 40
0.0
 40
0.2826851153
 40
0.4162471902
 40
0.5443529598
 40
0.666856118
 40
0.7836525746
 40
0.8947043371
 40
1.0
 40
1.0
 40
1.0
 40
1.0
 10
14.285444555
 20
12.2403243002
 30
0.0
 10
14.2849307122
 20
12.2419557103
 30
0.0
 10
14.2841028187
 20
12.2443369135
 30
0.0
 10
14.2828547135
 20
12.2473855801
 30
0.0
 10
14.2818917394
 20
12.2495019163
 30
0.0
 10
14.2808869048
 20
12.2514856654
 30
0.0
 10
14.279842804
 20
12.2533315111
 30
0.0
 10
14.2787623411
 20
12.2550342482
 30
0.0
 10
14.2779995264
 20
12.2560991923
 30
0.0
 10
14.2776120545
 20
12.256604926
 30
0.0
  0
SPLINE
  5
43B
100
AcDbEntity
  8
LAYER_FEATURE
100
AcDbSpline
 62
7
  6
CONTINUOUS
 70
0
 71
3
 72
15
 73
11
 74
0
 42
0.0000001
 43
0.0000001
 44
0.0000000001
 40
0.0
 40
0.0
 40
0.0
 40
0.0
 40
0.1486821347
 40
0.2895175217
 40
0.4228240748
 40
0.5491116259
 40
0.6690411178
 40
0.7834500466
 40
0.8933754164
 40
1.0
 40
1.0
 40
1.0
 40
1.0
 10
14.2776120545
 20
12.256604926
 30
0.0
 10
14.2771805535
 20
12.2571681268
 30
0.0
 10
14.2763079385
 20
12.2582406071
 30
0.0
 10
14.2749317143
 20
12.2597182938
 30
0.0
 10
14.2735272835
 20
12.2610169099
 30
0.0
 10
14.2720979833
 20
12.2621329127
 30
0.0
 10
14.2706470815
 20
12.2630633145
 30
0.0
 10
14.2691777571
 20
12.2638052314
 30
0.0
 10
14.2676939803
 20
12.2643559544
 30
0.0
 10
14.2666859093
 20
12.2645970351
 30
0.0
 10
14.2661845024
 20
12.2646834762
 30
0.0
  0
SPLINE
  5
43C
100
AcDbEntity
  8
LAYER_FEATURE
100
AcDbSpline
 62
7
  6
CONTINUOUS
 70
0
 71
3
 72
11
 73
7
 74
0
 42
0.0000001
 43
0.0000001
 44
0.0000000001
 40
0.0
 40
0.0
 40
0.0
 40
0.0
 40
0.2742375562
 40
0.5303531772
 40
0.7710784155
 40
1.0
 40
1.0
 40
1.0
 40
1.0
 10
14.2612666626
 20
12.2662422637
 30
0.0
 10
14.2613737281
 20
12.2661398309
 30
0.0
 10
14.2615904788
 20
12.2659514403
 30
0.0
 10
14.2619348557
 20
12.2657151512
 30
0.0
 10
14.2622853867
 20
12.2655367337
 30
0.0
 10
14.2625270705
 20
12.2654555837
 30
0.0
 10
14.2626471385
 20
12.2654258742
 30
0.0
  0
SPLINE
  5
43D
100
AcDbEntity
  8
LAYER_FEATURE
100
AcDbSpline
 62
7
  6
CONTINUOUS
 70
0
 71
3
 72
18
 73
14
 74
0
 42
0.0000001
 43
0.0000001
 44
0.0000000001
 40
0.0
 40
0.0
 40
0.0
 40
0.0
 40
0.1550302885
 40
0.3049275561
 40
0.4476265138
 40
0.5812494965
 40
0.7042065098
 40
0.7613063166
 40
0.8153255582
 40
0.8661953081
 40
0.913897916
 40
0.9584717615
 40
1.0
 40
1.0
 40
1.0
 40
1.0
 10
14.2558096165
 20
12.2832018243
 30
0.0
 10
14.2558710066
 20
12.2822664122
 30
0.0
 10
14.2560390514
 20
12.2804292457
 30
0.0
 10
14.2564325517
 20
12.2777499423
 30
0.0
 10
14.2569576166
 20
12.2752250062
 30
0.0
 10
14.2576052226
 20
12.2728972014
 30
0.0
 10
14.2582528444
 20
12.2711117292
 30
0.0
 10
14.258828948
 20
12.2698183166
 30
0.0
 10
14.259273531
 20
12.2689449645
 30
0.0
 10
14.2597393865
 20
12.2681478603
 30
0.0
 10
14.2602246958
 20
12.2674302663
 30
0.0
 10
14.2607274623
 20
12.2667953434
 30
0.0
 10
14.2610852193
 20
12.266415856
 30
0.0
 10
14.2612666626
 20
12.2662422637
 30
0.0
  0
SPLINE
  5
43E
100
AcDbEntity
  8
LAYER_FEATURE
100
AcDbSpline
 62
7
  6
CONTINUOUS
 70
0
 71
3
 72
17
 73
13
 74
0
 42
0.0000001
 43
0.0000001
 44
0.0000000001
 40
0.0
 40
0.0
 40
0.0
 40
0.0
 40
0.0469065619
 40
0.0966163663
 40
0.1490302034
 40
0.204043541
 40
0.321290839
 40
0.4470338437
 40
0.5796541236
 40
0.7173370593
 40
0.8581265777
 40
1.0
 40
1.0
 40
1.0
 40
1.0
 10
14.2582604788
 20
12.3333079574
 30
0.0
 10
14.2580999538
 20
12.3330344312
 30
0.0
 10
14.2577872079
 20
12.3324603983
 30
0.0
 10
14.2573540244
 20
12.3315501622
 30
0.0
 10
14.2569448946
 20
12.3305692043
 30
0.0
 10
14.2564227307
 20
12.3291422324
 30
0.0
 10
14.2558474269
 20
12.3272090172
 30
0.0
 10
14.2552909113
 20
12.3247294287
 30
0.0
 10
14.254863922
 20
12.3220843494
 30
0.0
 10
14.2545738702
 20
12.3193186336
 30
0.0
 10
14.2544257644
 20
12.3164791974
 30
0.0
 10
14.2544233989
 20
12.3145670444
 30
0.0
 10
14.2544466727
 20
12.3136080724
 30
0.0
  0
LINE
  5
43F
100
AcDbEntity
  8
LAYER_FEATURE
100
AcDbLine
 62
7
  6
CONTINUOUS
 10
14.2591048496
 20
12.3344857512
 11
14.2582604788
 21
12.3333079574
  0
LINE
  5
440
100
AcDbEntity
  8
LAYER_FEATURE
100
AcDbLine
 62
7
  6
CONTINUOUS
 10
14.2654701114
 20
12.3410393034
 11
14.2591048496
 21
12.3344857512
  0
SPLINE
  5
441
100
AcDbEntity
  8
LAYER_FEATURE
100
AcDbSpline
 62
7
  6
CONTINUOUS
 70
0
 71
3
 72
9
 73
5
 74
0
 42
0.0000001
 43
0.0000001
 44
0.0000000001
 40
0.0
 40
0.0
 40
0.0
 40
0.0
 40
0.4809910025
 40
1.0
 40
1.0
 40
1.0
 40
1.0
 10
14.2654701114
 20
12.3410393034
 30
0.0
 10
14.2661546864
 20
12.3416875222
 30
0.0
 10
14.2675027126
 20
12.343115772
 30
0.0
 10
14.2687118071
 20
12.3446617415
 30
0.0
 10
14.2693072931
 20
12.3454865373
 30
0.0
  0
SPLINE
  5
442
100
AcDbEntity
  8
LAYER_FEATURE
100
AcDbSpline
 62
7
  6
CONTINUOUS
 70
0
 71
3
 72
15
 73
11
 74
0
 42
0.0000001
 43
0.0000001
 44
0.0000000001
 40
0.0
 40
0.0
 40
0.0
 40
0.0
 40
0.1016923694
 40
0.2104329855
 40
0.3261323351
 40
0.4486226585
 40
0.5776315931
 40
0.712808654
 40
0.8537617472
 40
1.0
 40
1.0
 40
1.0
 40
1.0
 10
14.2693072931
 20
12.3454865373
 30
0.0
 10
14.2698136116
 20
12.3461878291
 30
0.0
 10
14.2708031559
 20
12.3476815813
 30
0.0
 10
14.2721761224
 20
12.3500939349
 30
0.0
 10
14.2734813409
 20
12.3527422376
 30
0.0
 10
14.2747127256
 20
12.3556139384
 30
0.0
 10
14.2758645433
 20
12.3586958074
 30
0.0
 10
14.2769314739
 20
12.3619735062
 30
0.0
 10
14.2779083715
 20
12.3654315381
 30
0.0
 10
14.2784866507
 20
12.3678054808
 30
0.0
 10
14.2787607961
 20
12.3690187565
 30
0.0
  0
SPLINE
  5
443
100
AcDbEntity
  8
LAYER_FEATURE
100
AcDbSpline
 62
7
  6
CONTINUOUS
 70
0
 71
3
 72
19
 73
15
 74
0
 42
0.0000001
 43
0.0000001
 44
0.0000000001
 40
0.0
 40
0.0
 40
0.0
 40
0.0
 40
0.0587574918
 40
0.1191707636
 40
0.1810022997
 40
0.2440211281
 40
0.372610661
 40
0.5029111121
 40
0.6328342939
 40
0.7603025082
 40
0.8224909632
 40
0.8833198595
 40
0.9425655931
 40
1.0
 40
1.0
 40
1.0
 40
1.0
 10
14.2787607961
 20
12.3690187565
 30
0.0
 10
14.2790111868
 20
12.3701269024
 30
0.0
 10
14.279480228
 20
12.3723833479
 30
0.0
 10
14.2800825335
 20
12.3758313634
 30
0.0
 10
14.2805913127
 20
12.3793777031
 30
0.0
 10
14.2811453966
 20
12.3842471348
 30
0.0
 10
14.2815859918
 20
12.3904591207
 30
0.0
 10
14.2817139825
 20
12.3979792619
 30
0.0
 10
14.2814420758
 20
12.4054739001
 30
0.0
 10
14.2808822611
 20
12.411631171
 30
0.0
 10
14.2802340523
 20
12.416431363
 30
0.0
 10
14.2796575772
 20
12.4199085618
 30
0.0
 10
14.2789895986
 20
12.4232756576
 30
0.0
 10
14.2784768489
 20
12.4254731898
 30
0.0
 10
14.2782049114
 20
12.4265498795
 30
0.0
  0
SPLINE
  5
444
100
AcDbEntity
  8
LAYER_FEATURE
100
AcDbSpline
 62
7
  6
CONTINUOUS
 70
0
 71
3
 72
14
 73
10
 74
0
 42
0.0000001
 43
0.0000001
 44
0.0000000001
 40
0.0
 40
0.0
 40
0.0
 40
0.0
 40
0.2780897296
 40
0.4106377191
 40
0.5385312367
 40
0.661567219
 40
0.7795718871
 40
0.8924217135
 40
1.0
 40
1.0
 40
1.0
 40
1.0
 10
14.2782049114
 20
12.4265498795
 30
0.0
 10
14.2777577529
 20
12.4283203262
 30
0.0
 10
14.2770282484
 20
12.4309182757
 30
0.0
 10
14.2759141587
 20
12.4342748765
 30
0.0
 10
14.2750424502
 20
12.436637786
 30
0.0
 10
14.274123749
 20
12.4388799726
 30
0.0
 10
14.2731604639
 20
12.4409953913
 30
0.0
 10
14.2721552908
 20
12.442978088
 30
0.0
 10
14.2714418923
 20
12.4442382572
 30
0.0
 10
14.2710780259
 20
12.4448437339
 30
0.0
  0
SPLINE
  5
445
100
AcDbEntity
  8
LAYER_FEATURE
100
AcDbSpline
 62
7
  6
CONTINUOUS
 70
0
 71
3
 72
15
 73
11
 74
0
 42
0.0000001
 43
0.0000001
 44
0.0000000001
 40
0.0
 40
0.0
 40
0.0
 40
0.0
 40
0.1492490677
 40
0.2911187159
 40
0.4256729317
 40
0.5531192823
 40
0.6737648296
 40
0.7880429839
 40
0.8965469172
 40
1.0
 40
1.0
 40
1.0
 40
1.0
 10
14.2710780259
 20
12.4448437339
 30
0.0
 10
14.2706709361
 20
12.4455211346
 30
0.0
 10
14.2698453428
 20
12.4468238942
 30
0.0
 10
14.268537716
 20
12.4486612963
 30
0.0
 10
14.2671952702
 20
12.4503278757
 30
0.0
 10
14.2658212922
 20
12.4518193227
 30
0.0
 10
14.2644190101
 20
12.4531319533
 30
0.0
 10
14.2629914711
 20
12.4542623388
 30
0.0
 10
14.261542231
 20
12.4552071552
 30
0.0
 10
14.2605423256
 20
12.4557225326
 30
0.0
 10
14.2600419149
 20
12.4559454359
 30
0.0
  0
LINE
  5
446
100
AcDbEntity
  8
LAYER_FEATURE
100
AcDbLine
 62
7
  6
CONTINUOUS
 10
14.2552144665
 20
12.4588157406
 11
14.2565541487
 21
12.4576332733
  0
SPLINE
  5
447
100
AcDbEntity
  8
LAYER_FEATURE
100
AcDbSpline
 62
7
  6
CONTINUOUS
 70
0
 71
3
 72
18
 73
14
 74
0
 42
0.0000001
 43
0.0000001
 44
0.0000000001
 40
0.0
 40
0.0
 40
0.0
 40
0.0
 40
0.1488596479
 40
0.2945320809
 40
0.4349590083
 40
0.5682081577
 40
0.6925586066
 40
0.7509463813
 40
0.8065982247
 40
0.8593935314
 40
0.9092501747
 40
0.9561256288
 40
1.0
 40
1.0
 40
1.0
 40
1.0
 10
14.2504776587
 20
12.4771471865
 30
0.0
 10
14.2505007719
 20
12.4761948297
 30
0.0
 10
14.2505942478
 20
12.4743112843
 30
0.0
 10
14.2508774574
 20
12.4715409093
 30
0.0
 10
14.2512978748
 20
12.4688888494
 30
0.0
 10
14.2518482603
 20
12.4664001611
 30
0.0
 10
14.2524186556
 20
12.464457932
 30
0.0
 10
14.2529371453
 20
12.4630227183
 30
0.0
 10
14.2533438165
 20
12.4620351126
 30
0.0
 10
14.253774686
 20
12.4611177501
 30
0.0
 10
14.254228013
 20
12.4602744205
 30
0.0
 10
14.2547018928
 20
12.4595088109
 30
0.0
 10
14.2550413242
 20
12.4590367778
 30
0.0
 10
14.2552144665
 20
12.4588157406
 30
0.0
  0
SPLINE
  5
448
100
AcDbEntity
  8
LAYER_FEATURE
100
AcDbSpline
 62
7
  6
CONTINUOUS
 70
0
 71
3
 72
17
 73
13
 74
0
 42
0.0000001
 43
0.0000001
 44
0.0000000001
 40
0.0
 40
0.0
 40
0.0
 40
0.0
 40
0.0443452366
 40
0.0916684103
 40
0.141934479
 40
0.1950890656
 40
0.3096343541
 40
0.4342253728
 40
0.5673882219
 40
0.7073833125
 40
0.8522720306
 40
1.0
 40
1.0
 40
1.0
 40
1.0
 10
14.2549546802
 20
12.5263209675
 30
0.0
 10
14.2547833559
 20
12.5260912979
 30
0.0
 10
14.2544478242
 20
12.5256024632
 30
0.0
 10
14.2539799533
 20
12.5248130616
 30
0.0
 10
14.2535331896
 20
12.5239469706
 30
0.0
 10
14.2529537472
 20
12.5226627574
 30
0.0
 10
14.2523015861
 20
12.5208875593
 30
0.0
 10
14.2516482572
 20
12.5185704345
 30
0.0
 10
14.2511169432
 20
12.5160541918
 30
0.0
 10
14.2507168329
 20
12.513381359
 30
0.0
 10
14.2504548309
 20
12.510597133
 30
0.0
 10
14.2503756735
 20
12.508707105
 30
0.0
 10
14.2503598767
 20
12.5077527101
 30
0.0
  0
LINE
  5
449
100
AcDbEntity
  8
LAYER_FEATURE
100
AcDbLine
 62
7
  6
CONTINUOUS
 10
14.2558423678
 20
12.5272656614
 11
14.2549546802
 21
12.5263209675
  0
SPLINE
  5
44A
100
AcDbEntity
  8
LAYER_FEATURE
100
AcDbSpline
 62
7
  6
CONTINUOUS
 70
0
 71
3
 72
9
 73
5
 74
0
 42
0.0000001
 43
0.0000001
 44
0.0000000001
 40
0.0
 40
0.0
 40
0.0
 40
0.0
 40
0.2446471296
 40
1.0
 40
1.0
 40
1.0
 40
1.0
 10
14.2624395243
 20
12.532074736
 30
0.0
 10
14.261881627
 20
12.5317111358
 30
0.0
 10
14.2596213976
 20
12.5301940632
 30
0.0
 10
14.2574420612
 20
12.528557302
 30
0.0
 10
14.2558423678
 20
12.5272656614
 30
0.0
  0
SPLINE
  5
44B
100
AcDbEntity
  8
LAYER_FEATURE
100
AcDbSpline
 62
7
  6
CONTINUOUS
 70
0
 71
3
 72
9
 73
5
 74
0
 42
0.0000001
 43
0.0000001
 44
0.0000000001
 40
0.0
 40
0.0
 40
0.0
 40
0.0
 40
0.4810626832
 40
1.0
 40
1.0
 40
1.0
 40
1.0
 10
14.2624395243
 20
12.532074736
 30
0.0
 10
14.2631450863
 20
12.5325345742
 30
0.0
 10
14.2645455907
 20
12.5335940357
 30
0.0
 10
14.2658118408
 20
12.5348081654
 30
0.0
 10
14.2664367116
 20
12.5354676235
 30
0.0
  0
SPLINE
  5
44C
100
AcDbEntity
  8
LAYER_FEATURE
100
AcDbSpline
 62
7
  6
CONTINUOUS
 70
0
 71
3
 72
15
 73
11
 74
0
 42
0.0000001
 43
0.0000001
 44
0.0000000001
 40
0.0
 40
0.0
 40
0.0
 40
0.0
 40
0.0989734873
 40
0.2054310471
 40
0.3195082253
 40
0.4412105223
 40
0.5703990904
 40
0.7068245461
 40
0.8501706505
 40
1.0
 40
1.0
 40
1.0
 40
1.0
 10
14.2664367116
 20
12.5354676235
 30
0.0
 10
14.2669699648
 20
12.5360303929
 30
0.0
 10
14.2680182355
 20
12.5372548013
 30
0.0
 10
14.2694824971
 20
12.5392874147
 30
0.0
 10
14.2708885305
 20
12.5415724238
 30
0.0
 10
14.2722299048
 20
12.5440989929
 30
0.0
 10
14.2735005394
 20
12.5468556145
 30
0.0
 10
14.2746946408
 20
12.5498295449
 30
0.0
 10
14.2758065036
 20
12.5530067958
 30
0.0
 10
14.2764754487
 20
12.5552044608
 30
0.0
 10
14.2767963133
 20
12.5563334022
 30
0.0
  0
SPLINE
  5
44D
100
AcDbEntity
  8
LAYER_FEATURE
100
AcDbSpline
 62
7
  6
CONTINUOUS
 70
0
 71
3
 72
17
 73
13
 74
0
 42
0.0000001
 43
0.0000001
 44
0.0000000001
 40
0.0
 40
0.0
 40
0.0
 40
0.0
 40
0.0559749794
 40
0.1139297949
 40
0.1736476093
 40
0.2349137957
 40
0.3611315537
 40
0.4906279006
 40
0.6213407655
 40
0.7511741475
 40
0.8780553343
 40
1.0
 40
1.0
 40
1.0
 40
1.0
 10
14.2767963133
 20
12.5563334022
 30
0.0
 10
14.2770914915
 20
12.5573719675
 30
0.0
 10
14.2776514857
 20
12.559497611
 30
0.0
 10
14.2783904663
 20
12.5627651692
 30
0.0
 10
14.2790404543
 20
12.566155588
 30
0.0
 10
14.2797916717
 20
12.5708649427
 30
0.0
 10
14.2804826606
 20
12.5769437238
 30
0.0
 10
14.2809135917
 20
12.5843885594
 30
0.0
 10
14.2809458294
 20
12.5919155769
 30
0.0
 10
14.2805788248
 20
12.5993833245
 30
0.0
 10
14.2798196537
 20
12.6066513355
 30
0.0
 10
14.2790424522
 20
12.6113912447
 30
0.0
 10
14.2785852955
 20
12.6136985754
 30
0.0
  0
SPLINE
  5
44E
100
AcDbEntity
  8
LAYER_FEATURE
100
AcDbSpline
 62
7
  6
CONTINUOUS
 70
0
 71
3
 72
13
 73
9
 74
0
 42
0.0000001
 43
0.0000001
 44
0.0000000001
 40
0.0
 40
0.0
 40
0.0
 40
0.0
 40
0.2736213373
 40
0.5327416621
 40
0.6562484036
 40
0.7754131466
 40
0.8900582325
 40
1.0
 40
1.0
 40
1.0
 40
1.0
 10
14.2785852955
 20
12.6136985754
 30
0.0
 10
14.2782106274
 20
12.6155895752
 30
0.0
 10
14.2773922292
 20
12.6192545223
 30
0.0
 10
14.2761404794
 20
12.6237082499
 30
0.0
 10
14.275025873
 20
12.6270638158
 30
0.0
 10
14.2741538004
 20
12.6294259064
 30
0.0
 10
14.2732347207
 20
12.6316671408
 30
0.0
 10
14.2725783532
 20
12.6331074366
 30
0.0
 10
14.2722421087
 20
12.6338052273
 30
0.0
  0
SPLINE
  5
44F
100
AcDbEntity
  8
LAYER_FEATURE
100
AcDbSpline
 62
7
  6
CONTINUOUS
 70
0
 71
3
 72
15
 73
11
 74
0
 42
0.0000001
 43
0.0000001
 44
0.0000000001
 40
0.0
 40
0.0
 40
0.0
 40
0.0
 40
0.1478554768
 40
0.2891305675
 40
0.4237355516
 40
0.5516906049
 40
0.6730768997
 40
0.7880584928
 40
0.8969123286
 40
1.0
 40
1.0
 40
1.0
 40
1.0
 10
14.2722421087
 20
12.6338052273
 30
0.0
 10
14.2718637895
 20
12.6345903334
 30
0.0
 10
14.2710936534
 20
12.6361112708
 30
0.0
 10
14.2698682316
 20
12.638288579
 30
0.0
 10
14.2686015
 20
12.6403050594
 30
0.0
 10
14.2672966479
 20
12.6421555446
 30
0.0
 10
14.2659568572
 20
12.6438355138
 30
0.0
 10
14.2645851783
 20
12.6453407907
 30
0.0
 10
14.2631850274
 20
12.646667339
 30
0.0
 10
14.2622094476
 20
12.6474506241
 30
0.0
 10
14.2617183528
 20
12.6478084483
 30
0.0
  0
LINE
  5
450
100
AcDbEntity
  8
LAYER_FEATURE
100
AcDbLine
 62
7
  6
CONTINUOUS
 10
14.2570341863
 20
12.6519588227
 11
14.2583183969
 21
12.6504232329
  0
SPLINE
  5
451
100
AcDbEntity
  8
LAYER_FEATURE
100
AcDbSpline
 62
7
  6
CONTINUOUS
 70
0
 71
3
 72
17
 73
13
 74
0
 42
0.0000001
 43
0.0000001
 44
0.0000000001
 40
0.0
 40
0.0
 40
0.0
 40
0.0
 40
0.1429575417
 40
0.284510568
 40
0.4226291885
 40
0.555358823
 40
0.6808963579
 40
0.7976466604
 40
0.8523141177
 40
0.9043251911
 40
0.9535834371
 40
1.0
 40
1.0
 40
1.0
 40
1.0
 10
14.2530695142
 20
12.6714613106
 30
0.0
 10
14.2530536427
 20
12.6705023981
 30
0.0
 10
14.2530705986
 20
12.6685928348
 30
0.0
 10
14.2532403654
 20
12.6657614684
 30
0.0
 10
14.2535514737
 20
12.6630110117
 30
0.0
 10
14.2539985507
 20
12.6603880992
 30
0.0
 10
14.2545738406
 20
12.657937187
 30
0.0
 10
14.2551641082
 20
12.6560322094
 30
0.0
 10
14.2556974966
 20
12.654630976
 30
0.0
 10
14.2561140784
 20
12.6536709255
 30
0.0
 10
14.2565541724
 20
12.6527827864
 30
0.0
 10
14.2568714808
 20
12.6522243232
 30
0.0
 10
14.2570341863
 20
12.6519588227
 30
0.0
  0
SPLINE
  5
452
100
AcDbEntity
  8
LAYER_FEATURE
100
AcDbSpline
 62
7
  6
CONTINUOUS
 70
0
 71
3
 72
18
 73
14
 74
0
 42
0.0000001
 43
0.0000001
 44
0.0000000001
 40
0.0
 40
0.0
 40
0.0
 40
0.0
 40
0.0419469743
 40
0.0869433216
 40
0.1350493407
 40
0.1862854031
 40
0.2406195444
 40
0.2979714092
 40
0.4212112067
 40
0.554779616
 40
0.6970571204
 40
0.8461525948
 40
1.0
 40
1.0
 40
1.0
 40
1.0
 10
14.2595236437
 20
12.7191639812
 30
0.0
 10
14.2593435836
 20
12.7189812267
 30
0.0
 10
14.2589889679
 20
12.7185838372
 30
0.0
 10
14.2584912747
 20
12.7179236889
 30
0.0
 10
14.258011627
 20
12.7171817378
 30
0.0
 10
14.2575520083
 20
12.7163612439
 30
0.0
 10
14.2571142276
 20
12.715465571
 30
0.0
 10
14.2565485766
 20
12.7141442055
 30
0.0
 10
14.2559150635
 20
12.7123275812
 30
0.0
 10
14.2552852925
 20
12.709967448
 30
0.0
 10
14.2547795674
 20
12.7074163874
 30
0.0
 10
14.2544065843
 20
12.7047176365
 30
0.0
 10
14.2542524244
 20
12.702870185
 30
0.0
 10
14.2541981845
 20
12.7019307892
 30
0.0
  0
LINE
  5
453
100
AcDbEntity
  8
LAYER_FEATURE
100
AcDbLine
 62
7
  6
CONTINUOUS
 10
14.2604449225
 20
12.7198652252
 11
14.2595236437
 21
12.7191639812
  0
SPLINE
  5
454
100
AcDbEntity
  8
LAYER_FEATURE
100
AcDbSpline
 62
7
  6
CONTINUOUS
 70
0
 71
3
 72
9
 73
5
 74
0
 42
0.0000001
 43
0.0000001
 44
0.0000000001
 40
0.0
 40
0.0
 40
0.0
 40
0.0
 40
0.4943249346
 40
1.0
 40
1.0
 40
1.0
 40
1.0
 10
14.267201694
 20
12.722877133
 30
0.0
 10
14.2660586515
 20
12.7224520219
 30
0.0
 10
14.2637738794
 20
12.7215163224
 30
0.0
 10
14.2615516066
 20
12.7204410702
 30
0.0
 10
14.2604449225
 20
12.7198652252
 30
0.0
  0
SPLINE
  5
455
100
AcDbEntity
  8
LAYER_FEATURE
100
AcDbSpline
 62
7
  6
CONTINUOUS
 70
0
 71
3
 72
9
 73
5
 74
0
 42
0.0000001
 43
0.0000001
 44
0.0000000001
 40
0.0
 40
0.0
 40
0.0
 40
0.0
 40
0.4836738627
 40
1.0
 40
1.0
 40
1.0
 40
1.0
 10
14.267201694
 20
12.722877133
 30
0.0
 10
14.2679158176
 20
12.7231427241
 30
0.0
 10
14.2693477422
 20
12.7238165198
 30
0.0
 10
14.2706653279
 20
12.7246892748
 30
0.0
 10
14.2713150927
 20
12.7251785007
 30
0.0
  0
SPLINE
  5
456
100
AcDbEntity
  8
LAYER_FEATURE
100
AcDbSpline
 62
7
  6
CONTINUOUS
 70
0
 71
3
 72
15
 73
11
 74
0
 42
0.0000001
 43
0.0000001
 44
0.0000000001
 40
0.0
 40
0.0
 40
0.0
 40
0.0
 40
0.0969059372
 40
0.2013366063
 40
0.3137878339
 40
0.4345456478
 40
0.5636879538
 40
0.7011307396
 40
0.8466832352
 40
1.0
 40
1.0
 40
1.0
 40
1.0
 10
14.2713150927
 20
12.7251785007
 30
0.0
 10
14.2718679342
 20
12.7255947504
 30
0.0
 10
14.2729624208
 20
12.7265328674
 30
0.0
 10
14.2745034581
 20
12.7281641419
 30
0.0
 10
14.2759958971
 20
12.7300615893
 30
0.0
 10
14.2774331512
 20
12.7322160661
 30
0.0
 10
14.278809018
 20
12.7346178575
 30
0.0
 10
14.2801173866
 20
12.7372559461
 30
0.0
 10
14.2813521148
 20
12.7401180156
 30
0.0
 10
14.2821036145
 20
12.7421165296
 30
0.0
 10
14.2824672913
 20
12.7431492292
 30
0.0
  0
SPLINE
  5
457
100
AcDbEntity
  8
LAYER_FEATURE
100
AcDbSpline
 62
7
  6
CONTINUOUS
 70
0
 71
3
 72
18
 73
14
 74
0
 42
0.0000001
 43
0.0000001
 44
0.0000000001
 40
0.0
 40
0.0
 40
0.0
 40
0.0
 40
0.0532132631
 40
0.1087132831
 40
0.1663083542
 40
0.2258038827
 40
0.2869818497
 40
0.3496127557
 40
0.4782500359
 40
0.6097108306
 40
0.7418957901
 40
0.8726844158
 40
1.0
 40
1.0
 40
1.0
 40
1.0
 10
14.2824672913
 20
12.7431492292
 30
0.0
 10
14.2828043878
 20
12.7441064513
 30
0.0
 10
14.2834498996
 20
12.7460774457
 30
0.0
 10
14.2843174467
 20
12.7491289382
 30
0.0
 10
14.2851014823
 20
12.7523264344
 30
0.0
 10
14.2857982969
 20
12.755654688
 30
0.0
 10
14.2864045897
 20
12.7590981563
 30
0.0
 10
14.2870944619
 20
12.7638635588
 30
0.0
 10
14.2877072855
 20
12.7699914644
 30
0.0
 10
14.2880433101
 20
12.777468726
 30
0.0
 10
14.2879798304
 20
12.7849944788
 30
0.0
 10
14.2875181067
 20
12.7924268911
 30
0.0
 10
14.2869398955
 20
12.7973184692
 30
0.0
 10
14.2865815399
 20
12.7997199476
 30
0.0
  0
SPLINE
  5
458
100
AcDbEntity
  8
LAYER_FEATURE
100
AcDbSpline
 62
7
  6
CONTINUOUS
 70
0
 71
3
 72
11
 73
7
 74
0
 42
0.0000001
 43
0.0000001
 44
0.0000000001
 40
0.0
 40
0.0
 40
0.0
 40
0.0
 40
0.2693642787
 40
0.5272013468
 40
0.7713696279
 40
1.0
 40
1.0
 40
1.0
 40
1.0
 10
14.2865815399
 20
12.7997199476
 30
0.0
 10
14.2862843649
 20
12.801711431
 30
0.0
 10
14.2856150804
 20
12.805596824
 30
0.0
 10
14.2843567592
 20
12.811226531
 30
0.0
 10
14.2828770589
 20
12.8164867529
 30
0.0
 10
14.2817127886
 20
12.8198269713
 30
0.0
 10
14.281091549
 20
12.8214191043
 30
0.0
  0
SPLINE
  5
459
100
AcDbEntity
  8
LAYER_FEATURE
100
AcDbSpline
 62
7
  6
CONTINUOUS
 70
0
 71
3
 72
15
 73
11
 74
0
 42
0.0000001
 43
0.0000001
 44
0.0000000001
 40
0.0
 40
0.0
 40
0.0
 40
0.0
 40
0.1455589268
 40
0.2854359178
 40
0.4194506487
 40
0.5475110979
 40
0.6695616473
 40
0.7856007448
 40
0.8957057785
 40
1.0
 40
1.0
 40
1.0
 40
1.0
 10
14.281091549
 20
12.8214191043
 30
0.0
 10
14.2807462682
 20
12.8223040011
 30
0.0
 10
14.2800400971
 20
12.8240281118
 30
0.0
 10
14.2789099598
 20
12.8265218291
 30
0.0
 10
14.2777323154
 20
12.8288664842
 30
0.0
 10
14.2765101788
 20
12.8310560599
 30
0.0
 10
14.275246603
 20
12.8330851748
 30
0.0
 10
14.2739445775
 20
12.8349488092
 30
0.0
 10
14.2726073953
 20
12.836642102
 30
0.0
 10
14.2716697217
 20
12.837682291
 30
0.0
 10
14.2711954487
 20
12.8381704221
 30
0.0
  0
LINE
  5
45A
100
AcDbEntity
  8
LAYER_FEATURE
100
AcDbLine
 62
7
  6
CONTINUOUS
 10
14.2667058848
 20
12.8435553939
 11
14.2679205536
 21
12.8416835058
  0
SPLINE
  5
45B
100
AcDbEntity
  8
LAYER_FEATURE
100
AcDbSpline
 62
7
  6
CONTINUOUS
 70
0
 71
3
 72
16
 73
12
 74
0
 42
0.0000001
 43
0.0000001
 44
0.0000000001
 40
0.0
 40
0.0
 40
0.0
 40
0.0
 40
0.1373201639
 40
0.2748848819
 40
0.4107079699
 40
0.5428347028
 40
0.6694121553
 40
0.7887381085
 40
0.8993211077
 40
0.9509693008
 40
1.0
 40
1.0
 40
1.0
 40
1.0
 10
14.2635567862
 20
12.8640152504
 30
0.0
 10
14.2635016482
 20
12.8630602993
 30
0.0
 10
14.2634409941
 20
12.8611454822
 30
0.0
 10
14.2634954293
 20
12.8582839348
 30
0.0
 10
14.2636937643
 20
12.8554648823
 30
0.0
 10
14.2640325875
 20
12.8527362806
 30
0.0
 10
14.2645059858
 20
12.8501442773
 30
0.0
 10
14.2651058109
 20
12.8477328147
 30
0.0
 10
14.265715566
 20
12.8458663122
 30
0.0
 10
14.26626357
 20
12.8445000917
 30
0.0
 10
14.2665554232
 20
12.8438620024
 30
0.0
 10
14.2667058848
 20
12.8435553939
 30
0.0
  0
SPLINE
  5
45C
100
AcDbEntity
  8
LAYER_FEATURE
100
AcDbSpline
 62
7
  6
CONTINUOUS
 70
0
 71
3
 72
19
 73
15
 74
0
 42
0.0000001
 43
0.0000001
 44
0.0000000001
 40
0.0
 40
0.0
 40
0.0
 40
0.0
 40
0.0399296878
 40
0.0827991165
 40
0.1288127167
 40
0.1781054924
 40
0.2307366185
 40
0.2866982986
 40
0.3459320978
 40
0.4083394483
 40
0.5420706813
 40
0.6864980441
 40
0.8398236957
 40
1.0
 40
1.0
 40
1.0
 40
1.0
 10
14.2719173108
 20
12.9097241703
 30
0.0
 10
14.271731028
 20
12.9095909135
 30
0.0
 10
14.2713616421
 20
12.909290493
 30
0.0
 10
14.2708390624
 20
12.9087666523
 30
0.0
 10
14.2703314177
 20
12.9081567387
 30
0.0
 10
14.2698407343
 20
12.9074635055
 30
0.0
 10
14.2693688675
 20
12.9066897821
 30
0.0
 10
14.2689177662
 20
12.9058387775
 30
0.0
 10
14.2684892459
 20
12.9049140618
 30
0.0
 10
14.2679377625
 20
12.9035565081
 30
0.0
 10
14.2673232637
 20
12.9016997282
 30
0.0
 10
14.2667175129
 20
12.8992981533
 30
0.0
 10
14.2662376947
 20
12.8967140665
 30
0.0
 10
14.2660111734
 20
12.8949290523
 30
0.0
 10
14.2659195428
 20
12.8940148541
 30
0.0
  0
LINE
  5
45D
100
AcDbEntity
  8
LAYER_FEATURE
100
AcDbLine
 62
7
  6
CONTINUOUS
 10
14.2728620871
 20
12.9101742812
 11
14.2719173108
 21
12.9097241703
  0
SPLINE
  5
45E
100
AcDbEntity
  8
LAYER_FEATURE
100
AcDbSpline
 62
7
  6
CONTINUOUS
 70
0
 71
3
 72
11
 73
7
 74
0
 42
0.0000001
 43
0.0000001
 44
0.0000000001
 40
0.0
 40
0.0
 40
0.0
 40
0.0
 40
0.2432649082
 40
0.4900135572
 40
0.7417843367
 40
1.0
 40
1.0
 40
1.0
 40
1.0
 10
14.2797044449
 20
12.9113560232
 30
0.0
 10
14.2800569143
 20
12.9113914399
 30
0.0
 10
14.2807640522
 20
12.9114950117
 30
0.0
 10
14.2818161466
 20
12.911745463
 30
0.0
 10
14.2828637258
 20
12.9120913582
 30
0.0
 10
14.2835484997
 20
12.9123811087
 30
0.0
 10
14.2838889878
 20
12.9125406569
 30
0.0
  0
SPLINE
  5
45F
100
AcDbEntity
  8
LAYER_FEATURE
100
AcDbSpline
 62
7
  6
CONTINUOUS
 70
0
 71
3
 72
15
 73
11
 74
0
 42
0.0000001
 43
0.0000001
 44
0.0000000001
 40
0.0
 40
0.0
 40
0.0
 40
0.0
 40
0.096291836
 40
0.1994100324
 40
0.3104085532
 40
0.4300247997
 40
0.5586914109
 40
0.6965981362
 40
0.8437637099
 40
1.0
 40
1.0
 40
1.0
 40
1.0
 10
14.2838889878
 20
12.9125406569
 30
0.0
 10
14.2844522998
 20
12.9128046174
 30
0.0
 10
14.2855777148
 20
12.9134420472
 30
0.0
 10
14.2871813345
 20
12.9146538917
 30
0.0
 10
14.2887457676
 20
12.9161434615
 30
0.0
 10
14.2902644132
 20
12.9179029856
 30
0.0
 10
14.2917312138
 20
12.9199243894
 30
0.0
 10
14.2931399693
 20
12.9221984078
 30
0.0
 10
14.2944842829
 20
12.9247145021
 30
0.0
 10
14.2953094552
 20
12.9264936547
 30
0.0
 10
14.2957115974
 20
12.927419444
 30
0.0
  0
SPLINE
  5
460
100
AcDbEntity
  8
LAYER_FEATURE
100
AcDbSpline
 62
7
  6
CONTINUOUS
 70
0
 71
3
 72
19
 73
15
 74
0
 42
0.0000001
 43
0.0000001
 44
0.0000000001
 40
0.0
 40
0.0
 40
0.0
 40
0.0
 40
0.0504625659
 40
0.1034979273
 40
0.1589462548
 40
0.216638414
 40
0.2763775071
 40
0.337950795
 40
0.4011309018
 40
0.4656778875
 40
0.5978514158
 40
0.7323991961
 40
0.8671671157
 40
1.0
 40
1.0
 40
1.0
 40
1.0
 10
14.2957115974
 20
12.927419444
 30
0.0
 10
14.2960872703
 20
12.928284297
 30
0.0
 10
14.2968119362
 20
12.930078266
 30
0.0
 10
14.2977985486
 20
12.9328805159
 30
0.0
 10
14.298708048
 20
12.9358502862
 30
0.0
 10
14.2995361374
 20
12.9389734347
 30
0.0
 10
14.3002788841
 20
12.9422353941
 30
0.0
 10
14.3009327687
 20
12.9456207566
 30
0.0
 10
14.3014947144
 20
12.9491135939
 30
0.0
 10
14.3021226467
 20
12.953929815
 30
0.0
 10
14.302656742
 20
12.9601002027
 30
0.0
 10
14.3028975294
 20
12.967601916
 30
0.0
 10
14.3027383966
 20
12.9751180054
 30
0.0
 10
14.302363031
 20
12.9801071908
 30
0.0
 10
14.3021060359
 20
12.9825759072
 30
0.0
  0
SPLINE
  5
461
100
AcDbEntity
  8
LAYER_FEATURE
100
AcDbSpline
 62
7
  6
CONTINUOUS
 70
0
 71
3
 72
11
 73
7
 74
0
 42
0.0000001
 43
0.0000001
 44
0.0000000001
 40
0.0
 40
0.0
 40
0.0
 40
0.0
 40
0.2653035026
 40
0.5218664525
 40
0.7674459321
 40
1.0
 40
1.0
 40
1.0
 40
1.0
 10
14.3021060359
 20
12.9825759072
 30
0.0
 10
14.301890485
 20
12.9846465066
 30
0.0
 10
14.3013794929
 20
12.9887110725
 30
0.0
 10
14.3003557237
 20
12.9946476657
 30
0.0
 10
14.2990966386
 20
13.0002759734
 30
0.0
 10
14.2980792091
 20
13.0038898195
 30
0.0
 10
14.2975293904
 20
13.0056298282
 30
0.0
  0
SPLINE
  5
462
100
AcDbEntity
  8
LAYER_FEATURE
100
AcDbSpline
 62
7
  6
CONTINUOUS
 70
0
 71
3
 72
15
 73
11
 74
0
 42
0.0000001
 43
0.0000001
 44
0.0000000001
 40
0.0
 40
0.0
 40
0.0
 40
0.0
 40
0.1429560197
 40
0.2811192119
 40
0.4142558811
 40
0.5422067165
 40
0.6648335339
 40
0.7820344159
 40
0.8937648282
 40
1.0
 40
1.0
 40
1.0
 40
1.0
 10
14.2975293904
 20
13.0056298282
 30
0.0
 10
14.2972211499
 20
13.0066053155
 30
0.0
 10
14.2965870569
 20
13.0085149156
 30
0.0
 10
14.2955644384
 20
13.0112980096
 30
0.0
 10
14.2944885542
 20
13.0139454792
 30
0.0
 10
14.293362183
 20
13.0164505124
 30
0.0
 10
14.2921881765
 20
13.0188069098
 30
0.0
 10
14.2909693749
 20
13.0210088161
 30
0.0
 10
14.2897088938
 20
13.0230505277
 30
0.0
 10
14.2888205379
 20
13.0243338133
 30
0.0
 10
14.2883693694
 20
13.0249457119
 30
0.0
  0
LINE
  5
463
100
AcDbEntity
  8
LAYER_FEATURE
100
AcDbLine
 62
7
  6
CONTINUOUS
 10
14.2841235967
 20
13.0315062821
 11
14.2852554157
 21
13.0293186044
  0
SPLINE
  5
464
100
AcDbEntity
  8
LAYER_FEATURE
100
AcDbSpline
 62
7
  6
CONTINUOUS
 70
0
 71
3
 72
15
 73
11
 74
0
 42
0.0000001
 43
0.0000001
 44
0.0000000001
 40
0.0
 40
0.0
 40
0.0
 40
0.0
 40
0.1319127664
 40
0.2656122228
 40
0.3991682484
 40
0.5306424066
 40
0.6581546624
 40
0.779928059
 40
0.8943401203
 40
1.0
 40
1.0
 40
1.0
 40
1.0
 10
14.2818245739
 20
13.0526993448
 30
0.0
 10
14.2817303112
 20
13.0517588865
 30
0.0
 10
14.2815918199
 20
13.0498597504
 30
0.0
 10
14.2815303175
 20
13.046999162
 30
0.0
 10
14.2816136718
 20
13.0441421798
 30
0.0
 10
14.2818404717
 20
13.0413374292
 30
0.0
 10
14.2822067428
 20
13.0386325262
 30
0.0
 10
14.2827061757
 20
13.0360731953
 30
0.0
 10
14.2833300321
 20
13.0337027978
 30
0.0
 10
14.2838441337
 20
13.0322098789
 30
0.0
 10
14.2841235967
 20
13.0315062821
 30
0.0
  0
SPLINE
  5
465
100
AcDbEntity
  8
LAYER_FEATURE
100
AcDbSpline
 62
7
  6
CONTINUOUS
 70
0
 71
3
 72
20
 73
16
 74
0
 42
0.0000001
 43
0.0000001
 44
0.0000000001
 40
0.0
 40
0.0
 40
0.0
 40
0.0
 40
0.0386871928
 40
0.0799042556
 40
0.1240661754
 40
0.1714831189
 40
0.2223557328
 40
0.276789065
 40
0.3348137017
 40
0.3964012368
 40
0.4614689556
 40
0.5298944185
 40
0.6761202795
 40
0.8334826475
 40
1.0
 40
1.0
 40
1.0
 40
1.0
 10
14.291999894
 20
13.0959137174
 30
0.0
 10
14.2918104796
 20
13.0958317436
 30
0.0
 10
14.2914316044
 20
13.0956328732
 30
0.0
 10
14.2908889864
 20
13.0952512469
 30
0.0
 10
14.290358239
 20
13.0947799615
 30
0.0
 10
14.2898414175
 20
13.0942213746
 30
0.0
 10
14.2893403298
 20
13.0935778432
 30
0.0
 10
14.2888569399
 20
13.0928520394
 30
0.0
 10
14.2883931404
 20
13.0920469985
 30
0.0
 10
14.2879508755
 20
13.0911660609
 30
0.0
 10
14.2875319045
 20
13.0902129334
 30
0.0
 10
14.2869949116
 20
13.0888201652
 30
0.0
 10
14.2863998364
 20
13.0869245043
 30
0.0
 10
14.2858184904
 20
13.0844831789
 30
0.0
 10
14.2855230808
 20
13.0827795374
 30
0.0
 10
14.28539553
 20
13.0819003916
 30
0.0
  0
SPLINE
  5
466
100
AcDbEntity
  8
LAYER_FEATURE
100
AcDbSpline
 62
7
  6
CONTINUOUS
 70
0
 71
3
 72
15
 73
11
 74
0
 42
0.0000001
 43
0.0000001
 44
0.0000000001
 40
0.0
 40
0.0
 40
0.0
 40
0.0
 40
0.1003248552
 40
0.2062535988
 40
0.3187995226
 40
0.4387158679
 40
0.5665294501
 40
0.7025831243
 40
0.847073217
 40
1.0
 40
1.0
 40
1.0
 40
1.0
 10
14.3059563313
 20
13.0960805396
 30
0.0
 10
14.3064360893
 20
13.0962745822
 30
0.0
 10
14.3073960416
 20
13.0967411936
 30
0.0
 10
14.3087807608
 20
13.0976343502
 30
0.0
 10
14.3101406687
 20
13.0987334617
 30
0.0
 10
14.3114713622
 20
13.1000342105
 30
0.0
 10
14.3127689821
 20
13.1015319675
 30
0.0
 10
14.3140295044
 20
13.1032217163
 30
0.0
 10
14.3152487877
 20
13.1050976159
 30
0.0
 10
14.3160101445
 20
13.106430572
 30
0.0
 10
14.3163841245
 20
13.1071251438
 30
0.0
  0
SPLINE
  5
467
100
AcDbEntity
  8
LAYER_FEATURE
100
AcDbSpline
 62
7
  6
CONTINUOUS
 70
0
 71
3
 72
19
 73
15
 74
0
 42
0.0000001
 43
0.0000001
 44
0.0000000001
 40
0.0
 40
0.0
 40
0.0
 40
0.0
 40
0.0477256906
 40
0.0982798376
 40
0.1515450418
 40
0.2073859343
 40
0.2656333644
 40
0.3260967159
 40
0.3885659749
 40
0.452814368
 40
0.5856597477
 40
0.7225955094
 40
0.8614492098
 40
1.0
 40
1.0
 40
1.0
 40
1.0
 10
14.3163841245
 20
13.1071251438
 30
0.0
 10
14.3167945471
 20
13.1078873986
 30
0.0
 10
14.3175911037
 20
13.1094835901
 30
0.0
 10
14.3186860428
 20
13.1120062571
 30
0.0
 10
14.3197110713
 20
13.1147160634
 30
0.0
 10
14.3206613582
 20
13.1176001221
 30
0.0
 10
14.321532421
 20
13.1206450434
 30
0.0
 10
14.3223201409
 20
13.1238364772
 30
0.0
 10
14.3230208185
 20
13.1271594358
 30
0.0
 10
14.3238435702
 20
13.1317960433
 30
0.0
 10
14.3246261071
 20
13.1378083208
 30
0.0
 10
14.3251684511
 20
13.145204559
 30
0.0
 10
14.3253136931
 20
13.1527225429
 30
0.0
 10
14.3251428296
 20
13.1577545217
 30
0.0
 10
14.3249886939
 20
13.1602630459
 30
0.0
  0
SPLINE
  5
468
100
AcDbEntity
  8
LAYER_FEATURE
100
AcDbSpline
 62
7
  6
CONTINUOUS
 70
0
 71
3
 72
11
 73
7
 74
0
 42
0.0000001
 43
0.0000001
 44
0.0000000001
 40
0.0
 40
0.0
 40
0.0
 40
0.0
 40
0.26143473
 40
0.5167589682
 40
0.7636674916
 40
1.0
 40
1.0
 40
1.0
 40
1.0
 10
14.3249886939
 20
13.1602630459
 30
0.0
 10
14.3248579806
 20
13.1623903751
 30
0.0
 10
14.3245126707
 20
13.1665905474
 30
0.0
 10
14.3237347556
 20
13.172769549
 30
0.0
 10
14.3227101538
 20
13.1787050192
 30
0.0
 10
14.3218488767
 20
13.1825515003
 30
0.0
 10
14.3213755366
 20
13.1844191476
 30
0.0
  0
SPLINE
  5
469
100
AcDbEntity
  8
LAYER_FEATURE
100
AcDbSpline
 62
7
  6
CONTINUOUS
 70
0
 71
3
 72
14
 73
10
 74
0
 42
0.0000001
 43
0.0000001
 44
0.0000000001
 40
0.0
 40
0.0
 40
0.0
 40
0.0
 40
0.2766880579
 40
0.4088482841
 40
0.5365883672
 40
0.6597193931
 40
0.7780776632
 40
0.8915434212
 40
1.0
 40
1.0
 40
1.0
 40
1.0
 10
14.3213755366
 20
13.1844191476
 30
0.0
 10
14.3208479877
 20
13.1865006852
 30
0.0
 10
14.3199901151
 20
13.1895578191
 30
0.0
 10
14.3186870358
 20
13.1935136219
 30
0.0
 10
14.3176686052
 20
13.1963069774
 30
0.0
 10
14.3165968152
 20
13.1989651596
 30
0.0
 10
14.3154742561
 20
13.2014815718
 30
0.0
 10
14.314303821
 20
13.2038496964
 30
0.0
 10
14.3134747026
 20
13.2053601101
 30
0.0
 10
14.313051954
 20
13.2060879683
 30
0.0
  0
LINE
  5
46A
100
AcDbEntity
  8
LAYER_FEATURE
100
AcDbLine
 62
7
  6
CONTINUOUS
 10
14.3090964901
 20
13.2137522579
 11
14.3101330588
 21
13.2112727595
  0
SPLINE
  5
46B
100
AcDbEntity
  8
LAYER_FEATURE
100
AcDbSpline
 62
7
  6
CONTINUOUS
 70
0
 71
3
 72
15
 73
11
 74
0
 42
0.0000001
 43
0.0000001
 44
0.0000000001
 40
0.0
 40
0.0
 40
0.0
 40
0.0
 40
0.1266840237
 40
0.2566125743
 40
0.3879232523
 40
0.5187075134
 40
0.6470753908
 40
0.7711981138
 40
0.8893543932
 40
1.0
 40
1.0
 40
1.0
 40
1.0
 10
14.3076727315
 20
13.2354463312
 30
0.0
 10
14.3075399021
 20
13.2345308025
 30
0.0
 10
14.3073242005
 20
13.2326682138
 30
0.0
 10
14.3071474464
 20
13.2298397198
 30
0.0
 10
14.3071148913
 20
13.2269758915
 30
0.0
 10
14.3072271428
 20
13.2241254929
 30
0.0
 10
14.3074822191
 20
13.2213369551
 30
0.0
 10
14.3078757239
 20
13.2186575486
 30
0.0
 10
14.3084007563
 20
13.2161327882
 30
0.0
 10
14.308849
 20
13.2145214144
 30
0.0
 10
14.3090964901
 20
13.2137522579
 30
0.0
  0
SPLINE
  5
46C
100
AcDbEntity
  8
LAYER_FEATURE
100
AcDbSpline
 62
7
  6
CONTINUOUS
 70
0
 71
3
 72
21
 73
17
 74
0
 42
0.0000001
 43
0.0000001
 44
0.0000000001
 40
0.0
 40
0.0
 40
0.0
 40
0.0
 40
0.0388350057
 40
0.0793545783
 40
0.1222421844
 40
0.1680573956
 40
0.2172144802
 40
0.2699938082
 40
0.3265662195
 40
0.387014242
 40
0.4513420732
 40
0.5194954859
 40
0.5913669905
 40
0.6668061953
 40
0.8275748822
 40
1.0
 40
1.0
 40
1.0
 40
1.0
 10
14.3195513642
 20
13.2756926909
 30
0.0
 10
14.3193622806
 20
13.27566243
 30
0.0
 10
14.3189805119
 20
13.2755679533
 30
0.0
 10
14.3184228604
 20
13.2753337973
 30
0.0
 10
14.3178738465
 20
13.2750067571
 30
0.0
 10
14.3173357473
 20
13.2745889797
 30
0.0
 10
14.3168103538
 20
13.2740825371
 30
0.0
 10
14.3162995921
 20
13.2734896602
 30
0.0
 10
14.3158053418
 20
13.272812882
 30
0.0
 10
14.3153295768
 20
13.2720549954
 30
0.0
 10
14.3148741495
 20
13.2712191823
 30
0.0
 10
14.3144409989
 20
13.2703089037
 30
0.0
 10
14.3140318713
 20
13.2693279946
 30
0.0
 10
14.3135097066
 20
13.267901017
 30
0.0
 10
14.3129344037
 20
13.2659678611
 30
0.0
 10
14.3125743579
 20
13.2643635934
 30
0.0
 10
14.3124127629
 20
13.2635288883
 30
0.0
  0
SPLINE
  5
46D
100
AcDbEntity
  8
LAYER_FEATURE
100
AcDbSpline
 62
7
  6
CONTINUOUS
 70
0
 71
3
 72
20
 73
16
 74
0
 42
0.0000001
 43
0.0000001
 44
0.0000000001
 40
0.0
 40
0.0
 40
0.0
 40
0.0
 40
0.0450295544
 40
0.0930934193
 40
0.1441335691
 40
0.1980615407
 40
0.2547462144
 40
0.3140272452
 40
0.3757185158
 40
0.4396117255
 40
0.5054798659
 40
0.5730798089
 40
0.7124237199
 40
0.8554880194
 40
1.0
 40
1.0
 40
1.0
 40
1.0
 10
14.3442583798
 20
13.2802974351
 30
0.0
 10
14.3446991763
 20
13.2809476998
 30
0.0
 10
14.3455594452
 20
13.2823270859
 30
0.0
 10
14.3467509318
 20
13.2845430289
 30
0.0
 10
14.3478803785
 20
13.2869635963
 30
0.0
 10
14.348942501
 20
13.2895772977
 30
0.0
 10
14.3499323472
 20
13.2923720863
 30
0.0
 10
14.3508452682
 20
13.295334844
 30
0.0
 10
14.351676962
 20
13.2984516789
 30
0.0
 10
14.3524234774
 20
13.3017079346
 30
0.0
 10
14.3530812926
 20
13.3050883084
 30
0.0
 10
14.3538435164
 20
13.3097870046
 30
0.0
 10
14.3545486008
 20
13.3158562068
 30
0.0
 10
14.3549966301
 20
13.3232941307
 30
0.0
 10
14.3550296749
 20
13.3283139414
 30
0.0
 10
14.3549788068
 20
13.3308345863
 30
0.0
  0
SPLINE
  5
46E
100
AcDbEntity
  8
LAYER_FEATURE
100
AcDbSpline
 62
7
  6
CONTINUOUS
 70
0
 71
3
 72
11
 73
7
 74
0
 42
0.0000001
 43
0.0000001
 44
0.0000000001
 40
0.0
 40
0.0
 40
0.0
 40
0.0
 40
0.2577203288
 40
0.5118375572
 40
0.7600114551
 40
1.0
 40
1.0
 40
1.0
 40
1.0
 10
14.3549788068
 20
13.3308345863
 30
0.0
 10
14.354935198
 20
13.3329955137
 30
0.0
 10
14.3547610804
 20
13.3372859277
 30
0.0
 10
14.3542376221
 20
13.3436400775
 30
0.0
 10
14.3534588246
 20
13.3498182334
 30
0.0
 10
14.3527613632
 20
13.3538542197
 30
0.0
 10
14.3523687241
 20
13.3558282093
 30
0.0
  0
SPLINE
  5
46F
100
AcDbEntity
  8
LAYER_FEATURE
100
AcDbSpline
 62
7
  6
CONTINUOUS
 70
0
 71
3
 72
13
 73
9
 74
0
 42
0.0000001
 43
0.0000001
 44
0.0000000001
 40
0.0
 40
0.0
 40
0.0
 40
0.0
 40
0.272414076
 40
0.5310396574
 40
0.6546142277
 40
0.7740787393
 40
0.8892657407
 40
1.0
 40
1.0
 40
1.0
 40
1.0
 10
14.3523687241
 20
13.3558282093
 30
0.0
 10
14.351926501
 20
13.3580514819
 30
0.0
 10
14.3509638069
 20
13.3623663217
 30
0.0
 10
14.3495023774
 20
13.3676169246
 30
0.0
 10
14.3482054769
 20
13.371585438
 30
0.0
 10
14.3471913049
 20
13.3743890748
 30
0.0
 10
14.3461235346
 20
13.3770579836
 30
0.0
 10
14.3453624775
 20
13.3787775751
 30
0.0
 10
14.3449727748
 20
13.3796125589
 30
0.0
  0
LINE
  5
470
100
AcDbEntity
  8
LAYER_FEATURE
100
AcDbLine
 62
7
  6
CONTINUOUS
 10
14.3413509566
 20
13.3882965965
 11
14.3422809181
 21
13.3855524431
  0
SPLINE
  5
471
100
AcDbEntity
  8
LAYER_FEATURE
100
AcDbSpline
 62
7
  6
CONTINUOUS
 70
0
 71
3
 72
15
 73
11
 74
0
 42
0.0000001
 43
0.0000001
 44
0.0000000001
 40
0.0
 40
0.0
 40
0.0
 40
0.0
 40
0.1215857258
 40
0.24780787
 40
0.3768844191
 40
0.5069494368
 40
0.6361172538
 40
0.7625246199
 40
0.8843741395
 40
1.0
 40
1.0
 40
1.0
 40
1.0
 10
14.3408180613
 20
13.4102539955
 30
0.0
 10
14.3406476279
 20
13.4093736368
 30
0.0
 10
14.340356179
 20
13.4075681705
 30
0.0
 10
14.3400661426
 20
13.4048025353
 30
0.0
 10
14.3399180402
 20
13.4019630276
 30
0.0
 10
14.3399144937
 20
13.3990979941
 30
0.0
 10
14.3400555355
 20
13.3962561191
 30
0.0
 10
14.3403387445
 20
13.3934856549
 30
0.0
 10
14.3407591421
 20
13.3908337338
 30
0.0
 10
14.341137615
 20
13.3891222284
 30
0.0
 10
14.3413509566
 20
13.3882965965
 30
0.0
  0
SPLINE
  5
472
100
AcDbEntity
  8
LAYER_FEATURE
100
AcDbSpline
 62
7
  6
CONTINUOUS
 70
0
 71
3
 72
20
 73
16
 74
0
 42
0.0000001
 43
0.0000001
 44
0.0000000001
 40
0.0
 40
0.0
 40
0.0
 40
0.0
 40
0.0450281
 40
0.0929212388
 40
0.1436567705
 40
0.1971695182
 40
0.2533631931
 40
0.3121146336
 40
0.3732773895
 40
0.436684644
 40
0.5021524024
 40
0.5694819519
 40
0.7088552684
 40
0.8530038148
 40
1.0
 40
1.0
 40
1.0
 40
1.0
 10
14.3806503155
 20
13.44709637
 30
0.0
 10
14.3810611678
 20
13.4476743417
 30
0.0
 10
14.3818655043
 20
13.4488983854
 30
0.0
 10
14.3829881637
 20
13.4508639226
 30
0.0
 10
14.3840600333
 20
13.453008029
 30
0.0
 10
14.3850767789
 20
13.4553221413
 30
0.0
 10
14.3860344109
 20
13.4577970778
 30
0.0
 10
14.3869290975
 20
13.4604229625
 30
0.0
 10
14.387757227
 20
13.4631893116
 30
0.0
 10
14.3885154688
 20
13.4660850301
 30
0.0
 10
14.3892007928
 20
13.4690985169
 30
0.0
 10
14.3900229665
 20
13.4733057317
 30
0.0
 10
14.3908439156
 20
13.4787729732
 30
0.0
 10
14.391492665
 20
13.485524606
 30
0.0
 10
14.3917000342
 20
13.4901072511
 30
0.0
 10
14.3917477966
 20
13.4924217108
 30
0.0
  0
SPLINE
  5
473
100
AcDbEntity
  8
LAYER_FEATURE
100
AcDbSpline
 62
7
  6
CONTINUOUS
 70
0
 71
3
 72
11
 73
7
 74
0
 42
0.0000001
 43
0.0000001
 44
0.0000000001
 40
0.0
 40
0.0
 40
0.0
 40
0.0
 40
0.2541185293
 40
0.5070516389
 40
0.7564446749
 40
1.0
 40
1.0
 40
1.0
 40
1.0
 10
14.3917477966
 20
13.4924217108
 30
0.0
 10
14.3917925967
 20
13.4945926286
 30
0.0
 10
14.3917932549
 20
13.49892668
 30
0.0
 10
14.3915300468
 20
13.50538672
 30
0.0
 10
14.3910056718
 20
13.511740304
 30
0.0
 10
14.3904779545
 20
13.5159209029
 30
0.0
 10
14.3901693851
 20
13.5179790199
 30
0.0
  0
SPLINE
  5
474
100
AcDbEntity
  8
LAYER_FEATURE
100
AcDbSpline
 62
7
  6
CONTINUOUS
 70
0
 71
3
 72
11
 73
7
 74
0
 42
0.0000001
 43
0.0000001
 44
0.0000000001
 40
0.0
 40
0.0
 40
0.0
 40
0.0
 40
0.2683451365
 40
0.5257358727
 40
0.7701998613
 40
1.0
 40
1.0
 40
1.0
 40
1.0
 10
14.3901693851
 20
13.5179790199
 30
0.0
 10
14.3898183464
 20
13.5203204022
 30
0.0
 10
14.3890314771
 20
13.5248935122
 30
0.0
 10
14.3875638335
 20
13.5315312173
 30
0.0
 10
14.3858452746
 20
13.5377565686
 30
0.0
 10
14.3844992368
 20
13.5417218999
 30
0.0
 10
14.3837821008
 20
13.5436183121
 30
0.0
  0
LINE
  5
475
100
AcDbEntity
  8
LAYER_FEATURE
100
AcDbLine
 62
7
  6
CONTINUOUS
 10
14.3805336096
 20
13.5532269534
 11
14.3813467751
 21
13.5502482106
  0
SPLINE
  5
476
100
AcDbEntity
  8
LAYER_FEATURE
100
AcDbSpline
 62
7
  6
CONTINUOUS
 70
0
 71
3
 72
15
 73
11
 74
0
 42
0.0000001
 43
0.0000001
 44
0.0000000001
 40
0.0
 40
0.0
 40
0.0
 40
0.0
 40
0.1165677164
 40
0.2391113894
 40
0.3659449659
 40
0.4952587259
 40
0.6251845789
 40
0.753839157
 40
0.8793660365
 40
1.0
 40
1.0
 40
1.0
 40
1.0
 10
14.3808974161
 20
13.5752071083
 30
0.0
 10
14.380690733
 20
13.5743718725
 30
0.0
 10
14.3803258085
 20
13.5726436004
 30
0.0
 10
14.3799257189
 20
13.5699708603
 30
0.0
 10
14.3796637175
 20
13.5671865587
 30
0.0
 10
14.3795444129
 20
13.5643380724
 30
0.0
 10
14.3795698492
 20
13.5614737755
 30
0.0
 10
14.3797396131
 20
13.5586423371
 30
0.0
 10
14.3800507051
 20
13.5558919629
 30
0.0
 10
14.3803562193
 20
13.5540995477
 30
0.0
 10
14.3805336096
 20
13.5532269534
 30
0.0
  0
SPLINE
  5
477
100
AcDbEntity
  8
LAYER_FEATURE
100
AcDbSpline
 62
7
  6
CONTINUOUS
 70
0
 71
3
 72
90
 73
86
 74
0
 42
0.0000001
 43
0.0000001
 44
0.0000000001
 40
0.0
 40
0.0
 40
0.0
 40
0.0
 40
0.01726065
 40
0.0349144376
 40
0.0529420836
 40
0.0713233614
 40
0.0900370096
 40
0.1090609153
 40
0.1283721558
 40
0.1479470905
 40
0.1677614292
 40
0.1877903051
 40
0.2080083421
 40
0.2283897215
 40
0.248908247
 40
0.2695374084
 40
0.290250444
 40
0.311020403
 40
0.3318202064
 40
0.3526227083
 40
0.3734007567
 40
0.3941272547
 40
0.4147752209
 40
0.4353178511
 40
0.4557285803
 40
0.4759811445
 40
0.4960496451
 40
0.5159086128
 40
0.5355330739
 40
0.5548986184
 40
0.5739814702
 40
0.5927585599
 40
0.6112076017
 40
0.6293071733
 40
0.6470368021
 40
0.6643770565
 40
0.6813096457
 40
0.6978175271
 40
0.7138850263
 40
0.729497969
 40
0.7446438298
 40
0.7593118999
 40
0.7734934783
 40
0.7803999774
 40
0.7871826237
 40
0.7938410053
 40
0.8003748697
 40
0.8067841592
 40
0.8130689992
 40
0.8192297292
 40
0.8252668994
 40
0.8311812951
 40
0.8369739443
 40
0.8426461346
 40
0.8481994305
 40
0.8536356844
 40
0.8589570626
 40
0.8641660495
 40
0.8692654818
 40
0.8742585462
 40
0.879148818
 40
0.8886356275
 40
0.8977639615
 40
0.902207977
 40
0.9065792531
 40
0.9108842822
 40
0.9151299745
 40
0.9193236184
 40
0.9234728649
 40
0.9275856765
 40
0.9316702897
 40
0.9357351532
 40
0.9397888717
 40
0.9438401371
 40
0.947897661
 40
0.9519701054
 40
0.956066015
 40
0.9601937524
 40
0.9643614414
 40
0.9685769126
 40
0.9728476644
 40
0.9771808208
 40
0.9815831147
 40
0.990618085
 40
1.0
 40
1.0
 40
1.0
 40
1.0
 10
14.3858163886
 20
13.7087929106
 30
0.0
 10
14.3796436435
 20
13.6888179
 30
0.0
 10
14.3676213388
 20
13.6482681965
 30
0.0
 10
14.350728386
 20
13.586402285
 30
0.0
 10
14.3347922219
 20
13.5228826072
 30
0.0
 10
14.3198374967
 20
13.4578071851
 30
0.0
 10
14.3058872055
 20
13.391275815
 30
0.0
 10
14.2929628385
 20
13.3233907671
 30
0.0
 10
14.281084303
 20
13.254256341
 30
0.0
 10
14.2702698978
 20
13.1839787952
 30
0.0
 10
14.2605362849
 20
13.1126661522
 30
0.0
 10
14.2518984614
 20
13.0404280397
 30
0.0
 10
14.2443697376
 20
12.9673755171
 30
0.0
 10
14.2379617147
 20
12.8936209046
 30
0.0
 10
14.2326842675
 20
12.8192776083
 30
0.0
 10
14.2285455289
 20
12.7444599451
 30
0.0
 10
14.225551877
 20
12.6692829653
 30
0.0
 10
14.2237079251
 20
12.5938622749
 30
0.0
 10
14.2230165152
 20
12.5183138568
 30
0.0
 10
14.2234787126
 20
12.4427538912
 30
0.0
 10
14.2250938052
 20
12.3672985764
 30
0.0
 10
14.2278593039
 20
12.2920639486
 30
0.0
 10
14.2317709468
 20
12.2171657031
 30
0.0
 10
14.236822706
 20
12.142719015
 30
0.0
 10
14.2430067964
 20
12.0688383609
 30
0.0
 10
14.2503136882
 20
11.9956373422
 30
0.0
 10
14.2587321219
 20
11.9232285087
 30
0.0
 10
14.2682491254
 20
11.8517231845
 30
0.0
 10
14.2788500348
 20
11.7812312951
 30
0.0
 10
14.2905185171
 20
11.7118611966
 30
0.0
 10
14.3032365962
 20
11.6437195073
 30
0.0
 10
14.3169846815
 20
11.5769109418
 30
0.0
 10
14.3317415993
 20
11.5115381472
 30
0.0
 10
14.3474846269
 20
11.4477015426
 30
0.0
 10
14.3641895302
 20
11.3854991617
 30
0.0
 10
14.3818306032
 20
11.3250264989
 30
0.0
 10
14.4003807128
 20
11.2663763568
 30
0.0
 10
14.4198113434
 20
11.2096387044
 30
0.0
 10
14.4400926542
 20
11.1549005176
 30
0.0
 10
14.4611935125
 20
11.1022456986
 30
0.0
 10
14.4830816311
 20
11.0517547359
 30
0.0
 10
14.505723358
 20
11.0035053131
 30
0.0
 10
14.5253600943
 20
10.9648933625
 30
0.0
 10
14.5414329436
 20
10.9352049878
 30
0.0
 10
14.5535478788
 20
10.9137405485
 30
0.0
 10
14.5658243805
 20
10.8928902133
 30
0.0
 10
14.5782578634
 20
10.8726619603
 30
0.0
 10
14.590843499
 20
10.8530635399
 30
0.0
 10
14.6035765222
 20
10.8341024912
 30
0.0
 10
14.6164520285
 20
10.8157860719
 30
0.0
 10
14.6294651266
 20
10.7981213239
 30
0.0
 10
14.6426108353
 20
10.7811150178
 30
0.0
 10
14.6558841474
 20
10.7647736832
 30
0.0
 10
14.6692800147
 20
10.7491036005
 30
0.0
 10
14.6827933228
 20
10.7341107772
 30
0.0
 10
14.6964189664
 20
10.7198010003
 30
0.0
 10
14.7101517285
 20
10.7061797515
 30
0.0
 10
14.7239864698
 20
10.6932523099
 30
0.0
 10
14.7379178173
 20
10.6810236796
 30
0.0
 10
14.7519408275
 20
10.6694984425
 30
0.0
 10
14.7705632903
 20
10.655220899
 30
0.0
 10
14.7940552446
 20
10.6390890461
 30
0.0
 10
14.8182473315
 20
10.6250660659
 30
0.0
 10
14.837697789
 20
10.6153552205
 30
0.0
 10
14.8522101274
 20
10.6088658904
 30
0.0
 10
14.866770281
 20
10.6031089214
 30
0.0
 10
14.8813727767
 20
10.5980864567
 30
0.0
 10
14.896011933
 20
10.5938007815
 30
0.0
 10
14.9106819954
 20
10.5902535957
 30
0.0
 10
14.9253772147
 20
10.5874465565
 30
0.0
 10
14.9400917456
 20
10.5853807861
 30
0.0
 10
14.9548197425
 20
10.5840572927
 30
0.0
 10
14.9695553064
 20
10.5834765862
 30
0.0
 10
14.9842925352
 20
10.5836389892
 30
0.0
 10
14.9990255175
 20
10.584544384
 30
0.0
 10
15.0137483525
 20
10.5861923927
 30
0.0
 10
15.0284551608
 20
10.5885822755
 30
0.0
 10
15.0431401014
 20
10.5917129693
 30
0.0
 10
15.0577973587
 20
10.5955831346
 30
0.0
 10
15.0724212046
 20
10.600191067
 30
0.0
 10
15.0870058604
 20
10.6055348334
 30
0.0
 10
15.1015458979
 20
10.6116122363
 30
0.0
 10
15.1210321949
 20
10.6207685122
 30
0.0
 10
15.1452803352
 20
10.6341017129
 30
0.0
 10
15.1639491881
 20
10.6463555018
 30
0.0
 10
15.1732231281
 20
10.6529229834
 30
0.0
  0
SPLINE
  5
478
100
AcDbEntity
  8
LAYER_FEATURE
100
AcDbSpline
 62
7
  6
CONTINUOUS
 70
0
 71
3
 72
51
 73
47
 74
0
 42
0.0000001
 43
0.0000001
 44
0.0000000001
 40
0.0
 40
0.0
 40
0.0
 40
0.0
 40
0.0472738187
 40
0.0934335639
 40
0.1384408604
 40
0.1822617645
 40
0.2248654543
 40
0.2662254457
 40
0.3063196437
 40
0.3451309111
 40
0.3826475445
 40
0.4188638693
 40
0.4537809054
 40
0.487407128
 40
0.5197593256
 40
0.550863562
 40
0.5807562367
 40
0.5952642201
 40
0.6094883076
 40
0.6371141132
 40
0.65053786
 40
0.6637149139
 40
0.689371957
 40
0.7141935573
 40
0.726330514
 40
0.7383048961
 40
0.7501340125
 40
0.7618360231
 40
0.7734298555
 40
0.7849351135
 40
0.796371983
 40
0.8077610973
 40
0.819123421
 40
0.8304800984
 40
0.8418523142
 40
0.8532611467
 40
0.8647274224
 40
0.876271581
 40
0.8879135523
 40
0.8996726321
 40
0.9115674067
 40
0.9236156365
 40
0.9358342366
 40
0.9482391765
 40
0.9736628041
 40
1.0
 40
1.0
 40
1.0
 40
1.0
 10
14.3858163886
 20
13.7087929106
 30
0.0
 10
14.3914332376
 20
13.7269690405
 30
0.0
 10
14.4029105395
 20
13.7627782302
 30
0.0
 10
14.4210870736
 20
13.8154467454
 30
0.0
 10
14.4400001158
 20
13.8663762403
 30
0.0
 10
14.4596242828
 20
13.9154985704
 30
0.0
 10
14.479933583
 20
13.9627486324
 30
0.0
 10
14.50090099
 20
14.0080636138
 30
0.0
 10
14.5224987228
 20
14.0513834019
 30
0.0
 10
14.5446981967
 20
14.092650554
 30
0.0
 10
14.5674701212
 20
14.1318104053
 30
0.0
 10
14.5907845431
 20
14.1688111189
 30
0.0
 10
14.6146109385
 20
14.203603767
 30
0.0
 10
14.6389182045
 20
14.2361422895
 30
0.0
 10
14.6636750128
 20
14.2663838018
 30
0.0
 10
14.6888489056
 20
14.294287577
 30
0.0
 10
14.7103585482
 20
14.3157720793
 30
0.0
 10
14.7277483422
 20
14.3317198131
 30
0.0
 10
14.7449074021
 20
14.3465538896
 30
0.0
 10
14.7623895388
 20
14.3603358073
 30
0.0
 10
14.780181804
 20
14.3729770014
 30
0.0
 10
14.7977347039
 20
14.3845658588
 30
0.0
 10
14.8198472643
 20
14.3975456752
 30
0.0
 10
14.8425105916
 20
14.4086246454
 30
0.0
 10
14.8607020963
 20
14.4161764071
 30
0.0
 10
14.8742836471
 20
14.4211622809
 30
0.0
 10
14.887899101
 20
14.425509965
 30
0.0
 10
14.9015440481
 20
14.42921801
 30
0.0
 10
14.915213802
 20
14.4322850438
 30
0.0
 10
14.9289037248
 20
14.4347098689
 30
0.0
 10
14.9426091021
 20
14.4364916786
 30
0.0
 10
14.9563252341
 20
14.4376296668
 30
0.0
 10
14.9700473723
 20
14.4381235499
 30
0.0
 10
14.9837707772
 20
14.4379729935
 30
0.0
 10
14.9974906999
 20
14.437178183
 30
0.0
 10
15.0112023954
 20
14.4357393252
 30
0.0
 10
15.0249011381
 20
14.4336570189
 30
0.0
 10
15.0385822234
 20
14.4309320404
 30
0.0
 10
15.0522409597
 20
14.4275653687
 30
0.0
 10
15.065872719
 20
14.4235583294
 30
0.0
 10
15.0794728595
 20
14.4189122737
 30
0.0
 10
15.0930368072
 20
14.4136290364
 30
0.0
 10
15.1065601212
 20
14.4077102889
 30
0.0
 10
15.1246777368
 20
14.3989030186
 30
0.0
 10
15.1472234881
 20
14.386262066
 30
0.0
 10
15.16462447
 20
14.3747779186
 30
0.0
 10
15.173273236
 20
14.3686515154
 30
0.0
  0
SPLINE
  5
479
100
AcDbEntity
  8
LAYER_FEATURE
100
AcDbSpline
 62
7
  6
CONTINUOUS
 70
0
 71
3
 72
76
 73
72
 74
0
 42
0.0000001
 43
0.0000001
 44
0.0000000001
 40
0.0
 40
0.0
 40
0.0
 40
0.0
 40
0.0163579391
 40
0.0330507417
 40
0.0500637526
 40
0.0673820244
 40
0.084989678
 40
0.1028703208
 40
0.1210069567
 40
0.139382079
 40
0.1579777035
 40
0.1767754153
 40
0.1957564115
 40
0.2149015424
 40
0.2341913517
 40
0.2536061156
 40
0.2731258815
 40
0.2927305059
 40
0.3123996917
 40
0.332113026
 40
0.3518500167
 40
0.3715901299
 40
0.3913128258
 40
0.4109975959
 40
0.4306239992
 40
0.4501716995
 40
0.4696205027
 40
0.488950394
 40
0.5081415762
 40
0.5271745075
 40
0.5460299407
 40
0.5646889633
 40
0.583133038
 40
0.6013440452
 40
0.619304327
 40
0.6369967322
 40
0.6544046631
 40
0.6715121251
 40
0.6883037798
 40
0.7047650006
 40
0.7208819329
 40
0.7366415605
 40
0.7520317762
 40
0.7670414586
 40
0.7816605585
 40
0.7958801945
 40
0.8096927595
 40
0.8230920417
 40
0.8360733608
 40
0.8486337234
 40
0.8607719972
 40
0.8724891095
 40
0.8837882721
 40
0.8946752333
 40
0.9051585595
 40
0.9152499414
 40
0.9249645215
 40
0.9343212298
 40
0.9433431047
 40
0.9520575728
 40
0.9604966435
 40
0.964624963
 40
0.9686985664
 40
0.9727227343
 40
0.9767030087
 40
0.9806451665
 40
0.9845552067
 40
0.9884393115
 40
0.9923038238
 40
0.996155205
 40
1.0
 40
1.0
 40
1.0
 40
1.0
 10
14.3216433112
 20
13.7677003487
 30
0.0
 10
14.3158683106
 20
13.74901244
 30
0.0
 10
14.3045866646
 20
13.7111335378
 30
0.0
 10
14.2886168375
 20
13.6534361262
 30
0.0
 10
14.2734428893
 20
13.5943379452
 30
0.0
 10
14.2590835109
 20
13.5339118776
 30
0.0
 10
14.245556305
 20
13.4722316837
 30
0.0
 10
14.2328778735
 20
13.4093730204
 30
0.0
 10
14.2210637838
 20
13.3454128666
 30
0.0
 10
14.2101285396
 20
13.2804296047
 30
0.0
 10
14.2000855685
 20
13.2145028678
 30
0.0
 10
14.1909471995
 20
13.1477134566
 30
0.0
 10
14.1827246527
 20
13.0801432347
 30
0.0
 10
14.1754280246
 20
13.0118750272
 30
0.0
 10
14.1690662757
 20
12.9429925188
 30
0.0
 10
14.163647219
 20
12.8735801508
 30
0.0
 10
14.1591775105
 20
12.8037230172
 30
0.0
 10
14.1556626419
 20
12.7335067603
 30
0.0
 10
14.1531069289
 20
12.6630174651
 30
0.0
 10
14.1515135082
 20
12.5923415529
 30
0.0
 10
14.150884336
 20
12.5215656743
 30
0.0
 10
14.1512201844
 20
12.4507766028
 30
0.0
 10
14.1525206412
 20
12.380061128
 30
0.0
 10
14.1547841101
 20
12.3095059491
 30
0.0
 10
14.1580078126
 20
12.2391975684
 30
0.0
 10
14.1621877918
 20
12.1692221845
 30
0.0
 10
14.1673189123
 20
12.0996655855
 30
0.0
 10
14.1733948711
 20
12.0306130432
 30
0.0
 10
14.180408206
 20
11.9621492081
 30
0.0
 10
14.1883503042
 20
11.8943580061
 30
0.0
 10
14.1972114132
 20
11.8273225342
 30
0.0
 10
14.2069806531
 20
11.7611249592
 30
0.0
 10
14.2176460301
 20
11.6958464153
 30
0.0
 10
14.2291944503
 20
11.6315669029
 30
0.0
 10
14.2416117331
 20
11.5683651885
 30
0.0
 10
14.2548826345
 20
11.5063187082
 30
0.0
 10
14.268990865
 20
11.4455034722
 30
0.0
 10
14.2839191108
 20
11.3859939708
 30
0.0
 10
14.2996490564
 20
11.3278630816
 30
0.0
 10
14.3161614078
 20
11.2711819784
 30
0.0
 10
14.3334359195
 20
11.2160200418
 30
0.0
 10
14.3514514174
 20
11.1624447695
 30
0.0
 10
14.3701858299
 20
11.1105216916
 30
0.0
 10
14.3896162211
 20
11.0603142901
 30
0.0
 10
14.4097188237
 20
11.0118839193
 30
0.0
 10
14.4304690748
 20
10.9652897289
 30
0.0
 10
14.451841654
 20
10.9205885908
 30
0.0
 10
14.4738105254
 20
10.8778350276
 30
0.0
 10
14.4963489832
 20
10.8370811468
 30
0.0
 10
14.5194296952
 20
10.798376576
 30
0.0
 10
14.5430247606
 20
10.761768413
 30
0.0
 10
14.5671057665
 20
10.727301184
 30
0.0
 10
14.5916438474
 20
10.6950168113
 30
0.0
 10
14.6166097447
 20
10.6649545973
 30
0.0
 10
14.6419738692
 20
10.6371512245
 30
0.0
 10
14.6677063379
 20
10.6116407858
 30
0.0
 10
14.6937770516
 20
10.5884548118
 30
0.0
 10
14.7201555207
 20
10.5676224034
 30
0.0
 10
14.7468114191
 20
10.5491700954
 30
0.0
 10
14.7737123398
 20
10.5331227458
 30
0.0
 10
14.7964756727
 20
10.5216884834
 30
0.0
 10
14.8147495106
 20
10.5138028858
 30
0.0
 10
14.8283945219
 20
10.5085441349
 30
0.0
 10
14.8420739247
 20
10.5039000131
 30
0.0
 10
14.8557836545
 20
10.4998718612
 30
0.0
 10
14.8695194325
 20
10.4964611722
 30
0.0
 10
14.8832769547
 20
10.4936689542
 30
0.0
 10
14.8970519053
 20
10.4914962869
 30
0.0
 10
14.9108400262
 20
10.4899438131
 30
0.0
 10
14.9246366049
 20
10.4890121215
 30
0.0
 10
14.9338405835
 20
10.4888050087
 30
0.0
 10
14.9384379655
 20
10.4888050042
 30
0.0
  0
SPLINE
  5
47A
100
AcDbEntity
  8
02___PRT_ALL_AXES
100
AcDbSpline
 62
7
  6
CONTINUOUS
 70
0
 71
3
 72
72
 73
68
 74
0
 42
0.0000001
 43
0.0000001
 44
0.0000000001
 40
0.0
 40
0.0
 40
0.0
 40
0.0
 40
0.0038535171
 40
0.007740021
 40
0.0116649105
 40
0.0156333909
 40
0.0237193733
 40
0.0320365469
 40
0.0406179334
 40
0.0494924552
 40
0.0540480756
 40
0.0586859826
 40
0.0682175656
 40
0.0781055816
 40
0.0883640705
 40
0.0990040013
 40
0.1100335542
 40
0.1214583861
 40
0.1332818729
 40
0.1455053303
 40
0.1581282072
 40
0.1711482604
 40
0.1845617128
 40
0.1983633905
 40
0.2125468443
 40
0.2271044564
 40
0.2420275338
 40
0.2573063965
 40
0.272930456
 40
0.2888882854
 40
0.3051676823
 40
0.3217557257
 40
0.3386388289
 40
0.3558027931
 40
0.3732328535
 40
0.3909137234
 40
0.4088296357
 40
0.4269643807
 40
0.4453013466
 40
0.4638235572
 40
0.4825137071
 40
0.5013541961
 40
0.5203271627
 40
0.539414517
 40
0.5585979753
 40
0.5778590915
 40
0.5971792895
 40
0.6359213191
 40
0.6746748806
 40
0.6940094751
 40
0.7132907131
 40
0.7324999838
 40
0.7516187979
 40
0.7706288186
 40
0.789511894
 40
0.8082500887
 40
0.8268257176
 40
0.8452213808
 40
0.863419998
 40
0.8814048421
 40
0.8991595776
 40
0.916668295
 40
0.9339155498
 40
0.9508864433
 40
0.9675664908
 40
0.9839421877
 40
1.0
 40
1.0
 40
1.0
 40
1.0
 10
16.0106331384
 20
10.8798355053
 30
0.0
 10
16.0070419345
 20
10.8805603644
 30
0.0
 10
15.9998585806
 20
10.8821684351
 30
0.0
 10
15.9891428657
 20
10.8850369422
 30
0.0
 10
15.9784477079
 20
10.8883702579
 30
0.0
 10
15.9641317038
 20
10.8934641614
 30
0.0
 10
15.9462774123
 20
10.9010223278
 30
0.0
 10
15.9251268929
 20
10.9118765807
 30
0.0
 10
15.9041391169
 20
10.9245576439
 30
0.0
 10
15.886956333
 20
10.93652849
 30
0.0
 10
15.873316957
 20
10.9469740989
 30
0.0
 10
15.859504302
 20
10.9582087227
 30
0.0
 10
15.8423834433
 20
10.97339342
 30
0.0
 10
15.8222761311
 20
10.9932043561
 30
0.0
 10
15.8024439928
 20
11.0147454272
 30
0.0
 10
15.7829093202
 20
11.0379915924
 30
0.0
 10
15.7636935694
 20
11.0629165319
 30
0.0
 10
15.74481814
 20
11.0894919326
 30
0.0
 10
15.7263041057
 20
11.1176876856
 30
0.0
 10
15.7081722424
 20
11.1474718398
 30
0.0
 10
15.6904429643
 20
11.1788106302
 30
0.0
 10
15.6731362857
 20
11.2116685005
 30
0.0
 10
15.6562717965
 20
11.2460081489
 30
0.0
 10
15.6398686256
 20
11.2817905682
 30
0.0
 10
15.6239454103
 20
11.3189750882
 30
0.0
 10
15.6085202704
 20
11.3575194185
 30
0.0
 10
15.5936107677
 20
11.3973796914
 30
0.0
 10
15.579233893
 20
11.4385105192
 30
0.0
 10
15.5654060434
 20
11.4808650506
 30
0.0
 10
15.5521429994
 20
11.5243950264
 30
0.0
 10
15.5394599075
 20
11.5690508336
 30
0.0
 10
15.5273712539
 20
11.614781559
 30
0.0
 10
15.5158908432
 20
11.6615350481
 30
0.0
 10
15.5050317923
 20
11.7092579713
 30
0.0
 10
15.4948065116
 20
11.7578958868
 30
0.0
 10
15.4852266907
 20
11.8073933026
 30
0.0
 10
15.4763032857
 20
11.8576937382
 30
0.0
 10
15.468046494
 20
11.9087397875
 30
0.0
 10
15.4604657528
 20
11.9604731878
 30
0.0
 10
15.4535697294
 20
12.0128348894
 30
0.0
 10
15.4473663099
 20
12.065765123
 30
0.0
 10
15.4418625921
 20
12.1192034676
 30
0.0
 10
15.4370648708
 20
12.1730889152
 30
0.0
 10
15.4329786254
 20
12.2273599538
 30
0.0
 10
15.4296085353
 20
12.2819545926
 30
0.0
 10
15.4269584243
 20
12.336810611
 30
0.0
 10
15.4243868687
 20
12.4102805071
 30
0.0
 10
15.4229915025
 20
12.5023262769
 30
0.0
 10
15.4240154037
 20
12.5943905996
 30
0.0
 10
15.4262897205
 20
12.6679140936
 30
0.0
 10
15.4287181174
 20
12.722837783
 30
0.0
 10
15.4318675178
 20
12.7775192929
 30
0.0
 10
15.4357343454
 20
12.8318963031
 30
0.0
 10
15.440314169
 20
12.885906703
 30
0.0
 10
15.4456017539
 20
12.9394888387
 30
0.0
 10
15.4515910554
 20
12.9925815363
 30
0.0
 10
15.45827523
 20
13.0451241857
 30
0.0
 10
15.4656466301
 20
13.0970568094
 30
0.0
 10
15.4736968248
 20
13.1483201307
 30
0.0
 10
15.4824166091
 20
13.1988556412
 30
0.0
 10
15.4917960155
 20
13.2486056654
 30
0.0
 10
15.5018243267
 20
13.2975134225
 30
0.0
 10
15.5124900788
 20
13.345523137
 30
0.0
 10
15.5237810765
 20
13.3925799394
 30
0.0
 10
15.5356844324
 20
13.4386304117
 30
0.0
 10
15.5481864972
 20
13.4836215666
 30
0.0
 10
15.5569995467
 20
13.5131729383
 30
0.0
 10
15.5615069501
 20
13.527758901
 30
0.0
  0
SPLINE
  5
47B
100
AcDbEntity
  8
LAYER_FEATURE
100
AcDbSpline
 62
7
  6
CONTINUOUS
 70
0
 71
3
 72
39
 73
35
 74
0
 42
0.0000001
 43
0.0000001
 44
0.0000000001
 40
0.0
 40
0.0
 40
0.0
 40
0.0
 40
0.0437679009
 40
0.0867276342
 40
0.1288641582
 40
0.1701638881
 40
0.2106145979
 40
0.2502055529
 40
0.2889276086
 40
0.326773374
 40
0.3637372764
 40
0.3998157033
 40
0.4350072097
 40
0.4693126094
 40
0.5027351793
 40
0.5352808968
 40
0.566958579
 40
0.5977801561
 40
0.627760935
 40
0.6569197943
 40
0.6852795104
 40
0.7128670263
 40
0.7397136737
 40
0.7658554892
 40
0.791333413
 40
0.8161934374
 40
0.8404867638
 40
0.8642697731
 40
0.8876039023
 40
0.9105554182
 40
0.9331949566
 40
0.9555969283
 40
0.9778387673
 40
1.0
 40
1.0
 40
1.0
 40
1.0
 10
15.4890690419
 20
13.8942565153
 30
0.0
 10
15.4936141262
 20
13.9066972296
 30
0.0
 10
15.5028219718
 20
13.9312759029
 30
0.0
 10
15.5171259038
 20
13.967556525
 30
0.0
 10
15.5317858519
 20
14.0028876737
 30
0.0
 10
15.5467922521
 20
14.0372462061
 30
0.0
 10
15.5621353365
 20
14.070609825
 30
0.0
 10
15.5778051161
 20
14.1029568204
 30
0.0
 10
15.5937914443
 20
14.1342661431
 30
0.0
 10
15.6100839085
 20
14.1645174561
 30
0.0
 10
15.6266719428
 20
14.1936910998
 30
0.0
 10
15.6435448305
 20
14.2217681029
 30
0.0
 10
15.6606916139
 20
14.2487302506
 30
0.0
 10
15.6781012267
 20
14.2745600278
 30
0.0
 10
15.6957624607
 20
14.2992406459
 30
0.0
 10
15.7136639038
 20
14.3227561046
 30
0.0
 10
15.7317940776
 20
14.3450911112
 30
0.0
 10
15.7501413693
 20
14.3662311333
 30
0.0
 10
15.768694007
 20
14.3861624382
 30
0.0
 10
15.7874401856
 20
14.4048719922
 30
0.0
 10
15.8063679682
 20
14.4223475447
 30
0.0
 10
15.8254652989
 20
14.4385776302
 30
0.0
 10
15.8447200962
 20
14.4535514557
 30
0.0
 10
15.8641201292
 20
14.4672590238
 30
0.0
 10
15.8836530584
 20
14.4796910866
 30
0.0
 10
15.9033064745
 20
14.4908390445
 30
0.0
 10
15.9230677629
 20
14.5006951231
 30
0.0
 10
15.9429241597
 20
14.5092522815
 30
0.0
 10
15.9628627242
 20
14.5165041717
 30
0.0
 10
15.9828702741
 20
14.5224453775
 30
0.0
 10
16.002933316
 20
14.5270712942
 30
0.0
 10
16.0230385266
 20
14.5303781823
 30
0.0
 10
16.0431709056
 20
14.5323634334
 30
0.0
 10
16.0566122325
 20
14.5328049863
 30
0.0
 10
16.0633186269
 20
14.5328049918
 30
0.0
  0
SPLINE
  5
47C
100
AcDbEntity
  8
LAYER_FEATURE
100
AcDbSpline
 62
7
  6
CONTINUOUS
 70
0
 71
3
 72
111
 73
107
 74
0
 42
0.0000001
 43
0.0000001
 44
0.0000000001
 40
0.0
 40
0.0
 40
0.0
 40
0.0
 40
0.0087235434
 40
0.0173113561
 40
0.0257597054
 40
0.03406569
 40
0.0422264508
 40
0.0502392421
 40
0.0581015963
 40
0.0658112691
 40
0.0733662439
 40
0.0807647756
 40
0.0880053867
 40
0.0950868974
 40
0.1020084461
 40
0.1087695001
 40
0.1153698997
 40
0.1218098677
 40
0.1280900444
 40
0.1342115282
 40
0.1401758917
 40
0.1459852375
 40
0.1516422278
 40
0.1571501219
 40
0.1625128351
 40
0.1677349646
 40
0.1728218442
 40
0.1777795864
 40
0.1873334128
 40
0.1919486612
 40
0.1964675824
 40
0.2009005357
 40
0.2052587009
 40
0.2095540293
 40
0.2137991571
 40
0.2180072935
 40
0.2221920904
 40
0.2263674838
 40
0.2305475268
 40
0.2347462143
 40
0.2389773127
 40
0.2432541971
 40
0.2475897113
 40
0.25199605
 40
0.2564846605
 40
0.261066186
 40
0.2657504166
 40
0.2705462736
 40
0.2754618166
 40
0.2805042462
 40
0.285679945
 40
0.2909945065
 40
0.2964527706
 40
0.302058881
 40
0.3078163122
 40
0.3137279243
 40
0.3197960064
 40
0.3260223035
 40
0.3324080729
 40
0.3389541056
 40
0.3456607612
 40
0.3525280091
 40
0.359555437
 40
0.3667422936
 40
0.3740875054
 40
0.3815896907
 40
0.3892471954
 40
0.3970580938
 40
0.4050202138
 40
0.4131311563
 40
0.4213882932
 40
0.4297887991
 40
0.4383296507
 40
0.4470076384
 40
0.4558193871
 40
0.4647613501
 40
0.4738298306
 40
0.4830209874
 40
0.4923308352
 40
0.5112896894
 40
0.5306724421
 40
0.5504430121
 40
0.5705637719
 40
0.5909957356
 40
0.6116987389
 40
0.6326316139
 40
0.6537523554
 40
0.6750182825
 40
0.6963861964
 40
0.7178125388
 40
0.7392535458
 40
0.7606654022
 40
0.7820043947
 40
0.8032270673
 40
0.8242903753
 40
0.8451518426
 40
0.8657697222
 40
0.8861031607
 40
0.906112365
 40
0.9257587764
 40
0.945005254
 40
0.96381629
 40
0.9730480653
 40
0.9821584956
 40
0.9911438773
 40
1.0
 40
1.0
 40
1.0
 40
1.0
 10
15.4401660391
 20
13.7087929106
 30
0.0
 10
15.4439536133
 20
13.7210495054
 30
0.0
 10
15.4516415108
 20
13.7453193667
 30
0.0
 10
15.4636092136
 20
13.7812617713
 30
0.0
 10
15.4759167732
 20
13.8164394839
 30
0.0
 10
15.4885566061
 20
13.8508309202
 30
0.0
 10
15.5015211478
 20
13.8844156786
 30
0.0
 10
15.5148026634
 20
13.9171735288
 30
0.0
 10
15.5283931137
 20
13.9490847482
 30
0.0
 10
15.5422843274
 20
13.9801301765
 30
0.0
 10
15.5564680003
 20
14.0102911467
 30
0.0
 10
15.5709355639
 20
14.0395495551
 30
0.0
 10
15.5856783722
 20
14.0678878166
 30
0.0
 10
15.6006875813
 20
14.0952889179
 30
0.0
 10
15.6159541682
 20
14.1217364254
 30
0.0
 10
15.6314690478
 20
14.1472144422
 30
0.0
 10
15.6472228997
 20
14.1717077052
 30
0.0
 10
15.663206334
 20
14.195201515
 30
0.0
 10
15.6794098462
 20
14.2176817628
 30
0.0
 10
15.6958237446
 20
14.2391349936
 30
0.0
 10
15.7124383302
 20
14.2595482995
 30
0.0
 10
15.7292437264
 20
14.2789094357
 30
0.0
 10
15.746229985
 20
14.2972067763
 30
0.0
 10
15.7633871024
 20
14.3144292422
 30
0.0
 10
15.7807049972
 20
14.3305665236
 30
0.0
 10
15.7981732328
 20
14.3456086195
 30
0.0
 10
15.8157825786
 20
14.3595469837
 30
0.0
 10
15.8391429543
 20
14.3764370462
 30
0.0
 10
15.8630463208
 20
14.3913603243
 30
0.0
 10
15.8874115081
 20
14.4040938241
 30
0.0
 10
15.90556512
 20
14.4123943477
 30
0.0
 10
15.923795032
 20
14.4195480613
 30
0.0
 10
15.9420907572
 20
14.4255503494
 30
0.0
 10
15.9604409043
 20
14.4303969567
 30
0.0
 10
15.9788340932
 20
14.4340844723
 30
0.0
 10
15.9972587501
 20
14.4366101085
 30
0.0
 10
16.0157031456
 20
14.4379720796
 30
0.0
 10
16.0341554759
 20
14.438169311
 30
0.0
 10
16.0526038831
 20
14.437201637
 30
0.0
 10
16.0710365427
 20
14.4350698609
 30
0.0
 10
16.0894416887
 20
14.4317754816
 30
0.0
 10
16.1078076995
 20
14.4273209906
 30
0.0
 10
16.1261231085
 20
14.4217095948
 30
0.0
 10
16.1443765976
 20
14.4149451935
 30
0.0
 10
16.1625570818
 20
14.4070325221
 30
0.0
 10
16.1806535831
 20
14.3979768262
 30
0.0
 10
16.1986553097
 20
14.3877840738
 30
0.0
 10
16.2165516203
 20
14.3764608564
 30
0.0
 10
16.2343319181
 20
14.3640142745
 30
0.0
 10
16.251985796
 20
14.350452158
 30
0.0
 10
16.2695028686
 20
14.3357828473
 30
0.0
 10
16.2868728333
 20
14.3200153043
 30
0.0
 10
16.3040855256
 20
14.3031591571
 30
0.0
 10
16.3211307597
 20
14.285224556
 30
0.0
 10
16.337998513
 20
14.2662223473
 30
0.0
 10
16.3546788201
 20
14.2461639658
 30
0.0
 10
16.3711617589
 20
14.2250614339
 30
0.0
 10
16.3874375994
 20
14.2029274566
 30
0.0
 10
16.4034966225
 20
14.1797752875
 30
0.0
 10
16.4193292662
 20
14.1556188199
 30
0.0
 10
16.4349261142
 20
14.1304725605
 30
0.0
 10
16.4502777947
 20
14.1043515679
 30
0.0
 10
16.4653751692
 20
14.0772715403
 30
0.0
 10
16.4802091805
 20
14.0492487231
 30
0.0
 10
16.4947709146
 20
14.0202999314
 30
0.0
 10
16.5090516813
 20
13.9904425684
 30
0.0
 10
16.5230428607
 20
13.9596945506
 30
0.0
 10
16.5367360721
 20
13.9280743623
 30
0.0
 10
16.5501230971
 20
13.8956010096
 30
0.0
 10
16.5631958462
 20
13.8622939993
 30
0.0
 10
16.5759465037
 20
13.8281733713
 30
0.0
 10
16.5883673684
 20
13.7932596349
 30
0.0
 10
16.6004509631
 20
13.7575737883
 30
0.0
 10
16.6121900452
 20
13.7211373045
 30
0.0
 10
16.6235775014
 20
13.683972094
 30
0.0
 10
16.6346065119
 20
13.6461005222
 30
0.0
 10
16.6452704175
 20
13.6075453925
 30
0.0
 10
16.65556281
 20
13.5683298404
 30
0.0
 10
16.6688624554
 20
13.5148712229
 30
0.0
 10
16.6844953677
 20
13.4465551332
 30
0.0
 10
16.701566107
 20
13.3628124772
 30
0.0
 10
16.7170184034
 20
13.2770195652
 30
0.0
 10
16.7308149288
 20
13.1893830645
 30
0.0
 10
16.7429223864
 20
13.1001136297
 30
0.0
 10
16.7533115552
 20
13.0094260315
 30
0.0
 10
16.7619573531
 20
12.9175384488
 30
0.0
 10
16.7688388997
 20
12.824671985
 30
0.0
 10
16.7739395699
 20
12.7310501187
 30
0.0
 10
16.7772470565
 20
12.6368981658
 30
0.0
 10
16.7787533751
 20
12.542442728
 30
0.0
 10
16.7784548863
 20
12.4479111432
 30
0.0
 10
16.7763523009
 20
12.3535309342
 30
0.0
 10
16.7724507026
 20
12.2595292565
 30
0.0
 10
16.7667595186
 20
12.1661323458
 30
0.0
 10
16.7592924915
 20
12.0735649709
 30
0.0
 10
16.7500676424
 20
11.9820498867
 30
0.0
 10
16.7391072457
 20
11.8918072933
 30
0.0
 10
16.7264377711
 20
11.8030542839
 30
0.0
 10
16.7120898067
 20
11.7160043708
 30
0.0
 10
16.6960979644
 20
11.6308667837
 30
0.0
 10
16.6785008699
 20
11.5478465875
 30
0.0
 10
16.6624357063
 20
11.4801779293
 30
0.0
 10
16.6487973499
 20
11.4272702021
 30
0.0
 10
16.6382584685
 20
11.3884886271
 30
0.0
 10
16.6273523391
 20
11.3503830946
 30
0.0
 10
16.6197853412
 20
11.3252599442
 30
0.0
 10
16.6159402038
 20
11.3128170752
 30
0.0
  0
ENDSEC
  0
SECTION
  2
OBJECTS
  0
DICTIONARY
  5
C
100
AcDbDictionary
280
0
281
1
  3
ACAD_GROUP
350
D
  3
ACAD_MLINESTYLE
350
17
  3
ACAD_LAYOUT
350
1A
  3
ACAD_PLOTSETTINGS
350
19
  3
ACAD_PLOTSTYLENAME
350
E
  0
DICTIONARY
  5
D
102
{ACAD_REACTORS
330
C
102
}
100
AcDbDictionary
280
0
281
1
  0
ACDBDICTIONARYWDFLT
  5
E
102
{ACAD_REACTORS
330
C
102
}
100
AcDbDictionary
281
1
  3
Normal
350
F
100
AcDbDictionaryWithDefault
340
F
  0
DICTIONARY
  5
17
102
{ACAD_REACTORS
330
C
102
}
100
AcDbDictionary
280
0
281
1
  3
Standard
350
18
  0
DICTIONARY
  5
19
102
{ACAD_REACTORS
330
C
102
}
100
AcDbDictionary
281
1
  0
DICTIONARY
  5
1A
102
{ACAD_REACTORS
330
C
102
}
100
AcDbDictionary
281
1
  3
Model
350
47D
  3
Layout1
350
47E
  0
ACDBPLACEHOLDER
  5
F
102
{ACAD_REACTORS
330
E
102
}
  0
MLINESTYLE
  5
18
102
{ACAD_REACTORS
330
17
102
}
100
AcDbMlineStyle
  2
STANDARD
 70
0
  3

 62
256
 51
90.0
 52
90.0
 71
2
 49
0.5
 62
256
  6
BYLAYER
 49
-0.5
 62
256
  6
BYLAYER
  0
LAYOUT
  5
47D
102
{ACAD_REACTORS
330
1A
102
}
100
AcDbPlotSettings
  1

  2
none_device
  4
ANSI_C_(22.00_x_17.00_Inches)
  6

 40
0.0
 41
0.0
 42
0.0
 43
0.0
 44
558.8
 45
431.8
 46
0.0
 47
0.0
 48
0.0
 49
0.0
140
0.0
141
0.0
142
1.0
143
1.0
 70
1024
 72
0
 73
0
 74
0
  7

 75
0
147
1.0
148
0.0
149
0.0
100
AcDbLayout
  1
Model
 70
0
 71
0
 10
0.0
 20
0.0
 11
22.0
 21
17.0
 12
0.0
 22
0.0
 32
0.0
 14
0.0
 24
0.0
 34
0.0
 15
0.0
 25
0.0
 35
0.0
146
0.0
 13
0.0
 23
0.0
 33
0.0
 16
1.0
 26
0.0
 36
0.0
 17
0.0
 27
1.0
 37
0.0
 76
0
330
222
345
0
346
0
  0
LAYOUT
  5
47E
102
{ACAD_REACTORS
330
1A
102
}
100
AcDbPlotSettings
  1

  2
none_device
  4
ANSI_C_(22.00_x_17.00_Inches)
  6

 40
0.0
 41
0.0
 42
0.0
 43
0.0
 44
558.8
 45
431.8
 46
0.0
 47
0.0
 48
0.0
 49
0.0
140
0.0
141
0.0
142
1.0
143
1.0
 70
0
 72
0
 73
0
 74
0
  7

 75
0
147
1.0
148
0.0
149
0.0
100
AcDbLayout
  1
Layout1
 70
0
 71
1
 10
0.0
 20
0.0
 11
22.0
 21
17.0
 12
0.0
 22
0.0
 32
0.0
 14
0.0
 24
0.0
 34
0.0
 15
0.0
 25
0.0
 35
0.0
146
0.0
 13
0.0
 23
0.0
 33
0.0
 16
1.0
 26
0.0
 36
0.0
 17
0.0
 27
1.0
 37
0.0
 76
0
330
223
345
0
346
0
  0
ENDSEC
  0
EOF