999
DXF file: _cgs_temp_output.dxf
999
Pro/ENGINEER 2016360 by Parametric Technology Corporation
  0
SECTION
  2
HEADER
  9
$ACADVER
  1
AC1021
  9
$DWGCODEPAGE
  3
ANSI_1252
  9
$EXTMAX
 10
22.0
 20
17.0
 30
0.0
  9
$EXTMIN
 10
0.0
 20
0.0
 30
0.0
  9
$LIMMIN
 10
0.0
 20
0.0
  9
$LIMMAX
 10
22.0
 20
17.0
  9
$VIEWCTR
 10
11.0
 20
8.5
  9
$VIEWSIZE
 40
17.0
  9
$CLAYER
  8
0
  9
$LTSCALE
 40
1.21
  9
$CELTYPE
  6
BYLAYER
  9
$DIMSCALE
 40
1.0
  9
$DIMASZ
 40
0.1875
  9
$DIMEXO
 40
0.0625
  9
$DIMDLI
 40
0.836
  9
$DIMEXE
 40
0.125
  9
$DIMCEN
 40
0.198
  9
$DIMLFAC
 40
1.0
  9
$DIMBLK
  1
_CLOSED
  9
$DIMALT
 70
0
  9
$DIMALTF
 40
25.4
  9
$DIMTXT
 40
0.15625
  9
$DIMTOL
 70
0
  9
$DIMLIM
 70
0
  9
$DIMTFAC
 40
1.0
  9
$DIMGAP
 40
0.09
  9
$DIMDSEP
 70
46
  9
$AUNITS
 70
0
  9
$PDMODE
 70
3
  9
$PDSIZE
 40
0.3125
  9
$HANDSEED
  5
2E0
  9
$TILEMODE
 70
1
  9
$MEASUREMENT
 70
0
  9
$INSUNITS
 70
1
  0
ENDSEC
  0
SECTION
  2
CLASSES
  0
CLASS
  1
ACDBDICTIONARYWDFLT
  2
AcDbDictionaryWithDefault
  3
AutoCAD 2000
 90
0
 91
1
280
0
281
0
  0
CLASS
  1
ACDBPLACEHOLDER
  2
AcDbPlaceHolder
  3
AutoCAD 2000
 90
0
 91
1
280
0
281
0
  0
CLASS
  1
LAYOUT
  2
AcDbLayout
  3
AutoCAD 2000
 90
0
 91
0
280
0
281
0
  0
ENDSEC
  0
SECTION
  2
TABLES
  0
TABLE
  2
VPORT
  5
8
100
AcDbSymbolTable
 70
2
  0
VPORT
  5
1F4
100
AcDbSymbolTableRecord
100
AcDbViewportTableRecord
  2
*ACTIVE
 70
0
 10
0.0
 20
0.0
 11
1.0
 21
1.0
 12
11.0
 22
8.5
 13
0.0
 23
0.0
 14
1.0
 24
1.0
 15
0.0
 25
0.0
 16
0.0
 26
0.0
 36
1.0
 17
0.0
 27
0.0
 37
0.0
 40
17.0
 41
1.2941176471
 42
50.0
 43
0.0
 44
0.0
 50
0.0
 51
0.0
 71
0
 72
100
 73
1
 74
1
 75
0
 76
0
 77
0
 78
0
  0
ENDTAB
  0
TABLE
  2
LTYPE
  5
5
100
AcDbSymbolTable
 70
6
  0
LTYPE
  5
14
100
AcDbSymbolTableRecord
100
AcDbLinetypeTableRecord
  2
BYBLOCK
 70
0
  3

 72
65
 73
0
 40
0.0
  0
LTYPE
  5
15
100
AcDbSymbolTableRecord
100
AcDbLinetypeTableRecord
  2
BYLAYER
 70
0
  3

 72
65
 73
0
 40
0.0
  0
LTYPE
  5
16
100
AcDbSymbolTableRecord
100
AcDbLinetypeTableRecord
  2
CONTINUOUS
 70
64
  3
Solid line
 72
65
 73
0
 40
0.0
  0
LTYPE
  5
1F5
100
AcDbSymbolTableRecord
100
AcDbLinetypeTableRecord
  2
CENTER
 70
64
  3
____ _ ____ _ ____ _ ____ _ ____ _ ____ _ ____
 72
65
 73
4
 40
0.6
 49
0.375
 74
0
 49
-0.075
 74
0
 49
0.075
 74
0
 49
-0.075
 74
0
  0
LTYPE
  5
1F6
100
AcDbSymbolTableRecord
100
AcDbLinetypeTableRecord
  2
HIDDEN
 70
64
  3
- - - - - - - - - - - - - - - - - - - -
 72
65
 73
2
 40
0.2
 49
0.1
 74
0
 49
-0.1
 74
0
  0
LTYPE
  5
1F7
100
AcDbSymbolTableRecord
100
AcDbLinetypeTableRecord
  2
PHANTOM
 70
64
  3
_____ _ _ _____ _ _ _____ _ _ _____
 72
65
 73
6
 40
0.8
 49
0.45
 74
0
 49
-0.05
 74
0
 49
0.1
 74
0
 49
-0.05
 74
0
 49
0.1
 74
0
 49
-0.05
 74
0
  0
LTYPE
  5
1F8
100
AcDbSymbolTableRecord
100
AcDbLinetypeTableRecord
  2
DOT
 70
64
  3
. . . . . . . . . . . . . . . . . . . .
 72
65
 73
2
 40
0.2
 49
0.1
 74
0
 49
-0.1
 74
0
  0
LTYPE
  5
1F9
100
AcDbSymbolTableRecord
100
AcDbLinetypeTableRecord
  2
DASHED
 70
64
  3
- - - - - - - - - - - - - - - - - - - -
 72
65
 73
2
 40
0.2
 49
0.1
 74
0
 49
-0.1
 74
0
  0
ENDTAB
  0
TABLE
  2
LAYER
  5
2
100
AcDbSymbolTable
 70
36
  0
LAYER
  5
10
100
AcDbSymbolTableRecord
100
AcDbLayerTableRecord
  2
0
 70
0
 62
7
  6
CONTINUOUS
370
-3
390
F
  0
LAYER
  5
1FA
100
AcDbSymbolTableRecord
100
AcDbLayerTableRecord
  2
DEFAULT_1
 70
0
 62
7
  6
CENTER
370
-3
390
F
  0
LAYER
  5
1FB
100
AcDbSymbolTableRecord
100
AcDbLayerTableRecord
  2
DEFAULT_2
 70
0
 62
8
  6
HIDDEN
370
-3
390
F
  0
LAYER
  5
1FC
100
AcDbSymbolTableRecord
100
AcDbLayerTableRecord
  2
DEFAULT_3
 70
0
 62
7
  6
PHANTOM
370
-3
390
F
  0
LAYER
  5
1FD
100
AcDbSymbolTableRecord
100
AcDbLayerTableRecord
  2
01_ALL_DTM_PLN
 70
0
 62
7
  6
CONTINUOUS
370
-3
390
F
  0
LAYER
  5
1FE
100
AcDbSymbolTableRecord
100
AcDbLayerTableRecord
  2
01__ASM_ALL_DTM_PLN
 70
0
 62
7
  6
CONTINUOUS
370
-3
390
F
  0
LAYER
  5
1FF
100
AcDbSymbolTableRecord
100
AcDbLayerTableRecord
  2
01__ASM_DEF_DTM_PLN
 70
0
 62
7
  6
CONTINUOUS
370
-3
390
F
  0
LAYER
  5
200
100
AcDbSymbolTableRecord
100
AcDbLayerTableRecord
  2
01___PRT_ALL_DTM_PLN
 70
0
 62
7
  6
CONTINUOUS
370
-3
390
F
  0
LAYER
  5
201
100
AcDbSymbolTableRecord
100
AcDbLayerTableRecord
  2
01___PRT_DEF_DTM_PLN
 70
0
 62
7
  6
CONTINUOUS
370
-3
390
F
  0
LAYER
  5
202
100
AcDbSymbolTableRecord
100
AcDbLayerTableRecord
  2
02_ALL_AXES
 70
0
 62
7
  6
CONTINUOUS
370
-3
390
F
  0
LAYER
  5
203
100
AcDbSymbolTableRecord
100
AcDbLayerTableRecord
  2
02__ASM_ALL_AXES
 70
0
 62
7
  6
CONTINUOUS
370
-3
390
F
  0
LAYER
  5
204
100
AcDbSymbolTableRecord
100
AcDbLayerTableRecord
  2
02___PRT_ALL_AXES
 70
0
 62
7
  6
CONTINUOUS
370
-3
390
F
  0
LAYER
  5
205
100
AcDbSymbolTableRecord
100
AcDbLayerTableRecord
  2
03_ALL_CURVES
 70
0
 62
7
  6
CONTINUOUS
370
-3
390
F
  0
LAYER
  5
206
100
AcDbSymbolTableRecord
100
AcDbLayerTableRecord
  2
03__ASM_ALL_CURVES
 70
0
 62
7
  6
CONTINUOUS
370
-3
390
F
  0
LAYER
  5
207
100
AcDbSymbolTableRecord
100
AcDbLayerTableRecord
  2
03___PRT_ALL_CURVES
 70
0
 62
7
  6
CONTINUOUS
370
-3
390
F
  0
LAYER
  5
208
100
AcDbSymbolTableRecord
100
AcDbLayerTableRecord
  2
04_ALL_DTM_PNT
 70
0
 62
7
  6
CONTINUOUS
370
-3
390
F
  0
LAYER
  5
209
100
AcDbSymbolTableRecord
100
AcDbLayerTableRecord
  2
04__ASM_ALL_DTM_PNT
 70
0
 62
7
  6
CONTINUOUS
370
-3
390
F
  0
LAYER
  5
20A
100
AcDbSymbolTableRecord
100
AcDbLayerTableRecord
  2
04___PRT_ALL_DTM_PNT
 70
0
 62
7
  6
CONTINUOUS
370
-3
390
F
  0
LAYER
  5
20B
100
AcDbSymbolTableRecord
100
AcDbLayerTableRecord
  2
05_ALL_DTM_CSYS
 70
0
 62
7
  6
CONTINUOUS
370
-3
390
F
  0
LAYER
  5
20C
100
AcDbSymbolTableRecord
100
AcDbLayerTableRecord
  2
05__ASM_ALL_DTM_CSYS
 70
0
 62
7
  6
CONTINUOUS
370
-3
390
F
  0
LAYER
  5
20D
100
AcDbSymbolTableRecord
100
AcDbLayerTableRecord
  2
05__ASM_DEF_DTM_CSYS
 70
0
 62
7
  6
CONTINUOUS
370
-3
390
F
  0
LAYER
  5
20E
100
AcDbSymbolTableRecord
100
AcDbLayerTableRecord
  2
05___PRT_ALL_DTM_CSYS
 70
0
 62
7
  6
CONTINUOUS
370
-3
390
F
  0
LAYER
  5
20F
100
AcDbSymbolTableRecord
100
AcDbLayerTableRecord
  2
05___PRT_DEF_DTM_CSYS
 70
0
 62
7
  6
CONTINUOUS
370
-3
390
F
  0
LAYER
  5
210
100
AcDbSymbolTableRecord
100
AcDbLayerTableRecord
  2
06_ALL_SURFS
 70
0
 62
7
  6
CONTINUOUS
370
-3
390
F
  0
LAYER
  5
211
100
AcDbSymbolTableRecord
100
AcDbLayerTableRecord
  2
06__ASM_ALL_SURFS
 70
0
 62
7
  6
CONTINUOUS
370
-3
390
F
  0
LAYER
  5
212
100
AcDbSymbolTableRecord
100
AcDbLayerTableRecord
  2
06___PRT_ALL_SURFS
 70
0
 62
7
  6
CONTINUOUS
370
-3
390
F
  0
LAYER
  5
213
100
AcDbSymbolTableRecord
100
AcDbLayerTableRecord
  2
07__ASM_ALL_SKELETONS
 70
0
 62
7
  6
CONTINUOUS
370
-3
390
F
  0
LAYER
  5
214
100
AcDbSymbolTableRecord
100
AcDbLayerTableRecord
  2
LAYER_AXIS
 70
0
 62
7
  6
CONTINUOUS
370
-3
390
F
  0
LAYER
  5
215
100
AcDbSymbolTableRecord
100
AcDbLayerTableRecord
  2
LAYER_CHAMFER_FEAT
 70
0
 62
7
  6
CONTINUOUS
370
-3
390
F
  0
LAYER
  5
216
100
AcDbSymbolTableRecord
100
AcDbLayerTableRecord
  2
LAYER_CUT_FEAT
 70
0
 62
7
  6
CONTINUOUS
370
-3
390
F
  0
LAYER
  5
217
100
AcDbSymbolTableRecord
100
AcDbLayerTableRecord
  2
LAYER_DATUM
 70
0
 62
7
  6
CONTINUOUS
370
-3
390
F
  0
LAYER
  5
218
100
AcDbSymbolTableRecord
100
AcDbLayerTableRecord
  2
LAYER_DIM
 70
0
 62
7
  6
CONTINUOUS
370
-3
390
F
  0
LAYER
  5
219
100
AcDbSymbolTableRecord
100
AcDbLayerTableRecord
  2
LAYER_FEATURE
 70
0
 62
7
  6
CONTINUOUS
370
-3
390
F
  0
LAYER
  5
21A
100
AcDbSymbolTableRecord
100
AcDbLayerTableRecord
  2
LAYER_GEOM_FEAT
 70
0
 62
7
  6
CONTINUOUS
370
-3
390
F
  0
LAYER
  5
21B
100
AcDbSymbolTableRecord
100
AcDbLayerTableRecord
  2
LAYER_NOGEOM_FEAT
 70
0
 62
7
  6
CONTINUOUS
370
-3
390
F
  0
LAYER
  5
21C
100
AcDbSymbolTableRecord
100
AcDbLayerTableRecord
  2
LAYER_PARAMETER_DIM
 70
0
 62
7
  6
CONTINUOUS
370
-3
390
F
  0
LAYER
  5
21D
100
AcDbSymbolTableRecord
100
AcDbLayerTableRecord
  2
LAYER_PROTRUSION_FEAT
 70
0
 62
7
  6
CONTINUOUS
370
-3
390
F
  0
LAYER
  5
21E
100
AcDbSymbolTableRecord
100
AcDbLayerTableRecord
  2
LAYER_QUILT
 70
0
 62
7
  6
CONTINUOUS
370
-3
390
F
  0
LAYER
  5
21F
100
AcDbSymbolTableRecord
100
AcDbLayerTableRecord
  2
LAYER_ROUND_FEAT
 70
0
 62
7
  6
CONTINUOUS
370
-3
390
F
  0
ENDTAB
  0
TABLE
  2
STYLE
  5
3
100
AcDbSymbolTable
 70
1
  0
STYLE
  5
11
100
AcDbSymbolTableRecord
100
AcDbTextStyleTableRecord
  2
STANDARD
 70
0
 40
0.0
 41
0.8
 50
0.0
 71
0
 42
0.2
  3
txt
  4

  0
STYLE
  5
220
100
AcDbSymbolTableRecord
100
AcDbTextStyleTableRecord
  2
TEXTSTYLE_1
 70
0
 40
0.0
 41
0.8
 50
0.0
 71
0
 42
0.2
  3
gdt
  4

  0
ENDTAB
  0
TABLE
  2
VIEW
  5
6
100
AcDbSymbolTable
 70
0
  0
ENDTAB
  0
TABLE
  2
UCS
  5
7
100
AcDbSymbolTable
 70
0
  0
ENDTAB
  0
TABLE
  2
APPID
  5
9
100
AcDbSymbolTable
 70
1
  0
APPID
  5
221
100
AcDbSymbolTableRecord
100
AcDbRegAppTableRecord
  2
ACAD
 70
0
  0
ENDTAB
  0
TABLE
  2
BLOCK_RECORD
  5
1
100
AcDbSymbolTable
 70
0
  0
BLOCK_RECORD
  5
222
100
AcDbSymbolTableRecord
100
AcDbBlockTableRecord
  2
*Model_Space
  0
BLOCK_RECORD
  5
223
100
AcDbSymbolTableRecord
100
AcDbBlockTableRecord
  2
*Paper_Space
  0
ENDTAB
  0
TABLE
  2
DIMSTYLE
  5
A
100
AcDbSymbolTable
 70
1
100
AcDbDimStyleTable
 71
0
  0
DIMSTYLE
105
224
100
AcDbSymbolTableRecord
100
AcDbDimStyleTableRecord
  2
STANDARD
 70
0
  3

  4

 40
1.0
 41
0.1875
 42
0.0625
 43
0.38
 44
0.125
 45
0.0
 46
0.0
 47
0.0001
 48
0.0001
140
0.15625
141
0.09
142
0.0
143
25.4
144
1.0
145
0.0
146
1.0
147
0.09
 71
0.0
 72
0.0
 73
1
 74
1
 75
0
 76
0
 77
0
 78
4
 79
1
170
0
171
3
172
0
173
0
174
0
175
0
176
0
177
0
178
0
270
2
179
4
271
4
272
4
273
2
274
2
275
0
280
0
281
0
282
0
283
1
284
4
285
0
286
0
287
3
288
0
340
11
278
46
  0
ENDTAB
  0
ENDSEC
  0
SECTION
  2
BLOCKS
  0
BLOCK
  5
20
100
AcDbEntity
  8
0
100
AcDbBlockBegin
  2
*Model_Space
 70
0
 10
0.0
 20
0.0
 30
0.0
  3
*Model_Space
  1

  0
ENDBLK
  5
21
100
AcDbEntity
  8
0
100
AcDbBlockEnd
  0
BLOCK
  5
1C
100
AcDbEntity
  8
0
100
AcDbBlockBegin
  2
*Paper_Space
 70
0
 10
0.0
 20
0.0
 30
0.0
  3
*Paper_Space
  1

  0
ENDBLK
  5
1D
100
AcDbEntity
  8
0
100
AcDbBlockEnd
  0
ENDSEC
  0
SECTION
  2
ENTITIES
  0
MTEXT
  5
225
100
AcDbEntity
  8
0
100
AcDbMText
 62
7
  6
CONTINUOUS
  7
STANDARD
 71
1
 72
1
 10
15.9560215477
 20
0.9479130325
 30
0.0
 11
1.0
 21
0.0
 31
0.0
 44
0.9
  1
SCALE: 1:0.250
 40
0.3
 41
3.36
  0
LINE
  5
226
100
AcDbEntity
  8
0
100
AcDbLine
 62
7
  6
CONTINUOUS
 10
0.0
 20
0.0
 11
0.0
 21
17.0
  0
LINE
  5
227
100
AcDbEntity
  8
0
100
AcDbLine
 62
7
  6
CONTINUOUS
 10
0.0
 20
0.0
 11
22.0
 21
0.0
  0
LINE
  5
228
100
AcDbEntity
  8
0
100
AcDbLine
 62
7
  6
CONTINUOUS
 10
0.0
 20
17.0
 11
22.0
 21
17.0
  0
LINE
  5
229
100
AcDbEntity
  8
0
100
AcDbLine
 62
7
  6
CONTINUOUS
 10
22.0
 20
0.0
 11
22.0
 21
17.0
  0
LINE
  5
22A
100
AcDbEntity
  8
LAYER_FEATURE
100
AcDbLine
 62
7
  6
CONTINUOUS
 10
7.0633672762
 20
4.1373698968
 11
7.0323089908
 21
4.1373698968
  0
LINE
  5
22B
100
AcDbEntity
  8
LAYER_FEATURE
100
AcDbLine
 62
7
  6
CONTINUOUS
 10
5.1973672762
 20
4.1373698968
 11
5.2284255616
 21
4.1373698968
  0
LINE
  5
22C
100
AcDbEntity
  8
02___PRT_ALL_AXES
100
AcDbLine
 62
7
  6
CONTINUOUS
 10
5.2478672762
 20
4.2179948968
 11
7.0128672762
 21
4.2179948968
  0
LINE
  5
22D
100
AcDbEntity
  8
LAYER_FEATURE
100
AcDbLine
 62
7
  6
CONTINUOUS
 10
5.1973672762
 20
6.9028698968
 11
5.1973672762
 21
4.1373698968
  0
LINE
  5
22E
100
AcDbEntity
  8
LAYER_FEATURE
100
AcDbLine
 62
7
  6
CONTINUOUS
 10
5.2284255616
 20
6.9028698968
 11
5.2284255616
 21
4.1373698968
  0
LINE
  5
22F
100
AcDbEntity
  8
LAYER_FEATURE
100
AcDbLine
 62
7
  6
CONTINUOUS
 10
5.2478672762
 20
6.8303124301
 11
5.2478672762
 21
4.2099273634
  0
LINE
  5
230
100
AcDbEntity
  8
LAYER_FEATURE
100
AcDbLine
 62
7
  6
CONTINUOUS
 10
5.2284255616
 20
4.1373698968
 11
5.2478672762
 21
4.2099273634
  0
LINE
  5
231
100
AcDbEntity
  8
LAYER_FEATURE
100
AcDbLine
 62
7
  6
CONTINUOUS
 10
5.2284255616
 20
6.9028698968
 11
5.2478672762
 21
6.8303124301
  0
LINE
  5
232
100
AcDbEntity
  8
LAYER_FEATURE
100
AcDbLine
 62
7
  6
CONTINUOUS
 10
7.0323089908
 20
6.9028698968
 11
7.0128672762
 21
6.8303124301
  0
LINE
  5
233
100
AcDbEntity
  8
LAYER_FEATURE
100
AcDbLine
 62
7
  6
CONTINUOUS
 10
7.0323089908
 20
4.1373698968
 11
7.0128672762
 21
4.2099273634
  0
LINE
  5
234
100
AcDbEntity
  8
LAYER_FEATURE
100
AcDbLine
 62
7
  6
CONTINUOUS
 10
7.0128672762
 20
6.8303124301
 11
7.0128672762
 21
4.2099273634
  0
LINE
  5
235
100
AcDbEntity
  8
LAYER_FEATURE
100
AcDbLine
 62
7
  6
CONTINUOUS
 10
7.0323089908
 20
6.9028698968
 11
7.0323089908
 21
4.1373698968
  0
LINE
  5
236
100
AcDbEntity
  8
LAYER_FEATURE
100
AcDbLine
 62
7
  6
CONTINUOUS
 10
7.0633672762
 20
6.9028698968
 11
7.0633672762
 21
4.1373698968
  0
LINE
  5
237
100
AcDbEntity
  8
LAYER_FEATURE
100
AcDbLine
 62
7
  6
CONTINUOUS
 10
5.2478672762
 20
6.7397571405
 11
7.0128672762
 21
6.7397571405
  0
LINE
  5
238
100
AcDbEntity
  8
LAYER_CUT_FEAT
100
AcDbLine
 62
7
  6
CONTINUOUS
 10
5.2478672762
 20
6.7402058606
 11
7.0128672762
 21
6.7402058606
  0
LINE
  5
239
100
AcDbEntity
  8
LAYER_FEATURE
100
AcDbLine
 62
7
  6
CONTINUOUS
 10
5.2478672762
 20
6.7749078236
 11
7.0128672762
 21
6.7749078236
  0
LINE
  5
23A
100
AcDbEntity
  8
LAYER_FEATURE
100
AcDbLine
 62
7
  6
CONTINUOUS
 10
5.2478672762
 20
6.7807498167
 11
7.0128672762
 21
6.7807498167
  0
LINE
  5
23B
100
AcDbEntity
  8
LAYER_CUT_FEAT
100
AcDbLine
 62
7
  6
CONTINUOUS
 10
5.2478672762
 20
6.7809501624
 11
7.0128672762
 21
6.7809501624
  0
LINE
  5
23C
100
AcDbEntity
  8
LAYER_FEATURE
100
AcDbLine
 62
7
  6
CONTINUOUS
 10
5.2478672762
 20
6.8043997716
 11
7.0128672762
 21
6.8043997716
  0
LINE
  5
23D
100
AcDbEntity
  8
LAYER_FEATURE
100
AcDbLine
 62
7
  6
CONTINUOUS
 10
5.2478672762
 20
6.8079307678
 11
7.0128672762
 21
6.8079307678
  0
LINE
  5
23E
100
AcDbEntity
  8
LAYER_CUT_FEAT
100
AcDbLine
 62
7
  6
CONTINUOUS
 10
5.2478672762
 20
6.8079809918
 11
7.0128672762
 21
6.8079809918
  0
LINE
  5
23F
100
AcDbEntity
  8
LAYER_FEATURE
100
AcDbLine
 62
7
  6
CONTINUOUS
 10
5.2478672762
 20
6.8198208805
 11
7.0128672762
 21
6.8198208805
  0
LINE
  5
240
100
AcDbEntity
  8
LAYER_FEATURE
100
AcDbLine
 62
7
  6
CONTINUOUS
 10
5.2478672762
 20
6.8210021935
 11
7.0128672762
 21
6.8210021935
  0
LINE
  5
241
100
AcDbEntity
  8
LAYER_FEATURE
100
AcDbLine
 62
7
  6
CONTINUOUS
 10
7.0633672762
 20
6.9028698968
 11
7.0323089908
 21
6.9028698968
  0
LINE
  5
242
100
AcDbEntity
  8
LAYER_FEATURE
100
AcDbLine
 62
7
  6
CONTINUOUS
 10
5.1973672762
 20
6.9028698968
 11
5.2284255616
 21
6.9028698968
  0
LINE
  5
243
100
AcDbEntity
  8
LAYER_FEATURE
100
AcDbLine
 62
7
  6
CONTINUOUS
 10
5.1378720839
 20
11.2172977814
 11
5.1689303693
 21
11.2172977814
  0
LINE
  5
244
100
AcDbEntity
  8
LAYER_FEATURE
100
AcDbLine
 62
7
  6
CONTINUOUS
 10
6.9728137984
 20
11.2172977814
 11
7.0038720839
 21
11.2172977814
  0
LINE
  5
245
100
AcDbEntity
  8
02___PRT_ALL_AXES
100
AcDbLine
 62
7
  6
CONTINUOUS
 10
5.1883720839
 20
11.2979227814
 11
6.9533720839
 21
11.2979227814
  0
LINE
  5
246
100
AcDbEntity
  8
LAYER_FEATURE
100
AcDbLine
 62
7
  6
CONTINUOUS
 10
5.1378720839
 20
11.2172977814
 11
5.1378720839
 21
13.9827977814
  0
LINE
  5
247
100
AcDbEntity
  8
LAYER_FEATURE
100
AcDbLine
 62
7
  6
CONTINUOUS
 10
5.1689303693
 20
11.2172977814
 11
5.1689303693
 21
13.9827977814
  0
LINE
  5
248
100
AcDbEntity
  8
LAYER_FEATURE
100
AcDbLine
 62
7
  6
CONTINUOUS
 10
5.1883720839
 20
11.2898553425
 11
5.1883720839
 21
13.9102402202
  0
LINE
  5
249
100
AcDbEntity
  8
LAYER_FEATURE
100
AcDbLine
 62
7
  6
CONTINUOUS
 10
5.1689303693
 20
11.2172977814
 11
5.1883720839
 21
11.289855248
  0
LINE
  5
24A
100
AcDbEntity
  8
LAYER_FEATURE
100
AcDbLine
 62
7
  6
CONTINUOUS
 10
5.1883720839
 20
12.1439617046
 11
6.9533720839
 21
12.1439617046
  0
LINE
  5
24B
100
AcDbEntity
  8
LAYER_FEATURE
100
AcDbLine
 62
7
  6
CONTINUOUS
 10
5.1689303693
 20
13.9827977814
 11
5.1883720839
 21
13.9102403147
  0
LINE
  5
24C
100
AcDbEntity
  8
LAYER_FEATURE
100
AcDbLine
 62
7
  6
CONTINUOUS
 10
6.9533720839
 20
12.2014111452
 11
5.1883720839
 21
12.2014111452
  0
LINE
  5
24D
100
AcDbEntity
  8
LAYER_FEATURE
100
AcDbLine
 62
7
  6
CONTINUOUS
 10
6.9533720839
 20
12.2299428407
 11
5.1883720839
 21
12.2299428407
  0
LINE
  5
24E
100
AcDbEntity
  8
LAYER_FEATURE
100
AcDbLine
 62
7
  6
CONTINUOUS
 10
5.1883720839
 20
12.2521443834
 11
6.9533720839
 21
12.2521443834
  0
LINE
  5
24F
100
AcDbEntity
  8
LAYER_FEATURE
100
AcDbLine
 62
7
  6
CONTINUOUS
 10
5.1883720839
 20
12.2739469987
 11
6.9533720839
 21
12.2739469987
  0
LINE
  5
250
100
AcDbEntity
  8
LAYER_FEATURE
100
AcDbLine
 62
7
  6
CONTINUOUS
 10
6.9533720839
 20
12.3267646107
 11
5.1883720839
 21
12.3267646107
  0
LINE
  5
251
100
AcDbEntity
  8
LAYER_FEATURE
100
AcDbLine
 62
7
  6
CONTINUOUS
 10
6.9533720839
 20
12.3561090388
 11
5.1883720839
 21
12.3561090388
  0
LINE
  5
252
100
AcDbEntity
  8
LAYER_FEATURE
100
AcDbLine
 62
7
  6
CONTINUOUS
 10
5.1883720839
 20
12.3852112883
 11
6.9533720839
 21
12.3852112883
  0
LINE
  5
253
100
AcDbEntity
  8
LAYER_FEATURE
100
AcDbLine
 62
7
  6
CONTINUOUS
 10
5.1883720839
 20
12.4075051212
 11
6.9533720839
 21
12.4075051212
  0
LINE
  5
254
100
AcDbEntity
  8
LAYER_FEATURE
100
AcDbLine
 62
7
  6
CONTINUOUS
 10
6.9533720839
 20
12.4551122239
 11
5.1883720839
 21
12.4551122239
  0
LINE
  5
255
100
AcDbEntity
  8
LAYER_FEATURE
100
AcDbLine
 62
7
  6
CONTINUOUS
 10
6.9533720839
 20
12.4849478808
 11
5.1883720839
 21
12.4849478808
  0
LINE
  5
256
100
AcDbEntity
  8
LAYER_FEATURE
100
AcDbLine
 62
7
  6
CONTINUOUS
 10
5.1883720839
 20
12.5206319868
 11
6.9533720839
 21
12.5206319868
  0
LINE
  5
257
100
AcDbEntity
  8
LAYER_FEATURE
100
AcDbLine
 62
7
  6
CONTINUOUS
 10
5.1883720839
 20
12.5431727814
 11
6.9533720839
 21
12.5431727814
  0
LINE
  5
258
100
AcDbEntity
  8
LAYER_FEATURE
100
AcDbLine
 62
7
  6
CONTINUOUS
 10
6.9533720839
 20
12.5850477814
 11
5.1883720839
 21
12.5850477814
  0
LINE
  5
259
100
AcDbEntity
  8
LAYER_FEATURE
100
AcDbLine
 62
7
  6
CONTINUOUS
 10
6.9533720839
 20
12.6150477814
 11
5.1883720839
 21
12.6150477814
  0
LINE
  5
25A
100
AcDbEntity
  8
LAYER_FEATURE
100
AcDbLine
 62
7
  6
CONTINUOUS
 10
5.1883720839
 20
12.6569227814
 11
6.9533720839
 21
12.6569227814
  0
LINE
  5
25B
100
AcDbEntity
  8
LAYER_FEATURE
100
AcDbLine
 62
7
  6
CONTINUOUS
 10
6.9533720839
 20
13.9102403147
 11
6.9728137984
 21
13.9827977814
  0
LINE
  5
25C
100
AcDbEntity
  8
LAYER_FEATURE
100
AcDbLine
 62
7
  6
CONTINUOUS
 10
6.9533720839
 20
11.289855248
 11
6.9728137984
 21
11.2172977814
  0
LINE
  5
25D
100
AcDbEntity
  8
LAYER_FEATURE
100
AcDbLine
 62
7
  6
CONTINUOUS
 10
6.9533720839
 20
11.289855248
 11
6.9533720839
 21
13.9102403147
  0
LINE
  5
25E
100
AcDbEntity
  8
LAYER_FEATURE
100
AcDbLine
 62
7
  6
CONTINUOUS
 10
6.9728137984
 20
11.2172977814
 11
6.9728137984
 21
13.9827977814
  0
LINE
  5
25F
100
AcDbEntity
  8
LAYER_FEATURE
100
AcDbLine
 62
7
  6
CONTINUOUS
 10
7.0038720839
 20
11.2172977814
 11
7.0038720839
 21
13.9827977814
  0
LINE
  5
260
100
AcDbEntity
  8
02___PRT_ALL_AXES
100
AcDbLine
 62
7
  6
CONTINUOUS
 10
5.1883720839
 20
13.9021727814
 11
6.9533720839
 21
13.9021727814
  0
LINE
  5
261
100
AcDbEntity
  8
LAYER_FEATURE
100
AcDbLine
 62
7
  6
CONTINUOUS
 10
5.1378720839
 20
13.9827977814
 11
5.1689303693
 21
13.9827977814
  0
LINE
  5
262
100
AcDbEntity
  8
LAYER_FEATURE
100
AcDbLine
 62
7
  6
CONTINUOUS
 10
6.9728137984
 20
13.9827977814
 11
7.0038720839
 21
13.9827977814
  0
LINE
  5
263
100
AcDbEntity
  8
LAYER_FEATURE
100
AcDbLine
 62
7
  6
CONTINUOUS
 10
14.202369392
 20
12.9310078364
 11
14.206448061
 21
12.9591201226
  0
LINE
  5
264
100
AcDbEntity
  8
LAYER_FEATURE
100
AcDbLine
 62
7
  6
CONTINUOUS
 10
14.2219715536
 20
13.0510898438
 11
14.2271721983
 21
13.0779533233
  0
LINE
  5
265
100
AcDbEntity
  8
LAYER_FEATURE
100
AcDbLine
 62
7
  6
CONTINUOUS
 10
14.2463543068
 20
13.1652523773
 11
14.2526199478
 21
13.1905727282
  0
LINE
  5
266
100
AcDbEntity
  8
LAYER_FEATURE
100
AcDbLine
 62
7
  6
CONTINUOUS
 10
14.277141472
 20
13.2783638068
 11
14.2825124987
 21
13.2957444556
  0
LINE
  5
267
100
AcDbEntity
  8
LAYER_FEATURE
100
AcDbLine
 62
7
  6
CONTINUOUS
 10
14.6117942495
 20
11.1280549929
 11
14.6404008247
 21
11.1280549929
  0
LINE
  5
268
100
AcDbEntity
  8
LAYER_FEATURE
100
AcDbLine
 62
7
  6
CONTINUOUS
 10
16.301887489
 20
11.1280549929
 11
16.3304940643
 21
11.1280549929
  0
LINE
  5
269
100
AcDbEntity
  8
02___PRT_ALL_AXES
100
AcDbLine
 62
7
  6
CONTINUOUS
 10
14.6583078297
 20
11.2086799929
 11
16.1210368632
 21
11.2086799929
  0
LINE
  5
26A
100
AcDbEntity
  8
02___PRT_ALL_AXES
100
AcDbLine
 62
7
  6
CONTINUOUS
 10
16.2852502294
 20
11.3486395336
 11
16.2551266034
 21
11.3547198088
  0
LINE
  5
26B
100
AcDbEntity
  8
LAYER_FEATURE
100
AcDbLine
 62
7
  6
CONTINUOUS
 10
14.2006578822
 20
12.9886706156
 11
14.1922704129
 21
13.0082935593
  0
LINE
  5
26C
100
AcDbEntity
  8
LAYER_FEATURE
100
AcDbLine
 62
7
  6
CONTINUOUS
 10
14.2226166004
 20
13.1088961472
 11
14.2150738364
 21
13.1306629759
  0
LINE
  5
26D
100
AcDbEntity
  8
LAYER_FEATURE
100
AcDbLine
 62
7
  6
CONTINUOUS
 10
14.2493488429
 20
13.222568867
 11
14.2427334243
 21
13.2462410988
  0
LINE
  5
26E
100
AcDbEntity
  8
LAYER_FEATURE
100
AcDbLine
 62
7
  6
CONTINUOUS
 10
14.2805617257
 20
13.3284433528
 11
14.2749461324
 21
13.3537616297
  0
LINE
  5
26F
100
AcDbEntity
  8
LAYER_FEATURE
100
AcDbLine
 62
7
  6
CONTINUOUS
 10
14.1758643285
 20
12.9116791642
 11
15.7866276618
 21
12.9116791642
  0
LINE
  5
270
100
AcDbEntity
  8
LAYER_FEATURE
100
AcDbLine
 62
7
  6
CONTINUOUS
 10
14.1791184502
 20
12.9176434624
 11
14.1904612096
 21
12.9183899002
  0
LINE
  5
271
100
AcDbEntity
  8
LAYER_FEATURE
100
AcDbLine
 62
7
  6
CONTINUOUS
 10
15.7889372129
 20
12.9310078364
 11
14.202369392
 21
12.9310078364
  0
LINE
  5
272
100
AcDbEntity
  8
LAYER_FEATURE
100
AcDbLine
 62
7
  6
CONTINUOUS
 10
15.7926137071
 20
12.9591201226
 11
14.206448061
 21
12.9591201226
  0
LINE
  5
273
100
AcDbEntity
  8
LAYER_FEATURE
100
AcDbLine
 62
7
  6
CONTINUOUS
 10
14.1913292818
 20
13.0182715827
 11
15.8010778417
 21
13.0182715827
  0
LINE
  5
274
100
AcDbEntity
  8
LAYER_FEATURE
100
AcDbLine
 62
7
  6
CONTINUOUS
 10
14.1948249082
 20
13.0389815992
 11
15.8043172267
 21
13.0389815992
  0
LINE
  5
275
100
AcDbEntity
  8
LAYER_CUT_FEAT
100
AcDbLine
 62
7
  6
CONTINUOUS
 10
14.1980218751
 20
13.0440684121
 11
15.805167837
 21
13.0440684121
  0
LINE
  5
276
100
AcDbEntity
  8
LAYER_FEATURE
100
AcDbLine
 62
7
  6
CONTINUOUS
 10
15.8063419518
 20
13.0510898438
 11
14.2219715536
 21
13.0510898438
  0
LINE
  5
277
100
AcDbEntity
  8
LAYER_FEATURE
100
AcDbLine
 62
7
  6
CONTINUOUS
 10
15.8108340282
 20
13.0779533233
 11
14.2271721983
 21
13.0779533233
  0
LINE
  5
278
100
AcDbEntity
  8
LAYER_FEATURE
100
AcDbLine
 62
7
  6
CONTINUOUS
 10
14.2145440194
 20
13.1408389589
 11
15.8226281044
 21
13.1408389589
  0
LINE
  5
279
100
AcDbEntity
  8
LAYER_FEATURE
100
AcDbLine
 62
7
  6
CONTINUOUS
 10
14.2188635038
 20
13.1604972206
 11
15.8266838202
 21
13.1604972206
  0
LINE
  5
27A
100
AcDbEntity
  8
LAYER_CUT_FEAT
100
AcDbLine
 62
7
  6
CONTINUOUS
 10
14.2218768262
 20
13.1647482551
 11
15.8275608554
 21
13.1647482551
  0
LINE
  5
27B
100
AcDbEntity
  8
LAYER_FEATURE
100
AcDbLine
 62
7
  6
CONTINUOUS
 10
15.8276648614
 20
13.1652523773
 11
14.2463543068
 21
13.1652523773
  0
LINE
  5
27C
100
AcDbEntity
  8
LAYER_FEATURE
100
AcDbLine
 62
7
  6
CONTINUOUS
 10
15.8330477695
 20
13.1905727282
 11
14.2526199478
 21
13.1905727282
  0
LINE
  5
27D
100
AcDbEntity
  8
LAYER_FEATURE
100
AcDbLine
 62
7
  6
CONTINUOUS
 10
14.2426207261
 20
13.2565035512
 11
15.8485641802
 21
13.2565035512
  0
LINE
  5
27E
100
AcDbEntity
  8
LAYER_FEATURE
100
AcDbLine
 62
7
  6
CONTINUOUS
 10
14.2477167435
 20
13.2748946781
 11
15.8531425454
 21
13.2748946781
  0
LINE
  5
27F
100
AcDbEntity
  8
0
100
AcDbLine
 62
7
  6
CONTINUOUS
 10
14.2505134067
 20
13.2783638068
 11
15.854006165
 21
13.2783638068
  0
LINE
  5
280
100
AcDbEntity
  8
LAYER_FEATURE
100
AcDbLine
 62
7
  6
CONTINUOUS
 10
15.8587136318
 20
13.2957444556
 11
14.2825124987
 21
13.2957444556
  0
LINE
  5
281
100
AcDbEntity
  8
LAYER_FEATURE
100
AcDbLine
 62
7
  6
CONTINUOUS
 10
14.2752517877
 20
13.3639981141
 11
15.8782129994
 21
13.3639981141
  0
LINE
  5
282
100
AcDbEntity
  8
02___PRT_ALL_AXES
100
AcDbLine
 62
7
  6
CONTINUOUS
 10
16.2852502294
 20
13.6729704522
 11
16.2552592281
 21
13.6669169465
  0
LINE
  5
283
100
AcDbEntity
  8
02___PRT_ALL_AXES
100
AcDbLine
 62
7
  6
CONTINUOUS
 10
14.6583078297
 20
13.8129299929
 11
16.1210050686
 21
13.8129299929
  0
LINE
  5
284
100
AcDbEntity
  8
LAYER_FEATURE
100
AcDbLine
 62
7
  6
CONTINUOUS
 10
14.6117942495
 20
13.8935549929
 11
14.6404008247
 21
13.8935549929
  0
LINE
  5
285
100
AcDbEntity
  8
LAYER_FEATURE
100
AcDbLine
 62
7
  6
CONTINUOUS
 10
16.301887489
 20
13.8935549929
 11
16.3304940643
 21
13.8935549929
  0
CIRCLE
  5
286
100
AcDbEntity
  8
LAYER_FEATURE
100
AcDbCircle
 62
7
  6
CONTINUOUS
 10
15.5603552569
 20
5.4606247044
 40
1.38275
  0
CIRCLE
  5
287
100
AcDbEntity
  8
LAYER_FEATURE
100
AcDbCircle
 62
7
  6
CONTINUOUS
 10
15.5603552569
 20
5.4606247044
 40
1.3101925334
  0
CIRCLE
  5
288
100
AcDbEntity
  8
02___PRT_ALL_AXES
100
AcDbCircle
 62
7
  6
CONTINUOUS
 10
15.5603552569
 20
5.4606247044
 40
1.16575
  0
CIRCLE
  5
289
100
AcDbEntity
  8
LAYER_CHAMFER_FEAT
100
AcDbCircle
 62
7
  6
CONTINUOUS
 10
15.5603552569
 20
5.4606247044
 40
1.0775
  0
CIRCLE
  5
28A
100
AcDbEntity
  8
LAYER_CHAMFER_FEAT
100
AcDbCircle
 62
7
  6
CONTINUOUS
 10
15.5603552569
 20
5.4606247044
 40
1.0625
  0
ARC
  5
28B
100
AcDbEntity
  8
02___PRT_ALL_AXES
100
AcDbCircle
 62
7
  6
CONTINUOUS
 10
15.5603552569
 20
5.4606247044
 40
0.796875
100
AcDbArc
 50
151.5004358716
 51
218.4995641284
  0
ARC
  5
28C
100
AcDbEntity
  8
02___PRT_ALL_AXES
100
AcDbCircle
 62
7
  6
CONTINUOUS
 10
15.5603552569
 20
5.4606247044
 40
0.796875
100
AcDbArc
 50
231.5004358716
 51
258.4995641284
  0
ARC
  5
28D
100
AcDbEntity
  8
02___PRT_ALL_AXES
100
AcDbCircle
 62
7
  6
CONTINUOUS
 10
15.5603552569
 20
5.4606247044
 40
0.796875
100
AcDbArc
 50
271.5004358716
 51
10.4995641284
  0
ARC
  5
28E
100
AcDbEntity
  8
02___PRT_ALL_AXES
100
AcDbCircle
 62
7
  6
CONTINUOUS
 10
15.5603552569
 20
5.4606247044
 40
0.796875
100
AcDbArc
 50
23.5004358716
 51
50.4995641284
  0
ARC
  5
28F
100
AcDbEntity
  8
02___PRT_ALL_AXES
100
AcDbCircle
 62
7
  6
CONTINUOUS
 10
15.5603552569
 20
5.4606247044
 40
0.796875
100
AcDbArc
 50
63.5004358716
 51
138.4995641284
  0
ARC
  5
290
100
AcDbEntity
  8
02___PRT_ALL_AXES
100
AcDbCircle
 62
7
  6
CONTINUOUS
 10
15.5603552569
 20
5.4606247044
 40
0.7509855297
100
AcDbArc
 50
50.0091835385
 51
63.9908164615
  0
ARC
  5
291
100
AcDbEntity
  8
02___PRT_ALL_AXES
100
AcDbCircle
 62
7
  6
CONTINUOUS
 10
15.5603552569
 20
5.4606247044
 40
0.7509855297
100
AcDbArc
 50
218.0091835385
 51
231.9908164615
  0
ARC
  5
292
100
AcDbEntity
  8
LAYER_CUT_FEAT
100
AcDbCircle
 62
7
  6
CONTINUOUS
 10
15.5603552569
 20
5.4606247044
 40
0.7182073366
100
AcDbArc
 50
151.2207914583
 51
258.7792085417
  0
ARC
  5
293
100
AcDbEntity
  8
LAYER_CUT_FEAT
100
AcDbCircle
 62
7
  6
CONTINUOUS
 10
15.5603552569
 20
5.4606247044
 40
0.7182073366
100
AcDbArc
 50
271.2207914583
 51
10.7792085417
  0
ARC
  5
294
100
AcDbEntity
  8
LAYER_CUT_FEAT
100
AcDbCircle
 62
7
  6
CONTINUOUS
 10
15.5603552569
 20
5.4606247044
 40
0.7182073366
100
AcDbArc
 50
23.2207914583
 51
138.7792085417
  0
ARC
  5
295
100
AcDbEntity
  8
02___PRT_ALL_AXES
100
AcDbCircle
 62
7
  6
CONTINUOUS
 10
15.9776849175
 20
6.1032560271
 40
0.09375
100
AcDbArc
 50
314.1515045834
 51
159.8484954166
  0
ARC
  5
296
100
AcDbEntity
  8
02___PRT_ALL_AXES
100
AcDbCircle
 62
7
  6
CONTINUOUS
 10
14.932680003
 20
5.9001276488
 40
0.09375
100
AcDbArc
 50
70.784511168
 51
219.215488832
  0
ARC
  5
297
100
AcDbEntity
  8
02___PRT_ALL_AXES
100
AcDbCircle
 62
7
  6
CONTINUOUS
 10
16.2931237762
 20
5.6846545232
 40
0.09375
100
AcDbArc
 50
302.784511168
 51
91.215488832
  0
ARC
  5
298
100
AcDbEntity
  8
02___PRT_ALL_AXES
100
AcDbCircle
 62
7
  6
CONTINUOUS
 10
15.0185346859
 20
4.9188041334
 40
0.09375
100
AcDbArc
 50
122.1515045834
 51
327.8484954166
  0
ARC
  5
299
100
AcDbEntity
  8
LAYER_CUT_FEAT
100
AcDbCircle
 62
7
  6
CONTINUOUS
 10
16.2931237762
 20
5.6846545232
 40
0.09375
100
AcDbArc
 50
253.1124619419
 51
302.784511168
  0
ARC
  5
29A
100
AcDbEntity
  8
LAYER_CUT_FEAT
100
AcDbCircle
 62
7
  6
CONTINUOUS
 10
16.2931237762
 20
5.6846545232
 40
0.09375
100
AcDbArc
 50
91.215488832
 51
140.8875380581
  0
ARC
  5
29B
100
AcDbEntity
  8
LAYER_CUT_FEAT
100
AcDbCircle
 62
7
  6
CONTINUOUS
 10
15.4935721691
 20
4.697290517
 40
0.09375
100
AcDbArc
 50
141.1124619419
 51
28.8875380581
  0
ARC
  5
29C
100
AcDbEntity
  8
LAYER_CUT_FEAT
100
AcDbCircle
 62
7
  6
CONTINUOUS
 10
14.932680003
 20
5.9001276488
 40
0.09375
100
AcDbArc
 50
21.1124619419
 51
70.784511168
  0
ARC
  5
29D
100
AcDbEntity
  8
LAYER_CUT_FEAT
100
AcDbCircle
 62
7
  6
CONTINUOUS
 10
14.932680003
 20
5.9001276488
 40
0.09375
100
AcDbArc
 50
219.215488832
 51
268.8875380581
  0
ARC
  5
29E
100
AcDbEntity
  8
LAYER_CUT_FEAT
100
AcDbCircle
 62
7
  6
CONTINUOUS
 10
16.8125294615
 20
33.0295901833
 40
21.1431209307
100
AcDbArc
 50
267.7278097209
 51
267.879206299
  0
ARC
  5
29F
100
AcDbEntity
  8
LAYER_CUT_FEAT
100
AcDbCircle
 62
7
  6
CONTINUOUS
 10
14.8459626559
 20
-5.762628628
 40
17.8372308345
100
AcDbArc
 50
86.0380569207
 51
86.4726171881
  0
ARC
  5
2A0
100
AcDbEntity
  8
LAYER_FEATURE
100
AcDbCircle
 62
7
  6
CONTINUOUS
 10
16.8452255897
 20
12.5809726555
 40
2.6896832462
100
AcDbArc
 50
170.1956914865
 51
170.6430987534
  0
ARC
  5
2A1
100
AcDbEntity
  8
LAYER_FEATURE
100
AcDbCircle
 62
7
  6
CONTINUOUS
 10
16.5276074928
 20
12.6428961945
 40
2.366053598
100
AcDbArc
 50
167.363709777
 51
167.8511072488
  0
ARC
  5
2A2
100
AcDbEntity
  8
LAYER_FEATURE
100
AcDbCircle
 62
7
  6
CONTINUOUS
 10
16.1879486242
 20
12.7273721221
 40
2.0160061261
100
AcDbArc
 50
164.2412312552
 51
164.7836118345
  0
ARC
  5
2A3
100
AcDbEntity
  8
LAYER_CHAMFER_FEAT
100
AcDbCircle
 62
7
  6
CONTINUOUS
 10
16.4599783179
 20
11.8211808119
 40
0.4268254231
100
AcDbArc
 50
220.8000905475
 51
222.1837959125
  0
ARC
  5
2A4
100
AcDbEntity
  8
LAYER_CHAMFER_FEAT
100
AcDbCircle
 62
7
  6
CONTINUOUS
 10
16.4547896676
 20
13.2050466039
 40
0.4198800029
100
AcDbArc
 50
137.7947934255
 51
138.8444031603
  0
ARC
  5
2A5
100
AcDbEntity
  8
02___PRT_ALL_AXES
100
AcDbCircle
 62
7
  6
CONTINUOUS
 10
16.3210809528
 20
11.5255176442
 40
0.1804707842
100
AcDbArc
 50
258.5483874476
 51
267.3022641118
  0
ARC
  5
2A6
100
AcDbEntity
  8
02___PRT_ALL_AXES
100
AcDbCircle
 62
7
  6
CONTINUOUS
 10
16.3210809383
 20
13.4960925149
 40
0.180470611
100
AcDbArc
 50
92.6978034059
 51
101.4516189887
  0
ARC
  5
2A7
100
AcDbEntity
  8
LAYER_FEATURE
100
AcDbCircle
 62
7
  6
CONTINUOUS
 10
16.2838567739
 20
13.4976844822
 40
0.1787498283
100
AcDbArc
 50
84.2283175111
 51
85.239708148
  0
ARC
  5
2A8
100
AcDbEntity
  8
LAYER_FEATURE
100
AcDbCircle
 62
7
  6
CONTINUOUS
 10
16.283885393
 20
11.5236141541
 40
0.1784371785
100
AcDbArc
 50
274.2963299788
 51
275.767297552
  0
ARC
  5
2A9
100
AcDbEntity
  8
LAYER_FEATURE
100
AcDbCircle
 62
7
  6
CONTINUOUS
 10
14.2236757234
 20
13.1797275092
 40
0.0269044158
100
AcDbArc
 50
326.0881515559
 51
327.4510011211
  0
SPLINE
  5
2AA
100
AcDbEntity
  8
02___PRT_ALL_AXES
100
AcDbSpline
 62
7
  6
CONTINUOUS
 70
0
 71
3
 72
33
 73
29
 74
0
 42
0.0000001
 43
0.0000001
 44
0.0000000001
 40
0.0
 40
0.0
 40
0.0
 40
0.0
 40
0.0884936465
 40
0.1736241706
 40
0.2552303571
 40
0.3331775743
 40
0.4073634538
 40
0.4430269857
 40
0.477729189
 40
0.511468755
 40
0.5442475718
 40
0.5760710362
 40
0.6069483063
 40
0.636892661
 40
0.6659219155
 40
0.694058757
 40
0.7213311618
 40
0.7477728694
 40
0.773423747
 40
0.8225261112
 40
0.8461103409
 40
0.8691309903
 40
0.8916624245
 40
0.9137856043
 40
0.9355874018
 40
0.9571596563
 40
0.9785979256
 40
1.0
 40
1.0
 40
1.0
 40
1.0
 10
16.6764254799
 20
11.7861631724
 30
0.0
 10
16.6711251099
 20
11.769011169
 30
0.0
 10
16.6601766076
 20
11.7355250795
 30
0.0
 10
16.6423355416
 20
11.6869064186
 30
0.0
 10
16.6234400472
 20
11.6409907208
 30
0.0
 10
16.6035521495
 20
11.5979290811
 30
0.0
 10
16.5859813629
 20
11.5641063296
 30
0.0
 10
16.5714529398
 20
11.5386302552
 30
0.0
 10
16.5604933736
 20
11.5205738074
 30
0.0
 10
16.5493364953
 20
11.5033314738
 30
0.0
 10
16.5379912426
 20
11.486917306
 30
0.0
 10
16.526466868
 20
11.4713447413
 30
0.0
 10
16.5147726784
 20
11.4566265307
 30
0.0
 10
16.5029180801
 20
11.4427747484
 30
0.0
 10
16.4909126418
 20
11.4298007613
 30
0.0
 10
16.478765895
 20
11.4177151992
 30
0.0
 10
16.4664878032
 20
11.4065282672
 30
0.0
 10
16.4540871285
 20
11.3962486131
 30
0.0
 10
16.4376463845
 20
11.3839455197
 30
0.0
 10
16.4207482061
 20
11.3732484603
 30
0.0
 10
16.4034684655
 20
11.3643732471
 30
0.0
 10
16.3906091962
 20
11.3587495121
 30
0.0
 10
16.3776895356
 20
11.3540759039
 30
0.0
 10
16.3647198102
 20
11.3503567064
 30
0.0
 10
16.3517112877
 20
11.3475958302
 30
0.0
 10
16.3386750224
 20
11.3457961976
 30
0.0
 10
16.3256234967
 20
11.3449596867
 30
0.0
 10
16.3169237737
 20
11.3450447801
 30
0.0
 10
16.3125867383
 20
11.3452468693
 30
0.0
  0
SPLINE
  5
2AB
100
AcDbEntity
  8
LAYER_CUT_FEAT
100
AcDbSpline
 62
7
  6
CONTINUOUS
 70
0
 71
3
 72
15
 73
11
 74
0
 42
0.0000001
 43
0.0000001
 44
0.0000000001
 40
0.0
 40
0.0
 40
0.0
 40
0.0
 40
0.1524452277
 40
0.2953097684
 40
0.4290966546
 40
0.5545986904
 40
0.6728888389
 40
0.7853662881
 40
0.8937452513
 40
1.0
 40
1.0
 40
1.0
 40
1.0
 10
16.0300990708
 20
11.9009516712
 30
0.0
 10
16.0307288667
 20
11.9001044089
 30
0.0
 10
16.0320051333
 20
11.8985036623
 30
0.0
 10
16.0340386727
 20
11.8963322162
 30
0.0
 10
16.0361219485
 20
11.8944774223
 30
0.0
 10
16.0382482777
 20
11.8929465998
 30
0.0
 10
16.040411114
 20
11.891746405
 30
0.0
 10
16.0426034473
 20
11.890883113
 30
0.0
 10
16.044816236
 20
11.8903623365
 30
0.0
 10
16.0463050696
 20
11.8902458586
 30
0.0
 10
16.0470408934
 20
11.8902458654
 30
0.0
  0
SPLINE
  5
2AC
100
AcDbEntity
  8
LAYER_CHAMFER_FEAT
100
AcDbSpline
 62
7
  6
CONTINUOUS
 70
0
 71
3
 72
14
 73
10
 74
0
 42
0.0000001
 43
0.0000001
 44
0.0000000001
 40
0.0
 40
0.0
 40
0.0
 40
0.0
 40
0.2714512636
 40
0.4018358969
 40
0.5286296103
 40
0.6518279036
 40
0.7714385411
 40
0.8874836225
 40
1.0
 40
1.0
 40
1.0
 40
1.0
 10
16.0599964604
 20
11.6667702478
 30
0.0
 10
16.0662495531
 20
11.6540277845
 30
0.0
 10
16.0759444768
 20
11.6353730213
 30
0.0
 10
16.0896642111
 20
11.6113734237
 30
0.0
 10
16.1000144031
 20
11.5943855037
 30
0.0
 10
16.1105539161
 20
11.5781824376
 30
0.0
 10
16.1212740603
 20
11.5627778119
 30
0.0
 10
16.1321655301
 20
11.548185101
 30
0.0
 10
16.1396495269
 20
11.5388630502
 30
0.0
 10
16.1434196247
 20
11.5343462889
 30
0.0
  0
SPLINE
  5
2AD
100
AcDbEntity
  8
LAYER_FEATURE
100
AcDbSpline
 62
7
  6
CONTINUOUS
 70
0
 71
3
 72
19
 73
15
 74
0
 42
0.0000001
 43
0.0000001
 44
0.0000000001
 40
0.0
 40
0.0
 40
0.0
 40
0.0
 40
0.0569143583
 40
0.1139747153
 40
0.1713256908
 40
0.2291091832
 40
0.2874631745
 40
0.3465205785
 40
0.4672108127
 40
0.5921520103
 40
0.722156058
 40
0.7892890908
 40
0.8579345109
 40
1.0
 40
1.0
 40
1.0
 40
1.0
 10
14.6404008247
 20
13.8935549877
 30
0.0
 10
14.6442499578
 20
13.8935549933
 30
0.0
 10
14.6519597768
 20
13.8933424958
 30
0.0
 10
14.6635126353
 20
13.8923869148
 30
0.0
 10
14.6750547269
 20
13.8907948155
 30
0.0
 10
14.6865799951
 20
13.888567158
 30
0.0
 10
14.6980833459
 20
13.8857049135
 30
0.0
 10
14.7134934459
 20
13.8810118305
 30
0.0
 10
14.732725048
 20
13.8735106064
 30
0.0
 10
14.755442097
 20
13.8620639222
 30
0.0
 10
14.7739827144
 20
13.8505780843
 30
0.0
 10
14.7886714654
 20
13.8402111452
 30
0.0
 10
14.8035962437
 20
13.8287884347
 30
0.0
 10
14.8144216393
 20
13.8194968169
 30
0.0
 10
14.8215026572
 20
13.813002863
 30
0.0
  0
SPLINE
  5
2AE
100
AcDbEntity
  8
LAYER_FEATURE
100
AcDbSpline
 62
7
  6
CONTINUOUS
 70
0
 71
3
 72
19
 73
15
 74
0
 42
0.0000001
 43
0.0000001
 44
0.0000000001
 40
0.0
 40
0.0
 40
0.0
 40
0.0
 40
0.0569262249
 40
0.1139981036
 40
0.171359917
 40
0.2291532491
 40
0.2875157548
 40
0.3465801029
 40
0.4672785005
 40
0.5922188028
 40
0.7222117003
 40
0.789335001
 40
0.8579679821
 40
1.0
 40
1.0
 40
1.0
 40
1.0
 10
14.6404008247
 20
11.1280549981
 30
0.0
 10
14.6442450041
 20
11.1280550037
 30
0.0
 10
14.6519448715
 20
11.1282669331
 30
0.0
 10
14.6634828472
 20
11.1292200689
 30
0.0
 10
14.6750101028
 20
11.1308080491
 30
0.0
 10
14.6865205941
 20
11.1330299943
 30
0.0
 10
14.6980092662
 20
11.1358848517
 30
0.0
 10
14.713399529
 20
11.1405658278
 30
0.0
 10
14.7326065424
 20
11.1480475885
 30
0.0
 10
14.7552954401
 20
11.1594649066
 30
0.0
 10
14.7738139336
 20
11.1709216576
 30
0.0
 10
14.7884854964
 20
11.1812624178
 30
0.0
 10
14.8033924441
 20
11.192655994
 30
0.0
 10
14.8142056452
 20
11.2019242775
 30
0.0
 10
14.8212789124
 20
11.2084020814
 30
0.0
  0
SPLINE
  5
2AF
100
AcDbEntity
  8
LAYER_FEATURE
100
AcDbSpline
 62
7
  6
CONTINUOUS
 70
0
 71
3
 72
53
 73
49
 74
0
 42
0.0000001
 43
0.0000001
 44
0.0000000001
 40
0.0
 40
0.0
 40
0.0
 40
0.0
 40
0.0076944605
 40
0.0154414029
 40
0.0232920033
 40
0.0312949541
 40
0.0394955122
 40
0.047934826
 40
0.0566495455
 40
0.0656716818
 40
0.0750286621
 40
0.0847435246
 40
0.0948351983
 40
0.1053188264
 40
0.1162061007
 40
0.1275055887
 40
0.1392230401
 40
0.1513616666
 40
0.1639223941
 40
0.1769040894
 40
0.1903037581
 40
0.2041167206
 40
0.2183367662
 40
0.2329562887
 40
0.2479664064
 40
0.2633570686
 40
0.279117153
 40
0.295234551
 40
0.3116962463
 40
0.3284883851
 40
0.3630034023
 40
0.3986558754
 40
0.4353108694
 40
0.4728253386
 40
0.5110495466
 40
0.549828394
 40
0.58900269
 40
0.6284103724
 40
0.6678876997
 40
0.7072704333
 40
0.7463950119
 40
0.7850997299
 40
0.8232259396
 40
0.8606192766
 40
0.8971309304
 40
0.9326189882
 40
0.9669498635
 40
1.0
 40
1.0
 40
1.0
 40
1.0
 10
16.3304940643
 20
13.8935549924
 30
0.0
 10
16.3367857285
 20
13.8935549879
 30
0.0
 10
16.3494192533
 20
13.8929849742
 30
0.0
 10
16.3683159348
 20
13.8904243638
 30
0.0
 10
16.3871621052
 20
13.886161858
 30
0.0
 10
16.4059307399
 20
13.8802048464
 30
0.0
 10
16.424598354
 20
13.8725630889
 30
0.0
 10
16.4431416953
 20
13.8632483466
 30
0.0
 10
16.4615385011
 20
13.8522741228
 30
0.0
 10
16.4797670547
 20
13.8396555187
 30
0.0
 10
16.4978060807
 20
13.8254091978
 30
0.0
 10
16.5156345923
 20
13.8095534073
 30
0.0
 10
16.5332318118
 20
13.7921080253
 30
0.0
 10
16.5505771353
 20
13.773094621
 30
0.0
 10
16.5676501319
 20
13.7525365032
 30
0.0
 10
16.5844305648
 20
13.7304587547
 30
0.0
 10
16.6008984238
 20
13.7068882488
 30
0.0
 10
16.6170339686
 20
13.6818536553
 30
0.0
 10
16.6328177715
 20
13.6553854274
 30
0.0
 10
16.6482307534
 20
13.6275157768
 30
0.0
 10
16.6632542251
 20
13.5982786432
 30
0.0
 10
16.6778699219
 20
13.5677096578
 30
0.0
 10
16.6920600382
 20
13.535846103
 30
0.0
 10
16.7058072562
 20
13.5027268676
 30
0.0
 10
16.7190947783
 20
13.4683924008
 30
0.0
 10
16.7319063515
 20
13.4328846648
 30
0.0
 10
16.7442262993
 20
13.3962470668
 30
0.0
 10
16.7560395022
 20
13.358524451
 30
0.0
 10
16.7673315863
 20
13.3197628621
 30
0.0
 10
16.7818062498
 20
13.2662700522
 30
0.0
 10
16.7984580224
 20
13.1971243541
 30
0.0
 10
16.8159786089
 20
13.1115362258
 30
0.0
 10
16.8311300311
 20
13.0230083446
 30
0.0
 10
16.8438376595
 20
12.9319742344
 30
0.0
 10
16.8540389037
 20
12.8388787603
 30
0.0
 10
16.8616835122
 20
12.744177433
 30
0.0
 10
16.866733815
 20
12.6483336813
 30
0.0
 10
16.8691649097
 20
12.5518166537
 30
0.0
 10
16.868964817
 20
12.4550988463
 30
0.0
 10
16.8661345325
 20
12.3586537566
 30
0.0
 10
16.8606880019
 20
12.2629535249
 30
0.0
 10
16.8526520561
 20
12.1684665776
 30
0.0
 10
16.8420663104
 20
12.0756553043
 30
0.0
 10
16.8289829107
 20
11.9849736798
 30
0.0
 10
16.8134663244
 20
11.8968652219
 30
0.0
 10
16.7955927893
 20
11.8117599053
 30
0.0
 10
16.775450729
 20
11.7300749006
 30
0.0
 10
16.7602696723
 20
11.6770937556
 30
0.0
 10
16.7522907054
 20
11.6512738093
 30
0.0
  0
SPLINE
  5
2B0
100
AcDbEntity
  8
LAYER_FEATURE
100
AcDbSpline
 62
7
  6
CONTINUOUS
 70
0
 71
3
 72
34
 73
30
 74
0
 42
0.0000001
 43
0.0000001
 44
0.0000000001
 40
0.0
 40
0.0
 40
0.0
 40
0.0
 40
0.0212776187
 40
0.0426490208
 40
0.0642064727
 40
0.0860393087
 40
0.1082326769
 40
0.13086655
 40
0.1540149993
 40
0.1777456933
 40
0.2021196788
 40
0.2271913712
 40
0.27959828
 40
0.3070255527
 40
0.3353056965
 40
0.364463523
 40
0.3945190401
 40
0.4254878103
 40
0.4573812636
 40
0.4902070809
 40
0.5239694991
 40
0.5586695369
 40
0.5943052915
 40
0.630872184
 40
0.6683631143
 40
0.7460728044
 40
0.8273395976
 40
0.9120335584
 40
1.0
 40
1.0
 40
1.0
 40
1.0
 10
16.3304940643
 20
11.1280549934
 30
0.0
 10
16.3355448288
 20
11.1280549898
 30
0.0
 10
16.345672401
 20
11.1284215078
 30
0.0
 10
16.3608365456
 20
11.1300689704
 30
0.0
 10
16.3759755441
 20
11.1328128265
 30
0.0
 10
16.3910756057
 20
11.1366503103
 30
0.0
 10
16.406124537
 20
11.1415775853
 30
0.0
 10
16.4211100488
 20
11.1475899227
 30
0.0
 10
16.4360202357
 20
11.1546818166
 30
0.0
 10
16.4508432883
 20
11.1628468407
 30
0.0
 10
16.4655681589
 20
11.1720781527
 30
0.0
 10
16.4853446697
 20
11.1860019435
 30
0.0
 10
16.5045826919
 20
11.2018846554
 30
0.0
 10
16.5232558831
 20
11.2194965805
 30
0.0
 10
16.5373207341
 20
11.2339273631
 30
0.0
 10
16.5512201322
 20
11.2493659624
 30
0.0
 10
16.5649441509
 20
11.2658009769
 30
0.0
 10
16.5784819315
 20
11.2832192424
 30
0.0
 10
16.5918230533
 20
11.301607088
 30
0.0
 10
16.6049571167
 20
11.320950031
 30
0.0
 10
16.6178738559
 20
11.3412328741
 30
0.0
 10
16.6305631941
 20
11.3624396516
 30
0.0
 10
16.6430151668
 20
11.3845536527
 30
0.0
 10
16.6552200955
 20
11.4075575575
 30
0.0
 10
16.671343536
 20
11.4397770142
 30
0.0
 10
16.6907765192
 20
11.4821894407
 30
0.0
 10
16.7126895208
 20
11.5357347304
 30
0.0
 10
16.7333982145
 20
11.592355232
 30
0.0
 10
16.7461256474
 20
11.6313236745
 30
0.0
 10
16.7522907054
 20
11.6512738093
 30
0.0
  0
SPLINE
  5
2B1
100
AcDbEntity
  8
LAYER_FEATURE
100
AcDbSpline
 62
7
  6
CONTINUOUS
 70
0
 71
3
 72
23
 73
19
 74
0
 42
0.0000001
 43
0.0000001
 44
0.0000000001
 40
0.0
 40
0.0
 40
0.0
 40
0.0
 40
0.0834709104
 40
0.1643501844
 40
0.2425300311
 40
0.317915628
 40
0.39042839
 40
0.4600073015
 40
0.5266115076
 40
0.5902230784
 40
0.6508503676
 40
0.7085319676
 40
0.7633413266
 40
0.8153920063
 40
0.8648434255
 40
0.9119066764
 40
0.9568496215
 40
1.0
 40
1.0
 40
1.0
 40
1.0
 10
15.9570226335
 20
13.2353691122
 30
0.0
 10
15.9614198417
 20
13.2495984831
 30
0.0
 10
15.9704571902
 20
13.2775001625
 30
0.0
 10
15.9849882175
 20
13.3182675722
 30
0.0
 10
16.0002549661
 20
13.3572207981
 30
0.0
 10
16.0162231822
 20
13.3942723923
 30
0.0
 10
16.0328572023
 20
13.429339696
 30
0.0
 10
16.0501200362
 20
13.4623445424
 30
0.0
 10
16.0679734867
 20
13.4932135182
 30
0.0
 10
16.0863783328
 20
13.5218780852
 30
0.0
 10
16.105294512
 20
13.5482746845
 30
0.0
 10
16.1246813406
 20
13.5723447759
 30
0.0
 10
16.1444976808
 20
13.5940347662
 30
0.0
 10
16.1647022646
 20
13.6132958728
 30
0.0
 10
16.1852532318
 20
13.6300836196
 30
0.0
 10
16.2061097394
 20
13.6443579731
 30
0.0
 10
16.2272251606
 20
13.6560808194
 30
0.0
 10
16.2417058188
 20
13.6622836634
 30
0.0
 10
16.2489413448
 20
13.6649149058
 30
0.0
  0
SPLINE
  5
2B2
100
AcDbEntity
  8
LAYER_FEATURE
100
AcDbSpline
 62
7
  6
CONTINUOUS
 70
0
 71
3
 72
11
 73
7
 74
0
 42
0.0000001
 43
0.0000001
 44
0.0000000001
 40
0.0
 40
0.0
 40
0.0
 40
0.0
 40
0.2557717555
 40
0.506637196
 40
0.7541638863
 40
1.0
 40
1.0
 40
1.0
 40
1.0
 10
16.2489413448
 20
13.6649149058
 30
0.0
 10
16.2541486233
 20
13.6668085638
 30
0.0
 10
16.2646200164
 20
13.6701460991
 30
0.0
 10
16.2805715436
 20
13.6737688898
 30
0.0
 10
16.2965672596
 20
13.6759454705
 30
0.0
 10
16.3072613894
 20
13.6764299973
 30
0.0
 10
16.3125870593
 20
13.6764299889
 30
0.0
  0
SPLINE
  5
2B3
100
AcDbEntity
  8
LAYER_FEATURE
100
AcDbSpline
 62
7
  6
CONTINUOUS
 70
0
 71
3
 72
50
 73
46
 74
0
 42
0.0000001
 43
0.0000001
 44
0.0000000001
 40
0.0
 40
0.0
 40
0.0
 40
0.0
 40
0.0319413061
 40
0.0650508836
 40
0.0992246628
 40
0.1343502642
 40
0.1703084928
 40
0.2069743779
 40
0.2442181955
 40
0.2819064327
 40
0.3199027151
 40
0.3580687137
 40
0.396265029
 40
0.4343520709
 40
0.4721909381
 40
0.5096442963
 40
0.5465772797
 40
0.5828584014
 40
0.6183605057
 40
0.6529617632
 40
0.6865467238
 40
0.7190074819
 40
0.7502449308
 40
0.7653774966
 40
0.7801718694
 40
0.7946188302
 40
0.8087100369
 40
0.8224380925
 40
0.835796623
 40
0.8487803682
 40
0.8613852896
 40
0.8736086855
 40
0.885449314
 40
0.8969075374
 40
0.9079854883
 40
0.9186872581
 40
0.9290190927
 40
0.9389896111
 40
0.9486100451
 40
0.9578944931
 40
0.9668601672
 40
0.9755276224
 40
0.983920953
 40
0.9920679243
 40
1.0
 40
1.0
 40
1.0
 40
1.0
 10
15.9570226335
 20
13.2353691122
 30
0.0
 10
15.9507264553
 20
13.2149946721
 30
0.0
 10
15.9387054981
 20
13.1732492618
 30
0.0
 10
15.9226193624
 20
13.108973985
 30
0.0
 10
15.9082052557
 20
13.0421268976
 30
0.0
 10
15.895525744
 20
12.97299594
 30
0.0
 10
15.8846355552
 20
12.9018775942
 30
0.0
 10
15.8755817957
 20
12.8290774986
 30
0.0
 10
15.8684036185
 20
12.7549085352
 30
0.0
 10
15.8631320944
 20
12.679689613
 30
0.0
 10
15.8597900079
 20
12.6037442248
 30
0.0
 10
15.8583918545
 20
12.5273990384
 30
0.0
 10
15.8589436448
 20
12.4509824681
 30
0.0
 10
15.8614430336
 20
12.3748232398
 30
0.0
 10
15.8658791635
 20
12.2992489548
 30
0.0
 10
15.8722328763
 20
12.2245846614
 30
0.0
 10
15.8804766525
 20
12.1511514258
 30
0.0
 10
15.8905748488
 20
12.0792649369
 30
0.0
 10
15.9024837878
 20
12.0092340811
 30
0.0
 10
15.9161519762
 20
11.9413596842
 30
0.0
 10
15.9315204091
 20
11.8759327855
 30
0.0
 10
15.9485226522
 20
11.8132346937
 30
0.0
 10
15.9641527592
 20
11.7629642024
 30
0.0
 10
15.977447474
 20
11.7243509692
 30
0.0
 10
15.9876738962
 20
11.6965439883
 30
0.0
 10
15.9982498898
 20
11.6696135833
 30
0.0
 10
16.0091641803
 20
11.6435885874
 30
0.0
 10
16.0204050202
 20
11.6184969521
 30
0.0
 10
16.03196036
 20
11.5943655903
 30
0.0
 10
16.0438178289
 20
11.5712203823
 30
0.0
 10
16.0559647497
 20
11.5490861279
 30
0.0
 10
16.0683881542
 20
11.5279865212
 30
0.0
 10
16.08107482
 20
11.5079441402
 30
0.0
 10
16.0940112882
 20
11.4889804281
 30
0.0
 10
16.1071838887
 20
11.4711156745
 30
0.0
 10
16.1205787432
 20
11.4543689862
 30
0.0
 10
16.1341818129
 20
11.438758301
 30
0.0
 10
16.1479789137
 20
11.4243003945
 30
0.0
 10
16.1619557435
 20
11.4110108937
 30
0.0
 10
16.1760978582
 20
11.3989042776
 30
0.0
 10
16.190390721
 20
11.3879938955
 30
0.0
 10
16.2048195303
 20
11.3782920672
 30
0.0
 10
16.2193697199
 20
11.3698099166
 30
0.0
 10
16.234024916
 20
11.362558054
 30
0.0
 10
16.2439760773
 20
11.3585003918
 30
0.0
 10
16.2489530415
 20
11.3566908352
 30
0.0
  0
SPLINE
  5
2B4
100
AcDbEntity
  8
LAYER_FEATURE
100
AcDbSpline
 62
7
  6
CONTINUOUS
 70
0
 71
3
 72
11
 73
7
 74
0
 42
0.0000001
 43
0.0000001
 44
0.0000000001
 40
0.0
 40
0.0
 40
0.0
 40
0.0
 40
0.2557697331
 40
0.5066348648
 40
0.7541624193
 40
1.0
 40
1.0
 40
1.0
 40
1.0
 10
16.2489530415
 20
11.3566908352
 30
0.0
 10
16.2541593991
 20
11.3547978743
 30
0.0
 10
16.2646289123
 20
11.3514615463
 30
0.0
 10
16.2805774967
 20
11.3478401003
 30
0.0
 10
16.2965702431
 20
11.3456643143
 30
0.0
 10
16.3072623763
 20
11.3451800053
 30
0.0
 10
16.3125870593
 20
11.3451799969
 30
0.0
  0
SPLINE
  5
2B5
100
AcDbEntity
  8
LAYER_FEATURE
100
AcDbSpline
 62
7
  6
CONTINUOUS
 70
0
 71
3
 72
53
 73
49
 74
0
 42
0.0000001
 43
0.0000001
 44
0.0000000001
 40
0.0
 40
0.0
 40
0.0
 40
0.0
 40
0.0330501365
 40
0.0673810118
 40
0.1028690696
 40
0.1393807234
 40
0.1767740604
 40
0.2149002701
 40
0.2536049881
 40
0.2927295667
 40
0.3321123003
 40
0.3715896276
 40
0.41099731
 40
0.450171606
 40
0.4889504534
 40
0.5271746614
 40
0.5646891306
 40
0.6013441246
 40
0.6369965977
 40
0.6715116149
 40
0.6883037537
 40
0.704765449
 40
0.720882847
 40
0.7366429314
 40
0.7520335936
 40
0.7670437113
 40
0.7816632338
 40
0.7958832794
 40
0.8096962419
 40
0.8230959106
 40
0.8360776059
 40
0.8486383334
 40
0.8607769599
 40
0.8724944113
 40
0.8837938993
 40
0.8946811736
 40
0.9051648017
 40
0.9152564754
 40
0.9249713379
 40
0.9343283182
 40
0.9433504545
 40
0.952065174
 40
0.9605044878
 40
0.9687050459
 40
0.9767079967
 40
0.9845585971
 40
0.9923055395
 40
1.0
 40
1.0
 40
1.0
 40
1.0
 10
15.880090848
 20
13.3703361765
 30
0.0
 10
15.8721118811
 20
13.3445162302
 30
0.0
 10
15.8569308243
 20
13.2915350852
 30
0.0
 10
15.8367887641
 20
13.2098500805
 30
0.0
 10
15.8189152289
 20
13.1247447639
 30
0.0
 10
15.8033986427
 20
13.036636306
 30
0.0
 10
15.7903152429
 20
12.9459546815
 30
0.0
 10
15.7797294972
 20
12.8531434082
 30
0.0
 10
15.7716935514
 20
12.7586564609
 30
0.0
 10
15.7662470208
 20
12.6629562292
 30
0.0
 10
15.7634167363
 20
12.5665111395
 30
0.0
 10
15.7632166437
 20
12.4697933321
 30
0.0
 10
15.7656477383
 20
12.3732763045
 30
0.0
 10
15.7706980411
 20
12.2774325528
 30
0.0
 10
15.7783426496
 20
12.1827312255
 30
0.0
 10
15.7885438938
 20
12.0896357515
 30
0.0
 10
15.8012515223
 20
11.9986016412
 30
0.0
 10
15.8164029444
 20
11.91007376
 30
0.0
 10
15.8339235309
 20
11.8244856317
 30
0.0
 10
15.8505753036
 20
11.7553399336
 30
0.0
 10
15.865049967
 20
11.7018471237
 30
0.0
 10
15.8763420511
 20
11.6630855348
 30
0.0
 10
15.888155254
 20
11.625362919
 30
0.0
 10
15.9004752018
 20
11.588725321
 30
0.0
 10
15.913286775
 20
11.553217585
 30
0.0
 10
15.9265742971
 20
11.5188831182
 30
0.0
 10
15.9403215151
 20
11.4857638828
 30
0.0
 10
15.9545116314
 20
11.453900328
 30
0.0
 10
15.9691273283
 20
11.4233313427
 30
0.0
 10
15.9841507999
 20
11.394094209
 30
0.0
 10
15.9995637819
 20
11.3662245584
 30
0.0
 10
16.0153475847
 20
11.3397563305
 30
0.0
 10
16.0314831296
 20
11.314721737
 30
0.0
 10
16.0479509885
 20
11.2911512311
 30
0.0
 10
16.0647314214
 20
11.2690734826
 30
0.0
 10
16.081804418
 20
11.2485153648
 30
0.0
 10
16.0991497416
 20
11.2295019605
 30
0.0
 10
16.116746961
 20
11.2120565786
 30
0.0
 10
16.1345754726
 20
11.196200788
 30
0.0
 10
16.1526144987
 20
11.1819544671
 30
0.0
 10
16.1708430523
 20
11.169335863
 30
0.0
 10
16.1892398581
 20
11.1583616392
 30
0.0
 10
16.2077831994
 20
11.1490468969
 30
0.0
 10
16.2264508134
 20
11.1414051394
 30
0.0
 10
16.2452194481
 20
11.1354481278
 30
0.0
 10
16.2640656186
 20
11.1311856221
 30
0.0
 10
16.2829623
 20
11.1286250116
 30
0.0
 10
16.2955958248
 20
11.1280549979
 30
0.0
 10
16.301887489
 20
11.1280549934
 30
0.0
  0
SPLINE
  5
2B6
100
AcDbEntity
  8
02___PRT_ALL_AXES
100
AcDbSpline
 62
7
  6
CONTINUOUS
 70
0
 71
3
 72
53
 73
49
 74
0
 42
0.0000001
 43
0.0000001
 44
0.0000000001
 40
0.0
 40
0.0
 40
0.0
 40
0.0
 40
0.0077193612
 40
0.015464839
 40
0.0232894878
 40
0.0312443917
 40
0.0393775515
 40
0.0477330413
 40
0.0563504657
 40
0.065264696
 40
0.07450584
 40
0.0840993869
 40
0.0940664639
 40
0.1044241557
 40
0.1151858492
 40
0.1263615776
 40
0.1379583457
 40
0.1499804348
 40
0.1624296769
 40
0.1753056993
 40
0.1886061405
 40
0.202326841
 40
0.2164620082
 40
0.2310043656
 40
0.245945284
 40
0.2612748977
 40
0.2769822069
 40
0.2930551701
 40
0.3094807862
 40
0.3262451691
 40
0.3607292644
 40
0.3963827735
 40
0.433069237
 40
0.4706436425
 40
0.5089539269
 40
0.5478423649
 40
0.5871468807
 40
0.6267023255
 40
0.666341717
 40
0.7058974609
 40
0.745202573
 40
0.7840918998
 40
0.8224033591
 40
0.8599792169
 40
0.8966673978
 40
0.9323228721
 40
0.9668091367
 40
1.0
 40
1.0
 40
1.0
 40
1.0
 10
16.3125865195
 20
13.6763631067
 30
0.0
 10
16.3179233723
 20
13.6766117917
 30
0.0
 10
16.3286441179
 20
13.6766254492
 30
0.0
 10
16.344719211
 20
13.6751824057
 30
0.0
 10
16.3607619877
 20
13.6722788326
 30
0.0
 10
16.3767487189
 20
13.6679199198
 30
0.0
 10
16.3926586769
 20
13.6621131923
 30
0.0
 10
16.4084713928
 20
13.6548680369
 30
0.0
 10
16.4241673325
 20
13.6461954563
 30
0.0
 10
16.4397275271
 20
13.6361078878
 30
0.0
 10
16.4551334664
 20
13.6246191341
 30
0.0
 10
16.4703669371
 20
13.6117443502
 30
0.0
 10
16.4854099353
 20
13.597500084
 30
0.0
 10
16.5002446158
 20
13.5819043285
 30
0.0
 10
16.5148532797
 20
13.564976571
 30
0.0
 10
16.5292183832
 20
13.546737832
 30
0.0
 10
16.5433225721
 20
13.5272106923
 30
0.0
 10
16.5571487081
 20
13.5064192939
 30
0.0
 10
16.5706799063
 20
13.4843893327
 30
0.0
 10
16.5838995719
 20
13.4611480428
 30
0.0
 10
16.5967914351
 20
13.4367241734
 30
0.0
 10
16.6093395823
 20
13.4111479593
 30
0.0
 10
16.6215284917
 20
13.384451091
 30
0.0
 10
16.6333430595
 20
13.3566666747
 30
0.0
 10
16.6447686232
 20
13.3278291871
 30
0.0
 10
16.655790984
 20
13.2979744343
 30
0.0
 10
16.6663964385
 20
13.2671394955
 30
0.0
 10
16.6765717601
 20
13.2353627165
 30
0.0
 10
16.6863043691
 20
13.2026835084
 30
0.0
 10
16.6987916331
 20
13.1575383058
 30
0.0
 10
16.7131721121
 20
13.0991219715
 30
0.0
 10
16.728325372
 20
13.0267436121
 30
0.0
 10
16.7414579383
 20
12.951799599
 30
0.0
 10
16.7525040948
 20
12.8746628629
 30
0.0
 10
16.7614085616
 20
12.795716429
 30
0.0
 10
16.7681267335
 20
12.7153528164
 30
0.0
 10
16.7726249727
 20
12.6339716543
 30
0.0
 10
16.774880756
 20
12.5519777515
 30
0.0
 10
16.7748827702
 20
12.469779012
 30
0.0
 10
16.7726310066
 20
12.3877843787
 30
0.0
 10
16.7681367575
 20
12.3064017611
 30
0.0
 10
16.7614225229
 20
12.226035968
 30
0.0
 10
16.7525219273
 20
12.1470866669
 30
0.0
 10
16.741479544
 20
12.0699462921
 30
0.0
 10
16.7283506761
 20
11.9949982498
 30
0.0
 10
16.7132008703
 20
11.9226142245
 30
0.0
 10
16.6961063067
 20
11.8531547658
 30
0.0
 10
16.6832078181
 20
11.8081108268
 30
0.0
 10
16.6764254799
 20
11.7861631724
 30
0.0
  0
SPLINE
  5
2B7
100
AcDbEntity
  8
LAYER_CHAMFER_FEAT
100
AcDbSpline
 62
7
  6
CONTINUOUS
 70
0
 71
3
 72
44
 73
40
 74
0
 42
0.0000001
 43
0.0000001
 44
0.0000000001
 40
0.0
 40
0.0
 40
0.0
 40
0.0
 40
0.0101615867
 40
0.0206689853
 40
0.0315258966
 40
0.0427343261
 40
0.0542947476
 40
0.0662062373
 40
0.0784665835
 40
0.091072409
 40
0.1040192728
 40
0.1173017498
 40
0.1448457736
 40
0.1736459686
 40
0.2036305025
 40
0.2347176954
 40
0.2668173342
 40
0.2998318828
 40
0.3336574895
 40
0.3681849596
 40
0.4033006115
 40
0.4388871132
 40
0.4748242667
 40
0.5109897719
 40
0.5472599762
 40
0.5835106084
 40
0.6196175125
 40
0.6554573832
 40
0.6909084985
 40
0.7258514827
 40
0.7601700622
 40
0.7937518814
 40
0.8264893261
 40
0.8582804305
 40
0.8890298438
 40
0.9186499074
 40
0.947061886
 40
0.9741973068
 40
1.0
 40
1.0
 40
1.0
 40
1.0
 10
16.1434196248
 20
13.4872636966
 30
0.0
 10
16.1393220471
 20
13.4823545879
 30
0.0
 10
16.1311936694
 20
13.472195573
 30
0.0
 10
16.1193960543
 20
13.4562407995
 30
0.0
 10
16.1078022044
 20
13.439332352
 30
0.0
 10
16.096423906
 20
13.4214875468
 30
0.0
 10
16.0852724065
 20
13.4027241857
 30
0.0
 10
16.0743588773
 20
13.3830611198
 30
0.0
 10
16.0636942121
 20
13.3625180915
 30
0.0
 10
16.0532891284
 20
13.3411157675
 30
0.0
 10
16.0431539735
 20
13.3188755837
 30
0.0
 10
16.0298532521
 20
13.2877578178
 30
0.0
 10
16.0140109521
 20
13.2468914131
 30
0.0
 10
15.9964570372
 20
13.1954665927
 30
0.0
 10
15.9802069034
 20
13.1412838428
 30
0.0
 10
15.9653262922
 20
13.0845613373
 30
0.0
 10
15.951875244
 20
13.0255266522
 30
0.0
 10
15.939908252
 20
12.9644172553
 30
0.0
 10
15.9294737373
 20
12.9014790972
 30
0.0
 10
15.9206140215
 20
12.8369656771
 30
0.0
 10
15.9133649961
 20
12.7711369662
 30
0.0
 10
15.9077560688
 20
12.7042583312
 30
0.0
 10
15.9038099848
 20
12.6365994423
 30
0.0
 10
15.9015427386
 20
12.5684331646
 30
0.0
 10
15.9009635476
 20
12.500034439
 30
0.0
 10
15.90207473
 20
12.4316791575
 30
0.0
 10
15.9048718174
 20
12.3636430347
 30
0.0
 10
15.9093434214
 20
12.2962004785
 30
0.0
 10
15.9154714513
 20
12.2296234695
 30
0.0
 10
15.9232310128
 20
12.1641804404
 30
0.0
 10
15.9325906819
 20
12.1001351787
 30
0.0
 10
15.943512488
 20
12.0377457311
 30
0.0
 10
15.9559521992
 20
11.9772633351
 30
0.0
 10
15.9698594314
 20
11.9189313819
 30
0.0
 10
15.9851779411
 20
11.8629843235
 30
0.0
 10
16.0018458094
 20
11.8096469144
 30
0.0
 10
16.0197960615
 20
11.759132437
 30
0.0
 10
16.0389558617
 20
11.7116445278
 30
0.0
 10
16.0528433095
 20
11.6813468367
 30
0.0
 10
16.0599964604
 20
11.6667702478
 30
0.0
  0
SPLINE
  5
2B8
100
AcDbEntity
  8
LAYER_CHAMFER_FEAT
100
AcDbSpline
 62
7
  6
CONTINUOUS
 70
0
 71
3
 72
18
 73
14
 74
0
 42
0.0000001
 43
0.0000001
 44
0.0000000001
 40
0.0
 40
0.0
 40
0.0
 40
0.0
 40
0.1468153464
 40
0.285757479
 40
0.4174073363
 40
0.5425286102
 40
0.6620823295
 40
0.7201518058
 40
0.77728132
 40
0.8336445582
 40
0.8894244471
 40
0.9448111685
 40
1.0
 40
1.0
 40
1.0
 40
1.0
 10
16.1437030102
 20
11.534562823
 30
0.0
 10
16.1499544393
 20
11.5276670134
 30
0.0
 10
16.1625810417
 20
11.514649601
 30
0.0
 10
16.1824425885
 20
11.497120207
 30
0.0
 10
16.2026448929
 20
11.4821867649
 30
0.0
 10
16.2231379821
 20
11.469894339
 30
0.0
 10
16.240591389
 20
11.4618051191
 30
0.0
 10
16.2545966073
 20
11.4567485217
 30
0.0
 10
16.2650358566
 20
11.4536709263
 30
0.0
 10
16.2755034091
 20
11.4512748767
 30
0.0
 10
16.2859926805
 20
11.4495619808
 30
0.0
 10
16.2964959018
 20
11.4485337038
 30
0.0
 10
16.3035081993
 20
11.448304998
 30
0.0
 10
16.3070070089
 20
11.4483050017
 30
0.0
  0
SPLINE
  5
2B9
100
AcDbEntity
  8
LAYER_CHAMFER_FEAT
100
AcDbSpline
 62
7
  6
CONTINUOUS
 70
0
 71
3
 72
18
 73
14
 74
0
 42
0.0000001
 43
0.0000001
 44
0.0000000001
 40
0.0
 40
0.0
 40
0.0
 40
0.0
 40
0.0551934911
 40
0.1105847304
 40
0.1663688388
 40
0.2227358998
 40
0.2798686676
 40
0.3379407671
 40
0.4574974153
 40
0.582618086
 40
0.7142634715
 40
0.8531971234
 40
1.0
 40
1.0
 40
1.0
 40
1.0
 10
16.3070070089
 20
13.5733049841
 30
0.0
 10
16.3035096352
 20
13.5733049804
 30
0.0
 10
16.2965002265
 20
13.573076485
 30
0.0
 10
16.2860013243
 20
13.572049023
 30
0.0
 10
16.2755163446
 20
13.57033757
 30
0.0
 10
16.2650530705
 20
13.5679434534
 30
0.0
 10
16.2546180478
 20
13.564868409
 30
0.0
 10
16.2406185721
 20
13.5598159714
 30
0.0
 10
16.2231722275
 20
13.5517334663
 30
0.0
 10
16.2026870905
 20
13.5394510667
 30
0.0
 10
16.1824923821
 20
13.5245297289
 30
0.0
 10
16.1626380226
 20
13.5070144469
 30
0.0
 10
16.1500156422
 20
13.4940072959
 30
0.0
 10
16.1437662625
 20
13.4871169113
 30
0.0
  0
SPLINE
  5
2BA
100
AcDbEntity
  8
LAYER_FEATURE
100
AcDbSpline
 62
7
  6
CONTINUOUS
 70
0
 71
3
 72
34
 73
30
 74
0
 42
0.0000001
 43
0.0000001
 44
0.0000000001
 40
0.0
 40
0.0
 40
0.0
 40
0.0
 40
0.0879664416
 40
0.1726604024
 40
0.2539271956
 40
0.3316368857
 40
0.369127816
 40
0.4056947085
 40
0.4413304631
 40
0.4760305009
 40
0.5097929191
 40
0.5426187364
 40
0.5745121897
 40
0.6054809599
 40
0.635536477
 40
0.6646943035
 40
0.6929744473
 40
0.72040172
 40
0.7728086288
 40
0.7978803212
 40
0.8222543067
 40
0.8459850007
 40
0.86913345
 40
0.8917673231
 40
0.9139606913
 40
0.9357935273
 40
0.9573509792
 40
0.9787223813
 40
1.0
 40
1.0
 40
1.0
 40
1.0
 10
15.880090848
 20
13.3703361765
 30
0.0
 10
15.8862559059
 20
13.3902863113
 30
0.0
 10
15.8989833388
 20
13.4292547538
 30
0.0
 10
15.9196920325
 20
13.4858752554
 30
0.0
 10
15.9416050341
 20
13.5394205451
 30
0.0
 10
15.9610380173
 20
13.5818329717
 30
0.0
 10
15.9771614578
 20
13.6140524283
 30
0.0
 10
15.9893663866
 20
13.6370563331
 30
0.0
 10
16.0018183592
 20
13.6591703342
 30
0.0
 10
16.0145076975
 20
13.6803771117
 30
0.0
 10
16.0274244366
 20
13.7006599548
 30
0.0
 10
16.0405585
 20
13.7200028978
 30
0.0
 10
16.0538996219
 20
13.7383907434
 30
0.0
 10
16.0674374024
 20
13.7558090089
 30
0.0
 10
16.0811614211
 20
13.7722440234
 30
0.0
 10
16.0950608192
 20
13.7876826227
 30
0.0
 10
16.1091256702
 20
13.8021134053
 30
0.0
 10
16.1277988614
 20
13.8197253304
 30
0.0
 10
16.1470368836
 20
13.8356080423
 30
0.0
 10
16.1668133944
 20
13.8495318331
 30
0.0
 10
16.181538265
 20
13.8587631451
 30
0.0
 10
16.1963613176
 20
13.8669281693
 30
0.0
 10
16.2112715045
 20
13.8740200631
 30
0.0
 10
16.2262570163
 20
13.8800324005
 30
0.0
 10
16.2413059476
 20
13.8849596755
 30
0.0
 10
16.2564060092
 20
13.8887971594
 30
0.0
 10
16.2715450077
 20
13.8915410154
 30
0.0
 10
16.2867091523
 20
13.893188478
 30
0.0
 10
16.2968367246
 20
13.893554996
 30
0.0
 10
16.301887489
 20
13.8935549924
 30
0.0
  0
SPLINE
  5
2BB
100
AcDbEntity
  8
LAYER_FEATURE
100
AcDbSpline
 62
7
  6
CONTINUOUS
 70
0
 71
3
 72
53
 73
49
 74
0
 42
0.0000001
 43
0.0000001
 44
0.0000000001
 40
0.0
 40
0.0
 40
0.0
 40
0.0
 40
0.0330501409
 40
0.067381012
 40
0.1028690694
 40
0.1393807238
 40
0.1767740606
 40
0.2149002699
 40
0.2536049884
 40
0.2927295669
 40
0.3321123004
 40
0.3715896279
 40
0.4109973099
 40
0.4501716062
 40
0.4889504543
 40
0.527174661
 40
0.5646891302
 40
0.601344126
 40
0.6369965981
 40
0.6715116134
 40
0.6883037532
 40
0.7047654501
 40
0.7208828494
 40
0.7366429332
 40
0.7520335936
 40
0.7670437095
 40
0.7816632319
 40
0.7958832791
 40
0.8096962438
 40
0.8230959134
 40
0.8360776075
 40
0.8486383329
 40
0.8607769578
 40
0.8724944095
 40
0.8837938995
 40
0.8946811758
 40
0.9051648042
 40
0.9152564766
 40
0.9249713373
 40
0.9343283167
 40
0.9433504534
 40
0.9520651744
 40
0.9605044892
 40
0.9687050472
 40
0.9767079974
 40
0.9845585973
 40
0.9923055395
 40
1.0
 40
1.0
 40
1.0
 40
1.0
 10
14.1899976084
 20
13.3703361765
 30
0.0
 10
14.1820186404
 20
13.3445162268
 30
0.0
 10
14.1668375838
 20
13.2915350815
 30
0.0
 10
14.146695524
 20
13.2098500771
 30
0.0
 10
14.1288219877
 20
13.1247447639
 30
0.0
 10
14.1133054051
 20
13.0366363056
 30
0.0
 10
14.1002220041
 20
12.9459546813
 30
0.0
 10
14.0896362548
 20
12.8531434085
 30
0.0
 10
14.0816003133
 20
12.7586564608
 30
0.0
 10
14.0761537839
 20
12.6629562288
 30
0.0
 10
14.0733234944
 20
12.5665111394
 30
0.0
 10
14.0731234019
 20
12.4697933322
 30
0.0
 10
14.0755545037
 20
12.3732763047
 30
0.0
 10
14.0806048012
 20
12.2774325525
 30
0.0
 10
14.0882494046
 20
12.1827312249
 30
0.0
 10
14.0984506586
 20
12.0896357524
 30
0.0
 10
14.1111582859
 20
11.9986016417
 30
0.0
 10
14.1263096991
 20
11.9100737584
 30
0.0
 10
14.143830291
 20
11.8244856319
 30
0.0
 10
14.1604820695
 20
11.755339937
 30
0.0
 10
14.1749567288
 20
11.7018471254
 30
0.0
 10
14.1862488099
 20
11.6630855324
 30
0.0
 10
14.1980620104
 20
11.6253629139
 30
0.0
 10
14.2103819596
 20
11.5887253174
 30
0.0
 10
14.2231935363
 20
11.5532175862
 30
0.0
 10
14.2364810613
 20
11.5188831238
 30
0.0
 10
14.2502282792
 20
11.4857638886
 30
0.0
 10
14.2644183926
 20
11.4539003293
 30
0.0
 10
14.2790340863
 20
11.4233313382
 30
0.0
 10
14.2940575564
 20
11.394094202
 30
0.0
 10
14.3094705407
 20
11.3662245548
 30
0.0
 10
14.3252543464
 20
11.3397563333
 30
0.0
 10
14.3413898936
 20
11.3147217447
 30
0.0
 10
14.357857752
 20
11.2911512379
 30
0.0
 10
14.3746381819
 20
11.2690734828
 30
0.0
 10
14.3917111755
 20
11.248515358
 30
0.0
 10
14.4090564991
 20
11.2295019525
 30
0.0
 10
14.4266537209
 20
11.2120565759
 30
0.0
 10
14.4444822345
 20
11.1962007926
 30
0.0
 10
14.4625212618
 20
11.1819544765
 30
0.0
 10
14.4807498145
 20
11.16933587
 30
0.0
 10
14.4991466178
 20
11.1583616375
 30
0.0
 10
14.5176899578
 20
11.1490468878
 30
0.0
 10
14.536357573
 20
11.1414051317
 30
0.0
 10
14.5551262088
 20
11.1354481274
 30
0.0
 10
14.5739723797
 20
11.131185626
 30
0.0
 10
14.5928690609
 20
11.1286250287
 30
0.0
 10
14.6055025852
 20
11.128054989
 30
0.0
 10
14.6117942495
 20
11.1280549981
 30
0.0
  0
SPLINE
  5
2BC
100
AcDbEntity
  8
LAYER_FEATURE
100
AcDbSpline
 62
7
  6
CONTINUOUS
 70
0
 71
3
 72
34
 73
30
 74
0
 42
0.0000001
 43
0.0000001
 44
0.0000000001
 40
0.0
 40
0.0
 40
0.0
 40
0.0
 40
0.0879664493
 40
0.172660396
 40
0.2539271974
 40
0.3316368855
 40
0.3691278181
 40
0.4056947063
 40
0.4413304622
 40
0.4760305036
 40
0.509792917
 40
0.5426187345
 40
0.5745121928
 40
0.6054809588
 40
0.635536474
 40
0.6646943063
 40
0.6929744479
 40
0.7204017162
 40
0.7728086308
 40
0.7978803171
 40
0.8222543073
 40
0.8459850035
 40
0.8691334467
 40
0.8917673226
 40
0.9139606934
 40
0.9357935257
 40
0.9573509782
 40
0.9787223817
 40
1.0
 40
1.0
 40
1.0
 40
1.0
 10
14.1899976084
 20
13.3703361765
 30
0.0
 10
14.1961626668
 20
13.390286313
 30
0.0
 10
14.2088900984
 20
13.4292547544
 30
0.0
 10
14.2295987954
 20
13.4858752551
 30
0.0
 10
14.2515117918
 20
13.539420545
 30
0.0
 10
14.27094478
 20
13.5818329714
 30
0.0
 10
14.2870682156
 20
13.6140524295
 30
0.0
 10
14.2992731493
 20
13.6370563314
 30
0.0
 10
14.3117251207
 20
13.6591703334
 30
0.0
 10
14.3244144545
 20
13.6803771136
 30
0.0
 10
14.3373311992
 20
13.7006599529
 30
0.0
 10
14.3504652625
 20
13.720002896
 30
0.0
 10
14.3638063785
 20
13.7383907462
 30
0.0
 10
14.3773441638
 20
13.7558090077
 30
0.0
 10
14.3910681848
 20
13.7722440199
 30
0.0
 10
14.4049675761
 20
13.7876826259
 30
0.0
 10
14.4190324298
 20
13.802113406
 30
0.0
 10
14.4377056275
 20
13.8197253233
 30
0.0
 10
14.4569436361
 20
13.8356080507
 30
0.0
 10
14.4767201602
 20
13.8495318246
 30
0.0
 10
14.4914450241
 20
13.8587631468
 30
0.0
 10
14.5062680739
 20
13.8669281777
 30
0.0
 10
14.5211782696
 20
13.8740200523
 30
0.0
 10
14.5361637764
 20
13.8800323997
 30
0.0
 10
14.5512127046
 20
13.8849596877
 30
0.0
 10
14.5663127723
 20
13.8887971485
 30
0.0
 10
14.5814517681
 20
13.8915410093
 30
0.0
 10
14.5966159117
 20
13.8931884992
 30
0.0
 10
14.6067434851
 20
13.8935549804
 30
0.0
 10
14.6117942495
 20
13.8935549877
 30
0.0
  0
SPLINE
  5
2BD
100
AcDbEntity
  8
LAYER_FEATURE
100
AcDbSpline
 62
7
  6
CONTINUOUS
 70
0
 71
3
 72
11
 73
7
 74
0
 42
0.0000001
 43
0.0000001
 44
0.0000000001
 40
0.0
 40
0.0
 40
0.0
 40
0.0
 40
0.2189281566
 40
0.4580696713
 40
0.7183607539
 40
1.0
 40
1.0
 40
1.0
 40
1.0
 10
14.2168001634
 20
13.0440236176
 30
0.0
 10
14.2172856488
 20
13.0444445941
 30
0.0
 10
14.2182409502
 20
13.0453963819
 30
0.0
 10
14.2195627605
 20
13.0470433343
 30
0.0
 10
14.2208269061
 20
13.0489592145
 30
0.0
 10
14.2215961218
 20
13.0503533619
 30
0.0
 10
14.2219715536
 20
13.0510898438
 30
0.0
  0
SPLINE
  5
2BE
100
AcDbEntity
  8
LAYER_FEATURE
100
AcDbSpline
 62
7
  6
CONTINUOUS
 70
0
 71
3
 72
16
 73
12
 74
0
 42
0.0000001
 43
0.0000001
 44
0.0000000001
 40
0.0
 40
0.0
 40
0.0
 40
0.0
 40
0.038912097
 40
0.0788383246
 40
0.165089866
 40
0.2645191581
 40
0.3799326111
 40
0.5121422694
 40
0.6606219597
 40
0.8239308101
 40
1.0
 40
1.0
 40
1.0
 40
1.0
 10
14.1980218751
 20
13.044068396
 30
0.0
 10
14.1979390778
 20
13.0440683987
 30
0.0
 10
14.1977709545
 20
13.0440532392
 30
0.0
 10
14.1974304547
 20
13.0439608016
 30
0.0
 10
14.1970060071
 20
13.0437207943
 30
0.0
 10
14.1965406394
 20
13.0432740683
 30
0.0
 10
14.1961069934
 20
13.0426725911
 30
0.0
 10
14.1957108278
 20
13.0419264493
 30
0.0
 10
14.1953582005
 20
13.0410484455
 30
0.0
 10
14.1950555574
 20
13.0400543917
 30
0.0
 10
14.1948961148
 20
13.0393494105
 30
0.0
 10
14.1948249082
 20
13.0389815992
 30
0.0
  0
SPLINE
  5
2BF
100
AcDbEntity
  8
LAYER_CHAMFER_FEAT
100
AcDbSpline
 62
7
  6
CONTINUOUS
 70
0
 71
3
 72
39
 73
35
 74
0
 42
0.0000001
 43
0.0000001
 44
0.0000000001
 40
0.0
 40
0.0
 40
0.0
 40
0.0
 40
0.0439504527
 40
0.0865559299
 40
0.1278044773
 40
0.1676923359
 40
0.2062207637
 40
0.2433985035
 40
0.2792420407
 40
0.3137765137
 40
0.3470366692
 40
0.3790678449
 40
0.4099270313
 40
0.4396838965
 40
0.468421688
 40
0.4962379307
 40
0.5232447534
 40
0.5495686752
 40
0.5753496581
 40
0.6007393082
 40
0.625898211
 40
0.6509924967
 40
0.6761898837
 40
0.7016555635
 40
0.7275483367
 40
0.7540173375
 40
0.7811995651
 40
0.809218283
 40
0.8381822595
 40
0.8681856923
 40
0.8993086361
 40
0.9316177586
 40
0.9651672759
 40
1.0
 40
1.0
 40
1.0
 40
1.0
 10
16.5816493873
 20
13.354839738
 30
0.0
 10
16.5779150775
 20
13.3624494613
 30
0.0
 10
16.5703530072
 20
13.3773353638
 30
0.0
 10
16.5585367486
 20
13.3989721202
 30
0.0
 10
16.5464357509
 20
13.4195475414
 30
0.0
 10
16.5340645748
 20
13.439036857
 30
0.0
 10
16.5214376324
 20
13.4574170616
 30
0.0
 10
16.5085697698
 20
13.4746662761
 30
0.0
 10
16.4954759854
 20
13.4907640257
 30
0.0
 10
16.4821714628
 20
13.5056911501
 30
0.0
 10
16.4686715387
 20
13.5194298112
 30
0.0
 10
16.4549916755
 20
13.5319634664
 30
0.0
 10
16.4411474685
 20
13.5432768469
 30
0.0
 10
16.4271546678
 20
13.5533559294
 30
0.0
 10
16.4130292109
 20
13.5621878745
 30
0.0
 10
16.3987873139
 20
13.5697610035
 30
0.0
 10
16.3844455863
 20
13.576064806
 30
0.0
 10
16.3700211782
 20
13.581090039
 30
0.0
 10
16.355531897
 20
13.5848288904
 30
0.0
 10
16.3409962538
 20
13.5872751931
 30
0.0
 10
16.3264334046
 20
13.5884247085
 30
0.0
 10
16.3118629519
 20
13.5882753685
 30
0.0
 10
16.2973046343
 20
13.5868274477
 30
0.0
 10
16.2827779752
 20
13.5840835301
 30
0.0
 10
16.2683019956
 20
13.580048321
 30
0.0
 10
16.2538950449
 20
13.5747283894
 30
0.0
 10
16.2395747736
 20
13.5681318914
 30
0.0
 10
16.2253581926
 20
13.5602683786
 30
0.0
 10
16.2112618112
 20
13.5511486336
 30
0.0
 10
16.1973017668
 20
13.5407845949
 30
0.0
 10
16.1834939682
 20
13.5291893939
 30
0.0
 10
16.1698540485
 20
13.5163772402
 30
0.0
 10
16.1563978855
 20
13.5023640712
 30
0.0
 10
16.1477245712
 20
13.4924212438
 30
0.0
 10
16.1434196248
 20
13.4872636966
 30
0.0
  0
SPLINE
  5
2C0
100
AcDbEntity
  8
LAYER_CHAMFER_FEAT
100
AcDbSpline
 62
7
  6
CONTINUOUS
 70
0
 71
3
 72
24
 73
20
 74
0
 42
0.0000001
 43
0.0000001
 44
0.0000000001
 40
0.0
 40
0.0
 40
0.0
 40
0.0
 40
0.0835156093
 40
0.1639172332
 40
0.2411801317
 40
0.3153005867
 40
0.3862975018
 40
0.4542160252
 40
0.5191308109
 40
0.5811499949
 40
0.6404193538
 40
0.6690847886
 40
0.6971369554
 40
0.7515154022
 40
0.8038470557
 40
0.8544632636
 40
0.9037425902
 40
0.9521047131
 40
1.0
 40
1.0
 40
1.0
 40
1.0
 10
16.5642024776
 20
13.3430898344
 30
0.0
 10
16.5597555615
 20
13.3521516966
 30
0.0
 10
16.5507298092
 20
13.3697937212
 30
0.0
 10
16.5365089283
 20
13.39524773
 30
0.0
 10
16.5218844726
 20
13.41915181
 30
0.0
 10
16.5068817869
 20
13.4414640304
 30
0.0
 10
16.4915263698
 20
13.4621457782
 30
0.0
 10
16.4758442663
 20
13.4811610416
 30
0.0
 10
16.4598615116
 20
13.4984768335
 30
0.0
 10
16.4436052751
 20
13.5140621399
 30
0.0
 10
16.4297000487
 20
13.5257124494
 30
0.0
 10
16.4184684401
 20
13.5341068426
 30
0.0
 10
16.4074106777
 20
13.5417292549
 30
0.0
 10
16.3934583086
 20
13.5501726927
 30
0.0
 10
16.3763757084
 20
13.5585828888
 30
0.0
 10
16.3591570012
 20
13.565147053
 30
0.0
 10
16.3418330846
 20
13.569848701
 30
0.0
 10
16.3244396932
 20
13.5726752127
 30
0.0
 10
16.3127959088
 20
13.5733049902
 30
0.0
 10
16.3070070089
 20
13.5733049841
 30
0.0
  0
SPLINE
  5
2C1
100
AcDbEntity
  8
LAYER_FEATURE
100
AcDbSpline
 62
7
  6
CONTINUOUS
 70
0
 71
3
 72
78
 73
74
 74
0
 42
0.0000001
 43
0.0000001
 44
0.0000000001
 40
0.0
 40
0.0
 40
0.0
 40
0.0
 40
0.0178417767
 40
0.0361843069
 40
0.0549960819
 40
0.0742433107
 40
0.09389049
 40
0.1139004762
 40
0.1342347104
 40
0.154853397
 40
0.1757156798
 40
0.1967798109
 40
0.2180033132
 40
0.2393431405
 40
0.2607558342
 40
0.2821976797
 40
0.30362486
 40
0.3249936095
 40
0.3462603678
 40
0.3673819351
 40
0.3883156289
 40
0.4090194419
 40
0.4294522046
 40
0.4495737512
 40
0.4693450943
 40
0.4887286045
 40
0.5076881997
 40
0.5261895472
 40
0.5442002828
 40
0.5616902513
 40
0.5786317732
 40
0.5949999416
 40
0.6107729636
 40
0.6259325547
 40
0.6404644032
 40
0.6543587202
 40
0.6676108899
 40
0.6802222476
 40
0.6922010061
 40
0.7035633448
 40
0.714334659
 40
0.7245509233
 40
0.7342600656
 40
0.7435231468
 40
0.7480119326
 40
0.7524184438
 40
0.7567541273
 40
0.7610311791
 40
0.7652624429
 40
0.7694612945
 40
0.7736415011
 40
0.7778170578
 40
0.7820020182
 40
0.7862103194
 40
0.7904556131
 40
0.794751109
 40
0.7991094456
 40
0.8035425711
 40
0.8126739281
 40
0.822228129
 40
0.8322707589
 40
0.8428539769
 40
0.8540175629
 40
0.8657902552
 40
0.878191135
 40
0.8912309219
 40
0.9049131157
 40
0.9192349764
 40
0.9341883475
 40
0.9497603423
 40
0.9659339585
 40
0.9826884324
 40
1.0
 40
1.0
 40
1.0
 40
1.0
 10
15.9129234833
 20
13.325233732
 30
0.0
 10
15.9076573724
 20
13.3081925909
 30
0.0
 10
15.8974748365
 20
13.2734764924
 30
0.0
 10
15.8834183855
 20
13.2203185979
 30
0.0
 10
15.8703928416
 20
13.1654536102
 30
0.0
 10
15.8584297931
 20
13.1090138025
 30
0.0
 10
15.8475580487
 20
13.0511347158
 30
0.0
 10
15.8378038623
 20
12.9919555185
 30
0.0
 10
15.8291907701
 20
12.9316185165
 30
0.0
 10
15.8217395622
 20
12.8702688456
 30
0.0
 10
15.8154682274
 20
12.8080540997
 30
0.0
 10
15.8103919085
 20
12.7451239752
 30
0.0
 10
15.8065228668
 20
12.6816299061
 30
0.0
 10
15.8038704465
 20
12.6177246969
 30
0.0
 10
15.8024410484
 20
12.5535621508
 30
0.0
 10
15.802238123
 20
12.489296695
 30
0.0
 10
15.8032621607
 20
12.4250830063
 30
0.0
 10
15.8055106906
 20
12.3610756362
 30
0.0
 10
15.8089782869
 20
12.2974286356
 30
0.0
 10
15.8136565721
 20
12.2342951801
 30
0.0
 10
15.8195342475
 20
12.1718271976
 30
0.0
 10
15.8265971206
 20
12.110175
 30
0.0
 10
15.8348281401
 20
12.0494869179
 30
0.0
 10
15.8442074397
 20
11.9899089382
 30
0.0
 10
15.8547123784
 20
11.9315843449
 30
0.0
 10
15.8663176019
 20
11.8746533677
 30
0.0
 10
15.878995112
 20
11.8192528392
 30
0.0
 10
15.8927143373
 20
11.7655158582
 30
0.0
 10
15.907442217
 20
11.7135714589
 30
0.0
 10
15.9231432868
 20
11.6635442848
 30
0.0
 10
15.9397797747
 20
11.6155542732
 30
0.0
 10
15.9573117247
 20
11.5697163551
 30
0.0
 10
15.9756971221
 20
11.5261401668
 30
0.0
 10
15.9948920389
 20
11.4849297713
 30
0.0
 10
16.014850803
 20
11.4461833981
 30
0.0
 10
16.0355261796
 20
11.4099932021
 30
0.0
 10
16.0568696062
 20
11.3764450764
 30
0.0
 10
16.0788314585
 20
11.3456185184
 30
0.0
 10
16.1013613065
 20
11.3175865955
 30
0.0
 10
16.1244083103
 20
11.2924159972
 30
0.0
 10
16.1479210994
 20
11.2701674198
 30
0.0
 10
16.1718490352
 20
11.2508956189
 30
0.0
 10
16.1961378042
 20
11.2346515924
 30
0.0
 10
16.2168547218
 20
11.2235596849
 30
0.0
 10
16.2335066649
 20
11.2163124831
 30
0.0
 10
16.2459161273
 20
11.2117137132
 30
0.0
 10
16.2583674547
 20
11.207898952
 30
0.0
 10
16.27085324
 20
11.2048706382
 30
0.0
 10
16.2833656178
 20
11.2026310267
 30
0.0
 10
16.2958967026
 20
11.2011817794
 30
0.0
 10
16.3084384926
 20
11.2005239152
 30
0.0
 10
16.3209829491
 20
11.2006580173
 30
0.0
 10
16.3335220142
 20
11.201583907
 30
0.0
 10
16.3460476532
 20
11.2033009253
 30
0.0
 10
16.3585519162
 20
11.2058078162
 30
0.0
 10
16.3710268636
 20
11.2091026415
 30
0.0
 10
16.3834650282
 20
11.2131833252
 30
0.0
 10
16.4001517531
 20
11.2197311857
 30
0.0
 10
16.4209327621
 20
11.2299534467
 30
0.0
 10
16.4453298272
 20
11.2451862007
 30
0.0
 10
16.4693835249
 20
11.2634622466
 30
0.0
 10
16.4930391115
 20
11.2847321711
 30
0.0
 10
16.5162458737
 20
11.3089428978
 30
0.0
 10
16.5389523789
 20
11.3360356502
 30
0.0
 10
16.5611076828
 20
11.3659457893
 30
0.0
 10
16.5826611602
 20
11.3986023683
 30
0.0
 10
16.6035628953
 20
11.4339280222
 30
0.0
 10
16.6237639397
 20
11.4718389608
 30
0.0
 10
16.6432165942
 20
11.5122450839
 30
0.0
 10
16.6618746553
 20
11.5550501263
 30
0.0
 10
16.6796935906
 20
11.6001520005
 30
0.0
 10
16.6966306569
 20
11.6474424558
 30
0.0
 10
16.7071410189
 20
11.6798415291
 30
0.0
 10
16.7122506353
 20
11.6963762538
 30
0.0
  0
SPLINE
  5
2C2
100
AcDbEntity
  8
LAYER_FEATURE
100
AcDbSpline
 62
7
  6
CONTINUOUS
 70
0
 71
3
 72
53
 73
49
 74
0
 42
0.0000001
 43
0.0000001
 44
0.0000000001
 40
0.0
 40
0.0
 40
0.0
 40
0.0
 40
0.0330501365
 40
0.0673810118
 40
0.1028690696
 40
0.1393807234
 40
0.1767740604
 40
0.2149002701
 40
0.2536049881
 40
0.2927295667
 40
0.3321123003
 40
0.3715896276
 40
0.41099731
 40
0.450171606
 40
0.4889504534
 40
0.5271746614
 40
0.5646891306
 40
0.6013441246
 40
0.6369965977
 40
0.6715116149
 40
0.6883037537
 40
0.704765449
 40
0.720882847
 40
0.7366429314
 40
0.7520335936
 40
0.7670437113
 40
0.7816632338
 40
0.7958832794
 40
0.8096962419
 40
0.8230959106
 40
0.8360776059
 40
0.8486383334
 40
0.8607769599
 40
0.8724944113
 40
0.8837938993
 40
0.8946811736
 40
0.9051648017
 40
0.9152564754
 40
0.9249713379
 40
0.9343283182
 40
0.9433504545
 40
0.952065174
 40
0.9605044878
 40
0.9687050459
 40
0.9767079967
 40
0.9845585971
 40
0.9923055395
 40
1.0
 40
1.0
 40
1.0
 40
1.0
 10
15.9086974232
 20
13.3703361765
 30
0.0
 10
15.9007184563
 20
13.3445162302
 30
0.0
 10
15.8855373995
 20
13.2915350852
 30
0.0
 10
15.8653953393
 20
13.2098500805
 30
0.0
 10
15.8475218041
 20
13.1247447639
 30
0.0
 10
15.8320052179
 20
13.036636306
 30
0.0
 10
15.8189218182
 20
12.9459546815
 30
0.0
 10
15.8083360724
 20
12.8531434082
 30
0.0
 10
15.8003001266
 20
12.7586564609
 30
0.0
 10
15.794853596
 20
12.6629562292
 30
0.0
 10
15.7920233115
 20
12.5665111395
 30
0.0
 10
15.7918232189
 20
12.4697933321
 30
0.0
 10
15.7942543136
 20
12.3732763045
 30
0.0
 10
15.7993046163
 20
12.2774325528
 30
0.0
 10
15.8069492249
 20
12.1827312255
 30
0.0
 10
15.817150469
 20
12.0896357515
 30
0.0
 10
15.8298580975
 20
11.9986016412
 30
0.0
 10
15.8450095196
 20
11.91007376
 30
0.0
 10
15.8625301061
 20
11.8244856317
 30
0.0
 10
15.8791818788
 20
11.7553399336
 30
0.0
 10
15.8936565422
 20
11.7018471237
 30
0.0
 10
15.9049486264
 20
11.6630855348
 30
0.0
 10
15.9167618292
 20
11.625362919
 30
0.0
 10
15.9290817771
 20
11.588725321
 30
0.0
 10
15.9418933503
 20
11.553217585
 30
0.0
 10
15.9551808723
 20
11.5188831182
 30
0.0
 10
15.9689280903
 20
11.4857638828
 30
0.0
 10
15.9831182066
 20
11.453900328
 30
0.0
 10
15.9977339035
 20
11.4233313427
 30
0.0
 10
16.0127573751
 20
11.394094209
 30
0.0
 10
16.0281703571
 20
11.3662245584
 30
0.0
 10
16.0439541599
 20
11.3397563305
 30
0.0
 10
16.0600897048
 20
11.314721737
 30
0.0
 10
16.0765575637
 20
11.2911512311
 30
0.0
 10
16.0933379966
 20
11.2690734826
 30
0.0
 10
16.1104109933
 20
11.2485153648
 30
0.0
 10
16.1277563168
 20
11.2295019605
 30
0.0
 10
16.1453535363
 20
11.2120565786
 30
0.0
 10
16.1631820478
 20
11.196200788
 30
0.0
 10
16.1812210739
 20
11.1819544671
 30
0.0
 10
16.1994496275
 20
11.169335863
 30
0.0
 10
16.2178464333
 20
11.1583616392
 30
0.0
 10
16.2363897746
 20
11.1490468969
 30
0.0
 10
16.2550573887
 20
11.1414051394
 30
0.0
 10
16.2738260234
 20
11.1354481278
 30
0.0
 10
16.2926721938
 20
11.1311856221
 30
0.0
 10
16.3115688752
 20
11.1286250116
 30
0.0
 10
16.3242024
 20
11.1280549979
 30
0.0
 10
16.3304940643
 20
11.1280549934
 30
0.0
  0
SPLINE
  5
2C3
100
AcDbEntity
  8
LAYER_FEATURE
100
AcDbSpline
 62
7
  6
CONTINUOUS
 70
0
 71
3
 72
15
 73
11
 74
0
 42
0.0000001
 43
0.0000001
 44
0.0000000001
 40
0.0
 40
0.0
 40
0.0
 40
0.0
 40
0.081954447
 40
0.1706212576
 40
0.2710163174
 40
0.3860393376
 40
0.5168734714
 40
0.6634885691
 40
0.825023636
 40
1.0
 40
1.0
 40
1.0
 40
1.0
 10
14.2218768262
 20
13.1647482558
 30
0.0
 10
14.2217258317
 20
13.1647482533
 30
0.0
 10
14.2214096284
 20
13.1646949358
 30
0.0
 10
14.2209594684
 20
13.1644657328
 30
0.0
 10
14.2205312794
 20
13.1640982085
 30
0.0
 10
14.2201280827
 20
13.1636005362
 30
0.0
 10
14.2197533861
 20
13.1629800355
 30
0.0
 10
14.219411914
 20
13.1622454707
 30
0.0
 10
14.219108595
 20
13.1614076477
 30
0.0
 10
14.2189409426
 20
13.1608101617
 30
0.0
 10
14.2188635038
 20
13.1604972206
 30
0.0
  0
SPLINE
  5
2C4
100
AcDbEntity
  8
LAYER_FEATURE
100
AcDbSpline
 62
7
  6
CONTINUOUS
 70
0
 71
3
 72
15
 73
11
 74
0
 42
0.0000001
 43
0.0000001
 44
0.0000000001
 40
0.0
 40
0.0
 40
0.0
 40
0.0
 40
0.085851709
 40
0.1774225667
 40
0.2792248012
 40
0.3941414306
 40
0.5236377513
 40
0.6681055709
 40
0.8272097206
 40
1.0
 40
1.0
 40
1.0
 40
1.0
 10
14.2505134067
 20
13.2783638018
 30
0.0
 10
14.2503784148
 20
13.2783637929
 30
0.0
 10
14.2500980316
 20
13.2783218485
 30
0.0
 10
14.2496939328
 20
13.2781392167
 30
0.0
 10
14.2493055118
 20
13.277843764
 30
0.0
 10
14.2489356282
 20
13.2774413912
 30
0.0
 10
14.2485868969
 20
13.2769372625
 30
0.0
 10
14.2482626764
 20
13.2763371992
 30
0.0
 10
14.2479666507
 20
13.2756482817
 30
0.0
 10
14.2477969601
 20
13.2751542591
 30
0.0
 10
14.2477167435
 20
13.2748946781
 30
0.0
  0
SPLINE
  5
2C5
100
AcDbEntity
  8
LAYER_CUT_FEAT
100
AcDbSpline
 62
7
  6
CONTINUOUS
 70
0
 71
3
 72
30
 73
26
 74
0
 42
0.0000001
 43
0.0000001
 44
0.0000000001
 40
0.0
 40
0.0
 40
0.0
 40
0.0
 40
0.0154974391
 40
0.031363125
 40
0.0479347383
 40
0.0654980117
 40
0.0842778919
 40
0.104439693
 40
0.1260956206
 40
0.1493129437
 40
0.1741217555
 40
0.2005216263
 40
0.2284869691
 40
0.2579712722
 40
0.288910443
 40
0.321225476
 40
0.3895949307
 40
0.4622353843
 40
0.5381607583
 40
0.6162937715
 40
0.6954989985
 40
0.7746136274
 40
0.852477068
 40
0.9279606998
 40
1.0
 40
1.0
 40
1.0
 40
1.0
 10
16.0470408934
 20
11.8902458654
 30
0.0
 10
16.0478448449
 20
11.8902458729
 30
0.0
 10
16.0494750569
 20
11.8903853912
 30
0.0
 10
16.0518930533
 20
11.891008376
 30
0.0
 10
16.0542835442
 20
11.8920394991
 30
0.0
 10
16.0566351353
 20
11.8934705665
 30
0.0
 10
16.0589392846
 20
11.8952928079
 30
0.0
 10
16.0611877173
 20
11.8974970716
 30
0.0
 10
16.0633722868
 20
11.9000734693
 30
0.0
 10
16.0654846868
 20
11.9030109921
 30
0.0
 10
16.0675165594
 20
11.9062972604
 30
0.0
 10
16.0694596019
 20
11.9099184259
 30
0.0
 10
16.0713057028
 20
11.9138591643
 30
0.0
 10
16.0730470172
 20
11.9181027055
 30
0.0
 10
16.0746761651
 20
11.9226309443
 30
0.0
 10
16.0767277959
 20
11.9291451921
 30
0.0
 10
16.078943781
 20
11.9378675532
 30
0.0
 10
16.0810127021
 20
11.9489361993
 30
0.0
 10
16.0825026685
 20
11.9606079613
 30
0.0
 10
16.083387536
 20
11.9726819945
 30
0.0
 10
16.0836517125
 20
11.9849508449
 30
0.0
 10
16.083290552
 20
11.9972031974
 30
0.0
 10
16.0823103742
 20
12.0092283436
 30
0.0
 10
16.0807285744
 20
12.0208188505
 30
0.0
 10
16.0792502331
 20
12.0283336702
 30
0.0
 10
16.0784057474
 20
12.0319741456
 30
0.0
  0
SPLINE
  5
2C6
100
AcDbEntity
  8
02___PRT_ALL_AXES
100
AcDbSpline
 62
7
  6
CONTINUOUS
 70
0
 71
3
 72
51
 73
47
 74
0
 42
0.0000001
 43
0.0000001
 44
0.0000000001
 40
0.0
 40
0.0
 40
0.0
 40
0.0
 40
0.0077385506
 40
0.0156305487
 40
0.0237167213
 40
0.0320340898
 40
0.0406156753
 40
0.0494904023
 40
0.0586831587
 40
0.0682149661
 40
0.0781032151
 40
0.0883619426
 40
0.099002119
 40
0.1100319274
 40
0.1214570273
 40
0.1332807928
 40
0.1455045359
 40
0.1581277047
 40
0.1711480592
 40
0.184561825
 40
0.1983638274
 40
0.2125476135
 40
0.2271055636
 40
0.2420289864
 40
0.257308205
 40
0.2729326311
 40
0.3051691502
 40
0.3386397693
 40
0.3732334217
 40
0.4088299484
 40
0.4453015009
 40
0.4825137812
 40
0.5203272125
 40
0.5585980455
 40
0.5971794076
 40
0.6359223407
 40
0.6746768061
 40
0.7132926895
 40
0.7516207996
 40
0.7895138798
 40
0.8268276326
 40
0.8634217678
 40
0.8991611091
 40
0.933916727
 40
0.9675671639
 40
1.0
 40
1.0
 40
1.0
 40
1.0
 10
16.2852502297
 20
11.3486395415
 30
0.0
 10
16.2801115185
 20
11.3496767651
 30
0.0
 10
16.2698162471
 20
11.3522125968
 30
0.0
 10
16.2545642394
 20
11.357313882
 30
0.0
 10
16.2393931208
 20
11.3637363695
 30
0.0
 10
16.2243217617
 20
11.3714707729
 30
0.0
 10
16.2093666108
 20
11.3805068966
 30
0.0
 10
16.1945442392
 20
11.3908332647
 30
0.0
 10
16.1798707796
 20
11.4024372718
 30
0.0
 10
16.1653622034
 20
11.4153051292
 30
0.0
 10
16.1510343054
 20
11.4294218247
 30
0.0
 10
16.1369027538
 20
11.4447711001
 30
0.0
 10
16.1229830849
 20
11.4613354211
 30
0.0
 10
16.1092906894
 20
11.479095955
 30
0.0
 10
16.0958407934
 20
11.4980325578
 30
0.0
 10
16.0826484173
 20
11.5181237622
 30
0.0
 10
16.0697283574
 20
11.5393467941
 30
0.0
 10
16.0570951593
 20
11.5616775923
 30
0.0
 10
16.0447630888
 20
11.5850908278
 30
0.0
 10
16.0327461104
 20
11.6095599275
 30
0.0
 10
16.0210578526
 20
11.6350570944
 30
0.0
 10
16.0097115925
 20
11.6615533401
 30
0.0
 10
15.9987202306
 20
11.6890185322
 30
0.0
 10
15.9880963103
 20
11.7174213935
 30
0.0
 10
15.9778518438
 20
11.7467296776
 30
0.0
 10
15.9645763071
 20
11.7873932222
 30
0.0
 10
15.9490509868
 20
11.8402726105
 30
0.0
 10
15.9322985885
 20
11.9061360243
 30
0.0
 10
15.9173117962
 20
11.9747545322
 30
0.0
 10
15.9041592539
 20
12.0458153494
 30
0.0
 10
15.8929012309
 20
12.1189953884
 30
0.0
 10
15.8835893435
 20
12.1939613646
 30
0.0
 10
15.8762662819
 20
12.2703717694
 30
0.0
 10
15.8709656687
 20
12.3478783632
 30
0.0
 10
15.867711797
 20
12.4261278249
 30
0.0
 10
15.8665196071
 20
12.5047633887
 30
0.0
 10
15.8673945791
 20
12.5834265009
 30
0.0
 10
15.8703326737
 20
12.66175848
 30
0.0
 10
15.8753204373
 20
12.7394021769
 30
0.0
 10
15.882334969
 20
12.8160036375
 30
0.0
 10
15.8913440846
 20
12.8912137307
 30
0.0
 10
15.9023064936
 20
12.9646898243
 30
0.0
 10
15.9151718715
 20
13.036097214
 30
0.0
 10
15.9298813906
 20
13.1051113086
 30
0.0
 10
15.946367307
 20
13.1714170165
 30
0.0
 10
15.9587334712
 20
13.2144552084
 30
0.0
 10
15.9652203678
 20
13.2354468134
 30
0.0
  0
SPLINE
  5
2C7
100
AcDbEntity
  8
02___PRT_ALL_AXES
100
AcDbSpline
 62
7
  6
CONTINUOUS
 70
0
 71
3
 72
25
 73
21
 74
0
 42
0.0000001
 43
0.0000001
 44
0.0000000001
 40
0.0
 40
0.0
 40
0.0
 40
0.0
 40
0.0855338275
 40
0.1681803304
 40
0.2478120783
 40
0.3243189428
 40
0.3976123459
 40
0.4676276325
 40
0.5343277504
 40
0.5977075068
 40
0.6577987159
 40
0.714676341
 40
0.7684656407
 40
0.8193500928
 40
0.8675795784
 40
0.9134776034
 40
0.9356837065
 40
0.9574640883
 40
0.9788807852
 40
1.0
 40
1.0
 40
1.0
 40
1.0
 10
15.9652203678
 20
13.2354468134
 30
0.0
 10
15.9699725078
 20
13.2508247439
 30
0.0
 10
15.9797588627
 20
13.2809273181
 30
0.0
 10
15.995577633
 20
13.3248032359
 30
0.0
 10
16.0122510734
 20
13.3665391321
 30
0.0
 10
16.0297354613
 20
13.4060254965
 30
0.0
 10
16.0479852186
 20
13.4431594114
 30
0.0
 10
16.0669530293
 20
13.4778442273
 30
0.0
 10
16.0865900779
 20
13.5099899221
 30
0.0
 10
16.1068463569
 20
13.5395132333
 30
0.0
 10
16.1276709596
 20
13.5663377359
 30
0.0
 10
16.1490125298
 20
13.5903938131
 30
0.0
 10
16.1708191846
 20
13.6116182656
 30
0.0
 10
16.1930399076
 20
13.6299541924
 30
0.0
 10
16.2156199989
 20
13.6453486549
 30
0.0
 10
16.234906951
 20
13.6558017641
 30
0.0
 10
16.2504132012
 20
13.662577861
 30
0.0
 10
16.2619652134
 20
13.6668448205
 30
0.0
 10
16.2735573192
 20
13.6703482123
 30
0.0
 10
16.2813546541
 20
13.6721841417
 30
0.0
 10
16.2852502297
 20
13.6729704439
 30
0.0
  0
SPLINE
  5
2C8
100
AcDbEntity
  8
LAYER_CHAMFER_FEAT
100
AcDbSpline
 62
7
  6
CONTINUOUS
 70
0
 71
3
 72
66
 73
62
 74
0
 42
0.0000001
 43
0.0000001
 44
0.0000000001
 40
0.0
 40
0.0
 40
0.0
 40
0.0
 40
0.0113888645
 40
0.0222291354
 40
0.0325480752
 40
0.0375239933
 40
0.0423839882
 40
0.051778864
 40
0.0607915262
 40
0.0694895479
 40
0.0779507631
 40
0.0862616798
 40
0.0945147945
 40
0.102805015
 40
0.1112256939
 40
0.1198649157
 40
0.1288025866
 40
0.1381086054
 40
0.1478420937
 40
0.1580514647
 40
0.1687750406
 40
0.1800419604
 40
0.1918731861
 40
0.2042824899
 40
0.2172773601
 40
0.2308598006
 40
0.2450270203
 40
0.2597720221
 40
0.2750841017
 40
0.2909492721
 40
0.3073506252
 40
0.3242686432
 40
0.3416814682
 40
0.3595651391
 40
0.3778938021
 40
0.3966398989
 40
0.4157743392
 40
0.435266659
 40
0.4550851675
 40
0.4751970865
 40
0.4955686823
 40
0.5369501645
 40
0.5789471945
 40
0.6212678917
 40
0.6636164591
 40
0.7056967641
 40
0.7472159151
 40
0.7676762263
 40
0.7878897626
 40
0.8078224639
 40
0.8274411775
 40
0.8467137882
 40
0.8656093539
 40
0.88409825
 40
0.9021523232
 40
0.9197450571
 40
0.9368517572
 40
0.9534497441
 40
0.9695186047
 40
0.9850403804
 40
1.0
 40
1.0
 40
1.0
 40
1.0
 10
16.1434196247
 20
11.5343462889
 30
0.0
 10
16.1490378951
 20
11.5276153265
 30
0.0
 10
16.1603805523
 20
11.5147846419
 30
0.0
 10
16.1781590767
 20
11.4971028059
 30
0.0
 10
16.1934097453
 20
11.4839474715
 30
0.0
 10
16.2057425704
 20
11.4745257003
 30
0.0
 10
16.2178688511
 20
11.4660268582
 30
0.0
 10
16.2331847795
 20
11.4566888875
 30
0.0
 10
16.2519719028
 20
11.4475323129
 30
0.0
 10
16.2709210843
 20
11.4405766011
 30
0.0
 10
16.2899909253
 20
11.4358435517
 30
0.0
 10
16.3091374393
 20
11.4333492928
 30
0.0
 10
16.328313458
 20
11.4331031323
 30
0.0
 10
16.3474705291
 20
11.4351060096
 30
0.0
 10
16.3665610596
 20
11.4393503869
 30
0.0
 10
16.3855401595
 20
11.4458213933
 30
0.0
 10
16.4043663738
 20
11.4544986359
 30
0.0
 10
16.4230013512
 20
11.4653578018
 30
0.0
 10
16.4414089506
 20
11.4783715797
 30
0.0
 10
16.4595543203
 20
11.4935099085
 30
0.0
 10
16.4774032399
 20
11.510739811
 30
0.0
 10
16.4949217766
 20
11.5300250773
 30
0.0
 10
16.5120761864
 20
11.5513259643
 30
0.0
 10
16.5288329646
 20
11.5745989806
 30
0.0
 10
16.54515897
 20
11.5997967701
 30
0.0
 10
16.5610215735
 20
11.6268680769
 30
0.0
 10
16.5763888074
 20
11.6557577748
 30
0.0
 10
16.5912295022
 20
11.6864069395
 30
0.0
 10
16.6055134085
 20
11.7187529515
 30
0.0
 10
16.6192113043
 20
11.7527296203
 30
0.0
 10
16.6322950893
 20
11.7882673226
 30
0.0
 10
16.6447378679
 20
11.8252931516
 30
0.0
 10
16.6565140233
 20
11.8637310743
 30
0.0
 10
16.6675992838
 20
11.9035020954
 30
0.0
 10
16.6779707824
 20
11.9445244272
 30
0.0
 10
16.6876071118
 20
11.9867136656
 30
0.0
 10
16.6964883711
 20
12.0299829648
 30
0.0
 10
16.7045962204
 20
12.0742432404
 30
0.0
 10
16.7119138818
 20
12.1194032837
 30
0.0
 10
16.7184263291
 20
12.1653702355
 30
0.0
 10
16.7260571224
 20
12.2279327561
 30
0.0
 10
16.7334682342
 20
12.307479331
 30
0.0
 10
16.7389369327
 20
12.4041131467
 30
0.0
 10
16.740980937
 20
12.5016249362
 30
0.0
 10
16.7395833542
 20
12.5992122031
 30
0.0
 10
16.7347557016
 20
12.6960718405
 30
0.0
 10
16.7278748983
 20
12.7759050969
 30
0.0
 10
16.720663282
 20
12.8387714421
 30
0.0
 10
16.714457119
 20
12.8850172504
 30
0.0
 10
16.7074404827
 20
12.9304915672
 30
0.0
 10
16.6996277816
 20
12.97510088
 30
0.0
 10
16.6910351841
 20
13.0187532524
 30
0.0
 10
16.6816804356
 20
13.0613588016
 30
0.0
 10
16.6715828585
 20
13.1028298124
 30
0.0
 10
16.6607632977
 20
13.1430809436
 30
0.0
 10
16.6492440802
 20
13.1820294003
 30
0.0
 10
16.6370489486
 20
13.2195951271
 30
0.0
 10
16.6242030465
 20
13.2557009195
 30
0.0
 10
16.6107327134
 20
13.2902728254
 30
0.0
 10
16.5966658993
 20
13.3232393906
 30
0.0
 10
16.5867229016
 20
13.3445010029
 30
0.0
 10
16.5816493873
 20
13.354839738
 30
0.0
  0
SPLINE
  5
2C9
100
AcDbEntity
  8
LAYER_CHAMFER_FEAT
100
AcDbSpline
 62
7
  6
CONTINUOUS
 70
0
 71
3
 72
58
 73
54
 74
0
 42
0.0000001
 43
0.0000001
 44
0.0000000001
 40
0.0
 40
0.0
 40
0.0
 40
0.0
 40
0.0077261802
 40
0.0155163021
 40
0.0234323853
 40
0.0315328292
 40
0.0398711059
 40
0.0484949141
 40
0.057445778
 40
0.0667590102
 40
0.076463938
 40
0.0865842922
 40
0.0971386779
 40
0.1081410696
 40
0.1196012928
 40
0.1315254715
 40
0.1439164332
 40
0.1567740681
 40
0.1700956431
 40
0.1838760755
 40
0.1981081714
 40
0.2127828324
 40
0.2278892371
 40
0.2434149988
 40
0.2593463063
 40
0.2756680492
 40
0.2923639301
 40
0.3094165667
 40
0.3268075834
 40
0.3445176976
 40
0.3808125641
 40
0.4181332307
 40
0.4563002749
 40
0.4951264291
 40
0.5344184821
 40
0.5739791003
 40
0.6136086023
 40
0.6531067093
 40
0.6922742858
 40
0.730915092
 40
0.7688375728
 40
0.8058567039
 40
0.8417959242
 40
0.859309024
 40
0.8764908786
 40
0.8933227624
 40
0.9097869095
 40
0.9258666065
 40
0.9415462781
 40
0.9568116363
 40
0.9716496762
 40
0.9860491259
 40
1.0
 40
1.0
 40
1.0
 40
1.0
 10
16.3070070089
 20
11.4483050017
 30
0.0
 10
16.312336751
 20
11.4483050073
 30
0.0
 10
16.3230478243
 20
11.4488380733
 30
0.0
 10
16.3390586305
 20
11.4512316978
 30
0.0
 10
16.3550163191
 20
11.4552148289
 30
0.0
 10
16.3708929407
 20
11.4607786981
 30
0.0
 10
16.3866645194
 20
11.4679119301
 30
0.0
 10
16.4023075414
 20
11.4766010551
 30
0.0
 10
16.4177996192
 20
11.4868308193
 30
0.0
 10
16.4331189371
 20
11.4985843061
 30
0.0
 10
16.4482440897
 20
11.5118429258
 30
0.0
 10
16.4631539113
 20
11.526586336
 30
0.0
 10
16.4778274129
 20
11.5427923462
 30
0.0
 10
16.49224377
 20
11.5604368359
 30
0.0
 10
16.5063823491
 20
11.5794936961
 30
0.0
 10
16.520222758
 20
11.599934798
 30
0.0
 10
16.5337448972
 20
11.621729991
 30
0.0
 10
16.546929017
 20
11.6448471167
 30
0.0
 10
16.559755772
 20
11.6692520387
 30
0.0
 10
16.5722062706
 20
11.6949086827
 30
0.0
 10
16.5842621214
 20
11.7217790853
 30
0.0
 10
16.5959054743
 20
11.7498234482
 30
0.0
 10
16.6071190582
 20
11.7790001983
 30
0.0
 10
16.6178862166
 20
11.809266049
 30
0.0
 10
16.6281909405
 20
11.8405760682
 30
0.0
 10
16.6380178929
 20
11.8728837456
 30
0.0
 10
16.6473524455
 20
11.906141076
 30
0.0
 10
16.6561806673
 20
11.9402985882
 30
0.0
 10
16.6644894872
 20
11.9753055951
 30
0.0
 10
16.6749436803
 20
12.0234368589
 30
0.0
 10
16.6865937348
 20
12.0853645266
 30
0.0
 10
16.698213763
 20
12.1616091782
 30
0.0
 10
16.7075158682
 20
12.2399295968
 30
0.0
 10
16.7144443338
 20
12.3198598237
 30
0.0
 10
16.7189576366
 20
12.4009251538
 30
0.0
 10
16.7210287205
 20
12.4826436912
 30
0.0
 10
16.7206451786
 20
12.564529654
 30
0.0
 10
16.7178093126
 20
12.6460962174
 30
0.0
 10
16.7125381189
 20
12.7268585237
 30
0.0
 10
16.7048631807
 20
12.8063365133
 30
0.0
 10
16.69483049
 20
12.8840582418
 30
0.0
 10
16.6825001424
 20
12.9595613651
 30
0.0
 10
16.6702686735
 20
13.0207765123
 30
0.0
 10
16.6593610519
 20
13.0682680859
 30
0.0
 10
16.650726242
 20
13.1027505419
 30
0.0
 10
16.6415801635
 20
13.1363516155
 30
0.0
 10
16.6319363542
 20
13.1690214596
 30
0.0
 10
16.6218092024
 20
13.2007114815
 30
0.0
 10
16.611213778
 20
13.2313746318
 30
0.0
 10
16.6001658508
 20
13.2609653092
 30
0.0
 10
16.5886817944
 20
13.2894397878
 30
0.0
 10
16.5767788117
 20
13.3167553772
 30
0.0
 10
16.5684421353
 20
13.3344503202
 30
0.0
 10
16.5642024776
 20
13.3430898344
 30
0.0
  0
SPLINE
  5
2CA
100
AcDbEntity
  8
LAYER_FEATURE
100
AcDbSpline
 62
7
  6
CONTINUOUS
 70
0
 71
3
 72
27
 73
23
 74
0
 42
0.0000001
 43
0.0000001
 44
0.0000000001
 40
0.0
 40
0.0
 40
0.0
 40
0.0
 40
0.0217360928
 40
0.0435589473
 40
0.0655540489
 40
0.0878044202
 40
0.1103895463
 40
0.1333845018
 40
0.1568593094
 40
0.1808784465
 40
0.2307617254
 40
0.283453602
 40
0.3392638989
 40
0.398420736
 40
0.4610805892
 40
0.5273383092
 40
0.5972361207
 40
0.6707714062
 40
0.7479032445
 40
0.8285577902
 40
0.912632221
 40
1.0
 40
1.0
 40
1.0
 40
1.0
 10
14.6583078297
 20
13.8129299895
 30
0.0
 10
14.65378269
 20
13.8129299831
 30
0.0
 10
14.6447112789
 20
13.8126177162
 30
0.0
 10
14.6311261616
 20
13.8112138062
 30
0.0
 10
14.6175612916
 20
13.8088754459
 30
0.0
 10
14.6040278195
 20
13.8056046992
 30
0.0
 10
14.5905356115
 20
13.8014044639
 30
0.0
 10
14.5770947236
 20
13.796278428
 30
0.0
 10
14.5637145703
 20
13.7902306081
 30
0.0
 10
14.545744113
 20
13.7808273559
 30
0.0
 10
14.5234458358
 20
13.7666786009
 30
0.0
 10
14.4974451888
 20
13.7463256441
 30
0.0
 10
14.4719290342
 20
13.7224496969
 30
0.0
 10
14.4469651759
 20
13.6951229646
 30
0.0
 10
14.4226175838
 20
13.6644232483
 30
0.0
 10
14.3989512374
 20
13.6304372149
 30
0.0
 10
14.376030238
 20
13.5932602604
 30
0.0
 10
14.3539177476
 20
13.5529968294
 30
0.0
 10
14.3326754375
 20
13.5097603221
 30
0.0
 10
14.3123630449
 20
13.4636727061
 30
0.0
 10
14.293038185
 20
13.4148650824
 30
0.0
 10
14.2810722853
 20
13.3812303755
 30
0.0
 10
14.2752517877
 20
13.3639981141
 30
0.0
  0
SPLINE
  5
2CB
100
AcDbEntity
  8
LAYER_FEATURE
100
AcDbSpline
 62
7
  6
CONTINUOUS
 70
0
 71
3
 72
78
 73
74
 74
0
 42
0.0000001
 43
0.0000001
 44
0.0000000001
 40
0.0
 40
0.0
 40
0.0
 40
0.0
 40
0.0173115676
 40
0.0340660415
 40
0.0502396577
 40
0.0658116525
 40
0.0807650236
 40
0.0950868843
 40
0.1087690781
 40
0.121808865
 40
0.1342097448
 40
0.1459824371
 40
0.1571460231
 40
0.1677292411
 40
0.177771871
 40
0.1873260719
 40
0.1964574289
 40
0.2008905544
 40
0.205248891
 40
0.2095443869
 40
0.2137896806
 40
0.2179979818
 40
0.2221829422
 40
0.2263584989
 40
0.2305387055
 40
0.2347375571
 40
0.2389688209
 40
0.2432458727
 40
0.2475815562
 40
0.2519880674
 40
0.2564768532
 40
0.2657399344
 40
0.2754490767
 40
0.285665341
 40
0.2964366552
 40
0.3077989939
 40
0.3197777524
 40
0.3323891101
 40
0.3456412798
 40
0.3595355968
 40
0.3740674453
 40
0.3892270364
 40
0.4050000584
 40
0.4213682268
 40
0.4383097487
 40
0.4557997172
 40
0.4738104528
 40
0.4923118003
 40
0.5112713955
 40
0.5306549057
 40
0.5504262488
 40
0.5705477954
 40
0.5909805581
 40
0.6116843711
 40
0.6326180649
 40
0.6537396322
 40
0.6750063905
 40
0.69637514
 40
0.7178023203
 40
0.7392441658
 40
0.7606568595
 40
0.7819966868
 40
0.8032201891
 40
0.8242843202
 40
0.845146603
 40
0.8657652896
 40
0.8860995238
 40
0.90610951
 40
0.9257566893
 40
0.9450039181
 40
0.9638156931
 40
0.9821582233
 40
1.0
 40
1.0
 40
1.0
 40
1.0
 10
15.9129234833
 20
13.325233732
 30
0.0
 10
15.9180330997
 20
13.3417684567
 30
0.0
 10
15.9285434618
 20
13.37416753
 30
0.0
 10
15.9454805281
 20
13.4214579853
 30
0.0
 10
15.9632994634
 20
13.4665598595
 30
0.0
 10
15.9819575244
 20
13.5093649019
 30
0.0
 10
16.001410179
 20
13.549771025
 30
0.0
 10
16.0216112233
 20
13.5876819636
 30
0.0
 10
16.0425129584
 20
13.6230076175
 30
0.0
 10
16.0640664359
 20
13.6556641966
 30
0.0
 10
16.0862217397
 20
13.6855743356
 30
0.0
 10
16.108928245
 20
13.712667088
 30
0.0
 10
16.1321350071
 20
13.7368778147
 30
0.0
 10
16.1557905937
 20
13.7581477392
 30
0.0
 10
16.1798442914
 20
13.7764237852
 30
0.0
 10
16.2042413565
 20
13.7916565391
 30
0.0
 10
16.2250223656
 20
13.8018788001
 30
0.0
 10
16.2417090904
 20
13.8084266606
 30
0.0
 10
16.2541472551
 20
13.8125073443
 30
0.0
 10
16.2666222025
 20
13.8158021696
 30
0.0
 10
16.2791264655
 20
13.8183090605
 30
0.0
 10
16.2916521044
 20
13.8200260788
 30
0.0
 10
16.3041911696
 20
13.8209519685
 30
0.0
 10
16.3167356261
 20
13.8210860706
 30
0.0
 10
16.329277416
 20
13.8204282064
 30
0.0
 10
16.3418085008
 20
13.8189789591
 30
0.0
 10
16.3543208786
 20
13.8167393476
 30
0.0
 10
16.366806664
 20
13.8137110338
 30
0.0
 10
16.3792579913
 20
13.8098962726
 30
0.0
 10
16.3916674537
 20
13.8052975027
 30
0.0
 10
16.4083193968
 20
13.7980503009
 30
0.0
 10
16.4290363144
 20
13.7869583934
 30
0.0
 10
16.4533250834
 20
13.7707143669
 30
0.0
 10
16.4772530192
 20
13.751442566
 30
0.0
 10
16.5007658083
 20
13.7291939886
 30
0.0
 10
16.5238128122
 20
13.7040233903
 30
0.0
 10
16.5463426602
 20
13.6759914674
 30
0.0
 10
16.5683045124
 20
13.6451649094
 30
0.0
 10
16.589647939
 20
13.6116167837
 30
0.0
 10
16.6103233157
 20
13.5754265877
 30
0.0
 10
16.6302820798
 20
13.5366802145
 30
0.0
 10
16.6494769966
 20
13.495469819
 30
0.0
 10
16.6678623939
 20
13.4518936307
 30
0.0
 10
16.6853943439
 20
13.4060557126
 30
0.0
 10
16.7020308318
 20
13.358065701
 30
0.0
 10
16.7177319016
 20
13.308038527
 30
0.0
 10
16.7324597813
 20
13.2560941276
 30
0.0
 10
16.7461790067
 20
13.2023571466
 30
0.0
 10
16.7588565167
 20
13.1469566181
 30
0.0
 10
16.7704617402
 20
13.0900256409
 30
0.0
 10
16.7809666789
 20
13.0317010476
 30
0.0
 10
16.7903459785
 20
12.972123068
 30
0.0
 10
16.798576998
 20
12.9114349858
 30
0.0
 10
16.8056398711
 20
12.8497827882
 30
0.0
 10
16.8115175465
 20
12.7873148057
 30
0.0
 10
16.8161958317
 20
12.7241813502
 30
0.0
 10
16.819663428
 20
12.6605343496
 30
0.0
 10
16.8219119579
 20
12.5965269795
 30
0.0
 10
16.8229359956
 20
12.5323132908
 30
0.0
 10
16.8227330703
 20
12.468047835
 30
0.0
 10
16.8213036721
 20
12.4038852889
 30
0.0
 10
16.8186512519
 20
12.3399800797
 30
0.0
 10
16.8147822101
 20
12.2764860106
 30
0.0
 10
16.8097058913
 20
12.2135558861
 30
0.0
 10
16.8034345564
 20
12.1513411402
 30
0.0
 10
16.7959833486
 20
12.0899914693
 30
0.0
 10
16.7873702563
 20
12.0296544673
 30
0.0
 10
16.77761607
 20
11.97047527
 30
0.0
 10
16.7667443255
 20
11.9125961833
 30
0.0
 10
16.754781277
 20
11.8561563757
 30
0.0
 10
16.7417557331
 20
11.8012913879
 30
0.0
 10
16.7276992821
 20
11.7481334934
 30
0.0
 10
16.7175167462
 20
11.7134173949
 30
0.0
 10
16.7122506353
 20
11.6963762538
 30
0.0
  0
SPLINE
  5
2CC
100
AcDbEntity
  8
LAYER_FEATURE
100
AcDbSpline
 62
7
  6
CONTINUOUS
 70
0
 71
3
 72
34
 73
30
 74
0
 42
0.0000001
 43
0.0000001
 44
0.0000000001
 40
0.0
 40
0.0
 40
0.0
 40
0.0
 40
0.0879664416
 40
0.1726604024
 40
0.2539271956
 40
0.3316368857
 40
0.369127816
 40
0.4056947085
 40
0.4413304631
 40
0.4760305009
 40
0.5097929191
 40
0.5426187364
 40
0.5745121897
 40
0.6054809599
 40
0.635536477
 40
0.6646943035
 40
0.6929744473
 40
0.72040172
 40
0.7728086288
 40
0.7978803212
 40
0.8222543067
 40
0.8459850007
 40
0.86913345
 40
0.8917673231
 40
0.9139606913
 40
0.9357935273
 40
0.9573509792
 40
0.9787223813
 40
1.0
 40
1.0
 40
1.0
 40
1.0
 10
15.9086974232
 20
13.3703361765
 30
0.0
 10
15.9148624811
 20
13.3902863113
 30
0.0
 10
15.927589914
 20
13.4292547538
 30
0.0
 10
15.9482986077
 20
13.4858752554
 30
0.0
 10
15.9702116093
 20
13.5394205451
 30
0.0
 10
15.9896445925
 20
13.5818329717
 30
0.0
 10
16.005768033
 20
13.6140524283
 30
0.0
 10
16.0179729618
 20
13.6370563331
 30
0.0
 10
16.0304249345
 20
13.6591703342
 30
0.0
 10
16.0431142727
 20
13.6803771117
 30
0.0
 10
16.0560310119
 20
13.7006599548
 30
0.0
 10
16.0691650753
 20
13.7200028978
 30
0.0
 10
16.0825061971
 20
13.7383907434
 30
0.0
 10
16.0960439776
 20
13.7558090089
 30
0.0
 10
16.1097679963
 20
13.7722440234
 30
0.0
 10
16.1236673944
 20
13.7876826227
 30
0.0
 10
16.1377322454
 20
13.8021134053
 30
0.0
 10
16.1564054367
 20
13.8197253304
 30
0.0
 10
16.1756434588
 20
13.8356080423
 30
0.0
 10
16.1954199696
 20
13.8495318331
 30
0.0
 10
16.2101448402
 20
13.8587631451
 30
0.0
 10
16.2249678929
 20
13.8669281693
 30
0.0
 10
16.2398780798
 20
13.8740200631
 30
0.0
 10
16.2548635915
 20
13.8800324005
 30
0.0
 10
16.2699125229
 20
13.8849596755
 30
0.0
 10
16.2850125844
 20
13.8887971594
 30
0.0
 10
16.300151583
 20
13.8915410154
 30
0.0
 10
16.3153157276
 20
13.893188478
 30
0.0
 10
16.3254432998
 20
13.893554996
 30
0.0
 10
16.3304940643
 20
13.8935549924
 30
0.0
  0
SPLINE
  5
2CD
100
AcDbEntity
  8
LAYER_FEATURE
100
AcDbSpline
 62
7
  6
CONTINUOUS
 70
0
 71
3
 72
53
 73
49
 74
0
 42
0.0000001
 43
0.0000001
 44
0.0000000001
 40
0.0
 40
0.0
 40
0.0
 40
0.0
 40
0.0330501409
 40
0.067381012
 40
0.1028690694
 40
0.1393807238
 40
0.1767740606
 40
0.2149002699
 40
0.2536049884
 40
0.2927295669
 40
0.3321123004
 40
0.3715896279
 40
0.4109973099
 40
0.4501716062
 40
0.4889504543
 40
0.527174661
 40
0.5646891302
 40
0.601344126
 40
0.6369965981
 40
0.6715116134
 40
0.6883037532
 40
0.7047654501
 40
0.7208828494
 40
0.7366429332
 40
0.7520335936
 40
0.7670437095
 40
0.7816632319
 40
0.7958832791
 40
0.8096962438
 40
0.8230959134
 40
0.8360776075
 40
0.8486383329
 40
0.8607769578
 40
0.8724944095
 40
0.8837938995
 40
0.8946811758
 40
0.9051648042
 40
0.9152564766
 40
0.9249713373
 40
0.9343283167
 40
0.9433504534
 40
0.9520651744
 40
0.9605044892
 40
0.9687050472
 40
0.9767079974
 40
0.9845585973
 40
0.9923055395
 40
1.0
 40
1.0
 40
1.0
 40
1.0
 10
14.2186041836
 20
13.3703361765
 30
0.0
 10
14.2106252157
 20
13.3445162268
 30
0.0
 10
14.195444159
 20
13.2915350815
 30
0.0
 10
14.1753020992
 20
13.2098500771
 30
0.0
 10
14.157428563
 20
13.1247447639
 30
0.0
 10
14.1419119803
 20
13.0366363056
 30
0.0
 10
14.1288285794
 20
12.9459546813
 30
0.0
 10
14.11824283
 20
12.8531434085
 30
0.0
 10
14.1102068885
 20
12.7586564608
 30
0.0
 10
14.1047603591
 20
12.6629562288
 30
0.0
 10
14.1019300696
 20
12.5665111394
 30
0.0
 10
14.1017299771
 20
12.4697933322
 30
0.0
 10
14.1041610789
 20
12.3732763047
 30
0.0
 10
14.1092113765
 20
12.2774325525
 30
0.0
 10
14.1168559798
 20
12.1827312249
 30
0.0
 10
14.1270572339
 20
12.0896357524
 30
0.0
 10
14.1397648611
 20
11.9986016417
 30
0.0
 10
14.1549162743
 20
11.9100737584
 30
0.0
 10
14.1724368663
 20
11.8244856319
 30
0.0
 10
14.1890886447
 20
11.755339937
 30
0.0
 10
14.203563304
 20
11.7018471254
 30
0.0
 10
14.2148553851
 20
11.6630855324
 30
0.0
 10
14.2266685856
 20
11.6253629139
 30
0.0
 10
14.2389885348
 20
11.5887253174
 30
0.0
 10
14.2518001115
 20
11.5532175862
 30
0.0
 10
14.2650876366
 20
11.5188831238
 30
0.0
 10
14.2788348544
 20
11.4857638886
 30
0.0
 10
14.2930249678
 20
11.4539003293
 30
0.0
 10
14.3076406615
 20
11.4233313382
 30
0.0
 10
14.3226641316
 20
11.394094202
 30
0.0
 10
14.3380771159
 20
11.3662245548
 30
0.0
 10
14.3538609217
 20
11.3397563333
 30
0.0
 10
14.3699964689
 20
11.3147217447
 30
0.0
 10
14.3864643272
 20
11.2911512379
 30
0.0
 10
14.4032447571
 20
11.2690734828
 30
0.0
 10
14.4203177508
 20
11.248515358
 30
0.0
 10
14.4376630743
 20
11.2295019525
 30
0.0
 10
14.4552602961
 20
11.2120565759
 30
0.0
 10
14.4730888097
 20
11.1962007926
 30
0.0
 10
14.4911278371
 20
11.1819544765
 30
0.0
 10
14.5093563898
 20
11.16933587
 30
0.0
 10
14.527753193
 20
11.1583616375
 30
0.0
 10
14.546296533
 20
11.1490468878
 30
0.0
 10
14.5649641483
 20
11.1414051317
 30
0.0
 10
14.583732784
 20
11.1354481274
 30
0.0
 10
14.6025789549
 20
11.131185626
 30
0.0
 10
14.6214756361
 20
11.1286250287
 30
0.0
 10
14.6341091605
 20
11.128054989
 30
0.0
 10
14.6404008247
 20
11.1280549981
 30
0.0
  0
SPLINE
  5
2CE
100
AcDbEntity
  8
LAYER_FEATURE
100
AcDbSpline
 62
7
  6
CONTINUOUS
 70
0
 71
3
 72
38
 73
34
 74
0
 42
0.0000001
 43
0.0000001
 44
0.0000000001
 40
0.0
 40
0.0
 40
0.0
 40
0.0
 40
0.0908604414
 40
0.1348712407
 40
0.177899883
 40
0.2199225304
 40
0.2609181602
 40
0.3008683773
 40
0.3397575736
 40
0.377573256
 40
0.4143063164
 40
0.4499513282
 40
0.4845068814
 40
0.5179759734
 40
0.5503664706
 40
0.5816915721
 40
0.611970325
 40
0.6412282022
 40
0.6694977402
 40
0.696819156
 40
0.7232409602
 40
0.7488205426
 40
0.7736246737
 40
0.7977298019
 40
0.8212220919
 40
0.8441971315
 40
0.8667592157
 40
0.8890201292
 40
0.9110974458
 40
0.9331124182
 40
0.9551875767
 40
0.9774442178
 40
1.0
 40
1.0
 40
1.0
 40
1.0
 10
14.2586442536
 20
13.325233732
 30
0.0
 10
14.2651863707
 20
13.3464040307
 30
0.0
 10
14.2754606221
 20
13.3776603058
 30
0.0
 10
14.2902402231
 20
13.418451927
 30
0.0
 10
14.3015738664
 20
13.4478175185
 30
0.0
 10
14.313262514
 20
13.4762501502
 30
0.0
 10
14.3252946439
 20
13.5037217298
 30
0.0
 10
14.3376582759
 20
13.5302049513
 30
0.0
 10
14.3503411673
 20
13.5556735525
 30
0.0
 10
14.3633307665
 20
13.5801022645
 30
0.0
 10
14.3766142271
 20
13.6034668852
 30
0.0
 10
14.3901784415
 20
13.6257442783
 30
0.0
 10
14.4040100633
 20
13.6469123869
 30
0.0
 10
14.418095534
 20
13.6669502498
 30
0.0
 10
14.4324210722
 20
13.6858380405
 30
0.0
 10
14.4469727194
 20
13.7035570609
 30
0.0
 10
14.4617363631
 20
13.7200897333
 30
0.0
 10
14.4766977615
 20
13.7354195929
 30
0.0
 10
14.4918425275
 20
13.7495313116
 30
0.0
 10
14.5071561551
 20
13.762410663
 30
0.0
 10
14.522624019
 20
13.7740444851
 30
0.0
 10
14.5382313542
 20
13.7844206484
 30
0.0
 10
14.5539631878
 20
13.7935280796
 30
0.0
 10
14.5698042899
 20
13.8013567424
 30
0.0
 10
14.5857390992
 20
13.8078976445
 30
0.0
 10
14.6017516357
 20
13.8131429008
 30
0.0
 10
14.6178254217
 20
13.8170859025
 30
0.0
 10
14.6339434675
 20
13.8197214667
 30
0.0
 10
14.6500883665
 20
13.8210459771
 30
0.0
 10
14.6662422894
 20
13.8210575736
 30
0.0
 10
14.6823876836
 20
13.8197561611
 30
0.0
 10
14.6985056238
 20
13.8171439001
 30
0.0
 10
14.7091353145
 20
13.8145517053
 30
0.0
 10
14.7144264847
 20
13.8130480924
 30
0.0
  0
SPLINE
  5
2CF
100
AcDbEntity
  8
LAYER_FEATURE
100
AcDbSpline
 62
7
  6
CONTINUOUS
 70
0
 71
3
 72
57
 73
53
 74
0
 42
0.0000001
 43
0.0000001
 44
0.0000000001
 40
0.0
 40
0.0
 40
0.0
 40
0.0
 40
0.0167610357
 40
0.0338811003
 40
0.0513436378
 40
0.0691316871
 40
0.1056102413
 40
0.1431665298
 40
0.1816391691
 40
0.2208589347
 40
0.2606504086
 40
0.300833541
 40
0.3412251579
 40
0.3816404378
 40
0.4218943739
 40
0.4618032324
 40
0.5011860208
 40
0.5398659912
 40
0.5776721867
 40
0.6144410596
 40
0.6323885784
 40
0.6500197175
 40
0.6673169194
 40
0.6842634462
 40
0.7008434531
 40
0.7170420668
 40
0.7328454723
 40
0.748241008
 40
0.7632172707
 40
0.7777642346
 40
0.7918733843
 40
0.8055378642
 40
0.8187526489
 40
0.8315147383
 40
0.8438233797
 40
0.8556803224
 40
0.8670901053
 40
0.8780603832
 40
0.8886022882
 40
0.8987308213
 40
0.9084652644
 40
0.917829591
 40
0.9268528401
 40
0.9355694033
 40
0.9440191566
 40
0.9522473595
 40
0.9603042451
 40
0.9682442474
 40
0.9761248633
 40
0.9840052113
 40
0.9919444174
 40
1.0
 40
1.0
 40
1.0
 40
1.0
 10
14.2586442536
 20
13.325233732
 30
0.0
 10
14.2547164991
 20
13.3125235136
 30
0.0
 10
14.2470529258
 20
13.2867447101
 30
0.0
 10
14.236237329
 20
13.2474520017
 30
0.0
 10
14.2259905154
 20
13.2071653452
 30
0.0
 10
14.2129966429
 20
13.1517336124
 30
0.0
 10
14.1983116391
 20
13.080331486
 30
0.0
 10
14.1833034664
 20
12.9922883789
 30
0.0
 10
14.1708459525
 20
12.9016520646
 30
0.0
 10
14.1610066546
 20
12.8089111012
 30
0.0
 10
14.1538389471
 20
12.7145644572
 30
0.0
 10
14.1493817258
 20
12.6191202588
 30
0.0
 10
14.1476591888
 20
12.5230925729
 30
0.0
 10
14.1486806773
 20
12.4269986938
 30
0.0
 10
14.1524406433
 20
12.3313562779
 30
0.0
 10
14.158918683
 20
12.2366804819
 30
0.0
 10
14.1680796535
 20
12.1434812402
 30
0.0
 10
14.1798738474
 20
12.0522600524
 30
0.0
 10
14.1942372872
 20
11.9635086589
 30
0.0
 10
14.2083945415
 20
11.8914343956
 30
0.0
 10
14.2209767876
 20
11.8354046987
 30
0.0
 10
14.2309273808
 20
11.7946311036
 30
0.0
 10
14.2414539749
 20
11.7548236231
 30
0.0
 10
14.2525424516
 20
11.7160357726
 30
0.0
 10
14.2641778201
 20
11.6783198286
 30
0.0
 10
14.2763443901
 20
11.6417265677
 30
0.0
 10
14.2890257566
 20
11.6063052447
 30
0.0
 10
14.3022048356
 20
11.5721035121
 30
0.0
 10
14.3158638897
 20
11.5391673567
 30
0.0
 10
14.3299845576
 20
11.5075410334
 30
0.0
 10
14.3445478843
 20
11.4772670032
 30
0.0
 10
14.3595343597
 20
11.4483858775
 30
0.0
 10
14.3749239566
 20
11.4209363647
 30
0.0
 10
14.3906961721
 20
11.3949552224
 30
0.0
 10
14.4068300736
 20
11.3704772157
 30
0.0
 10
14.4233043475
 20
11.3475350848
 30
0.0
 10
14.4400973515
 20
11.3261595233
 30
0.0
 10
14.4571871659
 20
11.3063791716
 30
0.0
 10
14.4745516385
 20
11.2882206268
 30
0.0
 10
14.4921684245
 20
11.2717084815
 30
0.0
 10
14.5100149974
 20
11.2568653822
 30
0.0
 10
14.528068623
 20
11.2437121068
 30
0.0
 10
14.5463062748
 20
11.2322676433
 30
0.0
 10
14.5647044804
 20
11.2225492422
 30
0.0
 10
14.5832390971
 20
11.2145723946
 30
0.0
 10
14.6018850593
 20
11.2083506868
 30
0.0
 10
14.6206161426
 20
11.2038954785
 30
0.0
 10
14.6394049526
 20
11.2012154663
 30
0.0
 10
14.6582228802
 20
11.2003161147
 30
0.0
 10
14.6770413273
 20
11.2011994509
 30
0.0
 10
14.6958293517
 20
11.2038631233
 30
0.0
 10
14.7082020048
 20
11.206795394
 30
0.0
 10
14.7143528369
 20
11.2085409793
 30
0.0
  0
SPLINE
  5
2D0
100
AcDbEntity
  8
LAYER_FEATURE
100
AcDbSpline
 62
7
  6
CONTINUOUS
 70
0
 71
3
 72
13
 73
9
 74
0
 42
0.0000001
 43
0.0000001
 44
0.0000000001
 40
0.0
 40
0.0
 40
0.0
 40
0.0
 40
0.1182899336
 40
0.2431808525
 40
0.5035762747
 40
0.7621200808
 40
0.8847567654
 40
1.0
 40
1.0
 40
1.0
 40
1.0
 10
14.2426207261
 20
13.2565035512
 30
0.0
 10
14.2425226085
 20
13.2561070441
 30
0.0
 10
14.2423528018
 20
13.255283775
 30
0.0
 10
14.2421155773
 20
13.253560166
 30
0.0
 10
14.2420149659
 20
13.2513339239
 30
0.0
 10
14.2421629468
 20
13.2491179148
 30
0.0
 10
14.2424382195
 20
13.2474249276
 30
0.0
 10
14.2426263184
 20
13.2466243603
 30
0.0
 10
14.2427334243
 20
13.2462410988
 30
0.0
  0
SPLINE
  5
2D1
100
AcDbEntity
  8
LAYER_FEATURE
100
AcDbSpline
 62
7
  6
CONTINUOUS
 70
0
 71
3
 72
12
 73
8
 74
0
 42
0.0000001
 43
0.0000001
 44
0.0000000001
 40
0.0
 40
0.0
 40
0.0
 40
0.0
 40
0.2615789471
 40
0.5201697721
 40
0.7685301428
 40
0.8867706156
 40
1.0
 40
1.0
 40
1.0
 40
1.0
 10
14.2526199478
 20
13.1905727282
 30
0.0
 10
14.2527397803
 20
13.1933850077
 30
0.0
 10
14.2527775831
 20
13.1989880297
 30
0.0
 10
14.2522485061
 20
13.2072476269
 30
0.0
 10
14.2513205462
 20
13.2139189367
 30
0.0
 10
14.2502860597
 20
13.2189790213
 30
0.0
 10
14.2496767856
 20
13.221395376
 30
0.0
 10
14.2493488429
 20
13.222568867
 30
0.0
  0
SPLINE
  5
2D2
100
AcDbEntity
  8
LAYER_FEATURE
100
AcDbSpline
 62
7
  6
CONTINUOUS
 70
0
 71
3
 72
13
 73
9
 74
0
 42
0.0000001
 43
0.0000001
 44
0.0000000001
 40
0.0
 40
0.0
 40
0.0
 40
0.0
 40
0.2529916972
 40
0.5167750662
 40
0.6466485657
 40
0.7719279588
 40
0.8903721463
 40
1.0
 40
1.0
 40
1.0
 40
1.0
 10
14.2145440194
 20
13.1408389589
 30
0.0
 10
14.2143791143
 20
13.1399871563
 30
0.0
 10
14.2141657515
 20
13.1382223487
 30
0.0
 10
14.2141524027
 20
13.1359999247
 30
0.0
 10
14.2142961237
 20
13.1342251534
 30
0.0
 10
14.2144779171
 20
13.1329559583
 30
0.0
 10
14.2147299334
 20
13.1317697176
 30
0.0
 10
14.2149507375
 20
13.1310182134
 30
0.0
 10
14.2150738364
 20
13.1306629759
 30
0.0
  0
SPLINE
  5
2D3
100
AcDbEntity
  8
LAYER_FEATURE
100
AcDbSpline
 62
7
  6
CONTINUOUS
 70
0
 71
3
 72
13
 73
9
 74
0
 42
0.0000001
 43
0.0000001
 44
0.0000000001
 40
0.0
 40
0.0
 40
0.0
 40
0.0
 40
0.2680247549
 40
0.5286727425
 40
0.6539861882
 40
0.7748142302
 40
0.8903838785
 40
1.0
 40
1.0
 40
1.0
 40
1.0
 10
14.2271721983
 20
13.0779533233
 30
0.0
 10
14.2271768615
 20
13.0807594547
 30
0.0
 10
14.2269910369
 20
13.0862966702
 30
0.0
 10
14.2262675889
 20
13.0931123488
 30
0.0
 10
14.2253922339
 20
13.0983469111
 30
0.0
 10
14.2246097119
 20
13.102053489
 30
0.0
 10
14.2236994254
 20
13.1055612375
 30
0.0
 10
14.2229923677
 20
13.107811762
 30
0.0
 10
14.2226166004
 20
13.1088961472
 30
0.0
  0
SPLINE
  5
2D4
100
AcDbEntity
  8
LAYER_FEATURE
100
AcDbSpline
 62
7
  6
CONTINUOUS
 70
0
 71
3
 72
13
 73
9
 74
0
 42
0.0000001
 43
0.0000001
 44
0.0000000001
 40
0.0
 40
0.0
 40
0.0
 40
0.0
 40
0.2631229436
 40
0.5302425362
 40
0.6591429089
 40
0.7817524493
 40
0.8959614483
 40
1.0
 40
1.0
 40
1.0
 40
1.0
 10
14.1913292818
 20
13.0182715827
 30
0.0
 10
14.1912017541
 20
13.0173925963
 30
0.0
 10
14.1910603269
 20
13.0156034187
 30
0.0
 10
14.1911346945
 20
13.0133746024
 30
0.0
 10
14.1913505846
 20
13.0116362801
 30
0.0
 10
14.1915824554
 20
13.0104226944
 30
0.0
 10
14.1918807239
 20
13.0093103477
 30
0.0
 10
14.1921323837
 20
13.0086164863
 30
0.0
 10
14.1922704129
 20
13.0082935593
 30
0.0
  0
SPLINE
  5
2D5
100
AcDbEntity
  8
LAYER_FEATURE
100
AcDbSpline
 62
7
  6
CONTINUOUS
 70
0
 71
3
 72
13
 73
9
 74
0
 42
0.0000001
 43
0.0000001
 44
0.0000000001
 40
0.0
 40
0.0
 40
0.0
 40
0.0
 40
0.2747432953
 40
0.5374866134
 40
0.6621493713
 40
0.7812441234
 40
0.8940626539
 40
1.0
 40
1.0
 40
1.0
 40
1.0
 10
14.206448061
 20
12.9591201226
 30
0.0
 10
14.2063393658
 20
12.961889419
 30
0.0
 10
14.2059357574
 20
12.9673015648
 30
0.0
 10
14.2049392336
 20
12.9739139157
 30
0.0
 10
14.2038517241
 20
12.9789076424
 30
0.0
 10
14.202923365
 20
12.9823842151
 30
0.0
 10
14.2018760723
 20
12.9856289256
 30
0.0
 10
14.2010778882
 20
12.9876879884
 30
0.0
 10
14.2006578822
 20
12.9886706156
 30
0.0
  0
SPLINE
  5
2D6
100
AcDbEntity
  8
LAYER_FEATURE
100
AcDbSpline
 62
7
  6
CONTINUOUS
 70
0
 71
3
 72
15
 73
11
 74
0
 42
0.0000001
 43
0.0000001
 44
0.0000000001
 40
0.0
 40
0.0
 40
0.0
 40
0.0
 40
0.0918530068
 40
0.1888530793
 40
0.2942383346
 40
0.4103051267
 40
0.5384709628
 40
0.679440678
 40
0.8333709528
 40
1.0
 40
1.0
 40
1.0
 40
1.0
 10
14.1904612096
 20
12.9183899002
 30
0.0
 10
14.1910164699
 20
12.9184264404
 30
0.0
 10
14.1921527099
 20
12.9186396472
 30
0.0
 10
14.1938007351
 20
12.9193496359
 30
0.0
 10
14.1954049555
 20
12.920438738
 30
0.0
 10
14.1969548413
 20
12.9218925742
 30
0.0
 10
14.1984420192
 20
12.9236976814
 30
0.0
 10
14.1998568043
 20
12.9258395233
 30
0.0
 10
14.2011889836
 20
12.9283010886
 30
0.0
 10
14.2019847452
 20
12.9300745245
 30
0.0
 10
14.202369392
 20
12.9310078364
 30
0.0
  0
SPLINE
  5
2D7
100
AcDbEntity
  8
LAYER_FEATURE
100
AcDbSpline
 62
7
  6
CONTINUOUS
 70
0
 71
3
 72
16
 73
12
 74
0
 42
0.0000001
 43
0.0000001
 44
0.0000000001
 40
0.0
 40
0.0
 40
0.0
 40
0.0
 40
0.0373029826
 40
0.0760953257
 40
0.1614249676
 40
0.2613844656
 40
0.3781622341
 40
0.5119440174
 40
0.6616129747
 40
0.8251639905
 40
1.0
 40
1.0
 40
1.0
 40
1.0
 10
14.1791184502
 20
12.9176434624
 30
0.0
 10
14.1790293088
 20
12.9176375963
 30
0.0
 10
14.1788482197
 20
12.9176079068
 30
0.0
 10
14.1784826801
 20
12.9174766391
 30
0.0
 10
14.1780323529
 20
12.9171696776
 30
0.0
 10
14.1775463863
 20
12.9166279223
 30
0.0
 10
14.177099169
 20
12.9159138414
 30
0.0
 10
14.1766983674
 20
12.9150409979
 30
0.0
 10
14.1763514396
 20
12.9140267135
 30
0.0
 10
14.1760658709
 20
12.912892199
 30
0.0
 10
14.1759244464
 20
12.912093528
 30
0.0
 10
14.1758643285
 20
12.9116791642
 30
0.0
  0
SPLINE
  5
2D8
100
AcDbEntity
  8
LAYER_FEATURE
100
AcDbSpline
 62
7
  6
CONTINUOUS
 70
0
 71
3
 72
51
 73
47
 74
0
 42
0.0000001
 43
0.0000001
 44
0.0000000001
 40
0.0
 40
0.0
 40
0.0
 40
0.0
 40
0.0391360161
 40
0.0787775824
 40
0.1188103606
 40
0.15911762
 40
0.1995813313
 40
0.2400826751
 40
0.2805026393
 40
0.320722622
 40
0.3606250388
 40
0.4000939255
 40
0.4390155676
 40
0.4772791301
 40
0.5147773194
 40
0.5514070805
 40
0.5870703156
 40
0.6216747006
 40
0.6551345241
 40
0.6873716901
 40
0.7183168064
 40
0.7479104918
 40
0.7621860524
 40
0.776106896
 40
0.7896691579
 40
0.8028699614
 40
0.8157074922
 40
0.828181083
 40
0.8402913256
 40
0.8520401927
 40
0.8634311492
 40
0.8744692915
 40
0.8851615117
 40
0.8955166505
 40
0.9055456583
 40
0.9152617747
 40
0.9246807032
 40
0.9338207516
 40
0.9427029576
 40
0.9513511786
 40
0.9597920984
 40
0.9680551475
 40
0.9761723265
 40
0.9841779061
 40
0.9921079946
 40
1.0
 40
1.0
 40
1.0
 40
1.0
 10
14.1758643285
 20
12.9116791642
 30
0.0
 10
14.1727783052
 20
12.8871882625
 30
0.0
 10
14.167184628
 20
12.8378101594
 30
0.0
 10
14.1605521972
 20
12.7631592729
 30
0.0
 10
14.1556388214
 20
12.687634958
 30
0.0
 10
14.1524616458
 20
12.6114989654
 30
0.0
 10
14.1510316969
 20
12.5350145754
 30
0.0
 10
14.1513539651
 20
12.4584464388
 30
0.0
 10
14.1534273012
 20
12.3820594425
 30
0.0
 10
14.1572445346
 20
12.3061178566
 30
0.0
 10
14.1627923578
 20
12.2308843859
 30
0.0
 10
14.1700515201
 20
12.1566192568
 30
0.0
 10
14.1789967699
 20
12.0835792989
 30
0.0
 10
14.1895970282
 20
12.0120170437
 30
0.0
 10
14.2018154775
 20
11.942179834
 30
0.0
 10
14.2156096551
 20
11.8743089382
 30
0.0
 10
14.2309317138
 20
11.8086387122
 30
0.0
 10
14.2477284665
 20
11.7453957023
 30
0.0
 10
14.2659417373
 20
11.6847979749
 30
0.0
 10
14.2855085544
 20
11.6270538417
 30
0.0
 10
14.3063611973
 20
11.5723627007
 30
0.0
 10
14.3249671604
 20
11.5289798732
 30
0.0
 10
14.3404690929
 20
11.4959870279
 30
0.0
 10
14.3522313566
 20
11.4724175596
 30
0.0
 10
14.3642585338
 20
11.4497466564
 30
0.0
 10
14.376540384
 20
11.4279937798
 30
0.0
 10
14.3890663219
 20
11.4071776881
 30
0.0
 10
14.4018256278
 20
11.387316314
 30
0.0
 10
14.4148073963
 20
11.3684267693
 30
0.0
 10
14.4280005396
 20
11.3505253065
 30
0.0
 10
14.4413938382
 20
11.3336273441
 30
0.0
 10
14.4549759573
 20
11.3177474669
 30
0.0
 10
14.4687354173
 20
11.3028993837
 30
0.0
 10
14.4826606328
 20
11.28909595
 30
0.0
 10
14.4967399368
 20
11.2763491996
 30
0.0
 10
14.5109615667
 20
11.264670337
 30
0.0
 10
14.5253136345
 20
11.2540697148
 30
0.0
 10
14.5397841535
 20
11.2445568979
 30
0.0
 10
14.5543610068
 20
11.2361406831
 30
0.0
 10
14.5690318752
 20
11.228829035
 30
0.0
 10
14.5837842043
 20
11.2226290967
 30
0.0
 10
14.5986052008
 20
11.2175471857
 30
0.0
 10
14.6134816394
 20
11.2135886966
 30
0.0
 10
14.628400336
 20
11.210757954
 30
0.0
 10
14.6433463698
 20
11.2090581654
 30
0.0
 10
14.6533300432
 20
11.208680004
 30
0.0
 10
14.6583078297
 20
11.2086799969
 30
0.0
  0
SPLINE
  5
2D9
100
AcDbEntity
  8
LAYER_FEATURE
100
AcDbSpline
 62
7
  6
CONTINUOUS
 70
0
 71
3
 72
13
 73
9
 74
0
 42
0.0000001
 43
0.0000001
 44
0.0000000001
 40
0.0
 40
0.0
 40
0.0
 40
0.0
 40
0.1126459242
 40
0.233349967
 40
0.4902856267
 40
0.7522515083
 40
0.8790790098
 40
1.0
 40
1.0
 40
1.0
 40
1.0
 10
14.2752517877
 20
13.3639981141
 30
0.0
 10
14.2751371797
 20
13.3636272422
 30
0.0
 10
14.2749337549
 20
13.3628482214
 30
0.0
 10
14.2746263276
 20
13.3611858064
 30
0.0
 10
14.2744378838
 20
13.3589840395
 30
0.0
 10
14.2744978619
 20
13.3567545148
 30
0.0
 10
14.2747020917
 20
13.3550090369
 30
0.0
 10
14.2748559028
 20
13.3541684357
 30
0.0
 10
14.2749461324
 20
13.3537616297
 30
0.0
  0
SPLINE
  5
2DA
100
AcDbEntity
  8
LAYER_FEATURE
100
AcDbSpline
 62
7
  6
CONTINUOUS
 70
0
 71
3
 72
11
 73
7
 74
0
 42
0.0000001
 43
0.0000001
 44
0.0000000001
 40
0.0
 40
0.0
 40
0.0
 40
0.0
 40
0.2553250409
 40
0.5118768144
 40
0.7624153647
 40
1.0
 40
1.0
 40
1.0
 40
1.0
 10
14.2825124987
 20
13.2957444556
 30
0.0
 10
14.2827480706
 20
13.2985318968
 30
0.0
 10
14.2830126255
 20
13.3041395556
 30
0.0
 10
14.2828179292
 20
13.3124971519
 30
0.0
 10
14.2820432198
 20
13.3206260241
 30
0.0
 10
14.2811253756
 20
13.3259020997
 30
0.0
 10
14.2805617257
 20
13.3284433528
 30
0.0
  0
SPLINE
  5
2DB
100
AcDbEntity
  8
LAYER_FEATURE
100
AcDbSpline
 62
7
  6
CONTINUOUS
 70
0
 71
3
 72
34
 73
30
 74
0
 42
0.0000001
 43
0.0000001
 44
0.0000000001
 40
0.0
 40
0.0
 40
0.0
 40
0.0
 40
0.0879664493
 40
0.172660396
 40
0.2539271974
 40
0.3316368855
 40
0.3691278181
 40
0.4056947063
 40
0.4413304622
 40
0.4760305036
 40
0.509792917
 40
0.5426187345
 40
0.5745121928
 40
0.6054809588
 40
0.635536474
 40
0.6646943063
 40
0.6929744479
 40
0.7204017162
 40
0.7728086308
 40
0.7978803171
 40
0.8222543073
 40
0.8459850035
 40
0.8691334467
 40
0.8917673226
 40
0.9139606934
 40
0.9357935257
 40
0.9573509782
 40
0.9787223817
 40
1.0
 40
1.0
 40
1.0
 40
1.0
 10
14.2186041836
 20
13.3703361765
 30
0.0
 10
14.2247692421
 20
13.390286313
 30
0.0
 10
14.2374966737
 20
13.4292547544
 30
0.0
 10
14.2582053706
 20
13.4858752551
 30
0.0
 10
14.280118367
 20
13.539420545
 30
0.0
 10
14.2995513553
 20
13.5818329714
 30
0.0
 10
14.3156747908
 20
13.6140524295
 30
0.0
 10
14.3278797245
 20
13.6370563314
 30
0.0
 10
14.3403316959
 20
13.6591703334
 30
0.0
 10
14.3530210297
 20
13.6803771136
 30
0.0
 10
14.3659377744
 20
13.7006599529
 30
0.0
 10
14.3790718377
 20
13.720002896
 30
0.0
 10
14.3924129537
 20
13.7383907462
 30
0.0
 10
14.4059507391
 20
13.7558090077
 30
0.0
 10
14.4196747601
 20
13.7722440199
 30
0.0
 10
14.4335741514
 20
13.7876826259
 30
0.0
 10
14.447639005
 20
13.802113406
 30
0.0
 10
14.4663122028
 20
13.8197253233
 30
0.0
 10
14.4855502114
 20
13.8356080507
 30
0.0
 10
14.5053267354
 20
13.8495318246
 30
0.0
 10
14.5200515993
 20
13.8587631468
 30
0.0
 10
14.5348746491
 20
13.8669281777
 30
0.0
 10
14.5497848448
 20
13.8740200523
 30
0.0
 10
14.5647703516
 20
13.8800323997
 30
0.0
 10
14.5798192799
 20
13.8849596877
 30
0.0
 10
14.5949193475
 20
13.8887971485
 30
0.0
 10
14.6100583433
 20
13.8915410093
 30
0.0
 10
14.625222487
 20
13.8931884992
 30
0.0
 10
14.6353500603
 20
13.8935549804
 30
0.0
 10
14.6404008247
 20
13.8935549877
 30
0.0
  0
SPLINE
  5
2DC
100
AcDbEntity
  8
02___PRT_ALL_AXES
100
AcDbSpline
 62
7
  6
CONTINUOUS
 70
0
 71
3
 72
37
 73
33
 74
0
 42
0.0000001
 43
0.0000001
 44
0.0000000001
 40
0.0
 40
0.0
 40
0.0
 40
0.0
 40
0.0222875841
 40
0.0456731959
 40
0.0701411317
 40
0.0956669055
 40
0.1222182444
 40
0.1497560698
 40
0.1782353061
 40
0.2076055725
 40
0.2378117859
 40
0.268794692
 40
0.3004913423
 40
0.3328355289
 40
0.3657581866
 40
0.3991877726
 40
0.4330506246
 40
0.467271304
 40
0.5017729285
 40
0.5364774958
 40
0.6061761978
 40
0.6757365335
 40
0.710268679
 40
0.7445298655
 40
0.7784430476
 40
0.8119325815
 40
0.8449245571
 40
0.8773471427
 40
0.9091309222
 40
0.9402093496
 40
0.9705188703
 40
1.0
 40
1.0
 40
1.0
 40
1.0
 10
15.9943167663
 20
13.1873692124
 30
0.0
 10
15.9989840824
 20
13.179910562
 30
0.0
 10
16.0081438803
 20
13.1643696552
 30
0.0
 10
16.021073469
 20
13.1398739692
 30
0.0
 10
16.0334921863
 20
13.1136934501
 30
0.0
 10
16.0453666111
 20
13.0858984987
 30
0.0
 10
16.0566653067
 20
13.0565627701
 30
0.0
 10
16.0673580627
 20
13.0257645067
 30
0.0
 10
16.077416268
 20
12.99358588
 30
0.0
 10
16.0868129442
 20
12.9601128781
 30
0.0
 10
16.0955228587
 20
12.9254350278
 30
0.0
 10
16.1035225997
 20
12.8896451526
 30
0.0
 10
16.1107906497
 20
12.8528391104
 30
0.0
 10
16.117307451
 20
12.8151155301
 30
0.0
 10
16.1230554643
 20
12.7765755373
 30
0.0
 10
16.1280192135
 20
12.7373224806
 30
0.0
 10
16.1321853382
 20
12.6974616278
 30
0.0
 10
16.1355425977
 20
12.6570999587
 30
0.0
 10
16.1380820283
 20
12.6163455729
 30
0.0
 10
16.1403711398
 20
12.5615539026
 30
0.0
 10
16.1411500102
 20
12.4928618855
 30
0.0
 10
16.1391677915
 20
12.4242619568
 30
0.0
 10
16.1359155915
 20
12.3697369363
 30
0.0
 10
16.1326631
 20
12.3293184845
 30
0.0
 10
16.1286005379
 20
12.2893871636
 30
0.0
 10
16.1237387605
 20
12.250049912
 30
0.0
 10
16.1180908847
 20
12.2114122884
 30
0.0
 10
16.1116721079
 20
12.1735778852
 30
0.0
 10
16.104499722
 20
12.1366481453
 30
0.0
 10
16.0965929918
 20
12.1007219729
 30
0.0
 10
16.0879733072
 20
12.0658959292
 30
0.0
 10
16.0816755386
 20
12.0431438191
 30
0.0
 10
16.0784057474
 20
12.0319741456
 30
0.0
  0
SPLINE
  5
2DD
100
AcDbEntity
  8
02___PRT_ALL_AXES
100
AcDbSpline
 62
7
  6
CONTINUOUS
 70
0
 71
3
 72
11
 73
7
 74
0
 42
0.0000001
 43
0.0000001
 44
0.0000000001
 40
0.0
 40
0.0
 40
0.0
 40
0.0
 40
0.2620870657
 40
0.5161730655
 40
0.7621612707
 40
1.0
 40
1.0
 40
1.0
 40
1.0
 10
16.0300990708
 20
11.9009516712
 30
0.0
 10
16.0273167941
 20
11.8949425688
 30
0.0
 10
16.0216760279
 20
11.8831814952
 30
0.0
 10
16.0128419504
 20
11.8660671606
 30
0.0
 10
16.0037757511
 20
11.8497721213
 30
0.0
 10
15.9974779329
 20
11.8392913443
 30
0.0
 10
15.9942897056
 20
11.8341975389
 30
0.0
  0
ENDSEC
  0
SECTION
  2
OBJECTS
  0
DICTIONARY
  5
C
100
AcDbDictionary
280
0
281
1
  3
ACAD_GROUP
350
D
  3
ACAD_MLINESTYLE
350
17
  3
ACAD_LAYOUT
350
1A
  3
ACAD_PLOTSETTINGS
350
19
  3
ACAD_PLOTSTYLENAME
350
E
  0
DICTIONARY
  5
D
102
{ACAD_REACTORS
330
C
102
}
100
AcDbDictionary
280
0
281
1
  0
ACDBDICTIONARYWDFLT
  5
E
102
{ACAD_REACTORS
330
C
102
}
100
AcDbDictionary
281
1
  3
Normal
350
F
100
AcDbDictionaryWithDefault
340
F
  0
DICTIONARY
  5
17
102
{ACAD_REACTORS
330
C
102
}
100
AcDbDictionary
280
0
281
1
  3
Standard
350
18
  0
DICTIONARY
  5
19
102
{ACAD_REACTORS
330
C
102
}
100
AcDbDictionary
281
1
  0
DICTIONARY
  5
1A
102
{ACAD_REACTORS
330
C
102
}
100
AcDbDictionary
281
1
  3
Model
350
2DE
  3
Layout1
350
2DF
  0
ACDBPLACEHOLDER
  5
F
102
{ACAD_REACTORS
330
E
102
}
  0
MLINESTYLE
  5
18
102
{ACAD_REACTORS
330
17
102
}
100
AcDbMlineStyle
  2
STANDARD
 70
0
  3

 62
256
 51
90.0
 52
90.0
 71
2
 49
0.5
 62
256
  6
BYLAYER
 49
-0.5
 62
256
  6
BYLAYER
  0
LAYOUT
  5
2DE
102
{ACAD_REACTORS
330
1A
102
}
100
AcDbPlotSettings
  1

  2
none_device
  4
ANSI_C_(22.00_x_17.00_Inches)
  6

 40
0.0
 41
0.0
 42
0.0
 43
0.0
 44
558.8
 45
431.8
 46
0.0
 47
0.0
 48
0.0
 49
0.0
140
0.0
141
0.0
142
1.0
143
1.0
 70
1024
 72
0
 73
0
 74
0
  7

 75
0
147
1.0
148
0.0
149
0.0
100
AcDbLayout
  1
Model
 70
0
 71
0
 10
0.0
 20
0.0
 11
22.0
 21
17.0
 12
0.0
 22
0.0
 32
0.0
 14
0.0
 24
0.0
 34
0.0
 15
0.0
 25
0.0
 35
0.0
146
0.0
 13
0.0
 23
0.0
 33
0.0
 16
1.0
 26
0.0
 36
0.0
 17
0.0
 27
1.0
 37
0.0
 76
0
330
222
345
0
346
0
  0
LAYOUT
  5
2DF
102
{ACAD_REACTORS
330
1A
102
}
100
AcDbPlotSettings
  1

  2
none_device
  4
ANSI_C_(22.00_x_17.00_Inches)
  6

 40
0.0
 41
0.0
 42
0.0
 43
0.0
 44
558.8
 45
431.8
 46
0.0
 47
0.0
 48
0.0
 49
0.0
140
0.0
141
0.0
142
1.0
143
1.0
 70
0
 72
0
 73
0
 74
0
  7

 75
0
147
1.0
148
0.0
149
0.0
100
AcDbLayout
  1
Layout1
 70
0
 71
1
 10
0.0
 20
0.0
 11
22.0
 21
17.0
 12
0.0
 22
0.0
 32
0.0
 14
0.0
 24
0.0
 34
0.0
 15
0.0
 25
0.0
 35
0.0
146
0.0
 13
0.0
 23
0.0
 33
0.0
 16
1.0
 26
0.0
 36
0.0
 17
0.0
 27
1.0
 37
0.0
 76
0
330
223
345
0
346
0
  0
ENDSEC
  0
EOF