999
DXF file: _cgs_temp_output.dxf
999
Pro/ENGINEER 2016360 by Parametric Technology Corporation
  0
SECTION
  2
HEADER
  9
$ACADVER
  1
AC1021
  9
$DWGCODEPAGE
  3
ANSI_1252
  9
$EXTMAX
 10
22.0
 20
17.0
 30
0.0
  9
$EXTMIN
 10
0.0
 20
0.0
 30
0.0
  9
$LIMMIN
 10
0.0
 20
0.0
  9
$LIMMAX
 10
22.0
 20
17.0
  9
$VIEWCTR
 10
11.0
 20
8.5
  9
$VIEWSIZE
 40
17.0
  9
$CLAYER
  8
0
  9
$LTSCALE
 40
1.21
  9
$CELTYPE
  6
BYLAYER
  9
$DIMSCALE
 40
1.0
  9
$DIMASZ
 40
0.1875
  9
$DIMEXO
 40
0.0625
  9
$DIMDLI
 40
0.836
  9
$DIMEXE
 40
0.125
  9
$DIMCEN
 40
0.198
  9
$DIMLFAC
 40
1.0
  9
$DIMBLK
  1
_CLOSED
  9
$DIMALT
 70
0
  9
$DIMALTF
 40
25.4
  9
$DIMTXT
 40
0.15625
  9
$DIMTOL
 70
0
  9
$DIMLIM
 70
0
  9
$DIMTFAC
 40
1.0
  9
$DIMGAP
 40
0.09
  9
$DIMDSEP
 70
46
  9
$AUNITS
 70
0
  9
$PDMODE
 70
3
  9
$PDSIZE
 40
0.3125
  9
$HANDSEED
  5
2E8
  9
$TILEMODE
 70
1
  9
$MEASUREMENT
 70
0
  9
$INSUNITS
 70
1
  0
ENDSEC
  0
SECTION
  2
CLASSES
  0
CLASS
  1
ACDBDICTIONARYWDFLT
  2
AcDbDictionaryWithDefault
  3
AutoCAD 2000
 90
0
 91
1
280
0
281
0
  0
CLASS
  1
ACDBPLACEHOLDER
  2
AcDbPlaceHolder
  3
AutoCAD 2000
 90
0
 91
1
280
0
281
0
  0
CLASS
  1
LAYOUT
  2
AcDbLayout
  3
AutoCAD 2000
 90
0
 91
0
280
0
281
0
  0
ENDSEC
  0
SECTION
  2
TABLES
  0
TABLE
  2
VPORT
  5
8
100
AcDbSymbolTable
 70
2
  0
VPORT
  5
1F4
100
AcDbSymbolTableRecord
100
AcDbViewportTableRecord
  2
*ACTIVE
 70
0
 10
0.0
 20
0.0
 11
1.0
 21
1.0
 12
11.0
 22
8.5
 13
0.0
 23
0.0
 14
1.0
 24
1.0
 15
0.0
 25
0.0
 16
0.0
 26
0.0
 36
1.0
 17
0.0
 27
0.0
 37
0.0
 40
17.0
 41
1.2941176471
 42
50.0
 43
0.0
 44
0.0
 50
0.0
 51
0.0
 71
0
 72
100
 73
1
 74
1
 75
0
 76
0
 77
0
 78
0
  0
ENDTAB
  0
TABLE
  2
LTYPE
  5
5
100
AcDbSymbolTable
 70
6
  0
LTYPE
  5
14
100
AcDbSymbolTableRecord
100
AcDbLinetypeTableRecord
  2
BYBLOCK
 70
0
  3

 72
65
 73
0
 40
0.0
  0
LTYPE
  5
15
100
AcDbSymbolTableRecord
100
AcDbLinetypeTableRecord
  2
BYLAYER
 70
0
  3

 72
65
 73
0
 40
0.0
  0
LTYPE
  5
16
100
AcDbSymbolTableRecord
100
AcDbLinetypeTableRecord
  2
CONTINUOUS
 70
64
  3
Solid line
 72
65
 73
0
 40
0.0
  0
LTYPE
  5
1F5
100
AcDbSymbolTableRecord
100
AcDbLinetypeTableRecord
  2
CENTER
 70
64
  3
____ _ ____ _ ____ _ ____ _ ____ _ ____ _ ____
 72
65
 73
4
 40
0.6
 49
0.375
 74
0
 49
-0.075
 74
0
 49
0.075
 74
0
 49
-0.075
 74
0
  0
LTYPE
  5
1F6
100
AcDbSymbolTableRecord
100
AcDbLinetypeTableRecord
  2
HIDDEN
 70
64
  3
- - - - - - - - - - - - - - - - - - - -
 72
65
 73
2
 40
0.2
 49
0.1
 74
0
 49
-0.1
 74
0
  0
LTYPE
  5
1F7
100
AcDbSymbolTableRecord
100
AcDbLinetypeTableRecord
  2
PHANTOM
 70
64
  3
_____ _ _ _____ _ _ _____ _ _ _____
 72
65
 73
6
 40
0.8
 49
0.45
 74
0
 49
-0.05
 74
0
 49
0.1
 74
0
 49
-0.05
 74
0
 49
0.1
 74
0
 49
-0.05
 74
0
  0
LTYPE
  5
1F8
100
AcDbSymbolTableRecord
100
AcDbLinetypeTableRecord
  2
DOT
 70
64
  3
. . . . . . . . . . . . . . . . . . . .
 72
65
 73
2
 40
0.2
 49
0.1
 74
0
 49
-0.1
 74
0
  0
LTYPE
  5
1F9
100
AcDbSymbolTableRecord
100
AcDbLinetypeTableRecord
  2
DASHED
 70
64
  3
- - - - - - - - - - - - - - - - - - - -
 72
65
 73
2
 40
0.2
 49
0.1
 74
0
 49
-0.1
 74
0
  0
ENDTAB
  0
TABLE
  2
LAYER
  5
2
100
AcDbSymbolTable
 70
36
  0
LAYER
  5
10
100
AcDbSymbolTableRecord
100
AcDbLayerTableRecord
  2
0
 70
0
 62
7
  6
CONTINUOUS
370
-3
390
F
  0
LAYER
  5
1FA
100
AcDbSymbolTableRecord
100
AcDbLayerTableRecord
  2
DEFAULT_1
 70
0
 62
7
  6
CENTER
370
-3
390
F
  0
LAYER
  5
1FB
100
AcDbSymbolTableRecord
100
AcDbLayerTableRecord
  2
DEFAULT_2
 70
0
 62
8
  6
HIDDEN
370
-3
390
F
  0
LAYER
  5
1FC
100
AcDbSymbolTableRecord
100
AcDbLayerTableRecord
  2
DEFAULT_3
 70
0
 62
7
  6
PHANTOM
370
-3
390
F
  0
LAYER
  5
1FD
100
AcDbSymbolTableRecord
100
AcDbLayerTableRecord
  2
01_ALL_DTM_PLN
 70
0
 62
7
  6
CONTINUOUS
370
-3
390
F
  0
LAYER
  5
1FE
100
AcDbSymbolTableRecord
100
AcDbLayerTableRecord
  2
01__ASM_ALL_DTM_PLN
 70
0
 62
7
  6
CONTINUOUS
370
-3
390
F
  0
LAYER
  5
1FF
100
AcDbSymbolTableRecord
100
AcDbLayerTableRecord
  2
01__ASM_DEF_DTM_PLN
 70
0
 62
7
  6
CONTINUOUS
370
-3
390
F
  0
LAYER
  5
200
100
AcDbSymbolTableRecord
100
AcDbLayerTableRecord
  2
01___PRT_ALL_DTM_PLN
 70
0
 62
7
  6
CONTINUOUS
370
-3
390
F
  0
LAYER
  5
201
100
AcDbSymbolTableRecord
100
AcDbLayerTableRecord
  2
01___PRT_DEF_DTM_PLN
 70
0
 62
7
  6
CONTINUOUS
370
-3
390
F
  0
LAYER
  5
202
100
AcDbSymbolTableRecord
100
AcDbLayerTableRecord
  2
02_ALL_AXES
 70
0
 62
7
  6
CONTINUOUS
370
-3
390
F
  0
LAYER
  5
203
100
AcDbSymbolTableRecord
100
AcDbLayerTableRecord
  2
02__ASM_ALL_AXES
 70
0
 62
7
  6
CONTINUOUS
370
-3
390
F
  0
LAYER
  5
204
100
AcDbSymbolTableRecord
100
AcDbLayerTableRecord
  2
02___PRT_ALL_AXES
 70
0
 62
7
  6
CONTINUOUS
370
-3
390
F
  0
LAYER
  5
205
100
AcDbSymbolTableRecord
100
AcDbLayerTableRecord
  2
03_ALL_CURVES
 70
0
 62
7
  6
CONTINUOUS
370
-3
390
F
  0
LAYER
  5
206
100
AcDbSymbolTableRecord
100
AcDbLayerTableRecord
  2
03__ASM_ALL_CURVES
 70
0
 62
7
  6
CONTINUOUS
370
-3
390
F
  0
LAYER
  5
207
100
AcDbSymbolTableRecord
100
AcDbLayerTableRecord
  2
03___PRT_ALL_CURVES
 70
0
 62
7
  6
CONTINUOUS
370
-3
390
F
  0
LAYER
  5
208
100
AcDbSymbolTableRecord
100
AcDbLayerTableRecord
  2
04_ALL_DTM_PNT
 70
0
 62
7
  6
CONTINUOUS
370
-3
390
F
  0
LAYER
  5
209
100
AcDbSymbolTableRecord
100
AcDbLayerTableRecord
  2
04__ASM_ALL_DTM_PNT
 70
0
 62
7
  6
CONTINUOUS
370
-3
390
F
  0
LAYER
  5
20A
100
AcDbSymbolTableRecord
100
AcDbLayerTableRecord
  2
04___PRT_ALL_DTM_PNT
 70
0
 62
7
  6
CONTINUOUS
370
-3
390
F
  0
LAYER
  5
20B
100
AcDbSymbolTableRecord
100
AcDbLayerTableRecord
  2
05_ALL_DTM_CSYS
 70
0
 62
7
  6
CONTINUOUS
370
-3
390
F
  0
LAYER
  5
20C
100
AcDbSymbolTableRecord
100
AcDbLayerTableRecord
  2
05__ASM_ALL_DTM_CSYS
 70
0
 62
7
  6
CONTINUOUS
370
-3
390
F
  0
LAYER
  5
20D
100
AcDbSymbolTableRecord
100
AcDbLayerTableRecord
  2
05__ASM_DEF_DTM_CSYS
 70
0
 62
7
  6
CONTINUOUS
370
-3
390
F
  0
LAYER
  5
20E
100
AcDbSymbolTableRecord
100
AcDbLayerTableRecord
  2
05___PRT_ALL_DTM_CSYS
 70
0
 62
7
  6
CONTINUOUS
370
-3
390
F
  0
LAYER
  5
20F
100
AcDbSymbolTableRecord
100
AcDbLayerTableRecord
  2
05___PRT_DEF_DTM_CSYS
 70
0
 62
7
  6
CONTINUOUS
370
-3
390
F
  0
LAYER
  5
210
100
AcDbSymbolTableRecord
100
AcDbLayerTableRecord
  2
06_ALL_SURFS
 70
0
 62
7
  6
CONTINUOUS
370
-3
390
F
  0
LAYER
  5
211
100
AcDbSymbolTableRecord
100
AcDbLayerTableRecord
  2
06__ASM_ALL_SURFS
 70
0
 62
7
  6
CONTINUOUS
370
-3
390
F
  0
LAYER
  5
212
100
AcDbSymbolTableRecord
100
AcDbLayerTableRecord
  2
06___PRT_ALL_SURFS
 70
0
 62
7
  6
CONTINUOUS
370
-3
390
F
  0
LAYER
  5
213
100
AcDbSymbolTableRecord
100
AcDbLayerTableRecord
  2
07__ASM_ALL_SKELETONS
 70
0
 62
7
  6
CONTINUOUS
370
-3
390
F
  0
LAYER
  5
214
100
AcDbSymbolTableRecord
100
AcDbLayerTableRecord
  2
LAYER_AXIS
 70
0
 62
7
  6
CONTINUOUS
370
-3
390
F
  0
LAYER
  5
215
100
AcDbSymbolTableRecord
100
AcDbLayerTableRecord
  2
LAYER_CHAMFER_FEAT
 70
0
 62
7
  6
CONTINUOUS
370
-3
390
F
  0
LAYER
  5
216
100
AcDbSymbolTableRecord
100
AcDbLayerTableRecord
  2
LAYER_CUT_FEAT
 70
0
 62
7
  6
CONTINUOUS
370
-3
390
F
  0
LAYER
  5
217
100
AcDbSymbolTableRecord
100
AcDbLayerTableRecord
  2
LAYER_DATUM
 70
0
 62
7
  6
CONTINUOUS
370
-3
390
F
  0
LAYER
  5
218
100
AcDbSymbolTableRecord
100
AcDbLayerTableRecord
  2
LAYER_DIM
 70
0
 62
7
  6
CONTINUOUS
370
-3
390
F
  0
LAYER
  5
219
100
AcDbSymbolTableRecord
100
AcDbLayerTableRecord
  2
LAYER_FEATURE
 70
0
 62
7
  6
CONTINUOUS
370
-3
390
F
  0
LAYER
  5
21A
100
AcDbSymbolTableRecord
100
AcDbLayerTableRecord
  2
LAYER_GEOM_FEAT
 70
0
 62
7
  6
CONTINUOUS
370
-3
390
F
  0
LAYER
  5
21B
100
AcDbSymbolTableRecord
100
AcDbLayerTableRecord
  2
LAYER_NOGEOM_FEAT
 70
0
 62
7
  6
CONTINUOUS
370
-3
390
F
  0
LAYER
  5
21C
100
AcDbSymbolTableRecord
100
AcDbLayerTableRecord
  2
LAYER_PARAMETER_DIM
 70
0
 62
7
  6
CONTINUOUS
370
-3
390
F
  0
LAYER
  5
21D
100
AcDbSymbolTableRecord
100
AcDbLayerTableRecord
  2
LAYER_PROTRUSION_FEAT
 70
0
 62
7
  6
CONTINUOUS
370
-3
390
F
  0
LAYER
  5
21E
100
AcDbSymbolTableRecord
100
AcDbLayerTableRecord
  2
LAYER_QUILT
 70
0
 62
7
  6
CONTINUOUS
370
-3
390
F
  0
LAYER
  5
21F
100
AcDbSymbolTableRecord
100
AcDbLayerTableRecord
  2
LAYER_ROUND_FEAT
 70
0
 62
7
  6
CONTINUOUS
370
-3
390
F
  0
ENDTAB
  0
TABLE
  2
STYLE
  5
3
100
AcDbSymbolTable
 70
1
  0
STYLE
  5
11
100
AcDbSymbolTableRecord
100
AcDbTextStyleTableRecord
  2
STANDARD
 70
0
 40
0.0
 41
0.8
 50
0.0
 71
0
 42
0.2
  3
txt
  4

  0
STYLE
  5
220
100
AcDbSymbolTableRecord
100
AcDbTextStyleTableRecord
  2
TEXTSTYLE_1
 70
0
 40
0.0
 41
0.8
 50
0.0
 71
0
 42
0.2
  3
gdt
  4

  0
ENDTAB
  0
TABLE
  2
VIEW
  5
6
100
AcDbSymbolTable
 70
0
  0
ENDTAB
  0
TABLE
  2
UCS
  5
7
100
AcDbSymbolTable
 70
0
  0
ENDTAB
  0
TABLE
  2
APPID
  5
9
100
AcDbSymbolTable
 70
1
  0
APPID
  5
221
100
AcDbSymbolTableRecord
100
AcDbRegAppTableRecord
  2
ACAD
 70
0
  0
ENDTAB
  0
TABLE
  2
BLOCK_RECORD
  5
1
100
AcDbSymbolTable
 70
0
  0
BLOCK_RECORD
  5
222
100
AcDbSymbolTableRecord
100
AcDbBlockTableRecord
  2
*Model_Space
  0
BLOCK_RECORD
  5
223
100
AcDbSymbolTableRecord
100
AcDbBlockTableRecord
  2
*Paper_Space
  0
ENDTAB
  0
TABLE
  2
DIMSTYLE
  5
A
100
AcDbSymbolTable
 70
1
100
AcDbDimStyleTable
 71
0
  0
DIMSTYLE
105
224
100
AcDbSymbolTableRecord
100
AcDbDimStyleTableRecord
  2
STANDARD
 70
0
  3

  4

 40
1.0
 41
0.1875
 42
0.0625
 43
0.38
 44
0.125
 45
0.0
 46
0.0
 47
0.0001
 48
0.0001
140
0.15625
141
0.09
142
0.0
143
25.4
144
1.0
145
0.0
146
1.0
147
0.09
 71
0.0
 72
0.0
 73
1
 74
1
 75
0
 76
0
 77
0
 78
4
 79
1
170
0
171
3
172
0
173
0
174
0
175
0
176
0
177
0
178
0
270
2
179
4
271
4
272
4
273
2
274
2
275
0
280
0
281
0
282
0
283
1
284
4
285
0
286
0
287
3
288
0
340
11
278
46
  0
ENDTAB
  0
ENDSEC
  0
SECTION
  2
BLOCKS
  0
BLOCK
  5
20
100
AcDbEntity
  8
0
100
AcDbBlockBegin
  2
*Model_Space
 70
0
 10
0.0
 20
0.0
 30
0.0
  3
*Model_Space
  1

  0
ENDBLK
  5
21
100
AcDbEntity
  8
0
100
AcDbBlockEnd
  0
BLOCK
  5
1C
100
AcDbEntity
  8
0
100
AcDbBlockBegin
  2
*Paper_Space
 70
0
 10
0.0
 20
0.0
 30
0.0
  3
*Paper_Space
  1

  0
ENDBLK
  5
1D
100
AcDbEntity
  8
0
100
AcDbBlockEnd
  0
ENDSEC
  0
SECTION
  2
ENTITIES
  0
MTEXT
  5
225
100
AcDbEntity
  8
0
100
AcDbMText
 62
7
  6
CONTINUOUS
  7
STANDARD
 71
1
 72
1
 10
15.9560215477
 20
0.9479130325
 30
0.0
 11
1.0
 21
0.0
 31
0.0
 44
0.9
  1
SCALE: 1:0.333
 40
0.3
 41
3.36
  0
LINE
  5
226
100
AcDbEntity
  8
0
100
AcDbLine
 62
7
  6
CONTINUOUS
 10
0.0
 20
0.0
 11
0.0
 21
17.0
  0
LINE
  5
227
100
AcDbEntity
  8
0
100
AcDbLine
 62
7
  6
CONTINUOUS
 10
0.0
 20
0.0
 11
22.0
 21
0.0
  0
LINE
  5
228
100
AcDbEntity
  8
0
100
AcDbLine
 62
7
  6
CONTINUOUS
 10
0.0
 20
17.0
 11
22.0
 21
17.0
  0
LINE
  5
229
100
AcDbEntity
  8
0
100
AcDbLine
 62
7
  6
CONTINUOUS
 10
22.0
 20
0.0
 11
22.0
 21
17.0
  0
LINE
  5
22A
100
AcDbEntity
  8
LAYER_FEATURE
100
AcDbLine
 62
7
  6
CONTINUOUS
 10
7.0200339428
 20
4.1296198968
 11
6.9786228956
 21
4.1296198968
  0
LINE
  5
22B
100
AcDbEntity
  8
LAYER_FEATURE
100
AcDbLine
 62
7
  6
CONTINUOUS
 10
5.2407006095
 20
4.1296198968
 11
5.2821116567
 21
4.1296198968
  0
LINE
  5
22C
100
AcDbEntity
  8
02___PRT_ALL_AXES
100
AcDbLine
 62
7
  6
CONTINUOUS
 10
5.3087006095
 20
4.2517865634
 11
6.9520339428
 21
4.2517865634
  0
LINE
  5
22D
100
AcDbEntity
  8
LAYER_FEATURE
100
AcDbLine
 62
7
  6
CONTINUOUS
 10
5.2407006095
 20
6.9106198968
 11
5.2407006095
 21
4.1296198968
  0
LINE
  5
22E
100
AcDbEntity
  8
LAYER_FEATURE
100
AcDbLine
 62
7
  6
CONTINUOUS
 10
5.2821116567
 20
6.9106198968
 11
5.2821116567
 21
4.1296198968
  0
LINE
  5
22F
100
AcDbEntity
  8
LAYER_FEATURE
100
AcDbLine
 62
7
  6
CONTINUOUS
 10
5.3087006095
 20
6.811388574
 11
5.3087006095
 21
4.2288512195
  0
LINE
  5
230
100
AcDbEntity
  8
LAYER_FEATURE
100
AcDbLine
 62
7
  6
CONTINUOUS
 10
5.2821116567
 20
4.1296198968
 11
5.3087006095
 21
4.2288512195
  0
LINE
  5
231
100
AcDbEntity
  8
LAYER_FEATURE
100
AcDbLine
 62
7
  6
CONTINUOUS
 10
5.2821116567
 20
6.9106198968
 11
5.3087006095
 21
6.811388574
  0
LINE
  5
232
100
AcDbEntity
  8
LAYER_FEATURE
100
AcDbLine
 62
7
  6
CONTINUOUS
 10
6.9786228956
 20
6.9106198968
 11
6.9520339428
 21
6.811388574
  0
LINE
  5
233
100
AcDbEntity
  8
LAYER_FEATURE
100
AcDbLine
 62
7
  6
CONTINUOUS
 10
6.9786228956
 20
4.1296198968
 11
6.9520339428
 21
4.2288512195
  0
LINE
  5
234
100
AcDbEntity
  8
LAYER_FEATURE
100
AcDbLine
 62
7
  6
CONTINUOUS
 10
6.9520339428
 20
6.811388574
 11
6.9520339428
 21
4.2288512195
  0
LINE
  5
235
100
AcDbEntity
  8
LAYER_FEATURE
100
AcDbLine
 62
7
  6
CONTINUOUS
 10
6.9786228956
 20
6.9106198968
 11
6.9786228956
 21
4.1296198968
  0
LINE
  5
236
100
AcDbEntity
  8
LAYER_FEATURE
100
AcDbLine
 62
7
  6
CONTINUOUS
 10
7.0200339428
 20
6.9106198968
 11
7.0200339428
 21
4.1296198968
  0
LINE
  5
237
100
AcDbEntity
  8
LAYER_FEATURE
100
AcDbLine
 62
7
  6
CONTINUOUS
 10
5.3087006095
 20
6.6402701649
 11
6.9520339428
 21
6.6402701649
  0
LINE
  5
238
100
AcDbEntity
  8
LAYER_CUT_FEAT
100
AcDbLine
 62
7
  6
CONTINUOUS
 10
5.3087006095
 20
6.6414077486
 11
6.9520339428
 21
6.6414077486
  0
LINE
  5
239
100
AcDbEntity
  8
LAYER_FEATURE
100
AcDbLine
 62
7
  6
CONTINUOUS
 10
5.3087006095
 20
6.7032747752
 11
6.9520339428
 21
6.7032747752
  0
LINE
  5
23A
100
AcDbEntity
  8
LAYER_FEATURE
100
AcDbLine
 62
7
  6
CONTINUOUS
 10
5.3087006095
 20
6.7135349545
 11
6.9520339428
 21
6.7135349545
  0
LINE
  5
23B
100
AcDbEntity
  8
LAYER_CUT_FEAT
100
AcDbLine
 62
7
  6
CONTINUOUS
 10
5.3087006095
 20
6.7140448709
 11
6.9520339428
 21
6.7140448709
  0
LINE
  5
23C
100
AcDbEntity
  8
LAYER_FEATURE
100
AcDbLine
 62
7
  6
CONTINUOUS
 10
5.3087006095
 20
6.7562643922
 11
6.9520339428
 21
6.7562643922
  0
LINE
  5
23D
100
AcDbEntity
  8
LAYER_FEATURE
100
AcDbLine
 62
7
  6
CONTINUOUS
 10
5.3087006095
 20
6.762505255
 11
6.9520339428
 21
6.762505255
  0
LINE
  5
23E
100
AcDbEntity
  8
LAYER_CUT_FEAT
100
AcDbLine
 62
7
  6
CONTINUOUS
 10
5.3087006095
 20
6.7626333862
 11
6.9520339428
 21
6.7626333862
  0
LINE
  5
23F
100
AcDbEntity
  8
LAYER_FEATURE
100
AcDbLine
 62
7
  6
CONTINUOUS
 10
5.3087006095
 20
6.7840896721
 11
6.9520339428
 21
6.7840896721
  0
LINE
  5
240
100
AcDbEntity
  8
LAYER_FEATURE
100
AcDbLine
 62
7
  6
CONTINUOUS
 10
5.3087006095
 20
6.7861841724
 11
6.9520339428
 21
6.7861841724
  0
LINE
  5
241
100
AcDbEntity
  8
LAYER_FEATURE
100
AcDbLine
 62
7
  6
CONTINUOUS
 10
7.0200339428
 20
6.9106198968
 11
6.9786228956
 21
6.9106198968
  0
LINE
  5
242
100
AcDbEntity
  8
LAYER_FEATURE
100
AcDbLine
 62
7
  6
CONTINUOUS
 10
5.2407006095
 20
6.9106198968
 11
5.2821116567
 21
6.9106198968
  0
LINE
  5
243
100
AcDbEntity
  8
LAYER_FEATURE
100
AcDbLine
 62
7
  6
CONTINUOUS
 10
5.1812054172
 20
11.2095477814
 11
5.2226164644
 21
11.2095477814
  0
LINE
  5
244
100
AcDbEntity
  8
LAYER_FEATURE
100
AcDbLine
 62
7
  6
CONTINUOUS
 10
6.9191277033
 20
11.2095477814
 11
6.9605387505
 21
11.2095477814
  0
LINE
  5
245
100
AcDbEntity
  8
02___PRT_ALL_AXES
100
AcDbLine
 62
7
  6
CONTINUOUS
 10
5.2492054172
 20
11.331714448
 11
6.8925387505
 21
11.331714448
  0
LINE
  5
246
100
AcDbEntity
  8
LAYER_FEATURE
100
AcDbLine
 62
7
  6
CONTINUOUS
 10
5.1812054172
 20
11.2095477814
 11
5.1812054172
 21
13.9905477814
  0
LINE
  5
247
100
AcDbEntity
  8
LAYER_FEATURE
100
AcDbLine
 62
7
  6
CONTINUOUS
 10
5.2226164644
 20
11.2095477814
 11
5.2226164644
 21
13.9905477814
  0
LINE
  5
248
100
AcDbEntity
  8
LAYER_FEATURE
100
AcDbLine
 62
7
  6
CONTINUOUS
 10
5.2492054172
 20
11.3087791972
 11
5.2492054172
 21
13.8913163655
  0
LINE
  5
249
100
AcDbEntity
  8
LAYER_FEATURE
100
AcDbLine
 62
7
  6
CONTINUOUS
 10
5.2492054172
 20
12.0051252475
 11
6.8925387505
 21
12.0051252475
  0
LINE
  5
24A
100
AcDbEntity
  8
LAYER_FEATURE
100
AcDbLine
 62
7
  6
CONTINUOUS
 10
5.2226164644
 20
11.2095477814
 11
5.2492054172
 21
11.3087791041
  0
LINE
  5
24B
100
AcDbEntity
  8
LAYER_FEATURE
100
AcDbLine
 62
7
  6
CONTINUOUS
 10
6.8925387505
 20
12.0872481798
 11
5.2492054172
 21
12.0872481798
  0
LINE
  5
24C
100
AcDbEntity
  8
LAYER_FEATURE
100
AcDbLine
 62
7
  6
CONTINUOUS
 10
6.8925387505
 20
12.1236334596
 11
5.2492054172
 21
12.1236334596
  0
LINE
  5
24D
100
AcDbEntity
  8
LAYER_CUT_FEAT
100
AcDbLine
 62
7
  6
CONTINUOUS
 10
5.2492054172
 20
12.1357271421
 11
6.8925387505
 21
12.1357271421
  0
LINE
  5
24E
100
AcDbEntity
  8
LAYER_FEATURE
100
AcDbLine
 62
7
  6
CONTINUOUS
 10
5.2492054172
 20
12.1430861002
 11
6.8925387505
 21
12.1430861002
  0
LINE
  5
24F
100
AcDbEntity
  8
LAYER_FEATURE
100
AcDbLine
 62
7
  6
CONTINUOUS
 10
5.2492054172
 20
12.1705947054
 11
6.8925387505
 21
12.1705947054
  0
LINE
  5
250
100
AcDbEntity
  8
LAYER_FEATURE
100
AcDbLine
 62
7
  6
CONTINUOUS
 10
5.2226164644
 20
13.9905477814
 11
5.2492054172
 21
13.8913164587
  0
LINE
  5
251
100
AcDbEntity
  8
LAYER_FEATURE
100
AcDbLine
 62
7
  6
CONTINUOUS
 10
6.8925387505
 20
12.2454177486
 11
5.2492054172
 21
12.2454177486
  0
LINE
  5
252
100
AcDbEntity
  8
LAYER_FEATURE
100
AcDbLine
 62
7
  6
CONTINUOUS
 10
6.8925387505
 20
12.2837974676
 11
5.2492054172
 21
12.2837974676
  0
LINE
  5
253
100
AcDbEntity
  8
LAYER_FEATURE
100
AcDbLine
 62
7
  6
CONTINUOUS
 10
5.2492054172
 20
12.3161178064
 11
6.8925387505
 21
12.3161178064
  0
LINE
  5
254
100
AcDbEntity
  8
LAYER_FEATURE
100
AcDbLine
 62
7
  6
CONTINUOUS
 10
5.2492054172
 20
12.3448065894
 11
6.8925387505
 21
12.3448065894
  0
LINE
  5
255
100
AcDbEntity
  8
LAYER_FEATURE
100
AcDbLine
 62
7
  6
CONTINUOUS
 10
6.8925387505
 20
12.4108065623
 11
5.2492054172
 21
12.4108065623
  0
LINE
  5
256
100
AcDbEntity
  8
LAYER_FEATURE
100
AcDbLine
 62
7
  6
CONTINUOUS
 10
6.8925387505
 20
12.4503994199
 11
5.2492054172
 21
12.4503994199
  0
LINE
  5
257
100
AcDbEntity
  8
LAYER_FEATURE
100
AcDbLine
 62
7
  6
CONTINUOUS
 10
5.2492054172
 20
12.4949295081
 11
6.8925387505
 21
12.4949295081
  0
LINE
  5
258
100
AcDbEntity
  8
LAYER_FEATURE
100
AcDbLine
 62
7
  6
CONTINUOUS
 10
5.2492054172
 20
12.524214448
 11
6.8925387505
 21
12.524214448
  0
LINE
  5
259
100
AcDbEntity
  8
LAYER_FEATURE
100
AcDbLine
 62
7
  6
CONTINUOUS
 10
6.8925387505
 20
12.5800477814
 11
5.2492054172
 21
12.5800477814
  0
LINE
  5
25A
100
AcDbEntity
  8
LAYER_FEATURE
100
AcDbLine
 62
7
  6
CONTINUOUS
 10
6.8925387505
 20
12.6200477814
 11
5.2492054172
 21
12.6200477814
  0
LINE
  5
25B
100
AcDbEntity
  8
LAYER_FEATURE
100
AcDbLine
 62
7
  6
CONTINUOUS
 10
5.2492054172
 20
12.6758811147
 11
6.8925387505
 21
12.6758811147
  0
LINE
  5
25C
100
AcDbEntity
  8
LAYER_FEATURE
100
AcDbLine
 62
7
  6
CONTINUOUS
 10
6.8925387505
 20
13.8913164587
 11
6.9191277033
 21
13.9905477814
  0
LINE
  5
25D
100
AcDbEntity
  8
LAYER_FEATURE
100
AcDbLine
 62
7
  6
CONTINUOUS
 10
6.8925387505
 20
11.3087791041
 11
6.9191277033
 21
11.2095477814
  0
LINE
  5
25E
100
AcDbEntity
  8
LAYER_FEATURE
100
AcDbLine
 62
7
  6
CONTINUOUS
 10
6.8925387505
 20
11.3087791879
 11
6.8925387505
 21
13.8913163748
  0
LINE
  5
25F
100
AcDbEntity
  8
LAYER_FEATURE
100
AcDbLine
 62
7
  6
CONTINUOUS
 10
6.9191277033
 20
11.2095477814
 11
6.9191277033
 21
13.9905477814
  0
LINE
  5
260
100
AcDbEntity
  8
LAYER_FEATURE
100
AcDbLine
 62
7
  6
CONTINUOUS
 10
6.9605387505
 20
11.2095477814
 11
6.9605387505
 21
13.9905477814
  0
LINE
  5
261
100
AcDbEntity
  8
02___PRT_ALL_AXES
100
AcDbLine
 62
7
  6
CONTINUOUS
 10
5.2492054172
 20
13.8683811147
 11
6.8925387505
 21
13.8683811147
  0
LINE
  5
262
100
AcDbEntity
  8
LAYER_FEATURE
100
AcDbLine
 62
7
  6
CONTINUOUS
 10
5.1812054172
 20
13.9905477814
 11
5.2226164644
 21
13.9905477814
  0
LINE
  5
263
100
AcDbEntity
  8
LAYER_FEATURE
100
AcDbLine
 62
7
  6
CONTINUOUS
 10
6.9191277033
 20
13.9905477814
 11
6.9605387505
 21
13.9905477814
  0
LINE
  5
264
100
AcDbEntity
  8
LAYER_FEATURE
100
AcDbLine
 62
7
  6
CONTINUOUS
 10
14.3487016375
 20
13.2431641811
 11
14.3559380065
 21
13.2665810797
  0
LINE
  5
265
100
AcDbEntity
  8
LAYER_FEATURE
100
AcDbLine
 62
7
  6
CONTINUOUS
 10
14.6516575469
 20
11.1203049929
 11
14.6897996472
 21
11.1203049929
  0
LINE
  5
266
100
AcDbEntity
  8
LAYER_FEATURE
100
AcDbLine
 62
7
  6
CONTINUOUS
 10
16.2523899752
 20
11.1203049929
 11
16.2905320755
 21
11.1203049929
  0
LINE
  5
267
100
AcDbEntity
  8
LAYER_FEATURE
100
AcDbLine
 62
7
  6
CONTINUOUS
 10
14.2623205732
 20
12.7771780689
 11
14.2660594653
 21
12.8160086823
  0
LINE
  5
268
100
AcDbEntity
  8
LAYER_FEATURE
100
AcDbLine
 62
7
  6
CONTINUOUS
 10
14.2816833653
 20
12.9396411015
 11
14.2875361938
 21
12.9767100788
  0
LINE
  5
269
100
AcDbEntity
  8
LAYER_FEATURE
100
AcDbLine
 62
7
  6
CONTINUOUS
 10
14.3098527747
 20
13.0933742676
 11
14.3177003929
 21
13.1279269914
  0
LINE
  5
26A
100
AcDbEntity
  8
02___PRT_ALL_AXES
100
AcDbLine
 62
7
  6
CONTINUOUS
 10
14.7142896945
 20
11.2424716596
 11
16.0306038857
 21
11.2424716596
  0
LINE
  5
26B
100
AcDbEntity
  8
02___PRT_ALL_AXES
100
AcDbLine
 62
7
  6
CONTINUOUS
 10
16.2441578673
 20
11.3869380736
 11
16.2039844542
 21
11.3950468387
  0
LINE
  5
26C
100
AcDbEntity
  8
LAYER_FEATURE
100
AcDbLine
 62
7
  6
CONTINUOUS
 10
14.2566405406
 20
12.8528926303
 11
14.2446548539
 21
12.8750826683
  0
LINE
  5
26D
100
AcDbEntity
  8
LAYER_FEATURE
100
AcDbLine
 62
7
  6
CONTINUOUS
 10
14.2802572489
 20
13.0166607935
 11
14.2696233312
 21
13.0430051968
  0
LINE
  5
26E
100
AcDbEntity
  8
LAYER_FEATURE
100
AcDbLine
 62
7
  6
CONTINUOUS
 10
14.3127096061
 20
13.1701311914
 11
14.3036439334
 21
13.2000936639
  0
LINE
  5
26F
100
AcDbEntity
  8
LAYER_FEATURE
100
AcDbLine
 62
7
  6
CONTINUOUS
 10
14.3533369758
 20
13.3101796093
 11
14.3460240991
 21
13.3431502013
  0
LINE
  5
270
100
AcDbEntity
  8
LAYER_FEATURE
100
AcDbLine
 62
7
  6
CONTINUOUS
 10
14.232661693
 20
12.750526574
 11
14.2472933105
 21
12.755816097
  0
LINE
  5
271
100
AcDbEntity
  8
LAYER_FEATURE
100
AcDbLine
 62
7
  6
CONTINUOUS
 10
14.2285862553
 20
12.7410827356
 11
15.7184918832
 21
12.7410827356
  0
LINE
  5
272
100
AcDbEntity
  8
LAYER_FEATURE
100
AcDbLine
 62
7
  6
CONTINUOUS
 10
15.7209834336
 20
12.7771780689
 11
14.2623205732
 21
12.7771780689
  0
LINE
  5
273
100
AcDbEntity
  8
LAYER_FEATURE
100
AcDbLine
 62
7
  6
CONTINUOUS
 10
15.7241687172
 20
12.8160086823
 11
14.2660594653
 21
12.8160086823
  0
LINE
  5
274
100
AcDbEntity
  8
LAYER_FEATURE
100
AcDbLine
 62
7
  6
CONTINUOUS
 10
14.2427628877
 20
12.8883154778
 11
15.731306856
 21
12.8883154778
  0
LINE
  5
275
100
AcDbEntity
  8
LAYER_FEATURE
100
AcDbLine
 62
7
  6
CONTINUOUS
 10
14.2462920104
 20
12.9162415382
 11
15.7345303677
 21
12.9162415382
  0
LINE
  5
276
100
AcDbEntity
  8
LAYER_CUT_FEAT
100
AcDbLine
 62
7
  6
CONTINUOUS
 10
14.2508349367
 20
12.9240999176
 11
15.7354374623
 21
12.9240999176
  0
LINE
  5
277
100
AcDbEntity
  8
LAYER_FEATURE
100
AcDbLine
 62
7
  6
CONTINUOUS
 10
15.7373505601
 20
12.9396411015
 11
14.2816833653
 21
12.9396411015
  0
LINE
  5
278
100
AcDbEntity
  8
LAYER_FEATURE
100
AcDbLine
 62
7
  6
CONTINUOUS
 10
15.742269928
 20
12.9767100788
 11
14.2875361938
 21
12.9767100788
  0
LINE
  5
279
100
AcDbEntity
  8
LAYER_FEATURE
100
AcDbLine
 62
7
  6
CONTINUOUS
 10
14.268483985
 20
13.0567947437
 11
15.7545040855
 21
13.0567947437
  0
LINE
  5
27A
100
AcDbEntity
  8
LAYER_FEATURE
100
AcDbLine
 62
7
  6
CONTINUOUS
 10
14.2735248488
 20
13.0831468219
 11
15.7589520308
 21
13.0831468219
  0
LINE
  5
27B
100
AcDbEntity
  8
LAYER_CUT_FEAT
100
AcDbLine
 62
7
  6
CONTINUOUS
 10
14.2777593998
 20
13.0893931109
 11
15.7600067603
 21
13.0893931109
  0
LINE
  5
27C
100
AcDbEntity
  8
LAYER_FEATURE
100
AcDbLine
 62
7
  6
CONTINUOUS
 10
15.7607542696
 20
13.0933742676
 11
14.3098527747
 21
13.0933742676
  0
LINE
  5
27D
100
AcDbEntity
  8
LAYER_FEATURE
100
AcDbLine
 62
7
  6
CONTINUOUS
 10
15.7672419521
 20
13.1279269914
 11
14.3177003929
 21
13.1279269914
  0
LINE
  5
27E
100
AcDbEntity
  8
LAYER_FEATURE
100
AcDbLine
 62
7
  6
CONTINUOUS
 10
14.3032804009
 20
13.2141592327
 11
15.7854126239
 21
13.2141592327
  0
LINE
  5
27F
100
AcDbEntity
  8
LAYER_FEATURE
100
AcDbLine
 62
7
  6
CONTINUOUS
 10
14.3097303884
 20
13.2384008765
 11
15.7909597021
 21
13.2384008765
  0
LINE
  5
280
100
AcDbEntity
  8
0
100
AcDbLine
 62
7
  6
CONTINUOUS
 10
14.3135703609
 20
13.2431641811
 11
15.7921489192
 21
13.2431641811
  0
LINE
  5
281
100
AcDbEntity
  8
LAYER_FEATURE
100
AcDbLine
 62
7
  6
CONTINUOUS
 10
15.7979952335
 20
13.2665810797
 11
14.3559380065
 21
13.2665810797
  0
LINE
  5
282
100
AcDbEntity
  8
LAYER_FEATURE
100
AcDbLine
 62
7
  6
CONTINUOUS
 10
14.3464437808
 20
13.3572054577
 11
15.8229086605
 21
13.3572054577
  0
LINE
  5
283
100
AcDbEntity
  8
02___PRT_ALL_AXES
100
AcDbLine
 62
7
  6
CONTINUOUS
 10
16.2441578673
 20
13.6346719122
 11
16.2033502639
 21
13.6264351395
  0
LINE
  5
284
100
AcDbEntity
  8
02___PRT_ALL_AXES
100
AcDbLine
 62
7
  6
CONTINUOUS
 10
14.7142896945
 20
13.7791383262
 11
16.0305735578
 21
13.7791383262
  0
LINE
  5
285
100
AcDbEntity
  8
LAYER_FEATURE
100
AcDbLine
 62
7
  6
CONTINUOUS
 10
14.6516575469
 20
13.9013049929
 11
14.6897996472
 21
13.9013049929
  0
LINE
  5
286
100
AcDbEntity
  8
LAYER_FEATURE
100
AcDbLine
 62
7
  6
CONTINUOUS
 10
16.2523899752
 20
13.9013049929
 11
16.2905320755
 21
13.9013049929
  0
CIRCLE
  5
287
100
AcDbEntity
  8
LAYER_FEATURE
100
AcDbCircle
 62
7
  6
CONTINUOUS
 10
15.5603552569
 20
5.4606247044
 40
1.3905
  0
CIRCLE
  5
288
100
AcDbEntity
  8
LAYER_FEATURE
100
AcDbCircle
 62
7
  6
CONTINUOUS
 10
15.5603552569
 20
5.4606247044
 40
1.2912686773
  0
CIRCLE
  5
289
100
AcDbEntity
  8
02___PRT_ALL_AXES
100
AcDbCircle
 62
7
  6
CONTINUOUS
 10
15.5603552569
 20
5.4606247044
 40
1.1273333333
  0
CIRCLE
  5
28A
100
AcDbEntity
  8
LAYER_CHAMFER_FEAT
100
AcDbCircle
 62
7
  6
CONTINUOUS
 10
15.5603552569
 20
5.4606247044
 40
1.0416666667
  0
CIRCLE
  5
28B
100
AcDbEntity
  8
LAYER_CHAMFER_FEAT
100
AcDbCircle
 62
7
  6
CONTINUOUS
 10
15.5603552569
 20
5.4606247044
 40
1.0216666667
  0
ARC
  5
28C
100
AcDbEntity
  8
02___PRT_ALL_AXES
100
AcDbCircle
 62
7
  6
CONTINUOUS
 10
15.5603552569
 20
5.4606247044
 40
0.8333333333
100
AcDbArc
 50
150.4843384185
 51
220.5156615815
  0
ARC
  5
28D
100
AcDbEntity
  8
02___PRT_ALL_AXES
100
AcDbCircle
 62
7
  6
CONTINUOUS
 10
15.5603552569
 20
5.4606247044
 40
0.8333333333
100
AcDbArc
 50
231.4843384185
 51
259.5156615815
  0
ARC
  5
28E
100
AcDbEntity
  8
02___PRT_ALL_AXES
100
AcDbCircle
 62
7
  6
CONTINUOUS
 10
15.5603552569
 20
5.4606247044
 40
0.8333333333
100
AcDbArc
 50
270.4843384185
 51
11.5156615815
  0
ARC
  5
28F
100
AcDbEntity
  8
02___PRT_ALL_AXES
100
AcDbCircle
 62
7
  6
CONTINUOUS
 10
15.5603552569
 20
5.4606247044
 40
0.8333333333
100
AcDbArc
 50
22.4843384185
 51
50.5156615815
  0
ARC
  5
290
100
AcDbEntity
  8
02___PRT_ALL_AXES
100
AcDbCircle
 62
7
  6
CONTINUOUS
 10
15.5603552569
 20
5.4606247044
 40
0.8333333333
100
AcDbArc
 50
61.4843384185
 51
139.5156615815
  0
ARC
  5
291
100
AcDbEntity
  8
02___PRT_ALL_AXES
100
AcDbCircle
 62
7
  6
CONTINUOUS
 10
15.5603552569
 20
5.4606247044
 40
0.7822867606
100
AcDbArc
 50
50.2086045468
 51
61.7913954532
  0
ARC
  5
292
100
AcDbEntity
  8
02___PRT_ALL_AXES
100
AcDbCircle
 62
7
  6
CONTINUOUS
 10
15.5603552569
 20
5.4606247044
 40
0.7822867606
100
AcDbArc
 50
220.2086045468
 51
231.7913954532
  0
ARC
  5
293
100
AcDbEntity
  8
LAYER_CUT_FEAT
100
AcDbCircle
 62
7
  6
CONTINUOUS
 10
15.5603552569
 20
5.4606247044
 40
0.7692337557
100
AcDbArc
 50
150.4823860641
 51
259.5176139359
  0
ARC
  5
294
100
AcDbEntity
  8
LAYER_CUT_FEAT
100
AcDbCircle
 62
7
  6
CONTINUOUS
 10
15.5603552569
 20
5.4606247044
 40
0.7692337557
100
AcDbArc
 50
270.4823860641
 51
11.5176139359
  0
ARC
  5
295
100
AcDbEntity
  8
LAYER_CUT_FEAT
100
AcDbCircle
 62
7
  6
CONTINUOUS
 10
15.5603552569
 20
5.4606247044
 40
0.7692337557
100
AcDbArc
 50
22.4823860641
 51
139.5176139359
  0
ARC
  5
296
100
AcDbEntity
  8
02___PRT_ALL_AXES
100
AcDbCircle
 62
7
  6
CONTINUOUS
 10
16.0105055442
 20
6.1279999504
 40
0.0833333333
100
AcDbArc
 50
307.3084341136
 51
164.6915658864
  0
ARC
  5
297
100
AcDbEntity
  8
02___PRT_ALL_AXES
100
AcDbCircle
 62
7
  6
CONTINUOUS
 10
14.9009378613
 20
5.9223537357
 40
0.0833333333
100
AcDbArc
 50
72.1109870261
 51
217.8890129739
  0
ARC
  5
298
100
AcDbEntity
  8
02___PRT_ALL_AXES
100
AcDbCircle
 62
7
  6
CONTINUOUS
 10
16.3301805855
 20
5.6959839267
 40
0.0833333333
100
AcDbArc
 50
304.1109870261
 51
89.8890129739
  0
ARC
  5
299
100
AcDbEntity
  8
02___PRT_ALL_AXES
100
AcDbCircle
 62
7
  6
CONTINUOUS
 10
15.0011552687
 20
4.8815561652
 40
0.0833333333
100
AcDbArc
 50
117.3084341136
 51
334.6915658864
  0
ARC
  5
29A
100
AcDbEntity
  8
LAYER_CUT_FEAT
100
AcDbCircle
 62
7
  6
CONTINUOUS
 10
16.3301805855
 20
5.6959839267
 40
0.0833333333
100
AcDbArc
 50
258.8734772675
 51
304.1109870261
  0
ARC
  5
29B
100
AcDbEntity
  8
LAYER_CUT_FEAT
100
AcDbCircle
 62
7
  6
CONTINUOUS
 10
16.3301805855
 20
5.6959839267
 40
0.0833333333
100
AcDbArc
 50
89.8890129738
 51
135.1265227325
  0
ARC
  5
29C
100
AcDbEntity
  8
LAYER_CUT_FEAT
100
AcDbCircle
 62
7
  6
CONTINUOUS
 10
15.490194884
 20
4.6586879725
 40
0.0833333333
100
AcDbArc
 50
146.8734772675
 51
23.1265227325
  0
ARC
  5
29D
100
AcDbEntity
  8
LAYER_CUT_FEAT
100
AcDbCircle
 62
7
  6
CONTINUOUS
 10
14.9009378613
 20
5.9223537357
 40
0.0833333333
100
AcDbArc
 50
26.8734772675
 51
72.1109870261
  0
ARC
  5
29E
100
AcDbEntity
  8
LAYER_CUT_FEAT
100
AcDbCircle
 62
7
  6
CONTINUOUS
 10
14.9009378613
 20
5.9223537357
 40
0.0833333333
100
AcDbArc
 50
217.8890129739
 51
263.1265227325
  0
ARC
  5
29F
100
AcDbEntity
  8
LAYER_CUT_FEAT
100
AcDbCircle
 62
7
  6
CONTINUOUS
 10
18.6562628932
 20
-27.2527480785
 40
40.6454246164
100
AcDbArc
 50
93.6092682211
 51
93.7230890583
  0
ARC
  5
2A0
100
AcDbEntity
  8
LAYER_CUT_FEAT
100
AcDbCircle
 62
7
  6
CONTINUOUS
 10
14.0087095088
 20
39.507138996
 40
26.3408996928
100
AcDbArc
 50
274.3122839053
 51
274.674356991
  0
ARC
  5
2A1
100
AcDbEntity
  8
LAYER_CUT_FEAT
100
AcDbCircle
 62
7
  6
CONTINUOUS
 10
15.0648463421
 20
-5.1252076187
 40
17.1654969906
100
AcDbArc
 50
85.9932170425
 51
87.1407071978
  0
ARC
  5
2A2
100
AcDbEntity
  8
LAYER_FEATURE
100
AcDbCircle
 62
7
  6
CONTINUOUS
 10
17.0874710148
 20
12.5430048946
 40
2.865589595
100
AcDbArc
 50
172.5160899937
 51
173.0788983992
  0
ARC
  5
2A3
100
AcDbEntity
  8
LAYER_FEATURE
100
AcDbCircle
 62
7
  6
CONTINUOUS
 10
16.7064535935
 20
12.6040960422
 40
2.4796435079
100
AcDbArc
 50
168.8607932022
 51
169.480739678
  0
ARC
  5
2A4
100
AcDbEntity
  8
LAYER_FEATURE
100
AcDbCircle
 62
7
  6
CONTINUOUS
 10
16.2633912334
 20
12.7056103633
 40
2.0250077601
100
AcDbArc
 50
164.7455932314
 51
165.4553567166
  0
ARC
  5
2A5
100
AcDbEntity
  8
LAYER_CHAMFER_FEAT
100
AcDbCircle
 62
7
  6
CONTINUOUS
 10
16.3973205435
 20
11.8388508324
 40
0.3971477164
100
AcDbArc
 50
221.4497696658
 51
223.1599280228
  0
ARC
  5
2A6
100
AcDbEntity
  8
LAYER_CHAMFER_FEAT
100
AcDbCircle
 62
7
  6
CONTINUOUS
 10
16.3941885485
 20
13.1856044595
 40
0.3929168
100
AcDbArc
 50
136.8277663631
 51
138.6203992911
  0
ARC
  5
2A7
100
AcDbEntity
  8
02___PRT_ALL_AXES
100
AcDbCircle
 62
7
  6
CONTINUOUS
 10
16.2789113188
 20
11.5586622854
 40
0.1752056068
100
AcDbArc
 50
258.5590384139
 51
265.8082672736
  0
ARC
  5
2A8
100
AcDbEntity
  8
02___PRT_ALL_AXES
100
AcDbCircle
 62
7
  6
CONTINUOUS
 10
16.2789112236
 20
13.4629483789
 40
0.1752049224
100
AcDbArc
 50
94.1917433968
 51
101.4409751185
  0
ARC
  5
2A9
100
AcDbEntity
  8
LAYER_FEATURE
100
AcDbCircle
 62
7
  6
CONTINUOUS
 10
16.2275731823
 20
13.4634144267
 40
0.1747396347
100
AcDbArc
 50
81.5886884675
 51
83.8023920593
  0
ARC
  5
2AA
100
AcDbEntity
  8
LAYER_FEATURE
100
AcDbCircle
 62
7
  6
CONTINUOUS
 10
16.2276102177
 20
11.5579078139
 40
0.174449579
100
AcDbArc
 50
276.2819884271
 51
278.4779603231
  0
ARC
  5
2AB
100
AcDbEntity
  8
LAYER_FEATURE
100
AcDbCircle
 62
7
  6
CONTINUOUS
 10
16.2660409418
 20
13.4670882806
 40
0.1710500417
100
AcDbArc
 50
88.1857006868
 51
89.9996360845
  0
ARC
  5
2AC
100
AcDbEntity
  8
LAYER_FEATURE
100
AcDbCircle
 62
7
  6
CONTINUOUS
 10
16.2660420314
 20
11.5544828273
 40
0.1710111638
100
AcDbArc
 50
269.9999989429
 51
272.1935391632
  0
SPLINE
  5
2AD
100
AcDbEntity
  8
02___PRT_ALL_AXES
100
AcDbSpline
 62
7
  6
CONTINUOUS
 70
0
 71
3
 72
35
 73
31
 74
0
 42
0.0000001
 43
0.0000001
 44
0.0000000001
 40
0.0
 40
0.0
 40
0.0
 40
0.0
 40
0.0887818503
 40
0.1741494033
 40
0.2559376696
 40
0.2954478149
 40
0.3340143717
 40
0.3716254882
 40
0.4082717072
 40
0.4439461772
 40
0.4786449144
 40
0.5123669913
 40
0.5451148152
 40
0.5768944833
 40
0.6077160637
 40
0.6375939464
 40
0.6665472898
 40
0.694600411
 40
0.7217831923
 40
0.7481315647
 40
0.773687937
 40
0.8226086112
 40
0.8461132274
 40
0.869066338
 40
0.8915461967
 40
0.9136377441
 40
0.9354317904
 40
0.9570239112
 40
0.9785130705
 40
1.0
 40
1.0
 40
1.0
 40
1.0
 10
16.6224421469
 20
11.8100433553
 30
0.0
 10
16.6172604345
 20
11.7932753277
 30
0.0
 10
16.6065536294
 20
11.7605480627
 30
0.0
 10
16.5890917129
 20
11.7130515027
 30
0.0
 10
16.5734979111
 20
11.6752769795
 30
0.0
 10
16.5604942169
 20
11.6464717943
 30
0.0
 10
16.5506165164
 20
11.6258435016
 30
0.0
 10
16.5405100847
 20
11.6059592697
 30
0.0
 10
16.5301832779
 20
11.5868356971
 30
0.0
 10
16.5196447363
 20
11.5684888259
 30
0.0
 10
16.5089032632
 20
11.5509340011
 30
0.0
 10
16.4979678009
 20
11.5341859166
 30
0.0
 10
16.4868474145
 20
11.5182585998
 30
0.0
 10
16.4755513342
 20
11.5031653657
 30
0.0
 10
16.4640888975
 20
11.4889188448
 30
0.0
 10
16.4524695161
 20
11.4755309885
 30
0.0
 10
16.4407027576
 20
11.4630130448
 30
0.0
 10
16.4287981691
 20
11.4513754968
 30
0.0
 10
16.4167657373
 20
11.4406283981
 30
0.0
 10
16.4046141731
 20
11.4307802871
 30
0.0
 10
16.3885056716
 20
11.4190332558
 30
0.0
 10
16.3719492418
 20
11.4088829104
 30
0.0
 10
16.3550272756
 20
11.4005449025
 30
0.0
 10
16.3424348863
 20
11.3953088119
 30
0.0
 10
16.329785791
 20
11.3910135835
 30
0.0
 10
16.3170903893
 20
11.3876632776
 30
0.0
 10
16.3043600468
 20
11.3852615221
 30
0.0
 10
16.2916058972
 20
11.3838109839
 30
0.0
 10
16.2788404876
 20
11.3833132262
 30
0.0
 10
16.2703410938
 20
11.383616619
 30
0.0
 10
16.2661047889
 20
11.3839253475
 30
0.0
  0
SPLINE
  5
2AE
100
AcDbEntity
  8
LAYER_CUT_FEAT
100
AcDbSpline
 62
7
  6
CONTINUOUS
 70
0
 71
3
 72
15
 73
11
 74
0
 42
0.0000001
 43
0.0000001
 44
0.0000000001
 40
0.0
 40
0.0
 40
0.0
 40
0.0
 40
0.1507935258
 40
0.2924989976
 40
0.425641366
 40
0.5510191055
 40
0.6696794539
 40
0.782955715
 40
0.8924538769
 40
1.0
 40
1.0
 40
1.0
 40
1.0
 10
16.2216312863
 20
11.8826621218
 30
0.0
 10
16.222171182
 20
11.8819762255
 30
0.0
 10
16.2232641137
 20
11.880680651
 30
0.0
 10
16.2249987172
 20
11.878926865
 30
0.0
 10
16.2267716911
 20
11.8774300753
 30
0.0
 10
16.2285777935
 20
11.8761957469
 30
0.0
 10
16.2304118762
 20
11.8752288033
 30
0.0
 10
16.2322684062
 20
11.8745338484
 30
0.0
 10
16.2341403561
 20
11.8741148951
 30
0.0
 10
16.2353986572
 20
11.8740212954
 30
0.0
 10
16.2360212052
 20
11.874021289
 30
0.0
  0
SPLINE
  5
2AF
100
AcDbEntity
  8
LAYER_CHAMFER_FEAT
100
AcDbSpline
 62
7
  6
CONTINUOUS
 70
0
 71
3
 72
15
 73
11
 74
0
 42
0.0000001
 43
0.0000001
 44
0.0000000001
 40
0.0
 40
0.0
 40
0.0
 40
0.0
 40
0.1375058743
 40
0.2714667649
 40
0.4018486241
 40
0.5286396396
 40
0.6518353117
 40
0.7714434042
 40
0.8874860166
 40
1.0
 40
1.0
 40
1.0
 40
1.0
 10
16.0264058624
 20
11.694839462
 30
0.0
 10
16.029468143
 20
11.6885991903
 30
0.0
 10
16.0356585992
 20
11.6763498762
 30
0.0
 10
16.0452727748
 20
11.6584524366
 30
0.0
 10
16.0550870697
 20
11.6412848218
 30
0.0
 10
16.0650929464
 20
11.6248619683
 30
0.0
 10
16.0752819854
 20
11.6091977214
 30
0.0
 10
16.0856456134
 20
11.5943053996
 30
0.0
 10
16.0961748784
 20
11.5801979817
 30
0.0
 10
16.1034099871
 20
11.5711859454
 30
0.0
 10
16.1070547065
 20
11.5668193935
 30
0.0
  0
SPLINE
  5
2B0
100
AcDbEntity
  8
02___PRT_ALL_AXES
100
AcDbSpline
 62
7
  6
CONTINUOUS
 70
0
 71
3
 72
22
 73
18
 74
0
 42
0.0000001
 43
0.0000001
 44
0.0000000001
 40
0.0
 40
0.0
 40
0.0
 40
0.0
 40
0.0426690137
 40
0.0860783368
 40
0.1309227881
 40
0.1778163922
 40
0.2272729071
 40
0.2797014139
 40
0.3354114474
 40
0.3946230768
 40
0.4574795747
 40
0.5240588702
 40
0.59438288
 40
0.6684272735
 40
0.7461271146
 40
0.8273818663
 40
1.0
 40
1.0
 40
1.0
 40
1.0
 10
16.1229347615
 20
13.3434648545
 30
0.0
 10
16.1223263491
 20
13.3434648601
 30
0.0
 10
16.1210971886
 20
13.3433755014
 30
0.0
 10
16.1192678326
 20
13.342975577
 30
0.0
 10
16.1174527662
 20
13.3423119274
 30
0.0
 10
16.1156585889
 20
13.3413882232
 30
0.0
 10
16.1138904872
 20
13.340208684
 30
0.0
 10
16.1121534221
 20
13.3387778472
 30
0.0
 10
16.1104521466
 20
13.3371006263
 30
0.0
 10
16.108791377
 20
13.335182444
 30
0.0
 10
16.1071758535
 20
13.3330292855
 30
0.0
 10
16.1056103272
 20
13.3306477884
 30
0.0
 10
16.1040994605
 20
13.3280452961
 30
0.0
 10
16.1026478653
 20
13.3252298583
 30
0.0
 10
16.1012599624
 20
13.322210159
 30
0.0
 10
16.0994639846
 20
13.3178356551
 30
0.0
 10
16.0982830752
 20
13.3144095075
 30
0.0
 10
16.0975537289
 20
13.3120587084
 30
0.0
  0
SPLINE
  5
2B1
100
AcDbEntity
  8
LAYER_FEATURE
100
AcDbSpline
 62
7
  6
CONTINUOUS
 70
0
 71
3
 72
23
 73
19
 74
0
 42
0.0000001
 43
0.0000001
 44
0.0000000001
 40
0.0
 40
0.0
 40
0.0
 40
0.0
 40
0.0547253775
 40
0.1096628535
 40
0.1650215026
 40
0.2210045455
 40
0.2778067667
 40
0.3356124711
 40
0.3945938667
 40
0.4549098695
 40
0.516705575
 40
0.5801119565
 40
0.6452459092
 40
0.7122107555
 40
0.7810966581
 40
0.8519812948
 40
0.924930731
 40
1.0
 40
1.0
 40
1.0
 40
1.0
 10
14.6897996472
 20
13.9013049924
 30
0.0
 10
14.6945609454
 20
13.901304989
 30
0.0
 10
14.7041051304
 20
13.9009812696
 30
0.0
 10
14.7183989581
 20
13.899525915
 30
0.0
 10
14.7326721427
 20
13.8971017926
 30
0.0
 10
14.7469133071
 20
13.8937109658
 30
0.0
 10
14.7611123652
 20
13.8893563904
 30
0.0
 10
14.7752591114
 20
13.8840416721
 30
0.0
 10
14.7893435954
 20
13.8777710662
 30
0.0
 10
14.8033560637
 20
13.8705495414
 30
0.0
 10
14.8172868903
 20
13.8623825802
 30
0.0
 10
14.8311265822
 20
13.8532762593
 30
0.0
 10
14.8448657954
 20
13.8432372756
 30
0.0
 10
14.8584952309
 20
13.8322728147
 30
0.0
 10
14.8720056792
 20
13.8203906923
 30
0.0
 10
14.8853880904
 20
13.8075992449
 30
0.0
 10
14.8986331797
 20
13.7939076161
 30
0.0
 10
14.9072412107
 20
13.7843247086
 30
0.0
 10
14.9115215169
 20
13.779391485
 30
0.0
  0
SPLINE
  5
2B2
100
AcDbEntity
  8
LAYER_FEATURE
100
AcDbSpline
 62
7
  6
CONTINUOUS
 70
0
 71
3
 72
23
 73
19
 74
0
 42
0.0000001
 43
0.0000001
 44
0.0000000001
 40
0.0
 40
0.0
 40
0.0
 40
0.0
 40
0.054723448
 40
0.109659054
 40
0.1650159582
 40
0.2209974291
 40
0.2777983014
 40
0.3356029411
 40
0.3945835714
 40
0.4548991495
 40
0.5166948134
 40
0.5801015204
 40
0.6452362003
 40
0.7122021941
 40
0.7810896285
 40
0.8519762138
 40
0.9249280063
 40
1.0
 40
1.0
 40
1.0
 40
1.0
 10
14.6897996472
 20
11.1203049934
 30
0.0
 10
14.6945617192
 20
11.12030499
 30
0.0
 10
14.7041074618
 20
11.1206288313
 30
0.0
 10
14.718403617
 20
11.1220846427
 30
0.0
 10
14.7326791158
 20
11.1245095666
 30
0.0
 10
14.746922579
 20
11.1279014956
 30
0.0
 10
14.7611239188
 20
11.1322574763
 30
0.0
 10
14.7752729125
 20
11.1375739311
 30
0.0
 10
14.7893596195
 20
11.1438465625
 30
0.0
 10
14.8033742775
 20
11.1510704149
 30
0.0
 10
14.8173072437
 20
11.1592400204
 30
0.0
 10
14.8311490416
 20
11.1683492633
 30
0.0
 10
14.8448903104
 20
11.1783914651
 30
0.0
 10
14.8585217395
 20
11.1893594412
 30
0.0
 10
14.8720341374
 20
11.2012453459
 30
0.0
 10
14.8854184304
 20
11.2140408598
 30
0.0
 10
14.89866533
 20
11.2277368309
 30
0.0
 10
14.9072744987
 20
11.2373227358
 30
0.0
 10
14.9115553575
 20
11.2422575041
 30
0.0
  0
SPLINE
  5
2B3
100
AcDbEntity
  8
LAYER_FEATURE
100
AcDbSpline
 62
7
  6
CONTINUOUS
 70
0
 71
3
 72
58
 73
54
 74
0
 42
0.0000001
 43
0.0000001
 44
0.0000000001
 40
0.0
 40
0.0
 40
0.0
 40
0.0
 40
0.0076944077
 40
0.0154412967
 40
0.0232918431
 40
0.0312947394
 40
0.039495242
 40
0.047934499
 40
0.0566491594
 40
0.0656712333
 40
0.0750281481
 40
0.0847429426
 40
0.0948345472
 40
0.1053181047
 40
0.1162053062
 40
0.1275047181
 40
0.139222089
 40
0.1513606307
 40
0.1639212704
 40
0.176902876
 40
0.1903024539
 40
0.2041153237
 40
0.2183352735
 40
0.2329546961
 40
0.2479647097
 40
0.263355265
 40
0.2791152404
 40
0.2952325284
 40
0.3116941124
 40
0.3284861376
 40
0.3455939772
 40
0.3630022922
 40
0.3806950878
 40
0.398655766
 40
0.4353105096
 40
0.4728247233
 40
0.5110486688
 40
0.5498272502
 40
0.5890012786
 40
0.6284086912
 40
0.6678857481
 40
0.7072682124
 40
0.7463925227
 40
0.7850969757
 40
0.8232229248
 40
0.8606160059
 40
0.8971274091
 40
0.9150084465
 40
0.9326164886
 40
0.9499351426
 40
0.966948529
 40
0.9836417
 40
1.0
 40
1.0
 40
1.0
 40
1.0
 10
16.2905320755
 20
13.9013049851
 30
0.0
 10
16.296859003
 20
13.9013049789
 30
0.0
 10
16.3095633355
 20
13.9007317762
 30
0.0
 10
16.3285659291
 20
13.8981568217
 30
0.0
 10
16.347517729
 20
13.8938704305
 30
0.0
 10
16.3663915577
 20
13.8878800289
 30
0.0
 10
16.3851637989
 20
13.8801954354
 30
0.0
 10
16.4038110702
 20
13.8708284797
 30
0.0
 10
16.4223109845
 20
13.8597927442
 30
0.0
 10
16.4406417053
 20
13.8471034185
 30
0.0
 10
16.4587818382
 20
13.8327772578
 30
0.0
 10
16.4767102767
 20
13.8168326052
 30
0.0
 10
16.4944061248
 20
13.7992894461
 30
0.0
 10
16.5118486634
 20
13.7801694713
 30
0.0
 10
16.5290173482
 20
13.7594961237
 30
0.0
 10
16.5458918296
 20
13.7372946301
 30
0.0
 10
16.5624519872
 20
13.7135920178
 30
0.0
 10
16.5786779706
 20
13.6884171164
 30
0.0
 10
16.5945502407
 20
13.6618005458
 30
0.0
 10
16.6100496104
 20
13.6337746946
 30
0.0
 10
16.6251572838
 20
13.6043736908
 30
0.0
 10
16.6398548958
 20
13.5736333681
 30
0.0
 10
16.6541245418
 20
13.5415912209
 30
0.0
 10
16.6679488093
 20
13.508286359
 30
0.0
 10
16.6813108068
 20
13.473759459
 30
0.0
 10
16.6941941899
 20
13.4380527133
 30
0.0
 10
16.7065831859
 20
13.4012097775
 30
0.0
 10
16.7184626163
 20
13.3632757159
 30
0.0
 10
16.7298179205
 20
13.324296945
 30
0.0
 10
16.7406351745
 20
13.284321179
 30
0.0
 10
16.7509011153
 20
13.2433973554
 30
0.0
 10
16.7606031282
 20
13.2015756201
 30
0.0
 10
16.7697293804
 20
13.1589070879
 30
0.0
 10
16.7811921448
 20
13.1005628501
 30
0.0
 10
16.7939739947
 20
13.0258788089
 30
0.0
 10
16.8067528403
 20
12.9343348799
 30
0.0
 10
16.8170112645
 20
12.8407175148
 30
0.0
 10
16.8246987244
 20
12.7454854397
 30
0.0
 10
16.8297773279
 20
12.6491044968
 30
0.0
 10
16.8322220454
 20
12.5520465152
 30
0.0
 10
16.8320208359
 20
12.4547866251
 30
0.0
 10
16.8291746904
 20
12.3578009854
 30
0.0
 10
16.8236976274
 20
12.261564366
 30
0.0
 10
16.8156166438
 20
12.1665478776
 30
0.0
 10
16.8049715679
 20
12.0732162832
 30
0.0
 10
16.7918148458
 20
11.9820268956
 30
0.0
 10
16.778722672
 20
11.907683749
 30
0.0
 10
16.7670167567
 20
11.8496458923
 30
0.0
 10
16.7577142463
 20
11.8072292498
 30
0.0
 10
16.747839523
 20
11.76567514
 30
0.0
 10
16.7374046162
 20
11.7250341755
 30
0.0
 10
16.7264223992
 20
11.6853565057
 30
0.0
 10
16.718664175
 20
11.6593077351
 30
0.0
 10
16.7146927911
 20
11.646456332
 30
0.0
  0
SPLINE
  5
2B4
100
AcDbEntity
  8
LAYER_FEATURE
100
AcDbSpline
 62
7
  6
CONTINUOUS
 70
0
 71
3
 72
37
 73
33
 74
0
 42
0.0000001
 43
0.0000001
 44
0.0000000001
 40
0.0
 40
0.0
 40
0.0
 40
0.0
 40
0.0212771215
 40
0.0426480242
 40
0.0642049756
 40
0.0860373009
 40
0.1082301479
 40
0.1308634966
 40
0.1540114066
 40
0.1777415417
 40
0.2021149602
 40
0.227186072
 40
0.2530027424
 40
0.279606571
 40
0.3070332104
 40
0.3353126901
 40
0.3644698327
 40
0.3945246546
 40
0.4254927004
 40
0.4573854051
 40
0.49021046
 40
0.5239720913
 40
0.5586713154
 40
0.5943062391
 40
0.630872281
 40
0.6683623338
 40
0.7067669995
 40
0.7460747583
 40
0.7862720675
 40
0.8273436215
 40
0.9120356195
 40
1.0
 40
1.0
 40
1.0
 40
1.0
 10
16.2905320755
 20
11.1203050007
 30
0.0
 10
16.2956111483
 20
11.1203049957
 30
0.0
 10
16.3057954829
 20
11.1206735619
 30
0.0
 10
16.3210446216
 20
11.1223302451
 30
0.0
 10
16.3362684668
 20
11.1250895033
 30
0.0
 10
16.3514531617
 20
11.1289484883
 30
0.0
 10
16.3665864426
 20
11.1339033651
 30
0.0
 10
16.3816559445
 20
11.1399494174
 30
0.0
 10
16.3966496796
 20
11.1470810513
 30
0.0
 10
16.4115558895
 20
11.1552918673
 30
0.0
 10
16.4263630116
 20
11.1645747628
 30
0.0
 10
16.4410596431
 20
11.1749219093
 30
0.0
 10
16.4556345455
 20
11.1863247166
 30
0.0
 10
16.4700765733
 20
11.1987739034
 30
0.0
 10
16.4843746584
 20
11.2122594732
 30
0.0
 10
16.4985178549
 20
11.2267706471
 30
0.0
 10
16.5124952973
 20
11.2422959086
 30
0.0
 10
16.5262961899
 20
11.2588230063
 30
0.0
 10
16.5399098598
 20
11.2763389059
 30
0.0
 10
16.5533257569
 20
11.2948298048
 30
0.0
 10
16.56653343
 20
11.3142811644
 30
0.0
 10
16.5795225646
 20
11.3346776896
 30
0.0
 10
16.5922830228
 20
11.3560033204
 30
0.0
 10
16.6048048037
 20
11.3782412785
 30
0.0
 10
16.6170780627
 20
11.4013740688
 30
0.0
 10
16.62909317
 20
11.4253834633
 30
0.0
 10
16.6408406806
 20
11.4502505485
 30
0.0
 10
16.6523113019
 20
11.4759557173
 30
0.0
 10
16.6634960862
 20
11.502478764
 30
0.0
 10
16.6781658879
 20
11.5392815743
 30
0.0
 10
16.6956944602
 20
11.5872078472
 30
0.0
 10
16.70849318
 20
11.6263943831
 30
0.0
 10
16.7146927911
 20
11.646456332
 30
0.0
  0
SPLINE
  5
2B5
100
AcDbEntity
  8
LAYER_FEATURE
100
AcDbSpline
 62
7
  6
CONTINUOUS
 70
0
 71
3
 72
35
 73
31
 74
0
 42
0.0000001
 43
0.0000001
 44
0.0000000001
 40
0.0
 40
0.0
 40
0.0
 40
0.0
 40
0.0879660638
 40
0.1726595976
 40
0.2539260467
 40
0.2932345284
 40
0.331639926
 40
0.3691306885
 40
0.4056974033
 40
0.4413330047
 40
0.4760328889
 40
0.5097951397
 40
0.542620817
 40
0.5745141315
 40
0.6054827456
 40
0.6355381342
 40
0.6646958359
 40
0.6929758367
 40
0.7204029903
 40
0.7728096567
 40
0.7978812378
 40
0.8222551202
 40
0.8459856983
 40
0.8691340427
 40
0.8917678184
 40
0.9139610816
 40
0.9357938179
 40
0.9573511742
 40
0.9787224782
 40
1.0
 40
1.0
 40
1.0
 40
1.0
 10
15.9221581639
 20
13.2115666305
 30
0.0
 10
15.9271844355
 20
13.2278316513
 30
0.0
 10
15.9375609276
 20
13.2596021081
 30
0.0
 10
15.9544442696
 20
13.3057633127
 30
0.0
 10
15.9694944591
 20
13.3425398158
 30
0.0
 10
15.9820329577
 20
13.3706383836
 30
0.0
 10
15.9915571708
 20
13.3907991544
 30
0.0
 10
16.0012982756
 20
13.4102645128
 30
0.0
 10
16.0112487086
 20
13.4290191758
 30
0.0
 10
16.0214006035
 20
13.4470483712
 30
0.0
 10
16.031746004
 20
13.4643379084
 30
0.0
 10
16.0422768238
 20
13.4808741684
 30
0.0
 10
16.0529848006
 20
13.4966441575
 30
0.0
 10
16.0638615915
 20
13.5116354707
 30
0.0
 10
16.0748987368
 20
13.5258362836
 30
0.0
 10
16.0860876953
 20
13.5392354871
 30
0.0
 10
16.0974196379
 20
13.5518223314
 30
0.0
 10
16.1088864958
 20
13.5635874948
 30
0.0
 10
16.1241104275
 20
13.5779462186
 30
0.0
 10
16.1397948795
 20
13.5908951239
 30
0.0
 10
16.1559183429
 20
13.6022469632
 30
0.0
 10
16.1679232788
 20
13.6097731156
 30
0.0
 10
16.1800082801
 20
13.6164299075
 30
0.0
 10
16.1921643084
 20
13.622211813
 30
0.0
 10
16.2043817437
 20
13.6271135897
 30
0.0
 10
16.2166508959
 20
13.6311306995
 30
0.0
 10
16.2289617268
 20
13.6342593356
 30
0.0
 10
16.2413043008
 20
13.6364963734
 30
0.0
 10
16.2536673806
 20
13.6378395058
 30
0.0
 10
16.2619242231
 20
13.6381383288
 30
0.0
 10
16.2660420283
 20
13.6381383223
 30
0.0
  0
SPLINE
  5
2B6
100
AcDbEntity
  8
LAYER_FEATURE
100
AcDbSpline
 62
7
  6
CONTINUOUS
 70
0
 71
3
 72
54
 73
50
 74
0
 42
0.0000001
 43
0.0000001
 44
0.0000000001
 40
0.0
 40
0.0
 40
0.0
 40
0.0
 40
0.0330501049
 40
0.0673809194
 40
0.1028689278
 40
0.139380533
 40
0.1767738172
 40
0.2148999745
 40
0.2536046404
 40
0.2927291644
 40
0.3321118441
 40
0.3715891171
 40
0.4109967452
 40
0.4501709879
 40
0.4889497814
 40
0.527173937
 40
0.5646883547
 40
0.6013432983
 40
0.6369957232
 40
0.6544041334
 40
0.6715120651
 40
0.6883041808
 40
0.7047658545
 40
0.7208832319
 40
0.7366432952
 40
0.7520339347
 40
0.7670440295
 40
0.7816635314
 40
0.7958835591
 40
0.809696505
 40
0.8230961563
 40
0.836077832
 40
0.8486385401
 40
0.8607771487
 40
0.8724945851
 40
0.8837940599
 40
0.8946813202
 40
0.9051649329
 40
0.9152565914
 40
0.9249714399
 40
0.9343284077
 40
0.9433505324
 40
0.9520652401
 40
0.9605045421
 40
0.9687050887
 40
0.9767080286
 40
0.9845586185
 40
0.9923055502
 40
1.0
 40
1.0
 40
1.0
 40
1.0
 10
15.9221581639
 20
13.2115666305
 30
0.0
 10
15.9156530407
 20
13.1905160441
 30
0.0
 10
15.9032761755
 20
13.1473213876
 30
0.0
 10
15.8868546849
 20
13.0807249472
 30
0.0
 10
15.8722826855
 20
13.0113399909
 30
0.0
 10
15.8596322757
 20
12.9395066134
 30
0.0
 10
15.8489655878
 20
12.8655753774
 30
0.0
 10
15.8403352014
 20
12.789907873
 30
0.0
 10
15.8337836376
 20
12.7128742179
 30
0.0
 10
15.8293431627
 20
12.6348513932
 30
0.0
 10
15.8270356754
 20
12.5562212982
 30
0.0
 10
15.8268725525
 20
12.4773688608
 30
0.0
 10
15.828854579
 20
12.3986801144
 30
0.0
 10
15.8329720048
 20
12.3205402831
 30
0.0
 10
15.8392045341
 20
12.2433318374
 30
0.0
 10
15.8475214371
 20
12.1674326705
 30
0.0
 10
15.8578817611
 20
12.0932139058
 30
0.0
 10
15.8702344556
 20
12.0210391265
 30
0.0
 10
15.8822312503
 20
11.9624332535
 30
0.0
 10
15.8928026074
 20
11.9168634365
 30
0.0
 10
15.9011256572
 20
11.8836848238
 30
0.0
 10
15.9098956239
 20
11.8512749064
 30
0.0
 10
15.9191018214
 20
11.8196732725
 30
0.0
 10
15.9287329424
 20
11.7889186272
 30
0.0
 10
15.9387771884
 20
11.7590485991
 30
0.0
 10
15.9492222572
 20
11.7300997283
 30
0.0
 10
15.9600553586
 20
11.7021074069
 30
0.0
 10
15.9712632398
 20
11.6751058399
 30
0.0
 10
15.9828322058
 20
11.6491280041
 30
0.0
 10
15.9947481398
 20
11.6242056079
 30
0.0
 10
16.0069965278
 20
11.6003690517
 30
0.0
 10
16.0195624813
 20
11.5776473877
 30
0.0
 10
16.0324307587
 20
11.5560682823
 30
0.0
 10
16.0455858045
 20
11.5356579927
 30
0.0
 10
16.0590117776
 20
11.5164413443
 30
0.0
 10
16.0726925849
 20
11.4984417126
 30
0.0
 10
16.0866119177
 20
11.4816810147
 30
0.0
 10
16.1007532766
 20
11.4661797019
 30
0.0
 10
16.1151000016
 20
11.451956773
 30
0.0
 10
16.1296352943
 20
11.43902981
 30
0.0
 10
16.1443422152
 20
11.427415018
 30
0.0
 10
16.1592036533
 20
11.4171272734
 30
0.0
 10
16.1742022668
 20
11.4081801685
 30
0.0
 10
16.1893203488
 20
11.4005860143
 30
0.0
 10
16.2045397477
 20
11.3943558162
 30
0.0
 10
16.2198415065
 20
11.3894991613
 30
0.0
 10
16.235206479
 20
11.3860240089
 30
0.0
 10
16.2506126328
 20
11.3839363822
 30
0.0
 10
16.2609125379
 20
11.3834716715
 30
0.0
 10
16.2660420283
 20
11.3834716635
 30
0.0
  0
SPLINE
  5
2B7
100
AcDbEntity
  8
LAYER_FEATURE
100
AcDbSpline
 62
7
  6
CONTINUOUS
 70
0
 71
3
 72
58
 73
54
 74
0
 42
0.0000001
 43
0.0000001
 44
0.0000000001
 40
0.0
 40
0.0
 40
0.0
 40
0.0
 40
0.0163583
 40
0.033051471
 40
0.0500648574
 40
0.0673835114
 40
0.0849915535
 40
0.1028725909
 40
0.1393839941
 40
0.1767770752
 40
0.2149030243
 40
0.2536074773
 40
0.2927317876
 40
0.3321142519
 40
0.3715913088
 40
0.4109987214
 40
0.4501727498
 40
0.4889513312
 40
0.5271752767
 40
0.5646894904
 40
0.601344234
 40
0.6193049122
 40
0.6369977078
 40
0.6544060228
 40
0.6715138624
 40
0.6883058876
 40
0.7047674716
 40
0.7208847596
 40
0.736644735
 40
0.7520352903
 40
0.7670453039
 40
0.7816647265
 40
0.7958846763
 40
0.8096975461
 40
0.823097124
 40
0.8360787296
 40
0.8486393693
 40
0.860777911
 40
0.8724952819
 40
0.8837946938
 40
0.8946818953
 40
0.9051654528
 40
0.9152570574
 40
0.9249718519
 40
0.9343287667
 40
0.9433508406
 40
0.952065501
 40
0.960504758
 40
0.9687052606
 40
0.9767081569
 40
0.9845587033
 40
0.9923055923
 40
1.0
 40
1.0
 40
1.0
 40
1.0
 10
15.8282292597
 20
13.3751536538
 30
0.0
 10
15.8242578757
 20
13.3623022507
 30
0.0
 10
15.8164996516
 20
13.3362534801
 30
0.0
 10
15.8055174346
 20
13.2965758103
 30
0.0
 10
15.7950825278
 20
13.2559348458
 30
0.0
 10
15.7852078045
 20
13.214380736
 30
0.0
 10
15.7759052941
 20
13.1719640935
 30
0.0
 10
15.7641993788
 20
13.1139262368
 30
0.0
 10
15.7511072049
 20
13.0395830902
 30
0.0
 10
15.7379504828
 20
12.9483937027
 30
0.0
 10
15.7273054069
 20
12.8550621082
 30
0.0
 10
15.7192244234
 20
12.7600456198
 30
0.0
 10
15.7137473603
 20
12.6638090004
 30
0.0
 10
15.7109012149
 20
12.5668233607
 30
0.0
 10
15.7107000054
 20
12.4695634706
 30
0.0
 10
15.7131447229
 20
12.372505489
 30
0.0
 10
15.7182233264
 20
12.2761245461
 30
0.0
 10
15.7259107863
 20
12.1808924711
 30
0.0
 10
15.7361692104
 20
12.087275106
 30
0.0
 10
15.7489480561
 20
11.9957311769
 30
0.0
 10
15.761729906
 20
11.9210471357
 30
0.0
 10
15.7731926704
 20
11.8627028979
 30
0.0
 10
15.7823189226
 20
11.8200343657
 30
0.0
 10
15.7920209354
 20
11.7782126305
 30
0.0
 10
15.8022868762
 20
11.7372888069
 30
0.0
 10
15.8131041303
 20
11.6973130408
 30
0.0
 10
15.8244594344
 20
11.6583342699
 30
0.0
 10
15.8363388649
 20
11.6204002083
 30
0.0
 10
15.8487278609
 20
11.5835572725
 30
0.0
 10
15.8616112439
 20
11.5478505268
 30
0.0
 10
15.8749732415
 20
11.5133236268
 30
0.0
 10
15.888797509
 20
11.480018765
 30
0.0
 10
15.903067155
 20
11.4479766178
 30
0.0
 10
15.9177647669
 20
11.417236295
 30
0.0
 10
15.9328724403
 20
11.3878352913
 30
0.0
 10
15.9483718101
 20
11.35980944
 30
0.0
 10
15.9642440801
 20
11.3331928694
 30
0.0
 10
15.9804700635
 20
11.308017968
 30
0.0
 10
15.9970302212
 20
11.2843153558
 30
0.0
 10
16.0139047025
 20
11.2621138621
 30
0.0
 10
16.0310733874
 20
11.2414405145
 30
0.0
 10
16.048515926
 20
11.2223205397
 30
0.0
 10
16.066211774
 20
11.2047773806
 30
0.0
 10
16.0841402126
 20
11.1888327281
 30
0.0
 10
16.1022803455
 20
11.1745065673
 30
0.0
 10
16.1206110663
 20
11.1618172416
 30
0.0
 10
16.1391109805
 20
11.1507815061
 30
0.0
 10
16.1577582519
 20
11.1414145505
 30
0.0
 10
16.1765304931
 20
11.1337299569
 30
0.0
 10
16.1954043218
 20
11.1277395553
 30
0.0
 10
16.2143561217
 20
11.1234531641
 30
0.0
 10
16.2333587153
 20
11.1208782096
 30
0.0
 10
16.2460630477
 20
11.1203050069
 30
0.0
 10
16.2523899752
 20
11.1203050007
 30
0.0
  0
SPLINE
  5
2B8
100
AcDbEntity
  8
02___PRT_ALL_AXES
100
AcDbSpline
 62
7
  6
CONTINUOUS
 70
0
 71
3
 72
56
 73
52
 74
0
 42
0.0000001
 43
0.0000001
 44
0.0000000001
 40
0.0
 40
0.0
 40
0.0
 40
0.0
 40
0.0077393867
 40
0.015489654
 40
0.0233047886
 40
0.0312371324
 40
0.0393361829
 40
0.0476476517
 40
0.0562128264
 40
0.0650682304
 40
0.0742455382
 40
0.0837716821
 40
0.0936690906
 40
0.1039560019
 40
0.1146468122
 40
0.1257524268
 40
0.137280602
 40
0.1492362608
 40
0.1616217788
 40
0.1744372399
 40
0.1876806628
 40
0.201348199
 40
0.215434309
 40
0.2299319187
 40
0.2448325555
 40
0.2601264686
 40
0.2758027368
 40
0.2918493631
 40
0.3082533605
 40
0.3250008321
 40
0.3420770431
 40
0.3594664867
 40
0.3951182365
 40
0.4318202305
 40
0.4694263645
 40
0.5077832736
 40
0.5467317503
 40
0.586108091
 40
0.6257454014
 40
0.6654748616
 40
0.7051269741
 40
0.7445328106
 40
0.7835252571
 40
0.8219402809
 40
0.85961823
 40
0.8964051703
 40
0.9321543006
 40
0.9495968611
 40
0.9667288998
 40
0.9835350182
 40
1.0
 40
1.0
 40
1.0
 40
1.0
 10
16.2661047112
 20
13.6376846319
 30
0.0
 10
16.2712825787
 20
13.6380619811
 30
0.0
 10
16.2816861721
 20
13.6383472771
 30
0.0
 10
16.2973076721
 20
13.6373473328
 30
0.0
 10
16.312903744
 20
13.6349211096
 30
0.0
 10
16.328450935
 20
13.6310730076
 30
0.0
 10
16.3439286792
 20
13.6258098605
 30
0.0
 10
16.3593166822
 20
13.6191404152
 30
0.0
 10
16.37459561
 20
13.6110750872
 30
0.0
 10
16.3897467362
 20
13.6016257342
 30
0.0
 10
16.4047518257
 20
13.5908055568
 30
0.0
 10
16.4195929694
 20
13.5786290802
 30
0.0
 10
16.4342524831
 20
13.5651121863
 30
0.0
 10
16.4487128461
 20
13.5502721653
 30
0.0
 10
16.4629566809
 20
13.5341277699
 30
0.0
 10
16.4769667645
 20
13.5166992588
 30
0.0
 10
16.4907260448
 20
13.4980084153
 30
0.0
 10
16.5042176752
 20
13.4780785578
 30
0.0
 10
16.5174250494
 20
13.4569345367
 30
0.0
 10
16.5303318388
 20
13.4346027216
 30
0.0
 10
16.5429220254
 20
13.4111109804
 30
0.0
 10
16.5551799404
 20
13.3864886553
 30
0.0
 10
16.5670902925
 20
13.3607665267
 30
0.0
 10
16.5786381933
 20
13.3339767737
 30
0.0
 10
16.5898091846
 20
13.3061529336
 30
0.0
 10
16.6005892624
 20
13.277329859
 30
0.0
 10
16.6109648984
 20
13.2475436736
 30
0.0
 10
16.6209230598
 20
13.2168317293
 30
0.0
 10
16.6304512412
 20
13.1852325497
 30
0.0
 10
16.6395374443
 20
13.1527858159
 30
0.0
 10
16.6481703199
 20
13.1195321651
 30
0.0
 10
16.6591525436
 20
13.0737950821
 30
0.0
 10
16.6716401261
 20
13.0148912253
 30
0.0
 10
16.6845368424
 20
12.9422535099
 30
0.0
 10
16.695401733
 20
12.8674504136
 30
0.0
 10
16.7041799021
 20
12.7908576665
 30
0.0
 10
16.7108269866
 20
12.7128592548
 30
0.0
 10
16.7153094057
 20
12.6338466222
 30
0.0
 10
16.7176045045
 20
12.5542163278
 30
0.0
 10
16.7177006673
 20
12.4743681065
 30
0.0
 10
16.7155974168
 20
12.3947027999
 30
0.0
 10
16.7113053918
 20
12.315620322
 30
0.0
 10
16.7048462741
 20
12.2375175898
 30
0.0
 10
16.6962527092
 20
12.1607865788
 30
0.0
 10
16.6855681291
 20
12.0858119853
 30
0.0
 10
16.6728465063
 20
12.0129704204
 30
0.0
 10
16.6605021985
 20
11.9538751233
 30
0.0
 10
16.6496316787
 20
11.9079691534
 30
0.0
 10
16.6410791644
 20
11.8745786684
 30
0.0
 10
16.632071413
 20
11.8419880856
 30
0.0
 10
16.6257030803
 20
11.8205957397
 30
0.0
 10
16.6224421469
 20
11.8100433553
 30
0.0
  0
SPLINE
  5
2B9
100
AcDbEntity
  8
LAYER_CHAMFER_FEAT
100
AcDbSpline
 62
7
  6
CONTINUOUS
 70
0
 71
3
 72
49
 73
45
 74
0
 42
0.0000001
 43
0.0000001
 44
0.0000000001
 40
0.0
 40
0.0
 40
0.0
 40
0.0
 40
0.0101615053
 40
0.0206688197
 40
0.0315256439
 40
0.0427339836
 40
0.0542943125
 40
0.0662057066
 40
0.0784659546
 40
0.091071679
 40
0.1040184391
 40
0.1173008096
 40
0.1309124526
 40
0.1448462004
 40
0.159094119
 40
0.1736475535
 40
0.203631847
 40
0.2347187907
 40
0.2668181723
 40
0.2998324562
 40
0.3336577918
 40
0.3681849852
 40
0.4033003557
 40
0.4388865721
 40
0.4748234376
 40
0.5109886529
 40
0.5472585665
 40
0.5835089081
 40
0.6196155228
 40
0.6554551063
 40
0.6909059374
 40
0.7258486416
 40
0.760166946
 40
0.7937484961
 40
0.8264856783
 40
0.8582765279
 40
0.8890256948
 40
0.9186455209
 40
0.9330076353
 40
0.9470587184
 40
0.9607905496
 40
0.9741955822
 40
0.9872675144
 40
1.0
 40
1.0
 40
1.0
 40
1.0
 10
16.1070547066
 20
13.454790592
 30
0.0
 10
16.1030933979
 20
13.4500447405
 30
0.0
 10
16.0952353375
 20
13.4402235738
 30
0.0
 10
16.0838300638
 20
13.4247993922
 30
0.0
 10
16.0726217789
 20
13.4084532519
 30
0.0
 10
16.0616218771
 20
13.3912018933
 30
0.0
 10
16.0508412321
 20
13.3730625267
 30
0.0
 10
16.040290642
 20
13.3540533748
 30
0.0
 10
16.0299806452
 20
13.3341935284
 30
0.0
 10
16.0199215759
 20
13.3135029483
 30
0.0
 10
16.0101235419
 20
13.2920024289
 30
0.0
 10
16.0005964042
 20
13.2697135958
 30
0.0
 10
15.9913497342
 20
13.2466588848
 30
0.0
 10
15.9823928666
 20
13.2228615273
 30
0.0
 10
15.973734769
 20
13.198345419
 30
0.0
 10
15.9624892425
 20
13.1643947612
 30
0.0
 10
15.9492697626
 20
13.1203163688
 30
0.0
 10
15.9348840514
 20
13.0654805768
 30
0.0
 10
15.9218803226
 20
13.0084090504
 30
0.0
 10
15.9103113073
 20
12.9493319347
 30
0.0
 10
15.900223802
 20
12.8884868399
 30
0.0
 10
15.8916587251
 20
12.8261188799
 30
0.0
 10
15.8846507732
 20
12.7624793676
 30
0.0
 10
15.8792283763
 20
12.6978248482
 30
0.0
 10
15.8754135233
 20
12.6324160229
 30
0.0
 10
15.8732216766
 20
12.5665166825
 30
0.0
 10
15.8726617472
 20
12.5003926245
 30
0.0
 10
15.8737359761
 20
12.4343105658
 30
0.0
 10
15.8764400436
 20
12.3685370519
 30
0.0
 10
15.8807629399
 20
12.3033373649
 30
0.0
 10
15.8866871762
 20
12.2389744406
 30
0.0
 10
15.8941886858
 20
12.1757077838
 30
0.0
 10
15.9032370894
 20
12.1137924135
 30
0.0
 10
15.9137956812
 20
12.0534777795
 30
0.0
 10
15.9258216933
 20
11.9950068201
 30
0.0
 10
15.9392664417
 20
11.9386146311
 30
0.0
 10
15.9540754655
 20
11.8845285835
 30
0.0
 10
15.9676392001
 20
11.8411236611
 30
0.0
 10
15.9791507744
 20
11.807746164
 30
0.0
 10
15.9879980574
 20
11.7836797153
 30
0.0
 10
15.9971384423
 20
11.7603472519
 30
0.0
 10
16.0065628424
 20
11.7377719908
 30
0.0
 10
16.0162616406
 20
11.7159770705
 30
0.0
 10
16.0229934579
 20
11.7017932114
 30
0.0
 10
16.0264058624
 20
11.694839462
 30
0.0
  0
SPLINE
  5
2BA
100
AcDbEntity
  8
LAYER_CHAMFER_FEAT
100
AcDbSpline
 62
7
  6
CONTINUOUS
 70
0
 71
3
 72
19
 73
15
 74
0
 42
0.0000001
 43
0.0000001
 44
0.0000000001
 40
0.0
 40
0.0
 40
0.0
 40
0.0
 40
0.1458831404
 40
0.2841905389
 40
0.4155044158
 40
0.5405776279
 40
0.6010803428
 40
0.6603894625
 40
0.7186504179
 40
0.7760193322
 40
0.8326618092
 40
0.8887517345
 40
0.9444694918
 40
1.0
 40
1.0
 40
1.0
 40
1.0
 10
16.1076222486
 20
11.5671870575
 30
0.0
 10
16.1134860732
 20
11.560937296
 30
0.0
 10
16.1253243061
 20
11.5491411508
 30
0.0
 10
16.1439085109
 20
11.5332761086
 30
0.0
 10
16.1627901546
 20
11.5197666697
 30
0.0
 10
16.1789172837
 20
11.5104000109
 30
0.0
 10
16.1918934692
 20
11.5041756885
 30
0.0
 10
16.2015619801
 20
11.5001674394
 30
0.0
 10
16.2112673121
 20
11.4967711328
 30
0.0
 10
16.2210037005
 20
11.4939889097
 30
0.0
 10
16.2307650248
 20
11.4918228666
 30
0.0
 10
16.2405452793
 20
11.4902745198
 30
0.0
 10
16.2503377284
 20
11.4893450465
 30
0.0
 10
16.2568749078
 20
11.4891383313
 30
0.0
 10
16.2601370627
 20
11.4891383347
 30
0.0
  0
SPLINE
  5
2BB
100
AcDbEntity
  8
LAYER_CHAMFER_FEAT
100
AcDbSpline
 62
7
  6
CONTINUOUS
 70
0
 71
3
 72
19
 73
15
 74
0
 42
0.0000001
 43
0.0000001
 44
0.0000000001
 40
0.0
 40
0.0
 40
0.0
 40
0.0
 40
0.055531416
 40
0.1112500555
 40
0.1673407976
 40
0.2239840323
 40
0.2813535695
 40
0.3396150564
 40
0.3989245312
 40
0.4594274595
 40
0.5845005513
 40
0.715813557
 40
0.8541193017
 40
1.0
 40
1.0
 40
1.0
 40
1.0
 10
16.2601370627
 20
13.5324716511
 30
0.0
 10
16.256875178
 20
13.5324716477
 30
0.0
 10
16.2503385414
 20
13.5322649858
 30
0.0
 10
16.2405469072
 20
13.5313356409
 30
0.0
 10
16.2307674561
 20
13.5297875824
 30
0.0
 10
16.2210069443
 20
13.5276218632
 30
0.0
 10
16.2112713436
 20
13.5248401339
 30
0.0
 10
16.2015668114
 20
13.5214443615
 30
0.0
 10
16.1918990736
 20
13.5174367924
 30
0.0
 10
16.17892395
 20
13.5112134962
 30
0.0
 10
16.162798107
 20
13.5018484055
 30
0.0
 10
16.1439179045
 20
13.4883411789
 30
0.0
 10
16.1253350725
 20
13.4724787142
 30
0.0
 10
16.1134976394
 20
13.4606844558
 30
0.0
 10
16.107634215
 20
13.4544356811
 30
0.0
  0
SPLINE
  5
2BC
100
AcDbEntity
  8
LAYER_FEATURE
100
AcDbSpline
 62
7
  6
CONTINUOUS
 70
0
 71
3
 72
37
 73
33
 74
0
 42
0.0000001
 43
0.0000001
 44
0.0000000001
 40
0.0
 40
0.0
 40
0.0
 40
0.0
 40
0.0879643805
 40
0.1726563785
 40
0.2137279325
 40
0.2539252417
 40
0.2932330005
 40
0.3316376662
 40
0.369127719
 40
0.4056937609
 40
0.4413286846
 40
0.4760279087
 40
0.50978954
 40
0.5426145949
 40
0.5745072996
 40
0.6054753454
 40
0.6355301673
 40
0.6646873099
 40
0.6929667896
 40
0.720393429
 40
0.7469972576
 40
0.772813928
 40
0.7978850398
 40
0.8222584583
 40
0.8459885934
 40
0.8691365034
 40
0.8917698521
 40
0.9139626991
 40
0.9357950244
 40
0.9573519758
 40
0.9787228785
 40
1.0
 40
1.0
 40
1.0
 40
1.0
 10
15.8282292597
 20
13.3751536538
 30
0.0
 10
15.8344288708
 20
13.3952156027
 30
0.0
 10
15.8472275906
 20
13.4344021386
 30
0.0
 10
15.8647561629
 20
13.4823284115
 30
0.0
 10
15.8794259646
 20
13.5191312218
 30
0.0
 10
15.8906107489
 20
13.5456542685
 30
0.0
 10
15.9020813702
 20
13.5713594373
 30
0.0
 10
15.9138288808
 20
13.5962265225
 30
0.0
 10
15.9258439881
 20
13.620235917
 30
0.0
 10
15.9381172471
 20
13.6433687073
 30
0.0
 10
15.950639028
 20
13.6656066654
 30
0.0
 10
15.9633994861
 20
13.6869322962
 30
0.0
 10
15.9763886208
 20
13.7073288214
 30
0.0
 10
15.9895962939
 20
13.726780181
 30
0.0
 10
16.003012191
 20
13.7452710799
 30
0.0
 10
16.0166258609
 20
13.7627869795
 30
0.0
 10
16.0304267534
 20
13.7793140773
 30
0.0
 10
16.0444041958
 20
13.7948393387
 30
0.0
 10
16.0585473924
 20
13.8093505126
 30
0.0
 10
16.0728454775
 20
13.8228360824
 30
0.0
 10
16.0872875053
 20
13.8352852692
 30
0.0
 10
16.1018624077
 20
13.8466880765
 30
0.0
 10
16.1165590392
 20
13.857035223
 30
0.0
 10
16.1313661613
 20
13.8663181185
 30
0.0
 10
16.1462723712
 20
13.8745289345
 30
0.0
 10
16.1612661062
 20
13.8816605684
 30
0.0
 10
16.1763356082
 20
13.8877066207
 30
0.0
 10
16.191468889
 20
13.8926614975
 30
0.0
 10
16.206653584
 20
13.8965204825
 30
0.0
 10
16.2218774292
 20
13.8992797407
 30
0.0
 10
16.2371265679
 20
13.9009364239
 30
0.0
 10
16.2473109025
 20
13.9013049901
 30
0.0
 10
16.2523899752
 20
13.9013049851
 30
0.0
  0
SPLINE
  5
2BD
100
AcDbEntity
  8
LAYER_FEATURE
100
AcDbSpline
 62
7
  6
CONTINUOUS
 70
0
 71
3
 72
58
 73
54
 74
0
 42
0.0000001
 43
0.0000001
 44
0.0000000001
 40
0.0
 40
0.0
 40
0.0
 40
0.0
 40
0.0163582929
 40
0.0330514752
 40
0.0500648562
 40
0.0673835117
 40
0.0849915534
 40
0.1028725906
 40
0.1393839944
 40
0.1767770754
 40
0.2149030241
 40
0.2536074772
 40
0.2927317879
 40
0.332114252
 40
0.371591309
 40
0.4109987216
 40
0.4501727494
 40
0.4889513313
 40
0.5271752776
 40
0.56468949
 40
0.601344233
 40
0.6193049121
 40
0.6369977088
 40
0.6544060245
 40
0.6715138637
 40
0.6883058875
 40
0.7047674701
 40
0.7208847578
 40
0.7366447343
 40
0.7520352912
 40
0.7670453061
 40
0.7816647285
 40
0.7958846767
 40
0.8096975447
 40
0.8230971217
 40
0.836078728
 40
0.8486393696
 40
0.860777913
 40
0.8724952842
 40
0.8837946949
 40
0.8946818946
 40
0.905165451
 40
0.9152570556
 40
0.9249718515
 40
0.9343287678
 40
0.9433508423
 40
0.9520655022
 40
0.9605047582
 40
0.9687052601
 40
0.9767081561
 40
0.9845587028
 40
0.9923055922
 40
1.0
 40
1.0
 40
1.0
 40
1.0
 10
14.2274968313
 20
13.3751536538
 30
0.0
 10
14.2235254491
 20
13.3623022563
 30
0.0
 10
14.2157672249
 20
13.3362534821
 30
0.0
 10
14.2047850066
 20
13.2965758138
 30
0.0
 10
14.1943500999
 20
13.2559348429
 30
0.0
 10
14.1844753762
 20
13.2143807368
 30
0.0
 10
14.1751728654
 20
13.1719640937
 30
0.0
 10
14.1634669493
 20
13.1139262372
 30
0.0
 10
14.1503747777
 20
13.0395830899
 30
0.0
 10
14.137218056
 20
12.9483937022
 30
0.0
 10
14.1265729775
 20
12.8550621084
 30
0.0
 10
14.1184919926
 20
12.7600456201
 30
0.0
 10
14.1130149353
 20
12.6638090002
 30
0.0
 10
14.1101687877
 20
12.5668233605
 30
0.0
 10
14.1099675736
 20
12.4695634704
 30
0.0
 10
14.1124122941
 20
12.3725054892
 30
0.0
 10
14.1174909026
 20
12.2761245466
 30
0.0
 10
14.1251783576
 20
12.1808924707
 30
0.0
 10
14.1354367768
 20
12.087275105
 30
0.0
 10
14.1482156306
 20
11.9957311779
 30
0.0
 10
14.1609974816
 20
11.921047138
 30
0.0
 10
14.1724602424
 20
11.8627028984
 30
0.0
 10
14.1815864921
 20
11.8200343633
 30
0.0
 10
14.1912885033
 20
11.7782126265
 30
0.0
 10
14.2015544455
 20
11.7372888042
 30
0.0
 10
14.2123717027
 20
11.6973130417
 30
0.0
 10
14.2237270096
 20
11.6583342743
 30
0.0
 10
14.2356064401
 20
11.6204002133
 30
0.0
 10
14.2479954339
 20
11.5835572747
 30
0.0
 10
14.2608788143
 20
11.5478505246
 30
0.0
 10
14.2742408096
 20
11.5133236212
 30
0.0
 10
14.2880650777
 20
11.48001876
 30
0.0
 10
14.3023347264
 20
11.4479766172
 30
0.0
 10
14.3170323409
 20
11.4172362996
 30
0.0
 10
14.3321400157
 20
11.3878352985
 30
0.0
 10
14.3476393839
 20
11.3598094448
 30
0.0
 10
14.3635116514
 20
11.3331928685
 30
0.0
 10
14.3797376323
 20
11.3080179617
 30
0.0
 10
14.3962977899
 20
11.2843153485
 30
0.0
 10
14.4131722733
 20
11.2621138592
 30
0.0
 10
14.4303409602
 20
11.2414405179
 30
0.0
 10
14.4477835003
 20
11.2223205478
 30
0.0
 10
14.4654793482
 20
11.2047773884
 30
0.0
 10
14.4834077845
 20
11.1888327297
 30
0.0
 10
14.5015479153
 20
11.1745065615
 30
0.0
 10
14.5198786358
 20
11.1618172329
 30
0.0
 10
14.5383785515
 20
11.150781501
 30
0.0
 10
14.557025824
 20
11.1414145518
 30
0.0
 10
14.5757980658
 20
11.133729964
 30
0.0
 10
14.5946718944
 20
11.1277395647
 30
0.0
 10
14.6136236934
 20
11.1234531685
 30
0.0
 10
14.6326262864
 20
11.1208782064
 30
0.0
 10
14.6453306193
 20
11.1203049979
 30
0.0
 10
14.6516575469
 20
11.1203049934
 30
0.0
  0
SPLINE
  5
2BE
100
AcDbEntity
  8
LAYER_FEATURE
100
AcDbSpline
 62
7
  6
CONTINUOUS
 70
0
 71
3
 72
37
 73
33
 74
0
 42
0.0000001
 43
0.0000001
 44
0.0000000001
 40
0.0
 40
0.0
 40
0.0
 40
0.0
 40
0.0879643884
 40
0.1726563725
 40
0.2137279333
 40
0.2539252434
 40
0.2932329985
 40
0.3316376655
 40
0.3691277208
 40
0.4056937598
 40
0.4413286826
 40
0.4760279105
 40
0.5097895407
 40
0.5426145918
 40
0.5745073007
 40
0.605475348
 40
0.6355301637
 40
0.6646873096
 40
0.6929667933
 40
0.7203934259
 40
0.7469972557
 40
0.7728139315
 40
0.7978850388
 40
0.8222584554
 40
0.8459885955
 40
0.8691365045
 40
0.8917698493
 40
0.9139626995
 40
0.9357950259
 40
0.9573519746
 40
0.978722878
 40
1.0
 40
1.0
 40
1.0
 40
1.0
 10
14.2274968313
 20
13.3751536538
 30
0.0
 10
14.233696443
 20
13.3952156045
 30
0.0
 10
14.2464951617
 20
13.4344021393
 30
0.0
 10
14.2640237362
 20
13.4823284116
 30
0.0
 10
14.2786935361
 20
13.5191312209
 30
0.0
 10
14.289878319
 20
13.5456542693
 30
0.0
 10
14.3013489433
 20
13.5713594363
 30
0.0
 10
14.3130964532
 20
13.5962265218
 30
0.0
 10
14.3251115576
 20
13.620235918
 30
0.0
 10
14.3373848197
 20
13.6433687065
 30
0.0
 10
14.3499066015
 20
13.6656066639
 30
0.0
 10
14.3626670558
 20
13.6869322974
 30
0.0
 10
14.3756561914
 20
13.7073288219
 30
0.0
 10
14.3888638688
 20
13.7267801783
 30
0.0
 10
14.4022797616
 20
13.7452710807
 30
0.0
 10
14.4158934291
 20
13.7627869822
 30
0.0
 10
14.4296943293
 20
13.7793140732
 30
0.0
 10
14.4436717678
 20
13.7948393382
 30
0.0
 10
14.4578149592
 20
13.8093505176
 30
0.0
 10
14.4721130528
 20
13.8228360778
 30
0.0
 10
14.4865550788
 20
13.8352852661
 30
0.0
 10
14.5011299747
 20
13.8466880829
 30
0.0
 10
14.5158266122
 20
13.8570352208
 30
0.0
 10
14.5306337363
 20
13.8663181119
 30
0.0
 10
14.5455399398
 20
13.8745289404
 30
0.0
 10
14.5605336766
 20
13.881660572
 30
0.0
 10
14.5756031835
 20
13.88770661
 30
0.0
 10
14.5907364594
 20
13.8926615006
 30
0.0
 10
14.6059211537
 20
13.8965204928
 30
0.0
 10
14.6211450028
 20
13.8992797275
 30
0.0
 10
14.636394139
 20
13.9009364238
 30
0.0
 10
14.646578474
 20
13.901304996
 30
0.0
 10
14.6516575469
 20
13.9013049924
 30
0.0
  0
SPLINE
  5
2BF
100
AcDbEntity
  8
LAYER_CUT_FEAT
100
AcDbSpline
 62
7
  6
CONTINUOUS
 70
0
 71
3
 72
10
 73
6
 74
0
 42
0.0000001
 43
0.0000001
 44
0.0000000001
 40
0.0
 40
0.0
 40
0.0
 40
0.0
 40
0.500612591
 40
0.7504546367
 40
1.0
 40
1.0
 40
1.0
 40
1.0
 10
16.2216312863
 20
11.8826621218
 30
0.0
 10
16.1765557861
 20
11.8842598912
 30
0.0
 10
16.1089930552
 20
11.8869085939
 30
0.0
 10
16.0189835633
 20
11.8908856083
 30
0.0
 10
15.9740404123
 20
11.8930140208
 30
0.0
 10
15.9515839035
 20
11.894112241
 30
0.0
  0
SPLINE
  5
2C0
100
AcDbEntity
  8
02___PRT_ALL_AXES
100
AcDbSpline
 62
7
  6
CONTINUOUS
 70
0
 71
3
 72
20
 73
16
 74
0
 42
0.0000001
 43
0.0000001
 44
0.0000000001
 40
0.0
 40
0.0
 40
0.0
 40
0.0
 40
0.0404572903
 40
0.084005859
 40
0.1307990151
 40
0.1809066689
 40
0.23433059
 40
0.2910167181
 40
0.3508648117
 40
0.4137360219
 40
0.4794588973
 40
0.5478342514
 40
0.6916109225
 40
0.8430797902
 40
1.0
 40
1.0
 40
1.0
 40
1.0
 10
16.0598598621
 20
11.6337063163
 30
0.0
 10
16.0605816707
 20
11.6343202129
 30
0.0
 10
16.0620073393
 20
11.6356823707
 30
0.0
 10
16.0640109828
 20
11.6380047098
 30
0.0
 10
16.0659476568
 20
11.6406678534
 30
0.0
 10
16.067808878
 20
11.6436595911
 30
0.0
 10
16.0695867684
 20
11.6469667087
 30
0.0
 10
16.0712734482
 20
11.6505743825
 30
0.0
 10
16.0728613741
 20
11.6544663973
 30
0.0
 10
16.0743433358
 20
11.6586251526
 30
0.0
 10
16.0757126386
 20
11.6630318136
 30
0.0
 10
16.0774079717
 20
11.6693166423
 30
0.0
 10
16.079186796
 20
11.6776523626
 30
0.0
 10
16.0807555529
 20
11.6881314685
 30
0.0
 10
16.0814191927
 20
11.6953281843
 30
0.0
 10
16.081659333
 20
11.6989956105
 30
0.0
  0
SPLINE
  5
2C1
100
AcDbEntity
  8
LAYER_FEATURE
100
AcDbSpline
 62
7
  6
CONTINUOUS
 70
0
 71
3
 72
16
 73
12
 74
0
 42
0.0000001
 43
0.0000001
 44
0.0000000001
 40
0.0
 40
0.0
 40
0.0
 40
0.0
 40
0.0461937574
 40
0.0933247359
 40
0.1918935308
 40
0.2985779146
 40
0.4153393194
 40
0.5434241179
 40
0.6834910228
 40
0.8357356972
 40
1.0
 40
1.0
 40
1.0
 40
1.0
 10
14.2668078377
 20
12.9240542594
 30
0.0
 10
14.2671510419
 20
12.9240951142
 30
0.0
 10
14.2678404667
 20
12.9242156467
 30
0.0
 10
14.2692231017
 20
12.924610599
 30
0.0
 10
14.2709501334
 20
12.9254047148
 30
0.0
 10
14.2729391281
 20
12.9267816204
 30
0.0
 10
14.2748672777
 20
12.9285819465
 30
0.0
 10
14.2767236772
 20
12.9307912525
 30
0.0
 10
14.2784978838
 20
12.9333939554
 30
0.0
 10
14.2801785451
 20
12.9363719106
 30
0.0
 10
14.2811917323
 20
12.9385146691
 30
0.0
 10
14.2816833653
 20
12.9396411015
 30
0.0
  0
SPLINE
  5
2C2
100
AcDbEntity
  8
LAYER_FEATURE
100
AcDbSpline
 62
7
  6
CONTINUOUS
 70
0
 71
3
 72
17
 73
13
 74
0
 42
0.0000001
 43
0.0000001
 44
0.0000000001
 40
0.0
 40
0.0
 40
0.0
 40
0.0
 40
0.0377595656
 40
0.0766615073
 40
0.1176978451
 40
0.1616972292
 40
0.260693502
 40
0.3765675593
 40
0.5098137215
 40
0.6595027682
 40
0.8237426188
 40
1.0
 40
1.0
 40
1.0
 40
1.0
 10
14.2508349367
 20
12.9240999175
 30
0.0
 10
14.2507134363
 20
12.924099915
 30
0.0
 10
14.2504661587
 20
12.9240759975
 30
0.0
 10
14.2501006512
 20
12.9239697139
 30
0.0
 10
14.2497406143
 20
12.9237941843
 30
0.0
 10
14.2492515804
 20
12.9234570043
 30
0.0
 10
14.2486669427
 20
12.9228529322
 30
0.0
 10
14.2480446975
 20
12.9219168328
 30
0.0
 10
14.2474830595
 20
12.9207595312
 30
0.0
 10
14.2469933728
 20
12.9194043259
 30
0.0
 10
14.2465856307
 20
12.9178790181
 30
0.0
 10
14.2463804621
 20
12.9168017483
 30
0.0
 10
14.2462920104
 20
12.9162415382
 30
0.0
  0
SPLINE
  5
2C3
100
AcDbEntity
  8
LAYER_CHAMFER_FEAT
100
AcDbSpline
 62
7
  6
CONTINUOUS
 70
0
 71
3
 72
39
 73
35
 74
0
 42
0.0000001
 43
0.0000001
 44
0.0000000001
 40
0.0
 40
0.0
 40
0.0
 40
0.0
 40
0.0439504527
 40
0.0865559299
 40
0.1278044773
 40
0.1676923359
 40
0.2062207637
 40
0.2433985035
 40
0.2792420407
 40
0.3137765137
 40
0.3470366692
 40
0.3790678449
 40
0.4099270313
 40
0.4396838965
 40
0.468421688
 40
0.4962379307
 40
0.5232447534
 40
0.5495686752
 40
0.5753496581
 40
0.6007393082
 40
0.625898211
 40
0.6509924967
 40
0.6761898837
 40
0.7016555635
 40
0.7275483367
 40
0.7540173375
 40
0.7811995651
 40
0.809218283
 40
0.8381822595
 40
0.8681856923
 40
0.8993086361
 40
0.9316177586
 40
0.9651672759
 40
1.0
 40
1.0
 40
1.0
 40
1.0
 10
16.5307107028
 20
13.3267705238
 30
0.0
 10
16.5271005812
 20
13.3341271781
 30
0.0
 10
16.519789995
 20
13.3485180351
 30
0.0
 10
16.5083666979
 20
13.3694352397
 30
0.0
 10
16.4966681309
 20
13.3893264048
 30
0.0
 10
16.4847083706
 20
13.4081675839
 30
0.0
 10
16.4725013497
 20
13.4259365365
 30
0.0
 10
16.4600614207
 20
13.4426121113
 30
0.0
 10
16.447403083
 20
13.4581745142
 30
0.0
 10
16.4345410156
 20
13.4726052222
 30
0.0
 10
16.4214900449
 20
13.4858869905
 30
0.0
 10
16.4082651191
 20
13.4980038265
 30
0.0
 10
16.394881315
 20
13.5089409693
 30
0.0
 10
16.3813538587
 20
13.5186848619
 30
0.0
 10
16.367698158
 20
13.5272230919
 30
0.0
 10
16.3539298894
 20
13.5345443689
 30
0.0
 10
16.3400651102
 20
13.5406385322
 30
0.0
 10
16.3261204002
 20
13.5454966462
 30
0.0
 10
16.3121129744
 20
13.5491111583
 30
0.0
 10
16.2980607284
 20
13.5514761067
 30
0.0
 10
16.2839821813
 20
13.5525873939
 30
0.0
 10
16.2698962834
 20
13.5524430203
 30
0.0
 10
16.2558221171
 20
13.5510432516
 30
0.0
 10
16.2417785566
 20
13.5483905857
 30
0.0
 10
16.22778399
 20
13.5444895715
 30
0.0
 10
16.2138561568
 20
13.5393465595
 30
0.0
 10
16.2000121203
 20
13.5329694346
 30
0.0
 10
16.1862683259
 20
13.5253674308
 30
0.0
 10
16.1726407337
 20
13.516550972
 30
0.0
 10
16.1591449444
 20
13.5065315996
 30
0.0
 10
16.1457963378
 20
13.4953220085
 30
0.0
 10
16.1326100273
 20
13.4829359357
 30
0.0
 10
16.1196013623
 20
13.4693887886
 30
0.0
 10
16.1112164878
 20
13.4597766198
 30
0.0
 10
16.1070547066
 20
13.454790592
 30
0.0
  0
LINE
  5
2C4
100
AcDbEntity
  8
LAYER_FEATURE
100
AcDbLine
 62
7
  6
CONTINUOUS
 10
14.3071156033
 20
13.0893498798
 11
14.3098527747
 21
13.0933742676
  0
SPLINE
  5
2C5
100
AcDbEntity
  8
LAYER_FEATURE
100
AcDbSpline
 62
7
  6
CONTINUOUS
 70
0
 71
3
 72
16
 73
12
 74
0
 42
0.0000001
 43
0.0000001
 44
0.0000000001
 40
0.0
 40
0.0
 40
0.0
 40
0.0
 40
0.0399922791
 40
0.0809118878
 40
0.1686285272
 40
0.2686037512
 40
0.3837152786
 40
0.5150204231
 40
0.6623169743
 40
0.8245388396
 40
1.0
 40
1.0
 40
1.0
 40
1.0
 10
14.2777593998
 20
13.0893931136
 30
0.0
 10
14.2776526018
 20
13.0893931154
 30
0.0
 10
14.2774361046
 20
13.0893747626
 30
0.0
 10
14.2769980133
 20
13.0892632335
 30
0.0
 10
14.2764503921
 20
13.0889738786
 30
0.0
 10
14.2758439142
 20
13.0884307638
 30
0.0
 10
14.2752744882
 20
13.0876969282
 30
0.0
 10
14.2747485989
 20
13.0867836118
 30
0.0
 10
14.2742731575
 20
13.0857047
 30
0.0
 10
14.2738557283
 20
13.0844773023
 30
0.0
 10
14.273628626
 20
13.0836037482
 30
0.0
 10
14.2735248488
 20
13.0831468219
 30
0.0
  0
SPLINE
  5
2C6
100
AcDbEntity
  8
LAYER_CHAMFER_FEAT
100
AcDbSpline
 62
7
  6
CONTINUOUS
 70
0
 71
3
 72
26
 73
22
 74
0
 42
0.0000001
 43
0.0000001
 44
0.0000000001
 40
0.0
 40
0.0
 40
0.0
 40
0.0
 40
0.0835123125
 40
0.1639107625
 40
0.241170611
 40
0.3152881401
 40
0.3862822526
 40
0.4541980949
 40
0.519110318
 40
0.5811270538
 40
0.640394073
 40
0.6970990332
 40
0.7514753335
 40
0.8038049211
 40
0.8544191309
 40
0.8792073522
 40
0.9037123611
 40
0.9279878318
 40
0.9520893421
 40
0.9760740154
 40
1.0
 40
1.0
 40
1.0
 40
1.0
 10
16.5074481565
 20
13.3111039856
 30
0.0
 10
16.5031721415
 20
13.319817588
 30
0.0
 10
16.4944932613
 20
13.3367816054
 30
0.0
 10
16.4808189082
 20
13.3612573819
 30
0.0
 10
16.4667564912
 20
13.3842427946
 30
0.0
 10
16.4523303765
 20
13.4056975279
 30
0.0
 10
16.4375650988
 20
13.42558444
 30
0.0
 10
16.4224856467
 20
13.4438689478
 30
0.0
 10
16.4071172473
 20
13.4605191759
 30
0.0
 10
16.3914853554
 20
13.4755058459
 30
0.0
 10
16.3756155602
 20
13.4888021812
 30
0.0
 10
16.3595338164
 20
13.5003837123
 30
0.0
 10
16.3432660025
 20
13.5102282325
 30
0.0
 10
16.3268404042
 20
13.5183152653
 30
0.0
 10
16.3129447086
 20
13.5236121375
 30
0.0
 10
16.3018116644
 20
13.52692658
 30
0.0
 10
16.2934995953
 20
13.5289484313
 30
0.0
 10
16.285172429
 20
13.5305220286
 30
0.0
 10
16.2768336507
 20
13.5316465836
 30
0.0
 10
16.2684874591
 20
13.5323215815
 30
0.0
 10
16.2629178676
 20
13.532471654
 30
0.0
 10
16.2601370627
 20
13.5324716511
 30
0.0
  0
SPLINE
  5
2C7
100
AcDbEntity
  8
LAYER_FEATURE
100
AcDbSpline
 62
7
  6
CONTINUOUS
 70
0
 71
3
 72
79
 73
75
 74
0
 42
0.0000001
 43
0.0000001
 44
0.0000000001
 40
0.0
 40
0.0
 40
0.0
 40
0.0
 40
0.0178417205
 40
0.0361841927
 40
0.054995907
 40
0.0742430752
 40
0.0938901922
 40
0.1139001153
 40
0.134234285
 40
0.1548529059
 40
0.1757151224
 40
0.1967791868
 40
0.2180026221
 40
0.2393423817
 40
0.2607550074
 40
0.2821967849
 40
0.3036238973
 40
0.3249925788
 40
0.3462592696
 40
0.3673807704
 40
0.3883143982
 40
0.4090181454
 40
0.4294508423
 40
0.4495723249
 40
0.4693436061
 40
0.488727056
 40
0.5076865908
 40
0.5261878781
 40
0.5441985559
 40
0.5616884701
 40
0.57862994
 40
0.5949980565
 40
0.6107710264
 40
0.6259305681
 40
0.6404623718
 40
0.6543566469
 40
0.6676087747
 40
0.6802200905
 40
0.6921988096
 40
0.7035611132
 40
0.7143323952
 40
0.7245486273
 40
0.7342577376
 40
0.7435207885
 40
0.7480095618
 40
0.7524160577
 40
0.7567517279
 40
0.7610287665
 40
0.7652600163
 40
0.7694588551
 40
0.7736390482
 40
0.7778145916
 40
0.7819995387
 40
0.7862078269
 40
0.7904531065
 40
0.7947485896
 40
0.7991069118
 40
0.803540023
 40
0.8080591085
 40
0.8126745212
 40
0.8222286925
 40
0.8322712914
 40
0.8428544759
 40
0.8540180254
 40
0.8657906798
 40
0.8781915209
 40
0.8912312671
 40
0.9049134177
 40
0.9192352324
 40
0.9341885556
 40
0.9497605017
 40
0.965934066
 40
0.982688487
 40
1.0
 40
1.0
 40
1.0
 40
1.0
 10
15.8721510206
 20
13.3134704744
 30
0.0
 10
15.8669609711
 20
13.2966754679
 30
0.0
 10
15.8569255074
 20
13.2624607932
 30
0.0
 10
15.8430720816
 20
13.2100706889
 30
0.0
 10
15.830234673
 20
13.1559981479
 30
0.0
 10
15.8184444127
 20
13.1003735333
 30
0.0
 10
15.8077296958
 20
13.0433304263
 30
0.0
 10
15.7981163964
 20
12.9850059872
 30
0.0
 10
15.7896277074
 20
12.925540467
 30
0.0
 10
15.7822841202
 20
12.865076905
 30
0.0
 10
15.7761033644
 20
12.8037607624
 30
0.0
 10
15.7711003666
 20
12.7417395732
 30
0.0
 10
15.7672872111
 20
12.6791625845
 30
0.0
 10
15.7646731005
 20
12.6161803945
 30
0.0
 10
15.7632643457
 20
12.5529445847
 30
0.0
 10
15.7630643491
 20
12.4896073515
 30
0.0
 10
15.7640735969
 20
12.4263211379
 30
0.0
 10
15.7662896549
 20
12.363238263
 30
0.0
 10
15.7697071664
 20
12.3005105522
 30
0.0
 10
15.7743178776
 20
12.2382889682
 30
0.0
 10
15.7801106552
 20
12.1767232454
 30
0.0
 10
15.7870715159
 20
12.1159615262
 30
0.0
 10
15.7951836557
 20
12.0561499986
 30
0.0
 10
15.8044274856
 20
11.9974325381
 30
0.0
 10
15.8147806921
 20
11.9399503579
 30
0.0
 10
15.8262182908
 20
11.8838416646
 30
0.0
 10
15.8387126925
 20
11.8292413182
 30
0.0
 10
15.8522337689
 20
11.776280495
 30
0.0
 10
15.8667489279
 20
11.7250863601
 30
0.0
 10
15.8822232146
 20
11.6757817536
 30
0.0
 10
15.8986194075
 20
11.6284848843
 30
0.0
 10
15.9158981335
 20
11.5833090297
 30
0.0
 10
15.9340179852
 20
11.5403622427
 30
0.0
 10
15.9529356625
 20
11.4997470764
 30
0.0
 10
15.9726061477
 20
11.4615603353
 30
0.0
 10
15.9929828928
 20
11.4258928477
 30
0.0
 10
16.0140180438
 20
11.3928292758
 30
0.0
 10
16.035662693
 20
11.3624479704
 30
0.0
 10
16.0578671333
 20
11.3348209349
 30
0.0
 10
16.0805812544
 20
11.3100138868
 30
0.0
 10
16.1037544293
 20
11.2880866475
 30
0.0
 10
16.127336761
 20
11.2690931998
 30
0.0
 10
16.1512747141
 20
11.2530837968
 30
0.0
 10
16.1716924161
 20
11.2421521211
 30
0.0
 10
16.1881038303
 20
11.2350095594
 30
0.0
 10
16.2003340668
 20
11.2304772384
 30
0.0
 10
16.2126055476
 20
11.2267175645
 30
0.0
 10
16.2249109923
 20
11.2237329796
 30
0.0
 10
16.2372426512
 20
11.2215257445
 30
0.0
 10
16.2495927382
 20
11.220097394
 30
0.0
 10
16.2619533822
 20
11.2194490634
 30
0.0
 10
16.2743166512
 20
11.2195812129
 30
0.0
 10
16.2866746084
 20
11.2204937223
 30
0.0
 10
16.2990193315
 20
11.2221859665
 30
0.0
 10
16.3113429825
 20
11.22465661
 30
0.0
 10
16.3236377878
 20
11.227903906
 30
0.0
 10
16.3358961212
 20
11.2319255153
 30
0.0
 10
16.3481103992
 20
11.2367185659
 30
0.0
 10
16.3602734423
 20
11.2422800034
 30
0.0
 10
16.3765987571
 20
11.2508117723
 30
0.0
 10
16.3968688835
 20
11.2634668529
 30
0.0
 10
16.4205733965
 20
11.2814781568
 30
0.0
 10
16.4438878212
 20
11.3024410928
 30
0.0
 10
16.4667592507
 20
11.3263020593
 30
0.0
 10
16.4891378363
 20
11.353003513
 30
0.0
 10
16.5109731245
 20
11.3824816395
 30
0.0
 10
16.5322152953
 20
11.4146665449
 30
0.0
 10
16.5528151332
 20
11.4494819704
 30
0.0
 10
16.5727244044
 20
11.4868453379
 30
0.0
 10
16.5918960939
 20
11.5266678517
 30
0.0
 10
16.6102846647
 20
11.5688546366
 30
0.0
 10
16.6278462309
 20
11.6133050791
 30
0.0
 10
16.6445386652
 20
11.6599124914
 30
0.0
 10
16.6548972205
 20
11.6918436069
 30
0.0
 10
16.6599330359
 20
11.7081395114
 30
0.0
  0
SPLINE
  5
2C8
100
AcDbEntity
  8
LAYER_FEATURE
100
AcDbSpline
 62
7
  6
CONTINUOUS
 70
0
 71
3
 72
58
 73
54
 74
0
 42
0.0000001
 43
0.0000001
 44
0.0000000001
 40
0.0
 40
0.0
 40
0.0
 40
0.0
 40
0.0163583
 40
0.033051471
 40
0.0500648574
 40
0.0673835114
 40
0.0849915535
 40
0.1028725909
 40
0.1393839941
 40
0.1767770752
 40
0.2149030243
 40
0.2536074773
 40
0.2927317876
 40
0.3321142519
 40
0.3715913088
 40
0.4109987214
 40
0.4501727498
 40
0.4889513312
 40
0.5271752767
 40
0.5646894904
 40
0.601344234
 40
0.6193049122
 40
0.6369977078
 40
0.6544060228
 40
0.6715138624
 40
0.6883058876
 40
0.7047674716
 40
0.7208847596
 40
0.736644735
 40
0.7520352903
 40
0.7670453039
 40
0.7816647265
 40
0.7958846763
 40
0.8096975461
 40
0.823097124
 40
0.8360787296
 40
0.8486393693
 40
0.860777911
 40
0.8724952819
 40
0.8837946938
 40
0.8946818953
 40
0.9051654528
 40
0.9152570574
 40
0.9249718519
 40
0.9343287667
 40
0.9433508406
 40
0.952065501
 40
0.960504758
 40
0.9687052606
 40
0.9767081569
 40
0.9845587033
 40
0.9923055923
 40
1.0
 40
1.0
 40
1.0
 40
1.0
 10
15.86637136
 20
13.3751536538
 30
0.0
 10
15.8623999761
 20
13.3623022507
 30
0.0
 10
15.8546417519
 20
13.3362534801
 30
0.0
 10
15.8436595349
 20
13.2965758103
 30
0.0
 10
15.8332246281
 20
13.2559348458
 30
0.0
 10
15.8233499048
 20
13.214380736
 30
0.0
 10
15.8140473944
 20
13.1719640935
 30
0.0
 10
15.8023414791
 20
13.1139262368
 30
0.0
 10
15.7892493052
 20
13.0395830902
 30
0.0
 10
15.7760925832
 20
12.9483937027
 30
0.0
 10
15.7654475072
 20
12.8550621082
 30
0.0
 10
15.7573665237
 20
12.7600456198
 30
0.0
 10
15.7518894606
 20
12.6638090004
 30
0.0
 10
15.7490433152
 20
12.5668233607
 30
0.0
 10
15.7488421057
 20
12.4695634706
 30
0.0
 10
15.7512868232
 20
12.372505489
 30
0.0
 10
15.7563654267
 20
12.2761245461
 30
0.0
 10
15.7640528866
 20
12.1808924711
 30
0.0
 10
15.7743113108
 20
12.087275106
 30
0.0
 10
15.7870901564
 20
11.9957311769
 30
0.0
 10
15.7998720063
 20
11.9210471357
 30
0.0
 10
15.8113347707
 20
11.8627028979
 30
0.0
 10
15.8204610229
 20
11.8200343657
 30
0.0
 10
15.8301630358
 20
11.7782126305
 30
0.0
 10
15.8404289766
 20
11.7372888069
 30
0.0
 10
15.8512462306
 20
11.6973130408
 30
0.0
 10
15.8626015348
 20
11.6583342699
 30
0.0
 10
15.8744809652
 20
11.6204002083
 30
0.0
 10
15.8868699612
 20
11.5835572725
 30
0.0
 10
15.8997533443
 20
11.5478505268
 30
0.0
 10
15.9131153418
 20
11.5133236268
 30
0.0
 10
15.9269396093
 20
11.480018765
 30
0.0
 10
15.9412092553
 20
11.4479766178
 30
0.0
 10
15.9559068672
 20
11.417236295
 30
0.0
 10
15.9710145406
 20
11.3878352913
 30
0.0
 10
15.9865139104
 20
11.35980944
 30
0.0
 10
16.0023861804
 20
11.3331928694
 30
0.0
 10
16.0186121638
 20
11.308017968
 30
0.0
 10
16.0351723215
 20
11.2843153558
 30
0.0
 10
16.0520468028
 20
11.2621138621
 30
0.0
 10
16.0692154877
 20
11.2414405145
 30
0.0
 10
16.0866580263
 20
11.2223205397
 30
0.0
 10
16.1043538744
 20
11.2047773806
 30
0.0
 10
16.1222823129
 20
11.1888327281
 30
0.0
 10
16.1404224458
 20
11.1745065673
 30
0.0
 10
16.1587531666
 20
11.1618172416
 30
0.0
 10
16.1772530809
 20
11.1507815061
 30
0.0
 10
16.1959003522
 20
11.1414145505
 30
0.0
 10
16.2146725934
 20
11.1337299569
 30
0.0
 10
16.2335464221
 20
11.1277395553
 30
0.0
 10
16.252498222
 20
11.1234531641
 30
0.0
 10
16.2715008156
 20
11.1208782096
 30
0.0
 10
16.284205148
 20
11.1203050069
 30
0.0
 10
16.2905320755
 20
11.1203050007
 30
0.0
  0
SPLINE
  5
2C9
100
AcDbEntity
  8
LAYER_FEATURE
100
AcDbSpline
 62
7
  6
CONTINUOUS
 70
0
 71
3
 72
15
 73
11
 74
0
 42
0.0000001
 43
0.0000001
 44
0.0000000001
 40
0.0
 40
0.0
 40
0.0
 40
0.0
 40
0.085851709
 40
0.1774225667
 40
0.2792248012
 40
0.3941414306
 40
0.5236377513
 40
0.6681055709
 40
0.8272097206
 40
1.0
 40
1.0
 40
1.0
 40
1.0
 10
14.3135703609
 20
13.2431641742
 30
0.0
 10
14.3133850096
 20
13.243164162
 30
0.0
 10
14.313000028
 20
13.24310657
 30
0.0
 10
14.3124451782
 20
13.2428558065
 30
0.0
 10
14.3119118547
 20
13.2424501336
 30
0.0
 10
14.3114039842
 20
13.2418976536
 30
0.0
 10
14.3109251569
 20
13.2412054572
 30
0.0
 10
14.3104799844
 20
13.2403815373
 30
0.0
 10
14.3100735248
 20
13.2394356156
 30
0.0
 10
14.3098405302
 20
13.2387572955
 30
0.0
 10
14.3097303884
 20
13.2384008765
 30
0.0
  0
SPLINE
  5
2CA
100
AcDbEntity
  8
LAYER_CUT_FEAT
100
AcDbSpline
 62
7
  6
CONTINUOUS
 70
0
 71
3
 72
31
 73
27
 74
0
 42
0.0000001
 43
0.0000001
 44
0.0000000001
 40
0.0
 40
0.0
 40
0.0
 40
0.0
 40
0.0155179596
 40
0.031396759
 40
0.0479678905
 40
0.0655128313
 40
0.0842542607
 40
0.1043568495
 40
0.1259333736
 40
0.1490525635
 40
0.1737466391
 40
0.2000177594
 40
0.2278432336
 40
0.2571796478
 40
0.2879662095
 40
0.3201273859
 40
0.3535750401
 40
0.388210203
 40
0.4605933541
 40
0.5363310679
 40
0.6143758549
 40
0.6936204823
 40
0.7729276571
 40
0.8511584794
 40
0.9272007683
 40
1.0
 40
1.0
 40
1.0
 40
1.0
 10
16.2360212052
 20
11.874021289
 30
0.0
 10
16.2367279367
 20
11.8740212818
 30
0.0
 10
16.2381605916
 20
11.8741425436
 30
0.0
 10
16.2402861577
 20
11.8746839814
 30
0.0
 10
16.2423881675
 20
11.875580344
 30
0.0
 10
16.2444567742
 20
11.8768246709
 30
0.0
 10
16.2464845665
 20
11.8784094938
 30
0.0
 10
16.2484643867
 20
11.8803269836
 30
0.0
 10
16.2503892076
 20
11.8825686869
 30
0.0
 10
16.252251874
 20
11.885125209
 30
0.0
 10
16.2540451813
 20
11.8879860044
 30
0.0
 10
16.2557619671
 20
11.8911392831
 30
0.0
 10
16.2573952215
 20
11.8945719928
 30
0.0
 10
16.2589381808
 20
11.898269847
 30
0.0
 10
16.2603843926
 20
11.9022173914
 30
0.0
 10
16.2617277545
 20
11.9063980619
 30
0.0
 10
16.2629626327
 20
11.9107943078
 30
0.0
 10
16.2644796038
 20
11.9170101387
 30
0.0
 10
16.2660563469
 20
11.9251885062
 30
0.0
 10
16.2674209749
 20
11.9354030067
 30
0.0
 10
16.268261332
 20
11.9459872989
 30
0.0
 10
16.2685629998
 20
11.9567629557
 30
0.0
 10
16.2683207861
 20
11.9675485651
 30
0.0
 10
16.2675388236
 20
11.9781625957
 30
0.0
 10
16.2662306861
 20
11.9884259165
 30
0.0
 10
16.2649901852
 20
11.9950951085
 30
0.0
 10
16.26427806
 20
11.9983332094
 30
0.0
  0
SPLINE
  5
2CB
100
AcDbEntity
  8
02___PRT_ALL_AXES
100
AcDbSpline
 62
7
  6
CONTINUOUS
 70
0
 71
3
 72
52
 73
48
 74
0
 42
0.0000001
 43
0.0000001
 44
0.0000000001
 40
0.0
 40
0.0
 40
0.0
 40
0.0
 40
0.0077385393
 40
0.0156305259
 40
0.0237166866
 40
0.032034043
 40
0.040615616
 40
0.04949033
 40
0.058683073
 40
0.0682148665
 40
0.078103101
 40
0.0883618135
 40
0.0990019744
 40
0.1100317667
 40
0.1214568499
 40
0.1332805982
 40
0.1455043234
 40
0.1581274738
 40
0.1711478092
 40
0.1845615554
 40
0.1983635377
 40
0.2125473031
 40
0.2271052319
 40
0.2420286329
 40
0.2573078292
 40
0.2729322325
 40
0.2888904126
 40
0.305170165
 40
0.3386407353
 40
0.3732343372
 40
0.4088308118
 40
0.445302311
 40
0.482514537
 40
0.5203279131
 40
0.5585986902
 40
0.5971799959
 40
0.6359228725
 40
0.6746772812
 40
0.7132931083
 40
0.7516211624
 40
0.7895141872
 40
0.8268278855
 40
0.8634219673
 40
0.8991612563
 40
0.9339168235
 40
0.9675672113
 40
1.0
 40
1.0
 40
1.0
 40
1.0
 10
16.2441578675
 20
11.3869380812
 30
0.0
 10
16.2391884998
 20
11.3879411238
 30
0.0
 10
16.2292325036
 20
11.3903933885
 30
0.0
 10
16.2144831176
 20
11.3953265635
 30
0.0
 10
16.1998119551
 20
11.4015374014
 30
0.0
 10
16.1852372645
 20
11.4090169217
 30
0.0
 10
16.1707749526
 20
11.4177552648
 30
0.0
 10
16.1564410444
 20
11.4277413329
 30
0.0
 10
16.1422511408
 20
11.4389629362
 30
0.0
 10
16.1282206869
 20
11.4514067402
 30
0.0
 10
16.1143649571
 20
11.4650582276
 30
0.0
 10
16.1006991033
 20
11.4799016759
 30
0.0
 10
16.0872381496
 20
11.4959201286
 30
0.0
 10
16.0739969796
 20
11.5130953736
 30
0.0
 10
16.0609903177
 20
11.5314079308
 30
0.0
 10
16.0482326893
 20
11.5508370403
 30
0.0
 10
16.0357384031
 20
11.5713606786
 30
0.0
 10
16.0235215253
 20
11.5929555772
 30
0.0
 10
16.0115958515
 20
11.6155972421
 30
0.0
 10
15.9999748861
 20
11.6392599758
 30
0.0
 10
15.9886718089
 20
11.663916897
 30
0.0
 10
15.9776994577
 20
11.689539974
 30
0.0
 10
15.9670703141
 20
11.716100062
 30
0.0
 10
15.9567964844
 20
11.7435669353
 30
0.0
 10
15.9468896769
 20
11.7719093299
 30
0.0
 10
15.9373612124
 20
11.8010949402
 30
0.0
 10
15.928221879
 20
11.8310905918
 30
0.0
 10
15.9164606728
 20
11.8725011909
 30
0.0
 10
15.9028375319
 20
11.926063024
 30
0.0
 10
15.8883446554
 20
11.9924196597
 30
0.0
 10
15.8756255386
 20
12.0611388697
 30
0.0
 10
15.8647385203
 20
12.1319072541
 30
0.0
 10
15.8557335005
 20
12.2044027794
 30
0.0
 10
15.8486517667
 20
12.2782951167
 30
0.0
 10
15.8435258323
 20
12.3532475232
 30
0.0
 10
15.8403791902
 20
12.4289183155
 30
0.0
 10
15.8392262883
 20
12.5049624865
 30
0.0
 10
15.840072426
 20
12.581033298
 30
0.0
 10
15.8429136973
 20
12.6567838887
 30
0.0
 10
15.8477370918
 20
12.7318688792
 30
0.0
 10
15.8545204634
 20
12.8059459797
 30
0.0
 10
15.8632326884
 20
12.8786775646
 30
0.0
 10
15.8738338371
 20
12.9497322928
 30
0.0
 10
15.8862752434
 20
13.0187864903
 30
0.0
 10
15.9005000182
 20
13.0855262624
 30
0.0
 10
15.91644265
 20
13.1496469012
 30
0.0
 10
15.9284012939
 20
13.1912667925
 30
0.0
 10
15.9346744183
 20
13.2115666305
 30
0.0
  0
SPLINE
  5
2CC
100
AcDbEntity
  8
02___PRT_ALL_AXES
100
AcDbSpline
 62
7
  6
CONTINUOUS
 70
0
 71
3
 72
25
 73
21
 74
0
 42
0.0000001
 43
0.0000001
 44
0.0000000001
 40
0.0
 40
0.0
 40
0.0
 40
0.0
 40
0.0855338275
 40
0.1681803304
 40
0.2478120783
 40
0.3243189428
 40
0.3976123459
 40
0.4676276325
 40
0.5343277504
 40
0.5977075068
 40
0.6577987159
 40
0.714676341
 40
0.7684656407
 40
0.8193500928
 40
0.8675795784
 40
0.9134776034
 40
0.9356837065
 40
0.9574640883
 40
0.9788807852
 40
1.0
 40
1.0
 40
1.0
 40
1.0
 10
15.9346744183
 20
13.2115666305
 30
0.0
 10
15.939269954
 20
13.2264377895
 30
0.0
 10
15.9487338049
 20
13.2555483495
 30
0.0
 10
15.9640312761
 20
13.29797836
 30
0.0
 10
15.9801552522
 20
13.338338872
 30
0.0
 10
15.9970634514
 20
13.3765239844
 30
0.0
 10
16.0147117978
 20
13.412434171
 30
0.0
 10
16.0330545344
 20
13.4459759675
 30
0.0
 10
16.0520444546
 20
13.4770623181
 30
0.0
 10
16.0716331988
 20
13.5056127044
 30
0.0
 10
16.0917715378
 20
13.5315532199
 30
0.0
 10
16.112409808
 20
13.5548165419
 30
0.0
 10
16.1334978363
 20
13.575341554
 30
0.0
 10
16.1549862872
 20
13.5930732301
 30
0.0
 10
16.1768222637
 20
13.6079603764
 30
0.0
 10
16.1954736246
 20
13.618069009
 30
0.0
 10
16.2104688747
 20
13.6246218032
 30
0.0
 10
16.2216401965
 20
13.6287481474
 30
0.0
 10
16.2328502906
 20
13.6321360868
 30
0.0
 10
16.2403906686
 20
13.6339115141
 30
0.0
 10
16.2441578675
 20
13.6346719041
 30
0.0
  0
SPLINE
  5
2CD
100
AcDbEntity
  8
LAYER_CHAMFER_FEAT
100
AcDbSpline
 62
7
  6
CONTINUOUS
 70
0
 71
3
 72
77
 73
73
 74
0
 42
0.0000001
 43
0.0000001
 44
0.0000000001
 40
0.0
 40
0.0
 40
0.0
 40
0.0
 40
0.0113885234
 40
0.0222284695
 40
0.0325471002
 40
0.0375228692
 40
0.0423827185
 40
0.0517773128
 40
0.0607897051
 40
0.0651747409
 40
0.0694904635
 40
0.0737469148
 40
0.077954681
 40
0.0821248241
 40
0.0862687843
 40
0.0903982742
 40
0.0945251598
 40
0.0986613346
 40
0.1028185931
 40
0.1070085097
 40
0.1112423227
 40
0.1155308392
 40
0.1198843442
 40
0.1288217474
 40
0.1381274873
 40
0.1478606841
 40
0.1580697492
 40
0.1687930038
 40
0.1800595861
 40
0.1918904574
 40
0.2042993895
 40
0.2172938704
 40
0.2308759039
 40
0.2450426992
 40
0.2597872593
 40
0.2750988802
 40
0.2909635753
 40
0.307364437
 40
0.3242819482
 40
0.3416942515
 40
0.3595773868
 40
0.3779055006
 40
0.3966510358
 40
0.415784903
 40
0.4352766387
 40
0.4550945535
 40
0.4752058701
 40
0.4955768555
 40
0.5161729479
 40
0.5369588782
 40
0.5578987895
 40
0.5789563529
 40
0.6212757824
 40
0.6636230811
 40
0.6847153985
 40
0.7057038183
 40
0.7265518641
 40
0.747223488
 40
0.7676831862
 40
0.787896117
 40
0.8078282211
 40
0.827446347
 40
0.8467183803
 40
0.86561338
 40
0.8841017222
 40
0.9021552545
 40
0.9197474613
 40
0.936853649
 40
0.9534511386
 40
0.9695195178
 40
0.9850408285
 40
1.0
 40
1.0
 40
1.0
 40
1.0
 10
16.1070547065
 20
11.5668193935
 30
0.0
 10
16.1124861357
 20
11.560312276
 30
0.0
 10
16.1234515829
 20
11.5479082881
 30
0.0
 10
16.1406388592
 20
11.5308144809
 30
0.0
 10
16.1553823675
 20
11.5180966353
 30
0.0
 10
16.1673050215
 20
11.508988204
 30
0.0
 10
16.1790281491
 20
11.5007719624
 30
0.0
 10
16.1938338728
 20
11.4917448028
 30
0.0
 10
16.2091091767
 20
11.4843003364
 30
0.0
 10
16.2213733842
 20
11.4794504341
 30
0.0
 10
16.2305194698
 20
11.4763783281
 30
0.0
 10
16.2396912535
 20
11.473840801
 30
0.0
 10
16.2488840898
 20
11.4718392957
 30
0.0
 10
16.2580930058
 20
11.4703750204
 30
0.0
 10
16.2673130567
 20
11.4694488974
 30
0.0
 10
16.2765392332
 20
11.4690614924
 30
0.0
 10
16.2857665112
 20
11.4692130483
 30
0.0
 10
16.2949898595
 20
11.4699034842
 30
0.0
 10
16.3042042624
 20
11.4711323381
 30
0.0
 10
16.313404745
 20
11.4728988975
 30
0.0
 10
16.3225863263
 20
11.4752019946
 30
0.0
 10
16.331744325
 20
11.4780404379
 30
0.0
 10
16.344022542
 20
11.482575156
 30
0.0
 10
16.3593241778
 20
11.4896273749
 30
0.0
 10
16.3773384458
 20
11.5001251238
 30
0.0
 10
16.3951341641
 20
11.5127061971
 30
0.0
 10
16.4126760104
 20
11.5273410623
 30
0.0
 10
16.4299313698
 20
11.543997974
 30
0.0
 10
16.4468673035
 20
11.5626418877
 30
0.0
 10
16.4634512283
 20
11.583234393
 30
0.0
 10
16.4796507427
 20
11.605733442
 30
0.0
 10
16.4954338106
 20
11.6300932539
 30
0.0
 10
16.5107688875
 20
11.6562642775
 30
0.0
 10
16.5256250688
 20
11.6841932198
 30
0.0
 10
16.5399722215
 20
11.7138231161
 30
0.0
 10
16.5537811023
 20
11.7450934293
 30
0.0
 10
16.5670234609
 20
11.7779401702
 30
0.0
 10
16.5796721317
 20
11.8122960309
 30
0.0
 10
16.5917011133
 20
11.8480905291
 30
0.0
 10
16.603085641
 20
11.8852501605
 30
0.0
 10
16.6138022501
 20
11.9236985568
 30
0.0
 10
16.6238288343
 20
11.9633566503
 30
0.0
 10
16.6331446977
 20
12.0041428432
 30
0.0
 10
16.6417306029
 20
12.0459731807
 30
0.0
 10
16.6495688136
 20
12.0887615295
 30
0.0
 10
16.6566431343
 20
12.1324197588
 30
0.0
 10
16.6629389452
 20
12.1768579269
 30
0.0
 10
16.6684432324
 20
12.2219844649
 30
0.0
 10
16.6731446226
 20
12.2677063866
 30
0.0
 10
16.67703338
 20
12.3139294126
 30
0.0
 10
16.6801015287
 20
12.3605584313
 30
0.0
 10
16.6830942842
 20
12.4232435735
 30
0.0
 10
16.68474343
 20
12.5019302319
 30
0.0
 10
16.6836162783
 20
12.5806519101
 30
0.0
 10
16.6810412558
 20
12.6434383621
 30
0.0
 10
16.6782833267
 20
12.6901951274
 30
0.0
 10
16.6747022039
 20
12.7365819427
 30
0.0
 10
16.6703052288
 20
12.7825033573
 30
0.0
 10
16.6651015077
 20
12.827864677
 30
0.0
 10
16.6591017931
 20
12.8725724275
 30
0.0
 10
16.6523184873
 20
12.916534479
 30
0.0
 10
16.6447656091
 20
12.9596602573
 30
0.0
 10
16.636458766
 20
13.0018609286
 30
0.0
 10
16.6274151193
 20
13.0430495874
 30
0.0
 10
16.617653347
 20
13.0831414387
 30
0.0
 10
16.6071936015
 20
13.1220539785
 30
0.0
 10
16.5960574671
 20
13.1597071655
 30
0.0
 10
16.5842678967
 20
13.1960236068
 30
0.0
 10
16.5718491978
 20
13.2309286652
 30
0.0
 10
16.558826834
 20
13.264350848
 30
0.0
 10
16.5452278258
 20
13.2962210773
 30
0.0
 10
16.5356154924
 20
13.3167756136
 30
0.0
 10
16.5307107028
 20
13.3267705238
 30
0.0
  0
SPLINE
  5
2CE
100
AcDbEntity
  8
LAYER_CHAMFER_FEAT
100
AcDbSpline
 62
7
  6
CONTINUOUS
 70
0
 71
3
 72
60
 73
56
 74
0
 42
0.0000001
 43
0.0000001
 44
0.0000000001
 40
0.0
 40
0.0
 40
0.0
 40
0.0
 40
0.0077261573
 40
0.0155162562
 40
0.0234323159
 40
0.0315327358
 40
0.0398709878
 40
0.0484947706
 40
0.0574456079
 40
0.0667588126
 40
0.0764637117
 40
0.0865840359
 40
0.0971383903
 40
0.1081407494
 40
0.1196009388
 40
0.1315250821
 40
0.1439160072
 40
0.156773604
 40
0.1700951395
 40
0.1838755312
 40
0.1981075849
 40
0.2127822025
 40
0.2278885625
 40
0.2434142783
 40
0.2593455386
 40
0.2756672331
 40
0.2923630647
 40
0.3094156507
 40
0.3268066159
 40
0.3445166777
 40
0.3625257255
 40
0.3808128951
 40
0.4181334512
 40
0.4563003824
 40
0.4951264217
 40
0.5344183584
 40
0.5739788595
 40
0.6136082441
 40
0.6531062342
 40
0.6922736948
 40
0.7309143866
 40
0.7688367552
 40
0.8058557766
 40
0.8239717037
 40
0.8417963925
 40
0.8593094404
 40
0.8764912442
 40
0.8933230782
 40
0.9097871766
 40
0.925866826
 40
0.9415464511
 40
0.9568117641
 40
0.9716497602
 40
0.9860491672
 40
1.0
 40
1.0
 40
1.0
 40
1.0
 10
16.2601370627
 20
11.4891383347
 30
0.0
 10
16.2652619755
 20
11.4891383401
 30
0.0
 10
16.2755614076
 20
11.4896509197
 30
0.0
 10
16.2909568965
 20
11.4919525538
 30
0.0
 10
16.3063013092
 20
11.4957826078
 30
0.0
 10
16.3215677704
 20
11.5011326499
 30
0.0
 10
16.3367332257
 20
11.5079917419
 30
0.0
 10
16.3517750649
 20
11.516346932
 30
0.0
 10
16.3666717609
 20
11.5261835522
 30
0.0
 10
16.3814023364
 20
11.5374853365
 30
0.0
 10
16.3959462086
 20
11.5502344092
 30
0.0
 10
16.4102830253
 20
11.5644112098
 30
0.0
 10
16.4243926042
 20
11.5799944009
 30
0.0
 10
16.4382549208
 20
11.5969607886
 30
0.0
 10
16.451850135
 20
11.6152852675
 30
0.0
 10
16.4651586379
 20
11.6349407898
 30
0.0
 10
16.4781611027
 20
11.6558983636
 30
0.0
 10
16.4908385387
 20
11.6781270664
 30
0.0
 10
16.5031723439
 20
11.7015940738
 30
0.0
 10
16.5151443528
 20
11.7262646978
 30
0.0
 10
16.5267368807
 20
11.7521024339
 30
0.0
 10
16.5379327636
 20
11.7790690135
 30
0.0
 10
16.548715394
 20
11.8071244609
 30
0.0
 10
16.5590687558
 20
11.8362271536
 30
0.0
 10
16.5689774548
 20
11.8663338855
 30
0.0
 10
16.5784267448
 20
11.8973999355
 30
0.0
 10
16.5874025543
 20
11.9293791369
 30
0.0
 10
16.5958915086
 20
11.9622239452
 30
0.0
 10
16.6038809588
 20
11.9958855226
 30
0.0
 10
16.611358974
 20
12.0303137681
 30
0.0
 10
16.6183144706
 20
12.0654575617
 30
0.0
 10
16.6269357687
 20
12.1135241364
 30
0.0
 10
16.6363091944
 20
12.1750296947
 30
0.0
 10
16.6452538195
 20
12.2503395882
 30
0.0
 10
16.6519160113
 20
12.3271981419
 30
0.0
 10
16.6562558626
 20
12.4051479776
 30
0.0
 10
16.6582473516
 20
12.4837259718
 30
0.0
 10
16.6578785498
 20
12.5624649383
 30
0.0
 10
16.6551516701
 20
12.6408967996
 30
0.0
 10
16.6500830549
 20
12.7185552551
 30
0.0
 10
16.642703078
 20
12.7949789583
 30
0.0
 10
16.633055947
 20
12.8697131475
 30
0.0
 10
16.6231053398
 20
12.9306462316
 30
0.0
 10
16.6140316237
 20
12.9781858398
 30
0.0
 10
16.6067484381
 20
13.0128887902
 30
0.0
 10
16.5989496137
 20
13.0468440635
 30
0.0
 10
16.5906467049
 20
13.0800012491
 30
0.0
 10
16.5818521089
 20
13.1123110035
 30
0.0
 10
16.572578928
 20
13.1437252965
 30
0.0
 10
16.5628409756
 20
13.1741974285
 30
0.0
 10
16.5526527482
 20
13.2036821515
 30
0.0
 10
16.542029408
 20
13.2321356186
 30
0.0
 10
16.5309866996
 20
13.259515784
 30
0.0
 10
16.5195411648
 20
13.2857815978
 30
0.0
 10
16.5115248784
 20
13.3027964998
 30
0.0
 10
16.5074481565
 20
13.3111039856
 30
0.0
  0
SPLINE
  5
2CF
100
AcDbEntity
  8
LAYER_FEATURE
100
AcDbSpline
 62
7
  6
CONTINUOUS
 70
0
 71
3
 72
35
 73
31
 74
0
 42
0.0000001
 43
0.0000001
 44
0.0000000001
 40
0.0
 40
0.0
 40
0.0
 40
0.0
 40
0.0219088034
 40
0.0439018032
 40
0.0660620118
 40
0.0884701198
 40
0.1112035133
 40
0.1343354489
 40
0.1579343806
 40
0.1820635658
 40
0.2067807735
 40
0.2321381739
 40
0.258182431
 40
0.2849547673
 40
0.3124912156
 40
0.3408229061
 40
0.3699762722
 40
0.3999734389
 40
0.4308324915
 40
0.4625677242
 40
0.4951900121
 40
0.5287069901
 40
0.5631233174
 40
0.5984409589
 40
0.6346592863
 40
0.6717753528
 40
0.7486735908
 40
0.8290764287
 40
0.9128907188
 40
1.0
 40
1.0
 40
1.0
 40
1.0
 10
14.7142896945
 20
13.7791383217
 30
0.0
 10
14.7099651051
 20
13.7791383281
 30
0.0
 10
14.7012964837
 20
13.7788455366
 30
0.0
 10
14.6883137597
 20
13.7775293252
 30
0.0
 10
14.6753496253
 20
13.7753368705
 30
0.0
 10
14.662414307
 20
13.7722701343
 30
0.0
 10
14.6495168937
 20
13.7683317058
 30
0.0
 10
14.6366665957
 20
13.7635247862
 30
0.0
 10
14.6238723387
 20
13.7578532808
 30
0.0
 10
14.6111429466
 20
13.7513215595
 30
0.0
 10
14.5984870892
 20
13.7439345626
 30
0.0
 10
14.5859132855
 20
13.73569779
 30
0.0
 10
14.5734300125
 20
13.726617167
 30
0.0
 10
14.5610456147
 20
13.7166992018
 30
0.0
 10
14.5487683701
 20
13.7059508961
 30
0.0
 10
14.5366065363
 20
13.6943797253
 30
0.0
 10
14.5245682376
 20
13.6819937578
 30
0.0
 10
14.5126615829
 20
13.668801537
 30
0.0
 10
14.5008946165
 20
13.6548121379
 30
0.0
 10
14.4892752566
 20
13.6400352045
 30
0.0
 10
14.4778114086
 20
13.6244808594
 30
0.0
 10
14.4665108528
 20
13.6081597841
 30
0.0
 10
14.4553812544
 20
13.5910831831
 30
0.0
 10
14.4444302659
 20
13.5732627664
 30
0.0
 10
14.4336652425
 20
13.5547107168
 30
0.0
 10
14.4194016112
 20
13.5287091941
 30
0.0
 10
14.402116722
 20
13.4944309425
 30
0.0
 10
14.382471404
 20
13.4510673441
 30
0.0
 10
14.3637379614
 20
13.4051192165
 30
0.0
 10
14.3521085793
 20
13.373440062
 30
0.0
 10
14.3464437808
 20
13.3572054577
 30
0.0
  0
SPLINE
  5
2D0
100
AcDbEntity
  8
LAYER_FEATURE
100
AcDbSpline
 62
7
  6
CONTINUOUS
 70
0
 71
3
 72
79
 73
75
 74
0
 42
0.0000001
 43
0.0000001
 44
0.0000000001
 40
0.0
 40
0.0
 40
0.0
 40
0.0
 40
0.017311513
 40
0.034065934
 40
0.0502394983
 40
0.0658114444
 40
0.0807647676
 40
0.0950865823
 40
0.1087687329
 40
0.1218084791
 40
0.1342093202
 40
0.1459819746
 40
0.1571455241
 40
0.1677287086
 40
0.1777713075
 40
0.1873254788
 40
0.1919408915
 40
0.196459977
 40
0.2008930882
 40
0.2052514104
 40
0.2095468935
 40
0.2137921731
 40
0.2180004613
 40
0.2221854084
 40
0.2263609518
 40
0.2305411449
 40
0.2347399837
 40
0.2389712335
 40
0.2432482721
 40
0.2475839423
 40
0.2519904382
 40
0.2564792115
 40
0.2657422624
 40
0.2754513727
 40
0.2856676048
 40
0.2964388868
 40
0.3078011904
 40
0.3197799095
 40
0.3323912253
 40
0.3456433531
 40
0.3595376282
 40
0.3740694319
 40
0.3892289736
 40
0.4050019435
 40
0.42137006
 40
0.4383115299
 40
0.4558014441
 40
0.4738121219
 40
0.4923134092
 40
0.511272944
 40
0.5306563939
 40
0.5504276751
 40
0.5705491577
 40
0.5909818546
 40
0.6116856018
 40
0.6326192296
 40
0.6537407304
 40
0.6750074212
 40
0.6963761027
 40
0.7178032151
 40
0.7392449926
 40
0.7606576183
 40
0.7819973779
 40
0.8032208132
 40
0.8242848776
 40
0.8451470941
 40
0.865765715
 40
0.8860998847
 40
0.9061098078
 40
0.9257569248
 40
0.945004093
 40
0.9638158073
 40
0.9821582795
 40
1.0
 40
1.0
 40
1.0
 40
1.0
 10
15.8721510206
 20
13.3134704744
 30
0.0
 10
15.877186836
 20
13.329766379
 30
0.0
 10
15.8875453913
 20
13.3616974944
 30
0.0
 10
15.9042378256
 20
13.4083049067
 30
0.0
 10
15.9217993919
 20
13.4527553492
 30
0.0
 10
15.9401879626
 20
13.4949421341
 30
0.0
 10
15.9593596521
 20
13.5347646479
 30
0.0
 10
15.9792689234
 20
13.5721280154
 30
0.0
 10
15.9998687613
 20
13.6069434409
 30
0.0
 10
16.021110932
 20
13.6391283463
 30
0.0
 10
16.0429462202
 20
13.6686064729
 30
0.0
 10
16.0653248059
 20
13.6953079265
 30
0.0
 10
16.0881962353
 20
13.719168893
 30
0.0
 10
16.1115106601
 20
13.740131829
 30
0.0
 10
16.135215173
 20
13.7581431329
 30
0.0
 10
16.1554852994
 20
13.7707982135
 30
0.0
 10
16.1718106143
 20
13.7793299824
 30
0.0
 10
16.1839736574
 20
13.7848914199
 30
0.0
 10
16.1961879353
 20
13.7896844705
 30
0.0
 10
16.2084462687
 20
13.7937060798
 30
0.0
 10
16.2207410741
 20
13.7969533758
 30
0.0
 10
16.233064725
 20
13.7994240194
 30
0.0
 10
16.2454094482
 20
13.8011162635
 30
0.0
 10
16.2577674053
 20
13.8020287729
 30
0.0
 10
16.2701306743
 20
13.8021609224
 30
0.0
 10
16.2824913184
 20
13.8015125918
 30
0.0
 10
16.2948414053
 20
13.8000842414
 30
0.0
 10
16.3071730643
 20
13.7978770062
 30
0.0
 10
16.319478509
 20
13.7948924213
 30
0.0
 10
16.3317499897
 20
13.7911327474
 30
0.0
 10
16.3439802263
 20
13.7866004264
 30
0.0
 10
16.3603916404
 20
13.7794578647
 30
0.0
 10
16.3808093424
 20
13.7685261891
 30
0.0
 10
16.4047472955
 20
13.752516786
 30
0.0
 10
16.4283296273
 20
13.7335233383
 30
0.0
 10
16.4515028021
 20
13.711596099
 30
0.0
 10
16.4742169232
 20
13.6867890509
 30
0.0
 10
16.4964213635
 20
13.6591620154
 30
0.0
 10
16.5180660127
 20
13.62878071
 30
0.0
 10
16.5391011637
 20
13.5957171381
 30
0.0
 10
16.5594779088
 20
13.5600496505
 30
0.0
 10
16.579148394
 20
13.5218629094
 30
0.0
 10
16.5980660713
 20
13.4812477431
 30
0.0
 10
16.616185923
 20
13.4383009562
 30
0.0
 10
16.633464649
 20
13.3931251015
 30
0.0
 10
16.6498608419
 20
13.3458282322
 30
0.0
 10
16.6653351287
 20
13.2965236258
 30
0.0
 10
16.6798502876
 20
13.2453294908
 30
0.0
 10
16.693371364
 20
13.1923686676
 30
0.0
 10
16.7058657657
 20
13.1377683212
 30
0.0
 10
16.7173033645
 20
13.0816596279
 30
0.0
 10
16.727656571
 20
13.0241774477
 30
0.0
 10
16.7369004009
 20
12.9654599872
 30
0.0
 10
16.7450125406
 20
12.9056484596
 30
0.0
 10
16.7519734013
 20
12.8448867405
 30
0.0
 10
16.7577661789
 20
12.7833210176
 30
0.0
 10
16.7623768901
 20
12.7210994336
 30
0.0
 10
16.7657944016
 20
12.6583717228
 30
0.0
 10
16.7680104596
 20
12.595288848
 30
0.0
 10
16.7690197074
 20
12.5320026343
 30
0.0
 10
16.7688197108
 20
12.4686654011
 30
0.0
 10
16.7674109561
 20
12.4054295913
 30
0.0
 10
16.7647968454
 20
12.3424474014
 30
0.0
 10
16.7609836899
 20
12.2798704126
 30
0.0
 10
16.7559806922
 20
12.2178492234
 30
0.0
 10
16.7497999364
 20
12.1565330808
 30
0.0
 10
16.7424563492
 20
12.0960695188
 30
0.0
 10
16.7339676601
 20
12.0366039986
 30
0.0
 10
16.7243543607
 20
11.9782795595
 30
0.0
 10
16.7136396438
 20
11.9212364525
 30
0.0
 10
16.7018493835
 20
11.8656118379
 30
0.0
 10
16.689011975
 20
11.8115392969
 30
0.0
 10
16.6751585491
 20
11.7591491926
 30
0.0
 10
16.6651230855
 20
11.7249345179
 30
0.0
 10
16.6599330359
 20
11.7081395114
 30
0.0
  0
SPLINE
  5
2D1
100
AcDbEntity
  8
LAYER_FEATURE
100
AcDbSpline
 62
7
  6
CONTINUOUS
 70
0
 71
3
 72
37
 73
33
 74
0
 42
0.0000001
 43
0.0000001
 44
0.0000000001
 40
0.0
 40
0.0
 40
0.0
 40
0.0
 40
0.0879643805
 40
0.1726563785
 40
0.2137279325
 40
0.2539252417
 40
0.2932330005
 40
0.3316376662
 40
0.369127719
 40
0.4056937609
 40
0.4413286846
 40
0.4760279087
 40
0.50978954
 40
0.5426145949
 40
0.5745072996
 40
0.6054753454
 40
0.6355301673
 40
0.6646873099
 40
0.6929667896
 40
0.720393429
 40
0.7469972576
 40
0.772813928
 40
0.7978850398
 40
0.8222584583
 40
0.8459885934
 40
0.8691365034
 40
0.8917698521
 40
0.9139626991
 40
0.9357950244
 40
0.9573519758
 40
0.9787228785
 40
1.0
 40
1.0
 40
1.0
 40
1.0
 10
15.86637136
 20
13.3751536538
 30
0.0
 10
15.8725709711
 20
13.3952156027
 30
0.0
 10
15.8853696909
 20
13.4344021386
 30
0.0
 10
15.9028982632
 20
13.4823284115
 30
0.0
 10
15.9175680649
 20
13.5191312218
 30
0.0
 10
15.9287528492
 20
13.5456542685
 30
0.0
 10
15.9402234705
 20
13.5713594373
 30
0.0
 10
15.9519709811
 20
13.5962265225
 30
0.0
 10
15.9639860884
 20
13.620235917
 30
0.0
 10
15.9762593474
 20
13.6433687073
 30
0.0
 10
15.9887811283
 20
13.6656066654
 30
0.0
 10
16.0015415864
 20
13.6869322962
 30
0.0
 10
16.0145307211
 20
13.7073288214
 30
0.0
 10
16.0277383942
 20
13.726780181
 30
0.0
 10
16.0411542913
 20
13.7452710799
 30
0.0
 10
16.0547679612
 20
13.7627869795
 30
0.0
 10
16.0685688537
 20
13.7793140773
 30
0.0
 10
16.0825462961
 20
13.7948393387
 30
0.0
 10
16.0966894927
 20
13.8093505126
 30
0.0
 10
16.1109875778
 20
13.8228360824
 30
0.0
 10
16.1254296056
 20
13.8352852692
 30
0.0
 10
16.140004508
 20
13.8466880765
 30
0.0
 10
16.1547011395
 20
13.857035223
 30
0.0
 10
16.1695082616
 20
13.8663181185
 30
0.0
 10
16.1844144715
 20
13.8745289345
 30
0.0
 10
16.1994082065
 20
13.8816605684
 30
0.0
 10
16.2144777085
 20
13.8877066207
 30
0.0
 10
16.2296109894
 20
13.8926614975
 30
0.0
 10
16.2447956843
 20
13.8965204825
 30
0.0
 10
16.2600195295
 20
13.8992797407
 30
0.0
 10
16.2752686682
 20
13.9009364239
 30
0.0
 10
16.2854530028
 20
13.9013049901
 30
0.0
 10
16.2905320755
 20
13.9013049851
 30
0.0
  0
SPLINE
  5
2D2
100
AcDbEntity
  8
LAYER_FEATURE
100
AcDbSpline
 62
7
  6
CONTINUOUS
 70
0
 71
3
 72
58
 73
54
 74
0
 42
0.0000001
 43
0.0000001
 44
0.0000000001
 40
0.0
 40
0.0
 40
0.0
 40
0.0
 40
0.0163582929
 40
0.0330514752
 40
0.0500648562
 40
0.0673835117
 40
0.0849915534
 40
0.1028725906
 40
0.1393839944
 40
0.1767770754
 40
0.2149030241
 40
0.2536074772
 40
0.2927317879
 40
0.332114252
 40
0.371591309
 40
0.4109987216
 40
0.4501727494
 40
0.4889513313
 40
0.5271752776
 40
0.56468949
 40
0.601344233
 40
0.6193049121
 40
0.6369977088
 40
0.6544060245
 40
0.6715138637
 40
0.6883058875
 40
0.7047674701
 40
0.7208847578
 40
0.7366447343
 40
0.7520352912
 40
0.7670453061
 40
0.7816647285
 40
0.7958846767
 40
0.8096975447
 40
0.8230971217
 40
0.836078728
 40
0.8486393696
 40
0.860777913
 40
0.8724952842
 40
0.8837946949
 40
0.8946818946
 40
0.905165451
 40
0.9152570556
 40
0.9249718515
 40
0.9343287678
 40
0.9433508423
 40
0.9520655022
 40
0.9605047582
 40
0.9687052601
 40
0.9767081561
 40
0.9845587028
 40
0.9923055922
 40
1.0
 40
1.0
 40
1.0
 40
1.0
 10
14.2656389316
 20
13.3751536538
 30
0.0
 10
14.2616675494
 20
13.3623022563
 30
0.0
 10
14.2539093252
 20
13.3362534821
 30
0.0
 10
14.242927107
 20
13.2965758138
 30
0.0
 10
14.2324922002
 20
13.2559348429
 30
0.0
 10
14.2226174765
 20
13.2143807368
 30
0.0
 10
14.2133149657
 20
13.1719640937
 30
0.0
 10
14.2016090496
 20
13.1139262372
 30
0.0
 10
14.1885168781
 20
13.0395830899
 30
0.0
 10
14.1753601563
 20
12.9483937022
 30
0.0
 10
14.1647150778
 20
12.8550621084
 30
0.0
 10
14.156634093
 20
12.7600456201
 30
0.0
 10
14.1511570356
 20
12.6638090002
 30
0.0
 10
14.1483108881
 20
12.5668233605
 30
0.0
 10
14.1481096739
 20
12.4695634704
 30
0.0
 10
14.1505543944
 20
12.3725054892
 30
0.0
 10
14.1556330029
 20
12.2761245466
 30
0.0
 10
14.1633204579
 20
12.1808924707
 30
0.0
 10
14.1735788771
 20
12.087275105
 30
0.0
 10
14.1863577309
 20
11.9957311779
 30
0.0
 10
14.1991395819
 20
11.921047138
 30
0.0
 10
14.2106023427
 20
11.8627028984
 30
0.0
 10
14.2197285924
 20
11.8200343633
 30
0.0
 10
14.2294306037
 20
11.7782126265
 30
0.0
 10
14.2396965458
 20
11.7372888042
 30
0.0
 10
14.250513803
 20
11.6973130417
 30
0.0
 10
14.2618691099
 20
11.6583342743
 30
0.0
 10
14.2737485404
 20
11.6204002133
 30
0.0
 10
14.2861375342
 20
11.5835572747
 30
0.0
 10
14.2990209146
 20
11.5478505246
 30
0.0
 10
14.3123829099
 20
11.5133236212
 30
0.0
 10
14.326207178
 20
11.48001876
 30
0.0
 10
14.3404768267
 20
11.4479766172
 30
0.0
 10
14.3551744412
 20
11.4172362996
 30
0.0
 10
14.370282116
 20
11.3878352985
 30
0.0
 10
14.3857814842
 20
11.3598094448
 30
0.0
 10
14.4016537517
 20
11.3331928685
 30
0.0
 10
14.4178797326
 20
11.3080179617
 30
0.0
 10
14.4344398902
 20
11.2843153485
 30
0.0
 10
14.4513143736
 20
11.2621138592
 30
0.0
 10
14.4684830605
 20
11.2414405179
 30
0.0
 10
14.4859256006
 20
11.2223205478
 30
0.0
 10
14.5036214485
 20
11.2047773884
 30
0.0
 10
14.5215498849
 20
11.1888327297
 30
0.0
 10
14.5396900156
 20
11.1745065615
 30
0.0
 10
14.5580207361
 20
11.1618172329
 30
0.0
 10
14.5765206518
 20
11.150781501
 30
0.0
 10
14.5951679243
 20
11.1414145518
 30
0.0
 10
14.6139401661
 20
11.133729964
 30
0.0
 10
14.6328139948
 20
11.1277395647
 30
0.0
 10
14.6517657937
 20
11.1234531685
 30
0.0
 10
14.6707683868
 20
11.1208782064
 30
0.0
 10
14.6834727196
 20
11.1203049979
 30
0.0
 10
14.6897996472
 20
11.1203049934
 30
0.0
  0
SPLINE
  5
2D3
100
AcDbEntity
  8
LAYER_FEATURE
100
AcDbSpline
 62
7
  6
CONTINUOUS
 70
0
 71
3
 72
40
 73
36
 74
0
 42
0.0000001
 43
0.0000001
 44
0.0000000001
 40
0.0
 40
0.0
 40
0.0
 40
0.0
 40
0.0467111482
 40
0.0924008989
 40
0.1370353457
 40
0.1805854057
 40
0.2230237135
 40
0.2643265012
 40
0.3044733619
 40
0.3434476781
 40
0.3812369704
 40
0.41783329
 40
0.453233684
 40
0.4874407192
 40
0.5204630708
 40
0.5523161655
 40
0.5830229057
 40
0.6126144613
 40
0.6411311177
 40
0.6686231549
 40
0.6951516857
 40
0.7080786328
 40
0.7207929884
 40
0.7456247599
 40
0.7697478432
 40
0.7932717147
 40
0.8163172611
 40
0.839015282
 40
0.8615042767
 40
0.8839275938
 40
0.9064301416
 40
0.9291549494
 40
0.952239907
 40
0.9758149675
 40
1.0
 40
1.0
 40
1.0
 40
1.0
 10
14.3203986868
 20
13.3134704744
 30
0.0
 10
14.3239059299
 20
13.3248199171
 30
0.0
 10
14.3310627119
 20
13.3472037451
 30
0.0
 10
14.3423566176
 20
13.3801746475
 30
0.0
 10
14.3540804931
 20
13.4121405388
 30
0.0
 10
14.3662206126
 20
13.4430642177
 30
0.0
 10
14.3787630766
 20
13.4729101944
 30
0.0
 10
14.3916933821
 20
13.5016439996
 30
0.0
 10
14.4049966518
 20
13.5292325538
 30
0.0
 10
14.418657585
 20
13.5556440999
 30
0.0
 10
14.4326605049
 20
13.5808482586
 30
0.0
 10
14.4469893826
 20
13.6048160567
 30
0.0
 10
14.4616278664
 20
13.6275199558
 30
0.0
 10
14.4765593081
 20
13.6489338834
 30
0.0
 10
14.4917667906
 20
13.6690332575
 30
0.0
 10
14.5072331679
 20
13.6877949836
 30
0.0
 10
14.5229411118
 20
13.7051974671
 30
0.0
 10
14.5388730709
 20
13.7212205573
 30
0.0
 10
14.5550115375
 20
13.735845686
 30
0.0
 10
14.5713381688
 20
13.7490552829
 30
0.0
 10
14.5852042169
 20
13.7589551181
 30
0.0
 10
14.5963673501
 20
13.7661287641
 30
0.0
 10
14.6073931117
 20
13.772704338
 30
0.0
 10
14.6212699416
 20
13.7800416127
 30
0.0
 10
14.6381684318
 20
13.787445045
 30
0.0
 10
14.6551626386
 20
13.7933675566
 30
0.0
 10
14.6722318876
 20
13.7978000658
 30
0.0
 10
14.689355262
 20
13.8007356387
 30
0.0
 10
14.7065110061
 20
13.8021693999
 30
0.0
 10
14.7236768974
 20
13.8020989005
 30
0.0
 10
14.7408305589
 20
13.800524248
 30
0.0
 10
14.7579497238
 20
13.7974481714
 30
0.0
 10
14.7750130129
 20
13.7928756055
 30
0.0
 10
14.7919983579
 20
13.7868142637
 30
0.0
 10
14.8031007902
 20
13.7818563048
 30
0.0
 10
14.8086228407
 20
13.7791480156
 30
0.0
  0
SPLINE
  5
2D4
100
AcDbEntity
  8
LAYER_FEATURE
100
AcDbSpline
 62
7
  6
CONTINUOUS
 70
0
 71
3
 72
61
 73
57
 74
0
 42
0.0000001
 43
0.0000001
 44
0.0000000001
 40
0.0
 40
0.0
 40
0.0
 40
0.0
 40
0.0170233439
 40
0.0344227829
 40
0.0521804121
 40
0.0702777017
 40
0.0886950507
 40
0.1074121444
 40
0.1264079121
 40
0.1456606337
 40
0.1848458479
 40
0.2247845798
 40
0.2652855888
 40
0.3061527859
 40
0.3471869728
 40
0.3881875446
 40
0.4289541783
 40
0.4692885253
 40
0.5089959252
 40
0.5478871602
 40
0.5669702179
 40
0.5857817039
 40
0.6043003297
 40
0.6225055104
 40
0.6403774343
 40
0.6578971381
 40
0.675046585
 40
0.6918087507
 40
0.7081677157
 40
0.7241087675
 40
0.7396185129
 40
0.7546850038
 40
0.7692978781
 40
0.7834485199
 40
0.797130241
 40
0.8103384894
 40
0.8230710885
 40
0.83532851
 40
0.8471141874
 40
0.8584348716
 40
0.8693010309
 40
0.8797272916
 40
0.8897329084
 40
0.8993422439
 40
0.9085852201
 40
0.9174976849
 40
0.9261216156
 40
0.9345050661
 40
0.9427017599
 40
0.9507702583
 40
0.9587726893
 40
0.9667731022
 40
0.9748356063
 40
0.9830225013
 40
0.9913926139
 40
1.0
 40
1.0
 40
1.0
 40
1.0
 10
14.3203986868
 20
13.3134704744
 30
0.0
 10
14.3163968201
 20
13.300520429
 30
0.0
 10
14.3085955374
 20
13.2742434942
 30
0.0
 10
14.2976093332
 20
13.2341725295
 30
0.0
 10
14.287222826
 20
13.1930593713
 30
0.0
 10
14.2774510604
 20
13.1509635426
 30
0.0
 10
14.2683081135
 20
13.1079454714
 30
0.0
 10
14.2598071965
 20
13.0640671809
 30
0.0
 10
14.2519605055
 20
13.019391703
 30
0.0
 10
14.242329738
 20
12.9584919871
 30
0.0
 10
14.2320307283
 20
12.8808275388
 30
0.0
 10
14.2225085443
 20
12.7860422172
 30
0.0
 10
14.215806979
 20
12.6896733236
 30
0.0
 10
14.2119648527
 20
12.5922757834
 30
0.0
 10
14.2110044472
 20
12.4944095737
 30
0.0
 10
14.2129313292
 20
12.3966376724
 30
0.0
 10
14.2177343323
 20
12.2995225078
 30
0.0
 10
14.225385607
 20
12.2036223917
 30
0.0
 10
14.2358408185
 20
12.1094895224
 30
0.0
 10
14.2469081206
 20
12.0324894592
 30
0.0
 10
14.2571429368
 20
11.9722114786
 30
0.0
 10
14.2654291537
 20
11.9280628073
 30
0.0
 10
14.2743614789
 20
11.8847537681
 30
0.0
 10
14.2839271026
 20
11.8423465875
 30
0.0
 10
14.2941122045
 20
11.8009023426
 30
0.0
 10
14.3049020992
 20
11.7604806675
 30
0.0
 10
14.3162812271
 20
11.7211397191
 30
0.0
 10
14.328233188
 20
11.6829360772
 30
0.0
 10
14.3407407645
 20
11.645924665
 30
0.0
 10
14.353785952
 20
11.6101586664
 30
0.0
 10
14.3673499879
 20
11.575689447
 30
0.0
 10
14.381413386
 20
11.542566478
 30
0.0
 10
14.3959559715
 20
11.5108372625
 30
0.0
 10
14.4109569209
 20
11.4805472659
 30
0.0
 10
14.4263948047
 20
11.4517398502
 30
0.0
 10
14.4422476347
 20
11.424456214
 30
0.0
 10
14.4584929146
 20
11.3987353381
 30
0.0
 10
14.4751076979
 20
11.3746139442
 30
0.0
 10
14.4920686479
 20
11.3521264641
 30
0.0
 10
14.5093521
 20
11.3313050269
 30
0.0
 10
14.5269341217
 20
11.312179467
 30
0.0
 10
14.5447905616
 20
11.2947773592
 30
0.0
 10
14.5628970758
 20
11.2791240836
 30
0.0
 10
14.5812291109
 20
11.2652429158
 30
0.0
 10
14.5997618216
 20
11.2531551294
 30
0.0
 10
14.6184699027
 20
11.2428800767
 30
0.0
 10
14.6373273278
 20
11.2344351905
 30
0.0
 10
14.6563070317
 20
11.2278358398
 30
0.0
 10
14.6753806202
 20
11.2230949853
 30
0.0
 10
14.6945182483
 20
11.2202226363
 30
0.0
 10
14.7136887774
 20
11.2192252079
 30
0.0
 10
14.7328603331
 20
11.2201050147
 30
0.0
 10
14.7520008818
 20
11.2228599753
 30
0.0
 10
14.7710796284
 20
11.2274841043
 30
0.0
 10
14.7900650898
 20
11.233966875
 30
0.0
 10
14.8024482747
 20
11.2394343545
 30
0.0
 10
14.8086016995
 20
11.2424516027
 30
0.0
  0
SPLINE
  5
2D5
100
AcDbEntity
  8
LAYER_FEATURE
100
AcDbSpline
 62
7
  6
CONTINUOUS
 70
0
 71
3
 72
15
 73
11
 74
0
 42
0.0000001
 43
0.0000001
 44
0.0000000001
 40
0.0
 40
0.0
 40
0.0
 40
0.0
 40
0.120333598
 40
0.246720877
 40
0.376884099
 40
0.5084061484
 40
0.6388322656
 40
0.7657430302
 40
0.8868297255
 40
1.0
 40
1.0
 40
1.0
 40
1.0
 10
14.3032804009
 20
13.2141592327
 30
0.0
 10
14.3031541948
 20
13.2136035528
 30
0.0
 10
14.3029383519
 20
13.2124542026
 30
0.0
 10
14.3027230952
 20
13.2106814539
 30
0.0
 10
14.3026113198
 20
13.2088460866
 30
0.0
 10
14.302605584
 20
13.2069882605
 30
0.0
 10
14.3027059885
 20
13.2051485434
 30
0.0
 10
14.3029103066
 20
13.2033670579
 30
0.0
 10
14.3032138922
 20
13.2016827286
 30
0.0
 10
14.3034887329
 20
13.2006066089
 30
0.0
 10
14.3036439334
 20
13.2000936639
 30
0.0
  0
SPLINE
  5
2D6
100
AcDbEntity
  8
LAYER_FEATURE
100
AcDbSpline
 62
7
  6
CONTINUOUS
 70
0
 71
3
 72
14
 73
10
 74
0
 42
0.0000001
 43
0.0000001
 44
0.0000000001
 40
0.0
 40
0.0
 40
0.0
 40
0.0
 40
0.2638768327
 40
0.3945886655
 40
0.5232380033
 40
0.6489322903
 40
0.7708166553
 40
0.8880847447
 40
1.0
 40
1.0
 40
1.0
 40
1.0
 10
14.3177003929
 20
13.1279269914
 30
0.0
 10
14.3178041551
 20
13.1316784801
 30
0.0
 10
14.3177600648
 20
13.1372965578
 30
0.0
 10
14.3173019361
 20
13.144725168
 30
0.0
 10
14.3167639045
 20
13.1501764229
 30
0.0
 10
14.3160351288
 20
13.1554787163
 30
0.0
 10
14.3151216599
 20
13.1605881863
 30
0.0
 10
14.3140312505
 20
13.1654622392
 30
0.0
 10
14.3131705614
 20
13.1686077124
 30
0.0
 10
14.3127096061
 20
13.1701311914
 30
0.0
  0
SPLINE
  5
2D7
100
AcDbEntity
  8
02___PRT_ALL_AXES
100
AcDbSpline
 62
7
  6
CONTINUOUS
 70
0
 71
3
 72
13
 73
9
 74
0
 42
0.0000001
 43
0.0000001
 44
0.0000000001
 40
0.0
 40
0.0
 40
0.0
 40
0.0
 40
0.1171862097
 40
0.2359702137
 40
0.3567006244
 40
0.4797044764
 40
0.7336361462
 40
1.0
 40
1.0
 40
1.0
 40
1.0
 10
16.0338522783
 20
13.3415672634
 30
0.0
 10
16.0365607382
 20
13.3410196502
 30
0.0
 10
16.04198158
 20
13.3397464528
 30
0.0
 10
16.0500428357
 20
13.3373296391
 30
0.0
 10
16.0580772743
 20
13.3343962806
 30
0.0
 10
16.06885956
 20
13.3297508486
 30
0.0
 10
16.082273464
 20
13.3226045901
 30
0.0
 10
16.0924901351
 20
13.3157748395
 30
0.0
 10
16.0975537289
 20
13.3120587084
 30
0.0
  0
SPLINE
  5
2D8
100
AcDbEntity
  8
02___PRT_ALL_AXES
100
AcDbSpline
 62
7
  6
CONTINUOUS
 70
0
 71
3
 72
29
 73
25
 74
0
 42
0.0000001
 43
0.0000001
 44
0.0000000001
 40
0.0
 40
0.0
 40
0.0
 40
0.0
 40
0.0842944788
 40
0.1683854927
 40
0.251522993
 40
0.3329677352
 40
0.4120089368
 40
0.4879753213
 40
0.5602490003
 40
0.6282812601
 40
0.6916116042
 40
0.749891685
 40
0.7770753163
 40
0.8029350966
 40
0.8274761102
 40
0.8507194487
 40
0.8727050703
 40
0.8934944087
 40
0.913173984
 40
0.9318585569
 40
0.9496932429
 40
0.9668544551
 40
0.9835474369
 40
1.0
 40
1.0
 40
1.0
 40
1.0
 10
16.155293972
 20
13.253850216
 30
0.0
 10
16.1553780098
 20
13.2567051078
 30
0.0
 10
16.1554311301
 20
13.2624120276
 30
0.0
 10
16.155169992
 20
13.2709324911
 30
0.0
 10
16.1545710262
 20
13.2793393104
 30
0.0
 10
16.1536405879
 20
13.2875438601
 30
0.0
 10
16.1523886275
 20
13.2954598698
 30
0.0
 10
16.1508284996
 20
13.3030042546
 30
0.0
 10
16.148976802
 20
13.310098005
 30
0.0
 10
16.1468530907
 20
13.3166673888
 30
0.0
 10
16.1444797252
 20
13.322643938
 30
0.0
 10
16.1422653463
 20
13.3271805517
 30
0.0
 10
16.140377216
 20
13.3304474471
 30
0.0
 10
16.1389478057
 20
13.3326551235
 30
0.0
 10
16.1374758579
 20
13.3346717768
 30
0.0
 10
16.1359649823
 20
13.3364921563
 30
0.0
 10
16.1344189284
 20
13.3381115205
 30
0.0
 10
16.1328413859
 20
13.33952554
 30
0.0
 10
16.1312360867
 20
13.3407302967
 30
0.0
 10
16.1296068261
 20
13.3417222475
 30
0.0
 10
16.1279575556
 20
13.3424980769
 30
0.0
 10
16.1262924483
 20
13.3430548309
 30
0.0
 10
16.1246166591
 20
13.3433900595
 30
0.0
 10
16.1234922195
 20
13.3434648494
 30
0.0
 10
16.1229347615
 20
13.3434648545
 30
0.0
  0
SPLINE
  5
2D9
100
AcDbEntity
  8
LAYER_FEATURE
100
AcDbSpline
 62
7
  6
CONTINUOUS
 70
0
 71
3
 72
15
 73
11
 74
0
 42
0.0000001
 43
0.0000001
 44
0.0000000001
 40
0.0
 40
0.0
 40
0.0
 40
0.0
 40
0.128237312
 40
0.2603956398
 40
0.3940367008
 40
0.5266594122
 40
0.6558026701
 40
0.7791201134
 40
0.8944633005
 40
1.0
 40
1.0
 40
1.0
 40
1.0
 10
14.268483985
 20
13.0567947437
 30
0.0
 10
14.2683907836
 20
13.0562044514
 30
0.0
 10
14.2682414873
 20
13.0549992308
 30
0.0
 10
14.2681256563
 20
13.0531656297
 30
0.0
 10
14.2681157725
 20
13.0513079106
 30
0.0
 10
14.2682120965
 20
13.0494667298
 30
0.0
 10
14.2684124325
 20
13.0476822789
 30
0.0
 10
14.2687123234
 20
13.0459933411
 30
0.0
 10
14.2691049742
 20
13.0444366873
 30
0.0
 10
14.269439241
 20
13.0434612608
 30
0.0
 10
14.2696233312
 20
13.0430051968
 30
0.0
  0
SPLINE
  5
2DA
100
AcDbEntity
  8
LAYER_FEATURE
100
AcDbSpline
 62
7
  6
CONTINUOUS
 70
0
 71
3
 72
14
 73
10
 74
0
 42
0.0000001
 43
0.0000001
 44
0.0000000001
 40
0.0
 40
0.0
 40
0.0
 40
0.0
 40
0.2728672835
 40
0.4057704262
 40
0.5350747206
 40
0.6599145339
 40
0.779485167
 40
0.8930568539
 40
1.0
 40
1.0
 40
1.0
 40
1.0
 10
14.2875361938
 20
12.9767100788
 30
0.0
 10
14.287432154
 20
12.9804198807
 30
0.0
 10
14.2870836232
 20
12.9859342714
 30
0.0
 10
14.286215112
 20
12.9931610831
 30
0.0
 10
14.2853816691
 20
12.9983604648
 30
0.0
 10
14.2843677528
 20
13.0033427833
 30
0.0
 10
14.2831817684
 20
13.0080669582
 30
0.0
 10
14.2818337585
 20
13.0124936992
 30
0.0
 10
14.2808016894
 20
13.0153119998
 30
0.0
 10
14.2802572489
 20
13.0166607935
 30
0.0
  0
SPLINE
  5
2DB
100
AcDbEntity
  8
LAYER_FEATURE
100
AcDbSpline
 62
7
  6
CONTINUOUS
 70
0
 71
3
 72
15
 73
11
 74
0
 42
0.0000001
 43
0.0000001
 44
0.0000000001
 40
0.0
 40
0.0
 40
0.0
 40
0.0
 40
0.1364626189
 40
0.2745472674
 40
0.4116854883
 40
0.5453236523
 40
0.6730315052
 40
0.7925842786
 40
0.9020626204
 40
1.0
 40
1.0
 40
1.0
 40
1.0
 10
14.2427628877
 20
12.8883154778
 30
0.0
 10
14.2427039052
 20
12.8877029092
 30
0.0
 10
14.2426229689
 20
12.8864665795
 30
0.0
 10
14.2426089728
 20
12.8846091015
 30
0.0
 10
14.2427011849
 20
12.8827665218
 30
0.0
 10
14.2428975685
 20
12.880979119
 30
0.0
 10
14.2431936764
 20
12.8792858262
 30
0.0
 10
14.2435829575
 20
12.8777231867
 30
0.0
 10
14.2440566383
 20
12.8763249754
 30
0.0
 10
14.2444449555
 20
12.8754712696
 30
0.0
 10
14.2446548539
 20
12.8750826683
 30
0.0
  0
SPLINE
  5
2DC
100
AcDbEntity
  8
LAYER_FEATURE
100
AcDbSpline
 62
7
  6
CONTINUOUS
 70
0
 71
3
 72
15
 73
11
 74
0
 42
0.0000001
 43
0.0000001
 44
0.0000000001
 40
0.0
 40
0.0
 40
0.0
 40
0.0
 40
0.1429342892
 40
0.2824546197
 40
0.4176186658
 40
0.5475359841
 40
0.6713936205
 40
0.7884709646
 40
0.8981601306
 40
1.0
 40
1.0
 40
1.0
 40
1.0
 10
14.2660594653
 20
12.8160086823
 30
0.0
 10
14.2659050383
 20
12.8178273167
 30
0.0
 10
14.2655340676
 20
12.8214159608
 30
0.0
 10
14.2647820743
 20
12.8266967322
 30
0.0
 10
14.2638462923
 20
12.8317793407
 30
0.0
 10
14.2627345592
 20
12.8366215677
 30
0.0
 10
14.2614562243
 20
12.8411833313
 30
0.0
 10
14.2600218852
 20
12.8454271286
 30
0.0
 10
14.2584435981
 20
12.8493178608
 30
0.0
 10
14.2572585608
 20
12.8517484412
 30
0.0
 10
14.2566405406
 20
12.8528926303
 30
0.0
  0
SPLINE
  5
2DD
100
AcDbEntity
  8
LAYER_FEATURE
100
AcDbSpline
 62
7
  6
CONTINUOUS
 70
0
 71
3
 72
15
 73
11
 74
0
 42
0.0000001
 43
0.0000001
 44
0.0000000001
 40
0.0
 40
0.0
 40
0.0
 40
0.0
 40
0.0890558744
 40
0.1862631482
 40
0.293484591
 40
0.4118210694
 40
0.5417718706
 40
0.6833753521
 40
0.8363130959
 40
1.0
 40
1.0
 40
1.0
 40
1.0
 10
14.2472933105
 20
12.755816097
 30
0.0
 10
14.2480440268
 20
12.7560874909
 30
0.0
 10
14.2495541097
 20
12.7568297353
 30
0.0
 10
14.2516749077
 20
12.7584046678
 30
0.0
 10
14.2537220502
 20
12.7604617155
 30
0.0
 10
14.2556819999
 20
12.7629824314
 30
0.0
 10
14.2575422357
 20
12.7659468188
 30
0.0
 10
14.2592888886
 20
12.7693314988
 30
0.0
 10
14.2609083399
 20
12.7731093206
 30
0.0
 10
14.2618637172
 20
12.7757837742
 30
0.0
 10
14.2623205732
 20
12.7771780689
 30
0.0
  0
SPLINE
  5
2DE
100
AcDbEntity
  8
LAYER_FEATURE
100
AcDbSpline
 62
7
  6
CONTINUOUS
 70
0
 71
3
 72
16
 73
12
 74
0
 42
0.0000001
 43
0.0000001
 44
0.0000000001
 40
0.0
 40
0.0
 40
0.0
 40
0.0
 40
0.0762727818
 40
0.1190282236
 40
0.1653755787
 40
0.2696062202
 40
0.3896329608
 40
0.5246577525
 40
0.6729994685
 40
0.8323527469
 40
1.0
 40
1.0
 40
1.0
 40
1.0
 10
14.232661693
 20
12.750526574
 30
0.0
 10
14.2324064015
 20
12.7504342827
 30
0.0
 10
14.2320334617
 20
12.7502160451
 30
0.0
 10
14.231590521
 20
12.7498278996
 30
0.0
 10
14.231125399
 20
12.7493188266
 30
0.0
 10
14.2305834766
 20
12.7485169442
 30
0.0
 10
14.2300175768
 20
12.7473672293
 30
0.0
 10
14.2295231539
 20
12.7460169389
 30
0.0
 10
14.2291107729
 20
12.7444944954
 30
0.0
 10
14.228789408
 20
12.7428321933
 30
0.0
 10
14.2286434427
 20
12.7416766604
 30
0.0
 10
14.2285862553
 20
12.7410827356
 30
0.0
  0
SPLINE
  5
2DF
100
AcDbEntity
  8
LAYER_FEATURE
100
AcDbSpline
 62
7
  6
CONTINUOUS
 70
0
 71
3
 72
51
 73
47
 74
0
 42
0.0000001
 43
0.0000001
 44
0.0000000001
 40
0.0
 40
0.0
 40
0.0
 40
0.0
 40
0.0408882953
 40
0.0820207142
 40
0.1232932127
 40
0.1646006171
 40
0.2058377794
 40
0.2468998412
 40
0.2876827089
 40
0.3280835269
 40
0.3680011478
 40
0.4073366106
 40
0.4459936463
 40
0.4838791947
 40
0.5209039383
 40
0.556982891
 40
0.5920360259
 40
0.6259889447
 40
0.6587736519
 40
0.6903294317
 40
0.7206038316
 40
0.7352474925
 40
0.7495555571
 40
0.7635243679
 40
0.7771510386
 40
0.7904335445
 40
0.8033707668
 40
0.815962563
 40
0.8282098777
 40
0.8401148068
 40
0.8516806974
 40
0.8629122806
 40
0.8738157611
 40
0.8843989449
 40
0.8946713902
 40
0.9143262626
 40
0.9237430973
 40
0.9329073095
 40
0.9418389449
 40
0.9505603874
 40
0.9590963175
 40
0.9674736309
 40
0.9757212686
 40
0.9838699448
 40
0.9919518053
 40
1.0
 40
1.0
 40
1.0
 40
1.0
 10
14.2285862553
 20
12.7410827356
 30
0.0
 10
14.2269421468
 20
12.7182153312
 30
0.0
 10
14.2241490777
 20
12.672306164
 30
0.0
 10
14.2214429246
 20
12.6032224904
 30
0.0
 10
14.220212218
 20
12.5338614597
 30
0.0
 10
14.220460734
 20
12.4644313322
 30
0.0
 10
14.2221876958
 20
12.3951402196
 30
0.0
 10
14.2253879026
 20
12.3261958733
 30
0.0
 10
14.2300517368
 20
12.2578049662
 30
0.0
 10
14.2361651512
 20
12.1901725033
 30
0.0
 10
14.2437097342
 20
12.1235011867
 30
0.0
 10
14.2526627942
 20
12.0579908058
 30
0.0
 10
14.2629973865
 20
11.9938376224
 30
0.0
 10
14.2746824042
 20
11.9312337713
 30
0.0
 10
14.2876827171
 20
11.870366676
 30
0.0
 10
14.3019592458
 20
11.8114184701
 30
0.0
 10
14.3174690883
 20
11.7545654018
 30
0.0
 10
14.3341656936
 20
11.6999773902
 30
0.0
 10
14.3519990806
 20
11.6478171432
 30
0.0
 10
14.3709157266
 20
11.5982408275
 30
0.0
 10
14.3877167573
 20
11.5587762116
 30
0.0
 10
14.4016788196
 20
11.5286428836
 30
0.0
 10
14.4122688735
 20
11.5070299748
 30
0.0
 10
14.423085393
 20
11.4861697342
 30
0.0
 10
14.4341204218
 20
11.4660777048
 30
0.0
 10
14.4453656888
 20
11.4467689054
 30
0.0
 10
14.4568128258
 20
11.4282577516
 30
0.0
 10
14.468453353
 20
11.4105580849
 30
0.0
 10
14.4802786107
 20
11.3936831056
 30
0.0
 10
14.4922798524
 20
11.3776454078
 30
0.0
 10
14.5044482301
 20
11.3624570052
 30
0.0
 10
14.5167748133
 20
11.3481291792
 30
0.0
 10
14.5292503608
 20
11.3346728438
 30
0.0
 10
14.5418664711
 20
11.3220974643
 30
0.0
 10
14.5586139269
 20
11.3067459318
 30
0.0
 10
14.5758486178
 20
11.2929121962
 30
0.0
 10
14.5935433271
 20
11.2807928763
 30
0.0
 10
14.606719588
 20
11.2727549686
 30
0.0
 10
14.6199791011
 20
11.2656464683
 30
0.0
 10
14.63331244
 20
11.2594729596
 30
0.0
 10
14.646709562
 20
11.2542397536
 30
0.0
 10
14.6601603669
 20
11.2499514377
 30
0.0
 10
14.6736544037
 20
11.2466118458
 30
0.0
 10
14.6871813451
 20
11.2442241204
 30
0.0
 10
14.7007295277
 20
11.2427905754
 30
0.0
 10
14.7097769999
 20
11.2424716567
 30
0.0
 10
14.7142896945
 20
11.2424716633
 30
0.0
  0
SPLINE
  5
2E0
100
AcDbEntity
  8
LAYER_FEATURE
100
AcDbSpline
 62
7
  6
CONTINUOUS
 70
0
 71
3
 72
15
 73
11
 74
0
 42
0.0000001
 43
0.0000001
 44
0.0000000001
 40
0.0
 40
0.0
 40
0.0
 40
0.0
 40
0.1126201789
 40
0.2332966346
 40
0.3599532662
 40
0.490291179
 40
0.6218949065
 40
0.7523081315
 40
0.8791066464
 40
1.0
 40
1.0
 40
1.0
 40
1.0
 10
14.3464437808
 20
13.3572054577
 30
0.0
 10
14.3462864175
 20
13.3566962302
 30
0.0
 10
14.3460071533
 20
13.3556266045
 30
0.0
 10
14.3456969402
 20
13.3539503514
 30
0.0
 10
14.3454855937
 20
13.3521743381
 30
0.0
 10
14.3453779182
 20
13.3503373629
 30
0.0
 10
14.3453763035
 20
13.3484794822
 30
0.0
 10
14.3454808142
 20
13.346641266
 30
0.0
 10
14.3456890559
 20
13.3448629389
 30
0.0
 10
14.345900209
 20
13.3437087683
 30
0.0
 10
14.3460240991
 20
13.3431502013
 30
0.0
  0
SPLINE
  5
2E1
100
AcDbEntity
  8
LAYER_FEATURE
100
AcDbSpline
 62
7
  6
CONTINUOUS
 70
0
 71
3
 72
13
 73
9
 74
0
 42
0.0000001
 43
0.0000001
 44
0.0000000001
 40
0.0
 40
0.0
 40
0.0
 40
0.0
 40
0.255300302
 40
0.5118278717
 40
0.6383030851
 40
0.7623867673
 40
0.8832221887
 40
1.0
 40
1.0
 40
1.0
 40
1.0
 10
14.3559380065
 20
13.2665810797
 30
0.0
 10
14.3562521019
 20
13.270297663
 30
0.0
 10
14.3566047733
 20
13.2777743661
 30
0.0
 10
14.356387662
 20
13.2871053515
 30
0.0
 10
14.3558135743
 20
13.2944928448
 30
0.0
 10
14.3551912811
 20
13.2998843497
 30
0.0
 10
14.3543807619
 20
13.3051073966
 30
0.0
 10
14.3537064054
 20
13.3085140115
 30
0.0
 10
14.3533369758
 20
13.3101796093
 30
0.0
  0
LINE
  5
2E2
100
AcDbEntity
  8
02___PRT_ALL_AXES
100
AcDbLine
 62
7
  6
CONTINUOUS
 10
16.022327381
 20
11.7037955744
 11
16.081659333
 21
11.6989956105
  0
SPLINE
  5
2E3
100
AcDbEntity
  8
LAYER_FEATURE
100
AcDbSpline
 62
7
  6
CONTINUOUS
 70
0
 71
3
 72
37
 73
33
 74
0
 42
0.0000001
 43
0.0000001
 44
0.0000000001
 40
0.0
 40
0.0
 40
0.0
 40
0.0
 40
0.0879643884
 40
0.1726563725
 40
0.2137279333
 40
0.2539252434
 40
0.2932329985
 40
0.3316376655
 40
0.3691277208
 40
0.4056937598
 40
0.4413286826
 40
0.4760279105
 40
0.5097895407
 40
0.5426145918
 40
0.5745073007
 40
0.605475348
 40
0.6355301637
 40
0.6646873096
 40
0.6929667933
 40
0.7203934259
 40
0.7469972557
 40
0.7728139315
 40
0.7978850388
 40
0.8222584554
 40
0.8459885955
 40
0.8691365045
 40
0.8917698493
 40
0.9139626995
 40
0.9357950259
 40
0.9573519746
 40
0.978722878
 40
1.0
 40
1.0
 40
1.0
 40
1.0
 10
14.2656389316
 20
13.3751536538
 30
0.0
 10
14.2718385433
 20
13.3952156045
 30
0.0
 10
14.284637262
 20
13.4344021393
 30
0.0
 10
14.3021658365
 20
13.4823284116
 30
0.0
 10
14.3168356364
 20
13.5191312209
 30
0.0
 10
14.3280204194
 20
13.5456542693
 30
0.0
 10
14.3394910436
 20
13.5713594363
 30
0.0
 10
14.3512385535
 20
13.5962265218
 30
0.0
 10
14.3632536579
 20
13.620235918
 30
0.0
 10
14.37552692
 20
13.6433687065
 30
0.0
 10
14.3880487018
 20
13.6656066639
 30
0.0
 10
14.4008091562
 20
13.6869322974
 30
0.0
 10
14.4137982917
 20
13.7073288219
 30
0.0
 10
14.4270059691
 20
13.7267801783
 30
0.0
 10
14.4404218619
 20
13.7452710807
 30
0.0
 10
14.4540355294
 20
13.7627869822
 30
0.0
 10
14.4678364296
 20
13.7793140732
 30
0.0
 10
14.4818138681
 20
13.7948393382
 30
0.0
 10
14.4959570595
 20
13.8093505176
 30
0.0
 10
14.5102551532
 20
13.8228360778
 30
0.0
 10
14.5246971791
 20
13.8352852661
 30
0.0
 10
14.539272075
 20
13.8466880829
 30
0.0
 10
14.5539687125
 20
13.8570352208
 30
0.0
 10
14.5687758366
 20
13.8663181119
 30
0.0
 10
14.5836820401
 20
13.8745289404
 30
0.0
 10
14.5986757769
 20
13.881660572
 30
0.0
 10
14.6137452838
 20
13.88770661
 30
0.0
 10
14.6288785597
 20
13.8926615006
 30
0.0
 10
14.644063254
 20
13.8965204928
 30
0.0
 10
14.6592871031
 20
13.8992797275
 30
0.0
 10
14.6745362393
 20
13.9009364238
 30
0.0
 10
14.6847205743
 20
13.901304996
 30
0.0
 10
14.6897996472
 20
13.9013049924
 30
0.0
  0
SPLINE
  5
2E4
100
AcDbEntity
  8
02___PRT_ALL_AXES
100
AcDbSpline
 62
7
  6
CONTINUOUS
 70
0
 71
3
 72
39
 73
35
 74
0
 42
0.0000001
 43
0.0000001
 44
0.0000000001
 40
0.0
 40
0.0
 40
0.0
 40
0.0
 40
0.0208347645
 40
0.0428599201
 40
0.0660773224
 40
0.0904748507
 40
0.116028855
 40
0.1427055949
 40
0.1704626072
 40
0.1992498208
 40
0.2290104931
 40
0.2596820129
 40
0.2911965963
 40
0.3234819184
 40
0.3564616821
 40
0.3900561391
 40
0.424182574
 40
0.4587557653
 40
0.4936884328
 40
0.5288916653
 40
0.5642753374
 40
0.5997485195
 40
0.6352198862
 40
0.6705981205
 40
0.7057923174
 40
0.7407123903
 40
0.7752694847
 40
0.8093763954
 40
0.842947994
 40
0.8759016711
 40
0.9081577983
 40
0.9396402676
 40
0.9702767605
 40
1.0
 40
1.0
 40
1.0
 40
1.0
 10
16.155293972
 20
13.253850216
 30
0.0
 10
16.1607630012
 20
13.2467196479
 30
0.0
 10
16.1715198465
 20
13.231667749
 30
0.0
 10
16.186710947
 20
13.2075375022
 30
0.0
 10
16.2013611533
 20
13.1813009228
 30
0.0
 10
16.215426232
 20
13.1530375451
 30
0.0
 10
16.2288646318
 20
13.1228315064
 30
0.0
 10
16.2416359933
 20
13.0907734832
 30
0.0
 10
16.2537018913
 20
13.056959811
 30
0.0
 10
16.2650258592
 20
13.0214923422
 30
0.0
 10
16.275573599
 20
12.9844780639
 30
0.0
 10
16.2853131027
 20
12.9460287705
 30
0.0
 10
16.2942147929
 20
12.9062607066
 30
0.0
 10
16.3022516128
 20
12.8652941938
 30
0.0
 10
16.3093991184
 20
12.823253248
 30
0.0
 10
16.3156355581
 20
12.7802651931
 30
0.0
 10
16.3209419488
 20
12.7364602675
 30
0.0
 10
16.3253021442
 20
12.6919712218
 30
0.0
 10
16.3287028713
 20
12.6469329056
 30
0.0
 10
16.3311337753
 20
12.6014818519
 30
0.0
 10
16.3325874486
 20
12.5557558596
 30
0.0
 10
16.3330594679
 20
12.509893571
 30
0.0
 10
16.3325484001
 20
12.4640340459
 30
0.0
 10
16.3310558015
 20
12.4183163355
 30
0.0
 10
16.3285862135
 20
12.3728790566
 30
0.0
 10
16.325147151
 20
12.3278599671
 30
0.0
 10
16.3207490904
 20
12.2833955412
 30
0.0
 10
16.3154054223
 20
12.2396205504
 30
0.0
 10
16.3091324132
 20
12.1966676551
 30
0.0
 10
16.3019491447
 20
12.1546669796
 30
0.0
 10
16.2938774872
 20
12.1137457505
 30
0.0
 10
16.2849419514
 20
12.0740277566
 30
0.0
 10
16.2751698607
 20
12.035633595
 30
0.0
 10
16.2680034553
 20
12.0106001407
 30
0.0
 10
16.26427806
 20
11.9983332094
 30
0.0
  0
SPLINE
  5
2E5
100
AcDbEntity
  8
02___PRT_ALL_AXES
100
AcDbSpline
 62
7
  6
CONTINUOUS
 70
0
 71
3
 72
21
 73
17
 74
0
 42
0.0000001
 43
0.0000001
 44
0.0000000001
 40
0.0
 40
0.0
 40
0.0
 40
0.0
 40
0.1526100258
 40
0.2259400234
 40
0.2972575881
 40
0.3665504522
 40
0.4338132899
 40
0.499048552
 40
0.5622667234
 40
0.6234872992
 40
0.6827395205
 40
0.7400633756
 40
0.7955107816
 40
0.8491461723
 40
0.9010477885
 40
1.0
 40
1.0
 40
1.0
 40
1.0
 10
16.2216312863
 20
11.8826621218
 30
0.0
 10
16.2167703112
 20
11.8717797638
 30
0.0
 10
16.2092119528
 20
11.8558246291
 30
0.0
 10
16.1984690244
 20
11.8352420704
 30
0.0
 10
16.1903411274
 20
11.8206411515
 30
0.0
 10
16.18204321
 20
11.8066846662
 30
0.0
 10
16.1735828278
 20
11.7933854647
 30
0.0
 10
16.1649678141
 20
11.7807559519
 30
0.0
 10
16.1562060809
 20
11.7688078431
 30
0.0
 10
16.1473056697
 20
11.7575522292
 30
0.0
 10
16.1382747193
 20
11.7469996062
 30
0.0
 10
16.1291213568
 20
11.7371597505
 30
0.0
 10
16.119854174
 20
11.7280420649
 30
0.0
 10
16.1104805191
 20
11.7196544212
 30
0.0
 10
16.0980534958
 20
11.709617468
 30
0.0
 10
16.088299992
 20
11.7029483983
 30
0.0
 10
16.081659333
 20
11.6989956105
 30
0.0
  0
ENDSEC
  0
SECTION
  2
OBJECTS
  0
DICTIONARY
  5
C
100
AcDbDictionary
280
0
281
1
  3
ACAD_GROUP
350
D
  3
ACAD_MLINESTYLE
350
17
  3
ACAD_LAYOUT
350
1A
  3
ACAD_PLOTSETTINGS
350
19
  3
ACAD_PLOTSTYLENAME
350
E
  0
DICTIONARY
  5
D
102
{ACAD_REACTORS
330
C
102
}
100
AcDbDictionary
280
0
281
1
  0
ACDBDICTIONARYWDFLT
  5
E
102
{ACAD_REACTORS
330
C
102
}
100
AcDbDictionary
281
1
  3
Normal
350
F
100
AcDbDictionaryWithDefault
340
F
  0
DICTIONARY
  5
17
102
{ACAD_REACTORS
330
C
102
}
100
AcDbDictionary
280
0
281
1
  3
Standard
350
18
  0
DICTIONARY
  5
19
102
{ACAD_REACTORS
330
C
102
}
100
AcDbDictionary
281
1
  0
DICTIONARY
  5
1A
102
{ACAD_REACTORS
330
C
102
}
100
AcDbDictionary
281
1
  3
Model
350
2E6
  3
Layout1
350
2E7
  0
ACDBPLACEHOLDER
  5
F
102
{ACAD_REACTORS
330
E
102
}
  0
MLINESTYLE
  5
18
102
{ACAD_REACTORS
330
17
102
}
100
AcDbMlineStyle
  2
STANDARD
 70
0
  3

 62
256
 51
90.0
 52
90.0
 71
2
 49
0.5
 62
256
  6
BYLAYER
 49
-0.5
 62
256
  6
BYLAYER
  0
LAYOUT
  5
2E6
102
{ACAD_REACTORS
330
1A
102
}
100
AcDbPlotSettings
  1

  2
none_device
  4
ANSI_C_(22.00_x_17.00_Inches)
  6

 40
0.0
 41
0.0
 42
0.0
 43
0.0
 44
558.8
 45
431.8
 46
0.0
 47
0.0
 48
0.0
 49
0.0
140
0.0
141
0.0
142
1.0
143
1.0
 70
1024
 72
0
 73
0
 74
0
  7

 75
0
147
1.0
148
0.0
149
0.0
100
AcDbLayout
  1
Model
 70
0
 71
0
 10
0.0
 20
0.0
 11
22.0
 21
17.0
 12
0.0
 22
0.0
 32
0.0
 14
0.0
 24
0.0
 34
0.0
 15
0.0
 25
0.0
 35
0.0
146
0.0
 13
0.0
 23
0.0
 33
0.0
 16
1.0
 26
0.0
 36
0.0
 17
0.0
 27
1.0
 37
0.0
 76
0
330
222
345
0
346
0
  0
LAYOUT
  5
2E7
102
{ACAD_REACTORS
330
1A
102
}
100
AcDbPlotSettings
  1

  2
none_device
  4
ANSI_C_(22.00_x_17.00_Inches)
  6

 40
0.0
 41
0.0
 42
0.0
 43
0.0
 44
558.8
 45
431.8
 46
0.0
 47
0.0
 48
0.0
 49
0.0
140
0.0
141
0.0
142
1.0
143
1.0
 70
0
 72
0
 73
0
 74
0
  7

 75
0
147
1.0
148
0.0
149
0.0
100
AcDbLayout
  1
Layout1
 70
0
 71
1
 10
0.0
 20
0.0
 11
22.0
 21
17.0
 12
0.0
 22
0.0
 32
0.0
 14
0.0
 24
0.0
 34
0.0
 15
0.0
 25
0.0
 35
0.0
146
0.0
 13
0.0
 23
0.0
 33
0.0
 16
1.0
 26
0.0
 36
0.0
 17
0.0
 27
1.0
 37
0.0
 76
0
330
223
345
0
346
0
  0
ENDSEC
  0
EOF