999
DXF file: _cgs_temp_output.dxf
999
Pro/ENGINEER 2016360 by Parametric Technology Corporation
  0
SECTION
  2
HEADER
  9
$ACADVER
  1
AC1021
  9
$DWGCODEPAGE
  3
ANSI_1252
  9
$EXTMAX
 10
22.0
 20
17.0
 30
0.0
  9
$EXTMIN
 10
0.0
 20
0.0
 30
0.0
  9
$LIMMIN
 10
0.0
 20
0.0
  9
$LIMMAX
 10
22.0
 20
17.0
  9
$VIEWCTR
 10
11.0
 20
8.5
  9
$VIEWSIZE
 40
17.0
  9
$CLAYER
  8
0
  9
$LTSCALE
 40
1.21
  9
$CELTYPE
  6
BYLAYER
  9
$DIMSCALE
 40
1.0
  9
$DIMASZ
 40
0.1875
  9
$DIMEXO
 40
0.0625
  9
$DIMDLI
 40
0.836
  9
$DIMEXE
 40
0.125
  9
$DIMCEN
 40
0.198
  9
$DIMLFAC
 40
1.0
  9
$DIMBLK
  1
_CLOSED
  9
$DIMALT
 70
0
  9
$DIMALTF
 40
25.4
  9
$DIMTXT
 40
0.15625
  9
$DIMTOL
 70
0
  9
$DIMLIM
 70
0
  9
$DIMTFAC
 40
1.0
  9
$DIMGAP
 40
0.09
  9
$DIMDSEP
 70
46
  9
$AUNITS
 70
0
  9
$PDMODE
 70
3
  9
$PDSIZE
 40
0.3125
  9
$HANDSEED
  5
2D7
  9
$TILEMODE
 70
1
  9
$MEASUREMENT
 70
0
  9
$INSUNITS
 70
1
  0
ENDSEC
  0
SECTION
  2
CLASSES
  0
CLASS
  1
ACDBDICTIONARYWDFLT
  2
AcDbDictionaryWithDefault
  3
AutoCAD 2000
 90
0
 91
1
280
0
281
0
  0
CLASS
  1
ACDBPLACEHOLDER
  2
AcDbPlaceHolder
  3
AutoCAD 2000
 90
0
 91
1
280
0
281
0
  0
CLASS
  1
LAYOUT
  2
AcDbLayout
  3
AutoCAD 2000
 90
0
 91
0
280
0
281
0
  0
ENDSEC
  0
SECTION
  2
TABLES
  0
TABLE
  2
VPORT
  5
8
100
AcDbSymbolTable
 70
2
  0
VPORT
  5
1F4
100
AcDbSymbolTableRecord
100
AcDbViewportTableRecord
  2
*ACTIVE
 70
0
 10
0.0
 20
0.0
 11
1.0
 21
1.0
 12
11.0
 22
8.5
 13
0.0
 23
0.0
 14
1.0
 24
1.0
 15
0.0
 25
0.0
 16
0.0
 26
0.0
 36
1.0
 17
0.0
 27
0.0
 37
0.0
 40
17.0
 41
1.2941176471
 42
50.0
 43
0.0
 44
0.0
 50
0.0
 51
0.0
 71
0
 72
100
 73
1
 74
1
 75
0
 76
0
 77
0
 78
0
  0
ENDTAB
  0
TABLE
  2
LTYPE
  5
5
100
AcDbSymbolTable
 70
6
  0
LTYPE
  5
14
100
AcDbSymbolTableRecord
100
AcDbLinetypeTableRecord
  2
BYBLOCK
 70
0
  3

 72
65
 73
0
 40
0.0
  0
LTYPE
  5
15
100
AcDbSymbolTableRecord
100
AcDbLinetypeTableRecord
  2
BYLAYER
 70
0
  3

 72
65
 73
0
 40
0.0
  0
LTYPE
  5
16
100
AcDbSymbolTableRecord
100
AcDbLinetypeTableRecord
  2
CONTINUOUS
 70
64
  3
Solid line
 72
65
 73
0
 40
0.0
  0
LTYPE
  5
1F5
100
AcDbSymbolTableRecord
100
AcDbLinetypeTableRecord
  2
CENTER
 70
64
  3
____ _ ____ _ ____ _ ____ _ ____ _ ____ _ ____
 72
65
 73
4
 40
0.6
 49
0.375
 74
0
 49
-0.075
 74
0
 49
0.075
 74
0
 49
-0.075
 74
0
  0
LTYPE
  5
1F6
100
AcDbSymbolTableRecord
100
AcDbLinetypeTableRecord
  2
HIDDEN
 70
64
  3
- - - - - - - - - - - - - - - - - - - -
 72
65
 73
2
 40
0.2
 49
0.1
 74
0
 49
-0.1
 74
0
  0
LTYPE
  5
1F7
100
AcDbSymbolTableRecord
100
AcDbLinetypeTableRecord
  2
PHANTOM
 70
64
  3
_____ _ _ _____ _ _ _____ _ _ _____
 72
65
 73
6
 40
0.8
 49
0.45
 74
0
 49
-0.05
 74
0
 49
0.1
 74
0
 49
-0.05
 74
0
 49
0.1
 74
0
 49
-0.05
 74
0
  0
LTYPE
  5
1F8
100
AcDbSymbolTableRecord
100
AcDbLinetypeTableRecord
  2
DOT
 70
64
  3
. . . . . . . . . . . . . . . . . . . .
 72
65
 73
2
 40
0.2
 49
0.1
 74
0
 49
-0.1
 74
0
  0
LTYPE
  5
1F9
100
AcDbSymbolTableRecord
100
AcDbLinetypeTableRecord
  2
DASHED
 70
64
  3
- - - - - - - - - - - - - - - - - - - -
 72
65
 73
2
 40
0.2
 49
0.1
 74
0
 49
-0.1
 74
0
  0
ENDTAB
  0
TABLE
  2
LAYER
  5
2
100
AcDbSymbolTable
 70
36
  0
LAYER
  5
10
100
AcDbSymbolTableRecord
100
AcDbLayerTableRecord
  2
0
 70
0
 62
7
  6
CONTINUOUS
370
-3
390
F
  0
LAYER
  5
1FA
100
AcDbSymbolTableRecord
100
AcDbLayerTableRecord
  2
DEFAULT_1
 70
0
 62
7
  6
CENTER
370
-3
390
F
  0
LAYER
  5
1FB
100
AcDbSymbolTableRecord
100
AcDbLayerTableRecord
  2
DEFAULT_2
 70
0
 62
8
  6
HIDDEN
370
-3
390
F
  0
LAYER
  5
1FC
100
AcDbSymbolTableRecord
100
AcDbLayerTableRecord
  2
DEFAULT_3
 70
0
 62
7
  6
PHANTOM
370
-3
390
F
  0
LAYER
  5
1FD
100
AcDbSymbolTableRecord
100
AcDbLayerTableRecord
  2
01_ALL_DTM_PLN
 70
0
 62
7
  6
CONTINUOUS
370
-3
390
F
  0
LAYER
  5
1FE
100
AcDbSymbolTableRecord
100
AcDbLayerTableRecord
  2
01__ASM_ALL_DTM_PLN
 70
0
 62
7
  6
CONTINUOUS
370
-3
390
F
  0
LAYER
  5
1FF
100
AcDbSymbolTableRecord
100
AcDbLayerTableRecord
  2
01__ASM_DEF_DTM_PLN
 70
0
 62
7
  6
CONTINUOUS
370
-3
390
F
  0
LAYER
  5
200
100
AcDbSymbolTableRecord
100
AcDbLayerTableRecord
  2
01___PRT_ALL_DTM_PLN
 70
0
 62
7
  6
CONTINUOUS
370
-3
390
F
  0
LAYER
  5
201
100
AcDbSymbolTableRecord
100
AcDbLayerTableRecord
  2
01___PRT_DEF_DTM_PLN
 70
0
 62
7
  6
CONTINUOUS
370
-3
390
F
  0
LAYER
  5
202
100
AcDbSymbolTableRecord
100
AcDbLayerTableRecord
  2
02_ALL_AXES
 70
0
 62
7
  6
CONTINUOUS
370
-3
390
F
  0
LAYER
  5
203
100
AcDbSymbolTableRecord
100
AcDbLayerTableRecord
  2
02__ASM_ALL_AXES
 70
0
 62
7
  6
CONTINUOUS
370
-3
390
F
  0
LAYER
  5
204
100
AcDbSymbolTableRecord
100
AcDbLayerTableRecord
  2
02___PRT_ALL_AXES
 70
0
 62
7
  6
CONTINUOUS
370
-3
390
F
  0
LAYER
  5
205
100
AcDbSymbolTableRecord
100
AcDbLayerTableRecord
  2
03_ALL_CURVES
 70
0
 62
7
  6
CONTINUOUS
370
-3
390
F
  0
LAYER
  5
206
100
AcDbSymbolTableRecord
100
AcDbLayerTableRecord
  2
03__ASM_ALL_CURVES
 70
0
 62
7
  6
CONTINUOUS
370
-3
390
F
  0
LAYER
  5
207
100
AcDbSymbolTableRecord
100
AcDbLayerTableRecord
  2
03___PRT_ALL_CURVES
 70
0
 62
7
  6
CONTINUOUS
370
-3
390
F
  0
LAYER
  5
208
100
AcDbSymbolTableRecord
100
AcDbLayerTableRecord
  2
04_ALL_DTM_PNT
 70
0
 62
7
  6
CONTINUOUS
370
-3
390
F
  0
LAYER
  5
209
100
AcDbSymbolTableRecord
100
AcDbLayerTableRecord
  2
04__ASM_ALL_DTM_PNT
 70
0
 62
7
  6
CONTINUOUS
370
-3
390
F
  0
LAYER
  5
20A
100
AcDbSymbolTableRecord
100
AcDbLayerTableRecord
  2
04___PRT_ALL_DTM_PNT
 70
0
 62
7
  6
CONTINUOUS
370
-3
390
F
  0
LAYER
  5
20B
100
AcDbSymbolTableRecord
100
AcDbLayerTableRecord
  2
05_ALL_DTM_CSYS
 70
0
 62
7
  6
CONTINUOUS
370
-3
390
F
  0
LAYER
  5
20C
100
AcDbSymbolTableRecord
100
AcDbLayerTableRecord
  2
05__ASM_ALL_DTM_CSYS
 70
0
 62
7
  6
CONTINUOUS
370
-3
390
F
  0
LAYER
  5
20D
100
AcDbSymbolTableRecord
100
AcDbLayerTableRecord
  2
05__ASM_DEF_DTM_CSYS
 70
0
 62
7
  6
CONTINUOUS
370
-3
390
F
  0
LAYER
  5
20E
100
AcDbSymbolTableRecord
100
AcDbLayerTableRecord
  2
05___PRT_ALL_DTM_CSYS
 70
0
 62
7
  6
CONTINUOUS
370
-3
390
F
  0
LAYER
  5
20F
100
AcDbSymbolTableRecord
100
AcDbLayerTableRecord
  2
05___PRT_DEF_DTM_CSYS
 70
0
 62
7
  6
CONTINUOUS
370
-3
390
F
  0
LAYER
  5
210
100
AcDbSymbolTableRecord
100
AcDbLayerTableRecord
  2
06_ALL_SURFS
 70
0
 62
7
  6
CONTINUOUS
370
-3
390
F
  0
LAYER
  5
211
100
AcDbSymbolTableRecord
100
AcDbLayerTableRecord
  2
06__ASM_ALL_SURFS
 70
0
 62
7
  6
CONTINUOUS
370
-3
390
F
  0
LAYER
  5
212
100
AcDbSymbolTableRecord
100
AcDbLayerTableRecord
  2
06___PRT_ALL_SURFS
 70
0
 62
7
  6
CONTINUOUS
370
-3
390
F
  0
LAYER
  5
213
100
AcDbSymbolTableRecord
100
AcDbLayerTableRecord
  2
07__ASM_ALL_SKELETONS
 70
0
 62
7
  6
CONTINUOUS
370
-3
390
F
  0
LAYER
  5
214
100
AcDbSymbolTableRecord
100
AcDbLayerTableRecord
  2
LAYER_AXIS
 70
0
 62
7
  6
CONTINUOUS
370
-3
390
F
  0
LAYER
  5
215
100
AcDbSymbolTableRecord
100
AcDbLayerTableRecord
  2
LAYER_CHAMFER_FEAT
 70
0
 62
7
  6
CONTINUOUS
370
-3
390
F
  0
LAYER
  5
216
100
AcDbSymbolTableRecord
100
AcDbLayerTableRecord
  2
LAYER_CUT_FEAT
 70
0
 62
7
  6
CONTINUOUS
370
-3
390
F
  0
LAYER
  5
217
100
AcDbSymbolTableRecord
100
AcDbLayerTableRecord
  2
LAYER_DATUM
 70
0
 62
7
  6
CONTINUOUS
370
-3
390
F
  0
LAYER
  5
218
100
AcDbSymbolTableRecord
100
AcDbLayerTableRecord
  2
LAYER_DIM
 70
0
 62
7
  6
CONTINUOUS
370
-3
390
F
  0
LAYER
  5
219
100
AcDbSymbolTableRecord
100
AcDbLayerTableRecord
  2
LAYER_FEATURE
 70
0
 62
7
  6
CONTINUOUS
370
-3
390
F
  0
LAYER
  5
21A
100
AcDbSymbolTableRecord
100
AcDbLayerTableRecord
  2
LAYER_GEOM_FEAT
 70
0
 62
7
  6
CONTINUOUS
370
-3
390
F
  0
LAYER
  5
21B
100
AcDbSymbolTableRecord
100
AcDbLayerTableRecord
  2
LAYER_NOGEOM_FEAT
 70
0
 62
7
  6
CONTINUOUS
370
-3
390
F
  0
LAYER
  5
21C
100
AcDbSymbolTableRecord
100
AcDbLayerTableRecord
  2
LAYER_PARAMETER_DIM
 70
0
 62
7
  6
CONTINUOUS
370
-3
390
F
  0
LAYER
  5
21D
100
AcDbSymbolTableRecord
100
AcDbLayerTableRecord
  2
LAYER_PROTRUSION_FEAT
 70
0
 62
7
  6
CONTINUOUS
370
-3
390
F
  0
LAYER
  5
21E
100
AcDbSymbolTableRecord
100
AcDbLayerTableRecord
  2
LAYER_QUILT
 70
0
 62
7
  6
CONTINUOUS
370
-3
390
F
  0
LAYER
  5
21F
100
AcDbSymbolTableRecord
100
AcDbLayerTableRecord
  2
LAYER_ROUND_FEAT
 70
0
 62
7
  6
CONTINUOUS
370
-3
390
F
  0
ENDTAB
  0
TABLE
  2
STYLE
  5
3
100
AcDbSymbolTable
 70
1
  0
STYLE
  5
11
100
AcDbSymbolTableRecord
100
AcDbTextStyleTableRecord
  2
STANDARD
 70
0
 40
0.0
 41
0.8
 50
0.0
 71
0
 42
0.2
  3
txt
  4

  0
STYLE
  5
220
100
AcDbSymbolTableRecord
100
AcDbTextStyleTableRecord
  2
TEXTSTYLE_1
 70
0
 40
0.0
 41
0.8
 50
0.0
 71
0
 42
0.2
  3
gdt
  4

  0
ENDTAB
  0
TABLE
  2
VIEW
  5
6
100
AcDbSymbolTable
 70
0
  0
ENDTAB
  0
TABLE
  2
UCS
  5
7
100
AcDbSymbolTable
 70
0
  0
ENDTAB
  0
TABLE
  2
APPID
  5
9
100
AcDbSymbolTable
 70
1
  0
APPID
  5
221
100
AcDbSymbolTableRecord
100
AcDbRegAppTableRecord
  2
ACAD
 70
0
  0
ENDTAB
  0
TABLE
  2
BLOCK_RECORD
  5
1
100
AcDbSymbolTable
 70
0
  0
BLOCK_RECORD
  5
222
100
AcDbSymbolTableRecord
100
AcDbBlockTableRecord
  2
*Model_Space
  0
BLOCK_RECORD
  5
223
100
AcDbSymbolTableRecord
100
AcDbBlockTableRecord
  2
*Paper_Space
  0
ENDTAB
  0
TABLE
  2
DIMSTYLE
  5
A
100
AcDbSymbolTable
 70
1
100
AcDbDimStyleTable
 71
0
  0
DIMSTYLE
105
224
100
AcDbSymbolTableRecord
100
AcDbDimStyleTableRecord
  2
STANDARD
 70
0
  3

  4

 40
1.0
 41
0.1875
 42
0.0625
 43
0.38
 44
0.125
 45
0.0
 46
0.0
 47
0.0001
 48
0.0001
140
0.15625
141
0.09
142
0.0
143
25.4
144
1.0
145
0.0
146
1.0
147
0.09
 71
0.0
 72
0.0
 73
1
 74
1
 75
0
 76
0
 77
0
 78
4
 79
1
170
0
171
3
172
0
173
0
174
0
175
0
176
0
177
0
178
0
270
2
179
4
271
4
272
4
273
2
274
2
275
0
280
0
281
0
282
0
283
1
284
4
285
0
286
0
287
3
288
0
340
11
278
46
  0
ENDTAB
  0
ENDSEC
  0
SECTION
  2
BLOCKS
  0
BLOCK
  5
20
100
AcDbEntity
  8
0
100
AcDbBlockBegin
  2
*Model_Space
 70
0
 10
0.0
 20
0.0
 30
0.0
  3
*Model_Space
  1

  0
ENDBLK
  5
21
100
AcDbEntity
  8
0
100
AcDbBlockEnd
  0
BLOCK
  5
1C
100
AcDbEntity
  8
0
100
AcDbBlockBegin
  2
*Paper_Space
 70
0
 10
0.0
 20
0.0
 30
0.0
  3
*Paper_Space
  1

  0
ENDBLK
  5
1D
100
AcDbEntity
  8
0
100
AcDbBlockEnd
  0
ENDSEC
  0
SECTION
  2
ENTITIES
  0
MTEXT
  5
225
100
AcDbEntity
  8
0
100
AcDbMText
 62
7
  6
CONTINUOUS
  7
STANDARD
 71
1
 72
1
 10
15.9560215477
 20
0.9479130325
 30
0.0
 11
1.0
 21
0.0
 31
0.0
 44
0.9
  1
SCALE: 1:1.000
 40
0.3
 41
3.36
  0
LINE
  5
226
100
AcDbEntity
  8
0
100
AcDbLine
 62
7
  6
CONTINUOUS
 10
0.0
 20
0.0
 11
0.0
 21
17.0
  0
LINE
  5
227
100
AcDbEntity
  8
0
100
AcDbLine
 62
7
  6
CONTINUOUS
 10
0.0
 20
0.0
 11
22.0
 21
0.0
  0
LINE
  5
228
100
AcDbEntity
  8
0
100
AcDbLine
 62
7
  6
CONTINUOUS
 10
0.0
 20
17.0
 11
22.0
 21
17.0
  0
LINE
  5
229
100
AcDbEntity
  8
0
100
AcDbLine
 62
7
  6
CONTINUOUS
 10
22.0
 20
0.0
 11
22.0
 21
17.0
  0
LINE
  5
22A
100
AcDbEntity
  8
LAYER_FEATURE
100
AcDbLine
 62
7
  6
CONTINUOUS
 10
7.9953672762
 20
3.3546198968
 11
7.9021924199
 21
3.3546198968
  0
LINE
  5
22B
100
AcDbEntity
  8
LAYER_FEATURE
100
AcDbLine
 62
7
  6
CONTINUOUS
 10
4.2653672762
 20
3.3546198968
 11
4.3585421324
 21
3.3546198968
  0
LINE
  5
22C
100
AcDbEntity
  8
02___PRT_ALL_AXES
100
AcDbLine
 62
7
  6
CONTINUOUS
 10
4.3953672762
 20
3.5421198968
 11
7.8653672762
 21
3.5421198968
  0
LINE
  5
22D
100
AcDbEntity
  8
02___PRT_ALL_AXES
100
AcDbLine
 62
7
  6
CONTINUOUS
 10
4.2553672762
 20
3.7431198968
 11
4.2553672762
 21
7.2971198968
  0
LINE
  5
22E
100
AcDbEntity
  8
LAYER_FEATURE
100
AcDbLine
 62
7
  6
CONTINUOUS
 10
4.2653672762
 20
7.6856198968
 11
4.2653672762
 21
3.3546198968
  0
LINE
  5
22F
100
AcDbEntity
  8
LAYER_FEATURE
100
AcDbLine
 62
7
  6
CONTINUOUS
 10
4.3585421324
 20
7.6856198968
 11
4.3585421324
 21
3.3546198968
  0
LINE
  5
230
100
AcDbEntity
  8
LAYER_FEATURE
100
AcDbLine
 62
7
  6
CONTINUOUS
 10
4.3953672762
 20
7.5481865892
 11
4.3953672762
 21
3.4920532043
  0
LINE
  5
231
100
AcDbEntity
  8
02___PRT_ALL_AXES
100
AcDbLine
 62
7
  6
CONTINUOUS
 10
4.2553672762
 20
3.7431198968
 11
4.2653672762
 21
3.7449732872
  0
LINE
  5
232
100
AcDbEntity
  8
02___PRT_ALL_AXES
100
AcDbLine
 62
7
  6
CONTINUOUS
 10
7.9953672762
 20
3.7449732872
 11
8.0053672762
 21
3.7431198968
  0
LINE
  5
233
100
AcDbEntity
  8
LAYER_FEATURE
100
AcDbLine
 62
7
  6
CONTINUOUS
 10
4.3585421324
 20
3.3546198968
 11
4.3953672762
 21
3.4920532043
  0
LINE
  5
234
100
AcDbEntity
  8
LAYER_FEATURE
100
AcDbLine
 62
7
  6
CONTINUOUS
 10
4.3585421324
 20
7.6856198968
 11
4.3953672762
 21
7.5481865892
  0
LINE
  5
235
100
AcDbEntity
  8
LAYER_FEATURE
100
AcDbLine
 62
7
  6
CONTINUOUS
 10
7.9021924199
 20
7.6856198968
 11
7.8653672762
 21
7.5481865892
  0
LINE
  5
236
100
AcDbEntity
  8
LAYER_FEATURE
100
AcDbLine
 62
7
  6
CONTINUOUS
 10
7.9021924199
 20
3.3546198968
 11
7.8653672762
 21
3.4920532043
  0
LINE
  5
237
100
AcDbEntity
  8
02___PRT_ALL_AXES
100
AcDbLine
 62
7
  6
CONTINUOUS
 10
7.9953672762
 20
7.2952665063
 11
8.0053672762
 21
7.2971198968
  0
LINE
  5
238
100
AcDbEntity
  8
02___PRT_ALL_AXES
100
AcDbLine
 62
7
  6
CONTINUOUS
 10
4.2553672762
 20
7.2971198968
 11
4.2653672762
 21
7.2952665063
  0
LINE
  5
239
100
AcDbEntity
  8
LAYER_FEATURE
100
AcDbLine
 62
7
  6
CONTINUOUS
 10
7.8653672762
 20
7.5481865892
 11
7.8653672762
 21
3.4920532043
  0
LINE
  5
23A
100
AcDbEntity
  8
LAYER_FEATURE
100
AcDbLine
 62
7
  6
CONTINUOUS
 10
4.3953672762
 20
7.2121323769
 11
7.8653672762
 21
7.2121323769
  0
LINE
  5
23B
100
AcDbEntity
  8
0
100
AcDbLine
 62
7
  6
CONTINUOUS
 10
4.3953672762
 20
7.216274129
 11
7.8653672762
 21
7.216274129
  0
LINE
  5
23C
100
AcDbEntity
  8
LAYER_FEATURE
100
AcDbLine
 62
7
  6
CONTINUOUS
 10
7.9021924199
 20
7.6856198968
 11
7.9021924199
 21
3.3546198968
  0
LINE
  5
23D
100
AcDbEntity
  8
LAYER_FEATURE
100
AcDbLine
 62
7
  6
CONTINUOUS
 10
7.9953672762
 20
7.6856198968
 11
7.9953672762
 21
3.3546198968
  0
LINE
  5
23E
100
AcDbEntity
  8
02___PRT_ALL_AXES
100
AcDbLine
 62
7
  6
CONTINUOUS
 10
8.0053672762
 20
3.7431198968
 11
8.0053672762
 21
7.2971198968
  0
LINE
  5
23F
100
AcDbEntity
  8
LAYER_FEATURE
100
AcDbLine
 62
7
  6
CONTINUOUS
 10
4.3953672762
 20
7.3434889129
 11
7.8653672762
 21
7.3434889129
  0
LINE
  5
240
100
AcDbEntity
  8
LAYER_FEATURE
100
AcDbLine
 62
7
  6
CONTINUOUS
 10
4.3953672762
 20
7.3515662885
 11
7.8653672762
 21
7.3515662885
  0
LINE
  5
241
100
AcDbEntity
  8
0
100
AcDbLine
 62
7
  6
CONTINUOUS
 10
4.3953672762
 20
7.3534261408
 11
7.8653672762
 21
7.3534261408
  0
LINE
  5
242
100
AcDbEntity
  8
LAYER_FEATURE
100
AcDbLine
 62
7
  6
CONTINUOUS
 10
4.3953672762
 20
7.4409765338
 11
7.8653672762
 21
7.4409765338
  0
LINE
  5
243
100
AcDbEntity
  8
LAYER_FEATURE
100
AcDbLine
 62
7
  6
CONTINUOUS
 10
4.3953672762
 20
7.4459039116
 11
7.8653672762
 21
7.4459039116
  0
LINE
  5
244
100
AcDbEntity
  8
0
100
AcDbLine
 62
7
  6
CONTINUOUS
 10
4.3953672762
 20
7.4463717547
 11
7.8653672762
 21
7.4463717547
  0
LINE
  5
245
100
AcDbEntity
  8
LAYER_FEATURE
100
AcDbLine
 62
7
  6
CONTINUOUS
 10
4.3953672762
 20
7.4911662893
 11
7.8653672762
 21
7.4911662893
  0
LINE
  5
246
100
AcDbEntity
  8
LAYER_FEATURE
100
AcDbLine
 62
7
  6
CONTINUOUS
 10
4.3953672762
 20
7.492822341
 11
7.8653672762
 21
7.492822341
  0
LINE
  5
247
100
AcDbEntity
  8
LAYER_FEATURE
100
AcDbLine
 62
7
  6
CONTINUOUS
 10
7.9953672762
 20
7.6856198968
 11
7.9021924199
 21
7.6856198968
  0
LINE
  5
248
100
AcDbEntity
  8
LAYER_FEATURE
100
AcDbLine
 62
7
  6
CONTINUOUS
 10
4.2653672762
 20
7.6856198968
 11
4.3585421324
 21
7.6856198968
  0
LINE
  5
249
100
AcDbEntity
  8
LAYER_FEATURE
100
AcDbLine
 62
7
  6
CONTINUOUS
 10
4.2058720839
 20
10.4345477814
 11
4.2990469401
 21
10.4345477814
  0
LINE
  5
24A
100
AcDbEntity
  8
LAYER_FEATURE
100
AcDbLine
 62
7
  6
CONTINUOUS
 10
7.8426972276
 20
10.4345477814
 11
7.9358720839
 21
10.4345477814
  0
LINE
  5
24B
100
AcDbEntity
  8
02___PRT_ALL_AXES
100
AcDbLine
 62
7
  6
CONTINUOUS
 10
4.3358720839
 20
10.6220477814
 11
7.8058720839
 21
10.6220477814
  0
LINE
  5
24C
100
AcDbEntity
  8
02___PRT_ALL_AXES
100
AcDbLine
 62
7
  6
CONTINUOUS
 10
4.1958720839
 20
10.8230477814
 11
4.1958720839
 21
14.3770477814
  0
LINE
  5
24D
100
AcDbEntity
  8
LAYER_FEATURE
100
AcDbLine
 62
7
  6
CONTINUOUS
 10
4.2058720839
 20
10.4345477814
 11
4.2058720839
 21
14.7655477814
  0
LINE
  5
24E
100
AcDbEntity
  8
LAYER_FEATURE
100
AcDbLine
 62
7
  6
CONTINUOUS
 10
4.2990469401
 20
10.4345477814
 11
4.2990469401
 21
14.7655477814
  0
LINE
  5
24F
100
AcDbEntity
  8
LAYER_FEATURE
100
AcDbLine
 62
7
  6
CONTINUOUS
 10
4.3358720839
 20
10.5719810889
 11
4.3358720839
 21
14.6281144738
  0
LINE
  5
250
100
AcDbEntity
  8
02___PRT_ALL_AXES
100
AcDbLine
 62
7
  6
CONTINUOUS
 10
4.2058720839
 20
10.8249011718
 11
4.1958720839
 21
10.8230477814
  0
LINE
  5
251
100
AcDbEntity
  8
02___PRT_ALL_AXES
100
AcDbLine
 62
7
  6
CONTINUOUS
 10
7.9458720839
 20
10.8230477814
 11
7.9358720839
 21
10.8249011718
  0
LINE
  5
252
100
AcDbEntity
  8
LAYER_FEATURE
100
AcDbLine
 62
7
  6
CONTINUOUS
 10
4.2990469401
 20
10.4345477814
 11
4.3358720839
 21
10.5719810889
  0
LINE
  5
253
100
AcDbEntity
  8
LAYER_FEATURE
100
AcDbLine
 62
7
  6
CONTINUOUS
 10
4.2990469401
 20
14.7655477814
 11
4.3358720839
 21
14.6281144738
  0
LINE
  5
254
100
AcDbEntity
  8
LAYER_FEATURE
100
AcDbLine
 62
7
  6
CONTINUOUS
 10
4.3358720839
 20
11.5755587541
 11
7.8058720839
 21
11.5755587541
  0
LINE
  5
255
100
AcDbEntity
  8
0
100
AcDbLine
 62
7
  6
CONTINUOUS
 10
4.3358720839
 20
11.8126121106
 11
7.8058720839
 21
11.8126121106
  0
LINE
  5
256
100
AcDbEntity
  8
LAYER_FEATURE
100
AcDbLine
 62
7
  6
CONTINUOUS
 10
4.3358720839
 20
11.8333604716
 11
7.8058720839
 21
11.8333604716
  0
LINE
  5
257
100
AcDbEntity
  8
LAYER_FEATURE
100
AcDbLine
 62
7
  6
CONTINUOUS
 10
4.3358720839
 20
11.8528609812
 11
7.8058720839
 21
11.8528609812
  0
LINE
  5
258
100
AcDbEntity
  8
LAYER_FEATURE
100
AcDbLine
 62
7
  6
CONTINUOUS
 10
4.3358720839
 20
12.1280374213
 11
7.8058720839
 21
12.1280374213
  0
LINE
  5
259
100
AcDbEntity
  8
LAYER_FEATURE
100
AcDbLine
 62
7
  6
CONTINUOUS
 10
4.3358720839
 20
12.1485614272
 11
7.8058720839
 21
12.1485614272
  0
LINE
  5
25A
100
AcDbEntity
  8
LAYER_FEATURE
100
AcDbLine
 62
7
  6
CONTINUOUS
 10
4.3358720839
 20
12.4343368325
 11
7.8058720839
 21
12.4343368325
  0
LINE
  5
25B
100
AcDbEntity
  8
LAYER_FEATURE
100
AcDbLine
 62
7
  6
CONTINUOUS
 10
4.3358720839
 20
12.4553789655
 11
7.8058720839
 21
12.4553789655
  0
LINE
  5
25C
100
AcDbEntity
  8
LAYER_FEATURE
100
AcDbLine
 62
7
  6
CONTINUOUS
 10
4.3358720839
 20
12.7447165972
 11
7.8058720839
 21
12.7447165972
  0
LINE
  5
25D
100
AcDbEntity
  8
LAYER_FEATURE
100
AcDbLine
 62
7
  6
CONTINUOUS
 10
7.8058720839
 20
14.6281144738
 11
7.8426972276
 21
14.7655477814
  0
LINE
  5
25E
100
AcDbEntity
  8
LAYER_FEATURE
100
AcDbLine
 62
7
  6
CONTINUOUS
 10
7.8058720839
 20
10.5719810889
 11
7.8426972276
 21
10.4345477814
  0
LINE
  5
25F
100
AcDbEntity
  8
02___PRT_ALL_AXES
100
AcDbLine
 62
7
  6
CONTINUOUS
 10
7.9458720839
 20
14.3770477814
 11
7.9358720839
 21
14.3751943909
  0
LINE
  5
260
100
AcDbEntity
  8
02___PRT_ALL_AXES
100
AcDbLine
 62
7
  6
CONTINUOUS
 10
4.2058720839
 20
14.3751943909
 11
4.1958720839
 21
14.3770477814
  0
LINE
  5
261
100
AcDbEntity
  8
LAYER_FEATURE
100
AcDbLine
 62
7
  6
CONTINUOUS
 10
7.8058720839
 20
10.5719812352
 11
7.8058720839
 21
14.6281143275
  0
LINE
  5
262
100
AcDbEntity
  8
LAYER_FEATURE
100
AcDbLine
 62
7
  6
CONTINUOUS
 10
7.8426972276
 20
10.4345477814
 11
7.8426972276
 21
14.7655477814
  0
LINE
  5
263
100
AcDbEntity
  8
LAYER_FEATURE
100
AcDbLine
 62
7
  6
CONTINUOUS
 10
7.9358720839
 20
10.4345477814
 11
7.9358720839
 21
14.7655477814
  0
LINE
  5
264
100
AcDbEntity
  8
02___PRT_ALL_AXES
100
AcDbLine
 62
7
  6
CONTINUOUS
 10
7.9458720839
 20
10.8230477814
 11
7.9458720839
 21
14.3770477814
  0
LINE
  5
265
100
AcDbEntity
  8
02___PRT_ALL_AXES
100
AcDbLine
 62
7
  6
CONTINUOUS
 10
4.3358720839
 20
14.5780477814
 11
7.8058720839
 21
14.5780477814
  0
LINE
  5
266
100
AcDbEntity
  8
LAYER_FEATURE
100
AcDbLine
 62
7
  6
CONTINUOUS
 10
4.2058720839
 20
14.7655477814
 11
4.2990469401
 21
14.7655477814
  0
LINE
  5
267
100
AcDbEntity
  8
LAYER_FEATURE
100
AcDbLine
 62
7
  6
CONTINUOUS
 10
7.8426972276
 20
14.7655477814
 11
7.9358720839
 21
14.7655477814
  0
LINE
  5
268
100
AcDbEntity
  8
LAYER_FEATURE
100
AcDbLine
 62
7
  6
CONTINUOUS
 10
13.7534019293
 20
10.3453049929
 11
13.839221655
 21
10.3453049929
  0
LINE
  5
269
100
AcDbEntity
  8
LAYER_FEATURE
100
AcDbLine
 62
7
  6
CONTINUOUS
 10
17.1031397112
 20
10.3453049929
 11
17.1889594369
 21
10.3453049929
  0
LINE
  5
26A
100
AcDbEntity
  8
02___PRT_ALL_AXES
100
AcDbLine
 62
7
  6
CONTINUOUS
 10
13.8731398585
 20
10.5328049929
 11
16.7602749606
 21
10.5328049929
  0
LINE
  5
26B
100
AcDbEntity
  8
02___PRT_ALL_AXES
100
AcDbLine
 62
7
  6
CONTINUOUS
 10
17.1439451462
 20
10.7392690536
 11
17.0352543057
 21
10.761207655
  0
LINE
  5
26C
100
AcDbEntity
  8
LAYER_FEATURE
100
AcDbLine
 62
7
  6
CONTINUOUS
 10
13.109010921
 20
12.7600669933
 11
16.2656270337
 21
12.7600669933
  0
LINE
  5
26D
100
AcDbEntity
  8
LAYER_FEATURE
100
AcDbLine
 62
7
  6
CONTINUOUS
 10
13.131346792
 20
13.0436625482
 11
16.2859468148
 21
13.0436625482
  0
LINE
  5
26E
100
AcDbEntity
  8
LAYER_FEATURE
100
AcDbLine
 62
7
  6
CONTINUOUS
 10
13.1336032709
 20
13.0639587993
 11
16.2879010845
 21
13.0639587993
  0
LINE
  5
26F
100
AcDbEntity
  8
0
100
AcDbLine
 62
7
  6
CONTINUOUS
 10
13.1474700281
 20
13.0886920537
 11
16.2905437745
 21
13.0886920537
  0
LINE
  5
270
100
AcDbEntity
  8
LAYER_FEATURE
100
AcDbLine
 62
7
  6
CONTINUOUS
 10
13.1729403519
 20
13.3350902094
 11
16.3234217965
 21
13.3350902094
  0
LINE
  5
271
100
AcDbEntity
  8
LAYER_FEATURE
100
AcDbLine
 62
7
  6
CONTINUOUS
 10
13.176405466
 20
13.3542301227
 11
16.3266223481
 21
13.3542301227
  0
LINE
  5
272
100
AcDbEntity
  8
0
100
AcDbLine
 62
7
  6
CONTINUOUS
 10
13.1892933109
 20
13.3735562542
 11
16.329854039
 21
13.3735562542
  0
LINE
  5
273
100
AcDbEntity
  8
LAYER_FEATURE
100
AcDbLine
 62
7
  6
CONTINUOUS
 10
13.2317751476
 20
13.6062212329
 11
16.3759035575
 21
13.6062212329
  0
LINE
  5
274
100
AcDbEntity
  8
LAYER_FEATURE
100
AcDbLine
 62
7
  6
CONTINUOUS
 10
13.2363635742
 20
13.6237335203
 11
16.37988095
 21
13.6237335203
  0
LINE
  5
275
100
AcDbEntity
  8
LAYER_CUT_FEAT
100
AcDbLine
 62
7
  6
CONTINUOUS
 10
13.2479551652
 20
13.6381123415
 11
16.3831466694
 21
13.6381123415
  0
LINE
  5
276
100
AcDbEntity
  8
LAYER_FEATURE
100
AcDbLine
 62
7
  6
CONTINUOUS
 10
13.3064024709
 20
13.8503794731
 11
16.4406392311
 21
13.8503794731
  0
LINE
  5
277
100
AcDbEntity
  8
02___PRT_ALL_AXES
100
AcDbLine
 62
7
  6
CONTINUOUS
 10
17.1439451462
 20
14.2823409322
 11
17.0356716066
 21
14.2604865605
  0
LINE
  5
278
100
AcDbEntity
  8
02___PRT_ALL_AXES
100
AcDbLine
 62
7
  6
CONTINUOUS
 10
13.8731398585
 20
14.4888049929
 11
16.7601817668
 21
14.4888049929
  0
LINE
  5
279
100
AcDbEntity
  8
LAYER_FEATURE
100
AcDbLine
 62
7
  6
CONTINUOUS
 10
13.7534019293
 20
14.6763049929
 11
13.839221655
 21
14.6763049929
  0
LINE
  5
27A
100
AcDbEntity
  8
LAYER_FEATURE
100
AcDbLine
 62
7
  6
CONTINUOUS
 10
17.1031397112
 20
14.6763049929
 11
17.1889594369
 21
14.6763049929
  0
CIRCLE
  5
27B
100
AcDbEntity
  8
LAYER_FEATURE
100
AcDbCircle
 62
7
  6
CONTINUOUS
 10
15.5603552569
 20
5.4606247044
 40
2.1655
  0
CIRCLE
  5
27C
100
AcDbEntity
  8
LAYER_FEATURE
100
AcDbCircle
 62
7
  6
CONTINUOUS
 10
15.5603552569
 20
5.4606247044
 40
2.0280666925
  0
CIRCLE
  5
27D
100
AcDbEntity
  8
02___PRT_ALL_AXES
100
AcDbCircle
 62
7
  6
CONTINUOUS
 10
15.5603552569
 20
5.4606247044
 40
1.777
  0
CIRCLE
  5
27E
100
AcDbEntity
  8
LAYER_CHAMFER_FEAT
100
AcDbCircle
 62
7
  6
CONTINUOUS
 10
15.5603552569
 20
5.4606247044
 40
1.62
  0
CIRCLE
  5
27F
100
AcDbEntity
  8
LAYER_CHAMFER_FEAT
100
AcDbCircle
 62
7
  6
CONTINUOUS
 10
15.5603552569
 20
5.4606247044
 40
1.56
  0
ARC
  5
280
100
AcDbEntity
  8
02___PRT_ALL_AXES
100
AcDbCircle
 62
7
  6
CONTINUOUS
 10
15.5603552569
 20
5.4606247044
 40
1.51
100
AcDbArc
 50
141.1715596153
 51
148.8284403847
  0
ARC
  5
281
100
AcDbEntity
  8
LAYER_CUT_FEAT
100
AcDbCircle
 62
7
  6
CONTINUOUS
 10
15.5603552569
 20
5.4606247044
 40
1.375
100
AcDbArc
 50
248.9499278124
 51
41.0500721876
  0
ARC
  5
282
100
AcDbEntity
  8
02___PRT_ALL_AXES
100
AcDbCircle
 62
7
  6
CONTINUOUS
 10
15.5603552569
 20
5.4606247044
 40
1.375
100
AcDbArc
 50
58.9499278124
 51
136.0500721876
  0
ARC
  5
283
100
AcDbEntity
  8
02___PRT_ALL_AXES
100
AcDbCircle
 62
7
  6
CONTINUOUS
 10
15.5603552569
 20
5.4606247044
 40
1.375
100
AcDbArc
 50
153.9499278124
 51
231.0500721876
  0
ARC
  5
284
100
AcDbEntity
  8
LAYER_CUT_FEAT
100
AcDbCircle
 62
7
  6
CONTINUOUS
 10
15.5603552569
 20
5.4606247044
 40
1.2875914851
100
AcDbArc
 50
249.5897023119
 51
40.4102976881
  0
ARC
  5
285
100
AcDbEntity
  8
LAYER_CUT_FEAT
100
AcDbCircle
 62
7
  6
CONTINUOUS
 10
15.5603552569
 20
5.4606247044
 40
1.2875914851
100
AcDbArc
 50
59.5897023119
 51
135.4102976881
  0
ARC
  5
286
100
AcDbEntity
  8
LAYER_CUT_FEAT
100
AcDbCircle
 62
7
  6
CONTINUOUS
 10
15.5603552569
 20
5.4606247044
 40
1.2875914851
100
AcDbArc
 50
154.5897023119
 51
230.4102976881
  0
ARC
  5
287
100
AcDbEntity
  8
LAYER_CUT_FEAT
100
AcDbCircle
 62
7
  6
CONTINUOUS
 10
14.4852181988
 20
6.2134437772
 40
0.21875
100
AcDbArc
 50
43.6898214686
 51
67.0745177242
  0
ARC
  5
288
100
AcDbEntity
  8
LAYER_CUT_FEAT
100
AcDbCircle
 62
7
  6
CONTINUOUS
 10
14.4852181988
 20
6.2134437772
 40
0.21875
100
AcDbArc
 50
222.9254822758
 51
246.3101785314
  0
ARC
  5
289
100
AcDbEntity
  8
02___PRT_ALL_AXES
100
AcDbCircle
 62
7
  6
CONTINUOUS
 10
14.4852181988
 20
6.2134437772
 40
0.21875
100
AcDbArc
 50
67.0745177242
 51
117.5549241615
  0
ARC
  5
28A
100
AcDbEntity
  8
02___PRT_ALL_AXES
100
AcDbCircle
 62
7
  6
CONTINUOUS
 10
14.4852181988
 20
6.2134437772
 40
0.21875
100
AcDbArc
 50
172.4450758385
 51
222.9254822758
  0
ARC
  5
28B
100
AcDbEntity
  8
02___PRT_ALL_AXES
100
AcDbCircle
 62
7
  6
CONTINUOUS
 10
14.9041052569
 20
4.323966362
 40
0.21875
100
AcDbArc
 50
162.0745177242
 51
317.9254822758
  0
ARC
  5
28C
100
AcDbEntity
  8
LAYER_CUT_FEAT
100
AcDbCircle
 62
7
  6
CONTINUOUS
 10
16.4040139946
 20
6.466058036
 40
0.21875
100
AcDbArc
 50
308.6898214686
 51
151.3101785314
  0
ARC
  5
28D
100
AcDbEntity
  8
LAYER_CUT_FEAT
100
AcDbCircle
 62
7
  6
CONTINUOUS
 10
14.9041052569
 20
4.323966362
 40
0.21875
100
AcDbArc
 50
138.6898214686
 51
162.0745177242
  0
ARC
  5
28E
100
AcDbEntity
  8
LAYER_CUT_FEAT
100
AcDbCircle
 62
7
  6
CONTINUOUS
 10
14.9041052569
 20
4.323966362
 40
0.21875
100
AcDbArc
 50
317.9254822758
 51
341.3101785314
  0
ARC
  5
28F
100
AcDbEntity
  8
LAYER_FEATURE
100
AcDbCircle
 62
7
  6
CONTINUOUS
 10
17.7014534092
 20
12.5458447699
 40
4.5971400928
100
AcDbArc
 50
173.5288127559
 51
173.7833308384
  0
ARC
  5
290
100
AcDbEntity
  8
LAYER_FEATURE
100
AcDbCircle
 62
7
  6
CONTINUOUS
 10
17.0821533348
 20
12.6372449691
 40
3.9710117256
100
AcDbArc
 50
169.5979240942
 51
169.8785740121
  0
ARC
  5
291
100
AcDbEntity
  8
LAYER_FEATURE
100
AcDbCircle
 62
7
  6
CONTINUOUS
 10
9.6453556012
 20
12.9372706185
 40
3.7619165178
100
AcDbArc
 50
13.02260399
 51
13.3667652125
  0
ARC
  5
292
100
AcDbEntity
  8
LAYER_FEATURE
100
AcDbCircle
 62
7
  6
CONTINUOUS
 10
16.3297625042
 20
12.8038691158
 40
3.200202272
100
AcDbArc
 50
165.155805407
 51
165.479925865
  0
ARC
  5
293
100
AcDbEntity
  8
LAYER_FEATURE
100
AcDbCircle
 62
7
  6
CONTINUOUS
 10
10.4934164022
 20
12.6551321375
 40
2.8864429539
100
AcDbArc
 50
17.9201426651
 51
18.3307158077
  0
ARC
  5
294
100
AcDbEntity
  8
LAYER_FEATURE
100
AcDbCircle
 62
7
  6
CONTINUOUS
 10
11.3117171424
 20
12.4457084897
 40
2.0488520136
100
AcDbArc
 50
23.9110161782
 51
24.4269008468
  0
ARC
  5
295
100
AcDbEntity
  8
LAYER_FEATURE
100
AcDbCircle
 62
7
  6
CONTINUOUS
 10
12.0035073512
 20
12.2858695967
 40
1.3426340876
100
AcDbArc
 50
31.6394091618
 51
32.3230857822
  0
ARC
  5
296
100
AcDbEntity
  8
LAYER_FEATURE
100
AcDbCircle
 62
7
  6
CONTINUOUS
 10
12.9761807914
 20
13.1575828045
 40
0.395093409
100
AcDbArc
 50
291.544221367
 51
293.0922571108
  0
ARC
  5
297
100
AcDbEntity
  8
LAYER_FEATURE
100
AcDbCircle
 62
7
  6
CONTINUOUS
 10
17.0673805915
 20
14.0039981495
 40
0.2834412725
100
AcDbArc
 50
76.9636534526
 51
80.8787707797
  0
ARC
  5
298
100
AcDbEntity
  8
LAYER_FEATURE
100
AcDbCircle
 62
7
  6
CONTINUOUS
 10
17.067660261
 20
11.0161970707
 40
0.2820000705
100
AcDbArc
 50
279.1130278237
 51
283.1656207991
  0
ARC
  5
299
100
AcDbEntity
  8
LAYER_FEATURE
100
AcDbCircle
 62
7
  6
CONTINUOUS
 10
17.1550384118
 20
11.0040221218
 40
0.2697171273
100
AcDbArc
 50
270.0005993976
 51
273.6655182503
  0
ARC
  5
29A
100
AcDbEntity
  8
LAYER_FEATURE
100
AcDbCircle
 62
7
  6
CONTINUOUS
 10
17.1550388555
 20
14.0175934164
 40
0.2697115749
100
AcDbArc
 50
86.2466158775
 51
89.999494861
  0
ARC
  5
29B
100
AcDbEntity
  8
LAYER_FEATURE
100
AcDbCircle
 62
7
  6
CONTINUOUS
 10
13.2197614034
 20
13.7253283979
 40
0.099128711
100
AcDbArc
 50
355.4579073467
 51
5.1708180584
  0
SPLINE
  5
29C
100
AcDbEntity
  8
02___PRT_ALL_AXES
100
AcDbSpline
 62
7
  6
CONTINUOUS
 70
0
 71
3
 72
39
 73
35
 74
0
 42
0.0000001
 43
0.0000001
 44
0.0000000001
 40
0.0
 40
0.0
 40
0.0
 40
0.0
 40
0.0454990855
 40
0.0901085597
 40
0.1338004199
 40
0.1765517728
 40
0.2183402514
 40
0.259145921
 40
0.2989512676
 40
0.3377412009
 40
0.3755034233
 40
0.4122286062
 40
0.4479106279
 40
0.4825468961
 40
0.516138695
 40
0.5486915064
 40
0.5802154114
 40
0.6107255763
 40
0.6402427181
 40
0.6687935961
 40
0.6964115751
 40
0.7231372068
 40
0.7490187275
 40
0.7741125343
 40
0.7984835901
 40
0.8222056221
 40
0.8453610635
 40
0.8680407137
 40
0.8903430265
 40
0.9123729503
 40
0.9342403837
 40
0.9560582957
 40
0.9779406067
 40
1.0
 40
1.0
 40
1.0
 40
1.0
 10
17.7402294439
 20
11.4062040793
 30
0.0
 10
17.7358870373
 20
11.3921520465
 30
0.0
 10
17.7270428918
 20
11.3643974299
 30
0.0
 10
17.7131546703
 20
11.323433995
 30
0.0
 10
17.698785434
 20
11.2835794046
 30
0.0
 10
17.6839488528
 20
11.2448713107
 30
0.0
 10
17.6686586114
 20
11.2073455029
 30
0.0
 10
17.6529290191
 20
11.1710370307
 30
0.0
 10
17.636774737
 20
11.1359797088
 30
0.0
 10
17.6202107633
 20
11.1022061838
 30
0.0
 10
17.6032525152
 20
11.0697478816
 30
0.0
 10
17.5859157421
 20
11.0386349818
 30
0.0
 10
17.5682164932
 20
11.0088964188
 30
0.0
 10
17.5501711199
 20
10.9805598361
 30
0.0
 10
17.5317962878
 20
10.9536515378
 30
0.0
 10
17.513108895
 20
10.9281965135
 30
0.0
 10
17.4941260447
 20
10.9042184355
 30
0.0
 10
17.4748650806
 20
10.8817395968
 30
0.0
 10
17.4553435329
 20
10.8607809299
 30
0.0
 10
17.4355790718
 20
10.8413620502
 30
0.0
 10
17.4155895089
 20
10.8235012569
 30
0.0
 10
17.3953928462
 20
10.807215489
 30
0.0
 10
17.3750072248
 20
10.7925204199
 30
0.0
 10
17.3544509568
 20
10.7794305042
 30
0.0
 10
17.3337426245
 20
10.7679589205
 30
0.0
 10
17.3129011429
 20
10.7581175649
 30
0.0
 10
17.2919458199
 20
10.7499170769
 30
0.0
 10
17.2708964563
 20
10.7433667459
 30
0.0
 10
17.2497734529
 20
10.7384742484
 30
0.0
 10
17.2285977209
 20
10.735245577
 30
0.0
 10
17.2073908013
 20
10.7336848405
 30
0.0
 10
17.1861740461
 20
10.7337941519
 30
0.0
 10
17.164970891
 20
10.7355730265
 30
0.0
 10
17.1509349333
 20
10.7378582023
 30
0.0
 10
17.1439451462
 20
10.7392690541
 30
0.0
  0
SPLINE
  5
29D
100
AcDbEntity
  8
LAYER_CHAMFER_FEAT
100
AcDbSpline
 62
7
  6
CONTINUOUS
 70
0
 71
3
 72
15
 73
11
 74
0
 42
0.0000001
 43
0.0000001
 44
0.0000000001
 40
0.0
 40
0.0
 40
0.0
 40
0.0
 40
0.1375057385
 40
0.2714667876
 40
0.401848656
 40
0.5286396109
 40
0.6518353119
 40
0.7714434053
 40
0.8874860018
 40
1.0
 40
1.0
 40
1.0
 40
1.0
 10
16.8060226029
 20
11.2418153993
 30
0.0
 10
16.810785057
 20
11.2321105382
 30
0.0
 10
16.8204124574
 20
11.2130604043
 30
0.0
 10
16.8353644215
 20
11.1852263022
 30
0.0
 10
16.8506276164
 20
11.1585272198
 30
0.0
 10
16.8661887594
 20
11.1329864022
 30
0.0
 10
16.8820347474
 20
11.1086253645
 30
0.0
 10
16.8981522625
 20
11.0854648246
 30
0.0
 10
16.9145273811
 20
11.0635249727
 30
0.0
 10
16.9257794148
 20
11.0495094479
 30
0.0
 10
16.9314476849
 20
11.0427185868
 30
0.0
  0
SPLINE
  5
29E
100
AcDbEntity
  8
LAYER_FEATURE
100
AcDbSpline
 62
7
  6
CONTINUOUS
 70
0
 71
3
 72
23
 73
19
 74
0
 42
0.0000001
 43
0.0000001
 44
0.0000000001
 40
0.0
 40
0.0
 40
0.0
 40
0.0
 40
0.0548144763
 40
0.109838237
 40
0.1652776208
 40
0.2213332532
 40
0.2781976139
 40
0.3360528955
 40
0.3950695235
 40
0.4554050014
 40
0.5172032062
 40
0.5805942896
 40
0.6456945788
 40
0.7126070038
 40
0.7814216806
 40
0.8522163426
 40
0.9250572872
 40
1.0
 40
1.0
 40
1.0
 40
1.0
 10
13.839221655
 20
14.6763049756
 30
0.0
 10
13.8465810147
 20
14.6763049748
 30
0.0
 10
13.8613326077
 20
14.6758084263
 30
0.0
 10
13.8834258321
 20
14.6735759046
 30
0.0
 10
13.9054876478
 20
14.6698572288
 30
0.0
 10
13.9275007743
 20
14.6646556279
 30
0.0
 10
13.9494498098
 20
14.6579753677
 30
0.0
 10
13.9713192452
 20
14.6498220249
 30
0.0
 10
13.9930939329
 20
14.6402020197
 30
0.0
 10
14.0147589546
 20
14.629122755
 30
0.0
 10
14.0362997063
 20
14.6165926442
 30
0.0
 10
14.05770168
 20
14.6026208009
 30
0.0
 10
14.078950618
 20
14.5872173431
 30
0.0
 10
14.100032402
 20
14.5703932058
 30
0.0
 10
14.1209329308
 20
14.5521601336
 30
0.0
 10
14.14163844
 20
14.5325307704
 30
0.0
 10
14.1621347898
 20
14.5115189634
 30
0.0
 10
14.1754590086
 20
14.4968103675
 30
0.0
 10
14.1820849443
 20
14.4892383075
 30
0.0
  0
SPLINE
  5
29F
100
AcDbEntity
  8
LAYER_FEATURE
100
AcDbSpline
 62
7
  6
CONTINUOUS
 70
0
 71
3
 72
23
 73
19
 74
0
 42
0.0000001
 43
0.0000001
 44
0.0000000001
 40
0.0
 40
0.0
 40
0.0
 40
0.0
 40
0.0548144891
 40
0.1098382616
 40
0.1652776579
 40
0.2213333002
 40
0.2781976693
 40
0.3360529597
 40
0.3950695904
 40
0.4554050725
 40
0.5172032788
 40
0.5805943571
 40
0.6456946443
 40
0.7126070604
 40
0.781421726
 40
0.8522163783
 40
0.9250573034
 40
1.0
 40
1.0
 40
1.0
 40
1.0
 10
13.839221655
 20
10.3453050102
 30
0.0
 10
13.8465810067
 20
10.3453050094
 30
0.0
 10
13.8613325833
 20
10.3458015623
 30
0.0
 10
13.8834257845
 20
10.3480340716
 30
0.0
 10
13.9054875754
 20
10.3517527453
 30
0.0
 10
13.9275006785
 20
10.3569543324
 30
0.0
 10
13.9494496913
 20
10.3636345764
 30
0.0
 10
13.9713191014
 20
10.3717879064
 30
0.0
 10
13.9930937686
 20
10.3814078854
 30
0.0
 10
14.0147587666
 20
10.3924871288
 30
0.0
 10
14.0362994949
 20
10.4050172144
 30
0.0
 10
14.0577014499
 20
10.4189890234
 30
0.0
 10
14.0789503637
 20
10.4343924521
 30
0.0
 10
14.1000321282
 20
10.4512165517
 30
0.0
 10
14.1209326381
 20
10.4694495841
 30
0.0
 10
14.1416381245
 20
10.4890789087
 30
0.0
 10
14.1621344597
 20
10.5100906673
 30
0.0
 10
14.1754586635
 20
10.5247992351
 30
0.0
 10
14.1820845945
 20
10.5323712787
 30
0.0
  0
SPLINE
  5
2A0
100
AcDbEntity
  8
LAYER_FEATURE
100
AcDbSpline
 62
7
  6
CONTINUOUS
 70
0
 71
3
 72
40
 73
36
 74
0
 42
0.0000001
 43
0.0000001
 44
0.0000000001
 40
0.0
 40
0.0
 40
0.0
 40
0.0
 40
0.0443809655
 40
0.0879667632
 40
0.1307332493
 40
0.1726614452
 40
0.2137326693
 40
0.2539296226
 40
0.2932370105
 40
0.3316413466
 40
0.369131066
 40
0.4056967658
 40
0.4413313832
 40
0.4760302995
 40
0.5097916145
 40
0.5426163865
 40
0.5745088089
 40
0.6054765662
 40
0.6355311265
 40
0.6646880107
 40
0.6929672306
 40
0.7203936284
 40
0.7469972194
 40
0.7728136571
 40
0.7978845467
 40
0.810156234
 40
0.8222600465
 40
0.8459899712
 40
0.8691376759
 40
0.8917708174
 40
0.9139634688
 40
0.9357956004
 40
0.9573523555
 40
0.9787230683
 40
1.0
 40
1.0
 40
1.0
 40
1.0
 10
16.6131343573
 20
13.6150951015
 30
0.0
 10
16.6171306055
 20
13.6280269653
 30
0.0
 10
16.62525859
 20
13.6535955978
 30
0.0
 10
16.6379772664
 20
13.6913854258
 30
0.0
 10
16.651104657
 20
13.7282423313
 30
0.0
 10
16.6646301734
 20
13.7641367147
 30
0.0
 10
16.6785432099
 20
13.7990405835
 30
0.0
 10
16.6928328034
 20
13.8329263368
 30
0.0
 10
16.707487681
 20
13.8657672115
 30
0.0
 10
16.7224962553
 20
13.8975373532
 30
0.0
 10
16.7378467303
 20
13.9282117103
 30
0.0
 10
16.753527043
 20
13.9577661044
 30
0.0
 10
16.769524826
 20
13.9861772854
 30
0.0
 10
16.785827558
 20
14.0134228712
 30
0.0
 10
16.8024224725
 20
14.0394814161
 30
0.0
 10
16.8192965513
 20
14.0643324454
 30
0.0
 10
16.8364366709
 20
14.0879563845
 30
0.0
 10
16.8538294863
 20
14.1103346476
 30
0.0
 10
16.8714614658
 20
14.1314496449
 30
0.0
 10
16.8893190144
 20
14.1512846903
 30
0.0
 10
16.9073883506
 20
14.1698241287
 30
0.0
 10
16.9256555277
 20
14.1870532607
 30
0.0
 10
16.9441067015
 20
14.2029583623
 30
0.0
 10
16.9627273322
 20
14.2175263988
 30
0.0
 10
16.9784852833
 20
14.2286207573
 30
0.0
 10
16.9911577113
 20
14.2367981619
 30
0.0
 10
17.003700353
 20
14.2444119363
 30
0.0
 10
17.0194657614
 20
14.2530960478
 30
0.0
 10
17.0386215147
 20
14.2622072996
 30
0.0
 10
17.0578743438
 20
14.2699317299
 30
0.0
 10
17.0772085721
 20
14.2762620798
 30
0.0
 10
17.0966085095
 20
14.2811923282
 30
0.0
 10
17.1160584694
 20
14.2847175072
 30
0.0
 10
17.1355407336
 20
14.2868341213
 30
0.0
 10
17.1485522201
 20
14.287304984
 30
0.0
 10
17.1550412334
 20
14.2873049913
 30
0.0
  0
SPLINE
  5
2A1
100
AcDbEntity
  8
LAYER_FEATURE
100
AcDbSpline
 62
7
  6
CONTINUOUS
 70
0
 71
3
 72
75
 73
71
 74
0
 42
0.0000001
 43
0.0000001
 44
0.0000000001
 40
0.0
 40
0.0
 40
0.0
 40
0.0
 40
0.0163579237
 40
0.0330508177
 40
0.0500638269
 40
0.0673821325
 40
0.0849898136
 40
0.1028704848
 40
0.121007152
 40
0.1393823037
 40
0.1579779572
 40
0.1767756979
 40
0.1957567242
 40
0.2149018865
 40
0.2341917272
 40
0.2536065223
 40
0.2731263191
 40
0.2927309746
 40
0.312400192
 40
0.3321135579
 40
0.3518505802
 40
0.371590725
 40
0.3913134527
 40
0.4109982542
 40
0.4306246886
 40
0.4501724198
 40
0.4696212543
 40
0.4889511774
 40
0.5081423909
 40
0.5271753521
 40
0.5460308145
 40
0.5646898664
 40
0.583133971
 40
0.6013450086
 40
0.6193053195
 40
0.6369977524
 40
0.6544057106
 40
0.6715132002
 40
0.6883048824
 40
0.7047661292
 40
0.7208830861
 40
0.7366427385
 40
0.7520329798
 40
0.7670426881
 40
0.7816618124
 40
0.7958814695
 40
0.8096940542
 40
0.8230933569
 40
0.8360746984
 40
0.8486350835
 40
0.8607733772
 40
0.872490507
 40
0.8837896863
 40
0.8946766649
 40
0.9051600086
 40
0.915251407
 40
0.924966002
 40
0.9343227249
 40
0.9433446147
 40
0.9520590978
 40
0.9604981826
 40
0.9686985165
 40
0.972722691
 40
0.9767029706
 40
0.9806451363
 40
0.9845551814
 40
0.9884392933
 40
0.9923038114
 40
0.9961551989
 40
1.0
 40
1.0
 40
1.0
 40
1.0
 10
16.6131343573
 20
13.6150951015
 30
0.0
 10
16.6080605381
 20
13.5986762165
 30
0.0
 10
16.5981486467
 20
13.5653963349
 30
0.0
 10
16.5841177778
 20
13.5147042313
 30
0.0
 10
16.5707861645
 20
13.4627813781
 30
0.0
 10
16.5581702192
 20
13.4096919339
 30
0.0
 10
16.5462854077
 20
13.3555006015
 30
0.0
 10
16.5351463241
 20
13.3002738856
 30
0.0
 10
16.5247666413
 20
13.244079415
 30
0.0
 10
16.5151590963
 20
13.1869860576
 30
0.0
 10
16.5063354835
 20
13.1290637813
 30
0.0
 10
16.4983066384
 20
13.0703835725
 30
0.0
 10
16.4910824245
 20
13.0110173524
 30
0.0
 10
16.4846717166
 20
12.9510378897
 30
0.0
 10
16.4790823802
 20
12.8905187107
 30
0.0
 10
16.4743212769
 20
12.8295340062
 30
0.0
 10
16.470394254
 20
12.7681585381
 30
0.0
 10
16.4673061369
 20
12.7064675496
 30
0.0
 10
16.4650607251
 20
12.6445366728
 30
0.0
 10
16.4636607708
 20
12.5824418369
 30
0.0
 10
16.4631079894
 20
12.5202591721
 30
0.0
 10
16.463403059
 20
12.4580649161
 30
0.0
 10
16.4645456188
 20
12.395935321
 30
0.0
 10
16.466534272
 20
12.33394656
 30
0.0
 10
16.4693665761
 20
12.2721746331
 30
0.0
 10
16.4730390466
 20
12.210695272
 30
0.0
 10
16.4775471717
 20
12.1495838478
 30
0.0
 10
16.4828854159
 20
12.0889152792
 30
0.0
 10
16.4890472276
 20
12.0287639412
 30
0.0
 10
16.496025045
 20
11.9692035717
 30
0.0
 10
16.5038102926
 20
11.9103071773
 30
0.0
 10
16.5123934078
 20
11.8521469455
 30
0.0
 10
16.5217638515
 20
11.7947941581
 30
0.0
 10
16.5319101207
 20
11.7383191036
 30
0.0
 10
16.5428197661
 20
11.6827909891
 30
0.0
 10
16.5544793913
 20
11.628277849
 30
0.0
 10
16.5668746804
 20
11.5748464624
 30
0.0
 10
16.5799904209
 20
11.5225622734
 30
0.0
 10
16.5938105214
 20
11.4714893124
 30
0.0
 10
16.6083180356
 20
11.4216901149
 30
0.0
 10
16.623495176
 20
11.3732256374
 30
0.0
 10
16.639323333
 20
11.3261551779
 30
0.0
 10
16.655783115
 20
11.2805363081
 30
0.0
 10
16.6728543719
 20
11.2364248043
 30
0.0
 10
16.6905162251
 20
11.1938745772
 30
0.0
 10
16.7087471009
 20
11.1529376002
 30
0.0
 10
16.7275247454
 20
11.1136638341
 30
0.0
 10
16.7468262803
 20
11.0761011741
 30
0.0
 10
16.7666282403
 20
11.0402953973
 30
0.0
 10
16.7869066144
 20
11.006290111
 30
0.0
 10
16.8076368981
 20
10.9741267056
 30
0.0
 10
16.8287941261
 20
10.9438443014
 30
0.0
 10
16.8503529316
 20
10.9154797232
 30
0.0
 10
16.8722876088
 20
10.8890674969
 30
0.0
 10
16.8945721582
 20
10.8646398523
 30
0.0
 10
16.917180338
 20
10.8422267451
 30
0.0
 10
16.9400856729
 20
10.8218558945
 30
0.0
 10
16.9632614878
 20
10.803552818
 30
0.0
 10
16.9866807196
 20
10.7873409738
 30
0.0
 10
17.0103163804
 20
10.7732416752
 30
0.0
 10
17.0341393482
 20
10.7612746696
 30
0.0
 10
17.0542527727
 20
10.7530413656
 30
0.0
 10
17.0703770829
 20
10.7475672971
 30
0.0
 10
17.0824223812
 20
10.7440281999
 30
0.0
 10
17.0944903911
 20
10.7410315727
 30
0.0
 10
17.1065775742
 20
10.7385784324
 30
0.0
 10
17.1186800344
 20
10.736669505
 30
0.0
 10
17.1307940839
 20
10.7353055516
 30
0.0
 10
17.1429155574
 20
10.7344869889
 30
0.0
 10
17.1510020399
 20
10.73430499
 30
0.0
 10
17.1550412334
 20
10.7343049945
 30
0.0
  0
SPLINE
  5
2A2
100
AcDbEntity
  8
LAYER_FEATURE
100
AcDbSpline
 62
7
  6
CONTINUOUS
 70
0
 71
3
 72
76
 73
72
 74
0
 42
0.0000001
 43
0.0000001
 44
0.0000000001
 40
0.0
 40
0.0
 40
0.0
 40
0.0
 40
0.0163579319
 40
0.0330507458
 40
0.0500637514
 40
0.0673820247
 40
0.0849896778
 40
0.1028703205
 40
0.1210069566
 40
0.1393820792
 40
0.1579777039
 40
0.1767754155
 40
0.1957564115
 40
0.2149015422
 40
0.2341913514
 40
0.2536061154
 40
0.2731258816
 40
0.292730506
 40
0.3123996917
 40
0.3321130259
 40
0.3518500166
 40
0.3715901299
 40
0.391312826
 40
0.4109975959
 40
0.4306239989
 40
0.450171699
 40
0.4696205022
 40
0.4889503939
 40
0.5081415766
 40
0.5271745082
 40
0.5460299411
 40
0.5646889628
 40
0.5831330367
 40
0.601344044
 40
0.6193043266
 40
0.636996733
 40
0.6544046645
 40
0.6715121261
 40
0.6883037794
 40
0.7047649988
 40
0.7208819308
 40
0.7366415595
 40
0.7520317768
 40
0.7670414605
 40
0.7816605603
 40
0.7958801947
 40
0.8096927578
 40
0.8230920391
 40
0.836073359
 40
0.8486337234
 40
0.8607719989
 40
0.8724891115
 40
0.8837882728
 40
0.8946752324
 40
0.9051585573
 40
0.9152499392
 40
0.9249645208
 40
0.9343212306
 40
0.943343106
 40
0.9520575736
 40
0.9604966434
 40
0.9646249637
 40
0.9686985657
 40
0.9727227351
 40
0.976703008
 40
0.9806451669
 40
0.9845552064
 40
0.9884393115
 40
0.9923038239
 40
0.996155205
 40
1.0
 40
1.0
 40
1.0
 40
1.0
 10
16.442571549
 20
13.8569013792
 30
0.0
 10
16.4363867032
 20
13.8368872107
 30
0.0
 10
16.424304406
 20
13.7963200623
 30
0.0
 10
16.407201209
 20
13.7345279058
 30
0.0
 10
16.3909503758
 20
13.6712355563
 30
0.0
 10
16.3755719212
 20
13.6065210965
 30
0.0
 10
16.3610846979
 20
13.5404634991
 30
0.0
 10
16.3475064858
 20
13.4731437987
 30
0.0
 10
16.3348539583
 20
13.4046444346
 30
0.0
 10
16.3231426493
 20
13.3350493524
 30
0.0
 10
16.312386936
 20
13.2644438382
 30
0.0
 10
16.3026000225
 20
13.1929144271
 30
0.0
 10
16.2937939257
 20
13.1205487922
 30
0.0
 10
16.2859794591
 20
13.0474356361
 30
0.0
 10
16.2791662198
 20
12.9736645821
 30
0.0
 10
16.2733625764
 20
12.8993260639
 30
0.0
 10
16.2685756593
 20
12.824511215
 30
0.0
 10
16.2648113451
 20
12.7493117564
 30
0.0
 10
16.2620742546
 20
12.6738198829
 30
0.0
 10
16.260367748
 20
12.5981281484
 30
0.0
 10
16.2596939211
 20
12.5223293528
 30
0.0
 10
16.2600536022
 20
12.4465164275
 30
0.0
 10
16.2614463511
 20
12.3707823221
 30
0.0
 10
16.2638704606
 20
12.2952198893
 30
0.0
 10
16.2673229517
 20
12.2199217704
 30
0.0
 10
16.2717995819
 20
12.1449802806
 30
0.0
 10
16.2772948526
 20
12.0704872955
 30
0.0
 10
16.2838020148
 20
11.9965341384
 30
0.0
 10
16.2913130781
 20
11.9232114685
 30
0.0
 10
16.2998188203
 20
11.850609169
 30
0.0
 10
16.3093087995
 20
11.7788162358
 30
0.0
 10
16.3197713611
 20
11.7079206661
 30
0.0
 10
16.3311936557
 20
11.6380093497
 30
0.0
 10
16.343561658
 20
11.5691679624
 30
0.0
 10
16.3568601835
 20
11.5014808608
 30
0.0
 10
16.371072908
 20
11.4350309786
 30
0.0
 10
16.3861823877
 20
11.3698997232
 30
0.0
 10
16.4021700834
 20
11.3061668739
 30
0.0
 10
16.4190163778
 20
11.2439104796
 30
0.0
 10
16.4367006039
 20
11.1832067614
 30
0.0
 10
16.4552010764
 20
11.1241300197
 30
0.0
 10
16.4744951189
 20
11.0667525414
 30
0.0
 10
16.494559096
 20
11.0111445102
 30
0.0
 10
16.5153684458
 20
10.9573739175
 30
0.0
 10
16.5368977177
 20
10.9055064762
 30
0.0
 10
16.5591206045
 20
10.8556055339
 30
0.0
 10
16.5820099855
 20
10.8077319937
 30
0.0
 10
16.6055379753
 20
10.7619442426
 30
0.0
 10
16.6296759702
 20
10.7182980822
 30
0.0
 10
16.654394701
 20
10.6768466647
 30
0.0
 10
16.6796642887
 20
10.6376404362
 30
0.0
 10
16.7054543075
 20
10.6007270894
 30
0.0
 10
16.7317338429
 20
10.5661515229
 30
0.0
 10
16.7584715566
 20
10.5339558232
 30
0.0
 10
16.7856357586
 20
10.5041792708
 30
0.0
 10
16.8131944432
 20
10.4768583727
 30
0.0
 10
16.8411153749
 20
10.4520268961
 30
0.0
 10
16.8693659029
 20
10.4297160134
 30
0.0
 10
16.897913553
 20
10.4099541546
 30
0.0
 10
16.9267236138
 20
10.3927679345
 30
0.0
 10
16.9511024561
 20
10.380522217
 30
0.0
 10
16.9706731611
 20
10.3720769518
 30
0.0
 10
16.9852865676
 20
10.3664450352
 30
0.0
 10
16.9999367674
 20
10.361471265
 30
0.0
 10
17.0146194879
 20
10.3571573014
 30
0.0
 10
17.0293300694
 20
10.353504503
 30
0.0
 10
17.0440639632
 20
10.3505141609
 30
0.0
 10
17.0588165092
 20
10.348187287
 30
0.0
 10
17.0735831635
 20
10.3465246203
 30
0.0
 10
17.0883588782
 20
10.3455268455
 30
0.0
 10
17.098216056
 20
10.3453049972
 30
0.0
 10
17.1031397112
 20
10.3453049937
 30
0.0
  0
SPLINE
  5
2A3
100
AcDbEntity
  8
LAYER_FEATURE
100
AcDbSpline
 62
7
  6
CONTINUOUS
 70
0
 71
3
 72
76
 73
72
 74
0
 42
0.0000001
 43
0.0000001
 44
0.0000000001
 40
0.0
 40
0.0
 40
0.0
 40
0.0
 40
0.003844795
 40
0.0076961761
 40
0.0115606885
 40
0.0154447936
 40
0.0193548331
 40
0.023296992
 40
0.0272772649
 40
0.0313014343
 40
0.0353750363
 40
0.0395033566
 40
0.0479424264
 40
0.056656894
 40
0.0656787694
 40
0.0750354792
 40
0.0847500608
 40
0.0948414427
 40
0.1053247676
 40
0.1162117272
 40
0.1275108885
 40
0.1392280011
 40
0.1513662766
 40
0.163926641
 40
0.1769079609
 40
0.1903072422
 40
0.2041198053
 40
0.2183394397
 40
0.2329585395
 40
0.2479682232
 40
0.2633584405
 40
0.2791180692
 40
0.2952350012
 40
0.3116962206
 40
0.3284878739
 40
0.3455953355
 40
0.363003267
 40
0.3806956734
 40
0.398655956
 40
0.4168669633
 40
0.4353110372
 40
0.4539700589
 40
0.4728254918
 40
0.4918584234
 40
0.5110496061
 40
0.5303794978
 40
0.549828301
 40
0.5693760011
 40
0.5890024041
 40
0.608687174
 40
0.6284098701
 40
0.6481499834
 40
0.6678869741
 40
0.6876003083
 40
0.707269494
 40
0.7268741184
 40
0.7463938846
 40
0.7658086486
 40
0.7850984578
 40
0.8042435885
 40
0.8232245845
 40
0.8420222961
 40
0.8606179208
 40
0.8789930434
 40
0.8971296795
 40
0.9150103222
 40
0.9326179753
 40
0.9499362486
 40
0.9669492542
 40
0.9836420681
 40
1.0
 40
1.0
 40
1.0
 40
1.0
 10
17.1889594369
 20
14.6763049921
 30
0.0
 10
17.1938830922
 20
14.6763049886
 30
0.0
 10
17.20374027
 20
14.6760831403
 30
0.0
 10
17.2185159846
 20
14.6750853655
 30
0.0
 10
17.2332826389
 20
14.6734226988
 30
0.0
 10
17.2480351849
 20
14.671095825
 30
0.0
 10
17.2627690788
 20
14.6681054828
 30
0.0
 10
17.2774796603
 20
14.6644526844
 30
0.0
 10
17.2921623808
 20
14.6601387208
 30
0.0
 10
17.3068125806
 20
14.6551649506
 30
0.0
 10
17.3214259871
 20
14.649533034
 30
0.0
 10
17.340996692
 20
14.6410877688
 30
0.0
 10
17.3653755344
 20
14.6288420513
 30
0.0
 10
17.3941855951
 20
14.6116558312
 30
0.0
 10
17.4227332453
 20
14.5918939724
 30
0.0
 10
17.4509837732
 20
14.5695830897
 30
0.0
 10
17.4789047049
 20
14.5447516131
 30
0.0
 10
17.5064633895
 20
14.517430715
 30
0.0
 10
17.5336275915
 20
14.4876541626
 30
0.0
 10
17.5603653052
 20
14.4554584629
 30
0.0
 10
17.5866448406
 20
14.4208828964
 30
0.0
 10
17.6124348594
 20
14.3839695496
 30
0.0
 10
17.6377044471
 20
14.3447633211
 30
0.0
 10
17.6624231779
 20
14.3033119037
 30
0.0
 10
17.6865611728
 20
14.2596657432
 30
0.0
 10
17.7100891626
 20
14.2138779921
 30
0.0
 10
17.7329785436
 20
14.1660044519
 30
0.0
 10
17.7552014304
 20
14.1161035096
 30
0.0
 10
17.7767307024
 20
14.0642360683
 30
0.0
 10
17.7975400521
 20
14.0104654756
 30
0.0
 10
17.8176040292
 20
13.9548574444
 30
0.0
 10
17.8368980717
 20
13.8974799662
 30
0.0
 10
17.8553985442
 20
13.8384032244
 30
0.0
 10
17.8730827704
 20
13.7776995062
 30
0.0
 10
17.8899290647
 20
13.7154431119
 30
0.0
 10
17.9059167604
 20
13.6517102626
 30
0.0
 10
17.9210262401
 20
13.5865790072
 30
0.0
 10
17.9352389646
 20
13.520129125
 30
0.0
 10
17.9485374901
 20
13.4524420235
 30
0.0
 10
17.9609054924
 20
13.3836006361
 30
0.0
 10
17.972327787
 20
13.3136893197
 30
0.0
 10
17.9827903486
 20
13.24279375
 30
0.0
 10
17.9922803279
 20
13.1710008169
 30
0.0
 10
18.00078607
 20
13.0983985173
 30
0.0
 10
18.0082971334
 20
13.0250758474
 30
0.0
 10
18.0148042956
 20
12.9511226904
 30
0.0
 10
18.0202995662
 20
12.8766297052
 30
0.0
 10
18.0247761964
 20
12.8016882154
 30
0.0
 10
18.0282286875
 20
12.7263900965
 30
0.0
 10
18.030652797
 20
12.6508276637
 30
0.0
 10
18.0320455459
 20
12.5750935583
 30
0.0
 10
18.032405227
 20
12.499280633
 30
0.0
 10
18.0317314001
 20
12.4234818374
 30
0.0
 10
18.0300248936
 20
12.3477901029
 30
0.0
 10
18.027287803
 20
12.2722982294
 30
0.0
 10
18.0235234888
 20
12.1970987708
 30
0.0
 10
18.0187365718
 20
12.1222839219
 30
0.0
 10
18.0129329284
 20
12.0479454037
 30
0.0
 10
18.006119689
 20
11.9741743497
 30
0.0
 10
17.9983052224
 20
11.9010611936
 30
0.0
 10
17.9894991256
 20
11.8286955587
 30
0.0
 10
17.9797122122
 20
11.7571661477
 30
0.0
 10
17.9689564988
 20
11.6865606334
 30
0.0
 10
17.9572451899
 20
11.6169655512
 30
0.0
 10
17.9445926623
 20
11.5484661871
 30
0.0
 10
17.9310144502
 20
11.4811464867
 30
0.0
 10
17.9165272269
 20
11.4150888893
 30
0.0
 10
17.9011487723
 20
11.3503744295
 30
0.0
 10
17.8848979391
 20
11.28708208
 30
0.0
 10
17.8677947421
 20
11.2252899235
 30
0.0
 10
17.855712445
 20
11.1847227751
 30
0.0
 10
17.8495275991
 20
11.1647086066
 30
0.0
  0
SPLINE
  5
2A4
100
AcDbEntity
  8
LAYER_FEATURE
100
AcDbSpline
 62
7
  6
CONTINUOUS
 70
0
 71
3
 72
40
 73
36
 74
0
 42
0.0000001
 43
0.0000001
 44
0.0000000001
 40
0.0
 40
0.0
 40
0.0
 40
0.0
 40
0.0212769317
 40
0.0426476438
 40
0.0642043996
 40
0.0860365308
 40
0.1082291823
 40
0.1308623247
 40
0.1540100265
 40
0.1777399543
 40
0.1898437626
 40
0.2021154552
 40
0.2271863382
 40
0.253002783
 40
0.2796063748
 40
0.307032762
 40
0.3353119926
 40
0.3644688777
 40
0.3945234244
 40
0.4254911947
 40
0.4573836182
 40
0.4902083757
 40
0.5239697038
 40
0.5586686212
 40
0.5943032252
 40
0.630868937
 40
0.668358657
 40
0.7067629803
 40
0.7460703837
 40
0.7862673341
 40
0.8273385275
 40
0.8692667866
 40
0.9120332651
 40
0.9556188861
 40
1.0
 40
1.0
 40
1.0
 40
1.0
 10
17.1889594369
 20
10.3453049937
 30
0.0
 10
17.1968693487
 20
10.3453049881
 30
0.0
 10
17.212729958
 20
10.3458789853
 30
0.0
 10
17.2364782535
 20
10.3484590472
 30
0.0
 10
17.2601871666
 20
10.3527561502
 30
0.0
 10
17.2838351074
 20
10.3587659678
 30
0.0
 10
17.3074029503
 20
10.3664824737
 30
0.0
 10
17.3308715641
 20
10.3758983308
 30
0.0
 10
17.3542218614
 20
10.3870046521
 30
0.0
 10
17.3734394041
 20
10.3975903464
 30
0.0
 10
17.388728523
 20
10.4068712844
 30
0.0
 10
17.4041758112
 20
10.4168393215
 30
0.0
 10
17.4233843039
 20
10.4303629778
 30
0.0
 10
17.446082274
 20
10.4481210013
 30
0.0
 10
17.4685736958
 20
10.4675088419
 30
0.0
 10
17.4908408584
 20
10.4885106108
 30
0.0
 10
17.5128668131
 20
10.5111096507
 30
0.0
 10
17.5346346236
 20
10.5352879748
 30
0.0
 10
17.5561275039
 20
10.5610264976
 30
0.0
 10
17.5773287961
 20
10.5883049475
 30
0.0
 10
17.5982220834
 20
10.6171018185
 30
0.0
 10
17.6187911056
 20
10.647394456
 30
0.0
 10
17.6390197809
 20
10.6791590541
 30
0.0
 10
17.6588923188
 20
10.7123706035
 30
0.0
 10
17.6783931592
 20
10.7470029637
 30
0.0
 10
17.6975069661
 20
10.7830288918
 30
0.0
 10
17.716218732
 20
10.8204200093
 30
0.0
 10
17.7345137521
 20
10.8591468475
 30
0.0
 10
17.752377589
 20
10.8991788928
 30
0.0
 10
17.7697961706
 20
10.9404845991
 30
0.0
 10
17.7867557632
 20
10.9830313682
 30
0.0
 10
17.8032429464
 20
11.0267855558
 30
0.0
 10
17.8192448283
 20
11.0717129699
 30
0.0
 10
17.8347485191
 20
11.1177776159
 30
0.0
 10
17.8446562766
 20
11.1489450014
 30
0.0
 10
17.8495275991
 20
11.1647086066
 30
0.0
  0
SPLINE
  5
2A5
100
AcDbEntity
  8
02___PRT_ALL_AXES
100
AcDbSpline
 62
7
  6
CONTINUOUS
 70
0
 71
3
 72
78
 73
74
 74
0
 42
0.0000001
 43
0.0000001
 44
0.0000000001
 40
0.0
 40
0.0
 40
0.0
 40
0.0
 40
0.0039629942
 40
0.0079023738
 40
0.0118251301
 40
0.0157383657
 40
0.0196492469
 40
0.0235649563
 40
0.0274926443
 40
0.0314393791
 40
0.0354121039
 40
0.0394175929
 40
0.0434624107
 40
0.0475528873
 40
0.0516950765
 40
0.0558947507
 40
0.0644864711
 40
0.0733696206
 40
0.0825787925
 40
0.0921434232
 40
0.1020880301
 40
0.1124325476
 40
0.1231927077
 40
0.1343804303
 40
0.1460042002
 40
0.1580694169
 40
0.1705787107
 40
0.1835322283
 40
0.1969278841
 40
0.2107615808
 40
0.2250274024
 40
0.2397177846
 40
0.2548236622
 40
0.2703346007
 40
0.286238914
 40
0.3025237702
 40
0.319175285
 40
0.3361786067
 40
0.3535179943
 40
0.3711768879
 40
0.3891379747
 40
0.4073832526
 40
0.4258940889
 40
0.4446512754
 40
0.4636350815
 40
0.4828253047
 40
0.5022013194
 40
0.5217421245
 40
0.5414263907
 40
0.5612325063
 40
0.5811386213
 40
0.6011226919
 40
0.6211625237
 40
0.6412358148
 40
0.6613201992
 40
0.6813932903
 40
0.7014327228
 40
0.721416196
 40
0.7413215164
 40
0.7611266412
 40
0.7808097221
 40
0.8003491498
 40
0.8197235982
 40
0.8389120702
 40
0.8578939439
 40
0.8766490197
 40
0.8951575703
 40
0.9134003941
 40
0.9313588555
 40
0.9490149923
 40
0.9663514001
 40
0.9833517591
 40
1.0
 40
1.0
 40
1.0
 40
1.0
 10
17.1439451466
 20
14.2823409197
 30
0.0
 10
17.1480980351
 20
14.283179151
 30
0.0
 10
17.1564178253
 20
14.2846651233
 30
0.0
 10
17.1689552115
 20
14.2863181419
 30
0.0
 10
17.1815027905
 20
14.2873869055
 30
0.0
 10
17.1940559712
 20
14.2878710203
 30
0.0
 10
17.2066105712
 20
14.2877702007
 30
0.0
 10
17.2191622953
 20
14.2870846265
 30
0.0
 10
17.2317068741
 20
14.2858144146
 30
0.0
 10
17.2442400565
 20
14.2839601435
 30
0.0
 10
17.2567576017
 20
14.2815224498
 30
0.0
 10
17.2692552821
 20
14.2785022159
 30
0.0
 10
17.2817289458
 20
14.2749006074
 30
0.0
 10
17.2941743452
 20
14.2707188345
 30
0.0
 10
17.3065875875
 20
14.2659584105
 30
0.0
 10
17.3232145257
 20
14.2587882541
 30
0.0
 10
17.3439243616
 20
14.2483390758
 30
0.0
 10
17.3683830233
 20
14.2336113733
 30
0.0
 10
17.3926080633
 20
14.2166213714
 30
0.0
 10
17.4165680483
 20
14.1973936155
 30
0.0
 10
17.4402335937
 20
14.1759543409
 30
0.0
 10
17.4635751442
 20
14.1523323382
 30
0.0
 10
17.4865635171
 20
14.1265588304
 30
0.0
 10
17.509169738
 20
14.0986676145
 30
0.0
 10
17.5313651257
 20
14.0686950959
 30
0.0
 10
17.5531213335
 20
14.0366803193
 30
0.0
 10
17.5744104266
 20
14.002664973
 30
0.0
 10
17.5952049375
 20
13.9666933613
 30
0.0
 10
17.6154779299
 20
13.9288123646
 30
0.0
 10
17.6352030582
 20
13.8890713906
 30
0.0
 10
17.6543546221
 20
13.8475223158
 30
0.0
 10
17.6729076153
 20
13.804219421
 30
0.0
 10
17.6908377722
 20
13.7592193228
 30
0.0
 10
17.708121618
 20
13.7125809015
 30
0.0
 10
17.7247364985
 20
13.6643652164
 30
0.0
 10
17.7406606184
 20
13.6146354221
 30
0.0
 10
17.7558730741
 20
13.5634566825
 30
0.0
 10
17.7703538857
 20
13.5108960835
 30
0.0
 10
17.7840840249
 20
13.4570225436
 30
0.0
 10
17.7970454446
 20
13.4019067234
 30
0.0
 10
17.8092211094
 20
13.3456209316
 30
0.0
 10
17.8205950116
 20
13.2882390257
 30
0.0
 10
17.8311521946
 20
13.2298363118
 30
0.0
 10
17.8408787736
 20
13.1704894448
 30
0.0
 10
17.8497619539
 20
13.1102763269
 30
0.0
 10
17.8577900477
 20
13.0492760054
 30
0.0
 10
17.8649524932
 20
12.9875685687
 30
0.0
 10
17.8712398713
 20
12.9252350405
 30
0.0
 10
17.8766439119
 20
12.8623572704
 30
0.0
 10
17.8811575059
 20
12.7990178254
 30
0.0
 10
17.8847747146
 20
12.7352998814
 30
0.0
 10
17.8874907778
 20
12.6712871138
 30
0.0
 10
17.8893021187
 20
12.6070635875
 30
0.0
 10
17.8902063545
 20
12.5427136459
 30
0.0
 10
17.8902022985
 20
12.4783217993
 30
0.0
 10
17.8892899575
 20
12.4139726128
 30
0.0
 10
17.8874705321
 20
12.3497505948
 30
0.0
 10
17.8847464154
 20
12.2857400859
 30
0.0
 10
17.8811211901
 20
12.2220251487
 30
0.0
 10
17.8765996223
 20
12.1586894559
 30
0.0
 10
17.8711876619
 20
12.0958161795
 30
0.0
 10
17.864892432
 20
12.0334878799
 30
0.0
 10
17.8577222153
 20
11.9717863981
 30
0.0
 10
17.8496864448
 20
11.9107927477
 30
0.0
 10
17.8407956906
 20
11.8505870085
 30
0.0
 10
17.831061646
 20
11.7912482208
 30
0.0
 10
17.8204971115
 20
11.7328542773
 30
0.0
 10
17.8091159818
 20
11.6754818317
 30
0.0
 10
17.79693323
 20
11.6192061393
 30
0.0
 10
17.7839648723
 20
11.5641011487
 30
0.0
 10
17.770227942
 20
11.5102388794
 30
0.0
 10
17.7557405595
 20
11.4576905157
 30
0.0
 10
17.7454841988
 20
11.4232084726
 30
0.0
 10
17.7402294439
 20
11.4062040793
 30
0.0
  0
SPLINE
  5
2A6
100
AcDbEntity
  8
LAYER_CHAMFER_FEAT
100
AcDbSpline
 62
7
  6
CONTINUOUS
 70
0
 71
3
 72
61
 73
57
 74
0
 42
0.0000001
 43
0.0000001
 44
0.0000000001
 40
0.0
 40
0.0
 40
0.0
 40
0.0
 40
0.0101613875
 40
0.0206685763
 40
0.0315252657
 40
0.042733471
 40
0.0542936658
 40
0.0662049144
 40
0.0784650112
 40
0.0910705876
 40
0.1040171947
 40
0.1172994013
 40
0.1309108794
 40
0.1448444644
 40
0.1590922113
 40
0.1736454667
 40
0.1884949197
 40
0.2036306357
 40
0.219042108
 40
0.2347183052
 40
0.2506477022
 40
0.2668183082
 40
0.2832177123
 40
0.2998331143
 40
0.3166513457
 40
0.3336589022
 40
0.3508419775
 40
0.3681864862
 40
0.4033014341
 40
0.4388872237
 40
0.4748236563
 40
0.5109884376
 40
0.5472579151
 40
0.5835078208
 40
0.6196140022
 40
0.6554531541
 40
0.6909035597
 40
0.7258458438
 40
0.7430903665
 40
0.7601645561
 40
0.7770545005
 40
0.7937465797
 40
0.8102274964
 40
0.8264843125
 40
0.842504469
 40
0.8582758141
 40
0.8737866474
 40
0.889025751
 40
0.9039824189
 40
0.918646499
 40
0.9330084395
 40
0.9470593559
 40
0.9607910201
 40
0.9741958888
 40
0.9872676778
 40
1.0
 40
1.0
 40
1.0
 40
1.0
 10
16.9314476832
 20
13.9788914087
 30
0.0
 10
16.9252870511
 20
13.9715106591
 30
0.0
 10
16.9130662105
 20
13.9562367623
 30
0.0
 10
16.8953287286
 20
13.9322490751
 30
0.0
 10
16.8778975892
 20
13.9068275716
 30
0.0
 10
16.8607905418
 20
13.8799982576
 30
0.0
 10
16.8440245013
 20
13.8517879005
 30
0.0
 10
16.8276162147
 20
13.8222248743
 30
0.0
 10
16.8115820937
 20
13.791338851
 30
0.0
 10
16.7959382417
 20
13.7591608521
 30
0.0
 10
16.7807003495
 20
13.7257232384
 30
0.0
 10
16.7658837284
 20
13.6910596536
 30
0.0
 10
16.7515033067
 20
13.6552049743
 30
0.0
 10
16.737573585
 20
13.6181952969
 30
0.0
 10
16.7241085831
 20
13.5800679137
 30
0.0
 10
16.7111218854
 20
13.540861243
 30
0.0
 10
16.6986266213
 20
13.5006147936
 30
0.0
 10
16.6866353954
 20
13.4593691484
 30
0.0
 10
16.6751603051
 20
13.4171659093
 30
0.0
 10
16.6642129533
 20
13.37404764
 30
0.0
 10
16.6538044172
 20
13.3300578359
 30
0.0
 10
16.6439451931
 20
13.2852408905
 30
0.0
 10
16.6346452441
 20
13.2396420306
 30
0.0
 10
16.6259139917
 20
13.1933072724
 30
0.0
 10
16.6177602538
 20
13.1462833786
 30
0.0
 10
16.6101922698
 20
13.098617847
 30
0.0
 10
16.603217656
 20
13.0503586959
 30
0.0
 10
16.5946842207
 20
12.9850210264
 30
0.0
 10
16.5855650867
 20
12.9022087282
 30
0.0
 10
16.5771321844
 20
12.8016583404
 30
0.0
 10
16.5711993053
 20
12.6999344485
 30
0.0
 10
16.5677905705
 20
12.5974478172
 30
0.0
 10
16.5669197419
 20
12.4946116776
 30
0.0
 10
16.5685904079
 20
12.3918408553
 30
0.0
 10
16.5727957532
 20
12.2895499101
 30
0.0
 10
16.5795187354
 20
12.1881512678
 30
0.0
 10
16.5887321033
 20
12.0880543765
 30
0.0
 10
16.5984962078
 20
12.0057042223
 30
0.0
 10
16.6075394449
 20
11.9407995768
 30
0.0
 10
16.6148885428
 20
11.8929084907
 30
0.0
 10
16.6228262533
 20
11.8456413915
 30
0.0
 10
16.6313446067
 20
11.7990458991
 30
0.0
 10
16.6404349937
 20
11.7531690754
 30
0.0
 10
16.6500882067
 20
11.7080572107
 30
0.0
 10
16.6602944854
 20
11.6637558314
 30
0.0
 10
16.6710435362
 20
11.6203096471
 30
0.0
 10
16.6823244902
 20
11.5777624898
 30
0.0
 10
16.6941259345
 20
11.5361572711
 30
0.0
 10
16.7064359572
 20
11.4955359555
 30
0.0
 10
16.7192421475
 20
11.455939516
 30
0.0
 10
16.7325315522
 20
11.4174078478
 30
0.0
 10
16.7462907706
 20
11.3799797764
 30
0.0
 10
16.7605059129
 20
11.3436931126
 30
0.0
 10
16.7751627389
 20
11.3085840635
 30
0.0
 10
16.7902463142
 20
11.2746886028
 30
0.0
 10
16.8007156357
 20
11.2526298615
 30
0.0
 10
16.8060226029
 20
11.2418153993
 30
0.0
  0
SPLINE
  5
2A7
100
AcDbEntity
  8
LAYER_CHAMFER_FEAT
100
AcDbSpline
 62
7
  6
CONTINUOUS
 70
0
 71
3
 72
22
 73
18
 74
0
 42
0.0000001
 43
0.0000001
 44
0.0000000001
 40
0.0
 40
0.0
 40
0.0
 40
0.0
 40
0.0739597194
 40
0.145960995
 40
0.2160617667
 40
0.2843296026
 40
0.4156550769
 40
0.4789345498
 40
0.540758494
 40
0.6012499832
 40
0.6605435569
 40
0.718785177
 40
0.7761313773
 40
0.8327483741
 40
0.8888106708
 40
0.9444993268
 40
1.0
 40
1.0
 40
1.0
 40
1.0
 10
16.9095312027
 20
11.070510082
 30
0.0
 10
16.9140771066
 20
11.0656528389
 30
0.0
 10
16.923213309
 20
11.056219299
 30
0.0
 10
16.9372381759
 20
11.0427591251
 30
0.0
 10
16.9513898697
 20
11.030188903
 30
0.0
 10
16.9701706137
 20
11.0148267719
 30
0.0
 10
16.9894171145
 20
11.0010243275
 30
0.0
 10
17.0090866534
 20
10.9889624728
 30
0.0
 10
17.0237416053
 20
10.980951147
 30
0.0
 10
17.0384709535
 20
10.9738693567
 30
0.0
 10
17.0532662735
 20
10.9677217032
 30
0.0
 10
17.0681183968
 20
10.9625123435
 30
0.0
 10
17.0830182398
 20
10.9582449707
 30
0.0
 10
17.0979564221
 20
10.9549226257
 30
0.0
 10
17.1129237124
 20
10.9525477157
 30
0.0
 10
17.1279097584
 20
10.9511220891
 30
0.0
 10
17.1379141048
 20
10.950804998
 30
0.0
 10
17.1429063872
 20
10.9508049936
 30
0.0
  0
SPLINE
  5
2A8
100
AcDbEntity
  8
LAYER_CHAMFER_FEAT
100
AcDbSpline
 62
7
  6
CONTINUOUS
 70
0
 71
3
 72
22
 73
18
 74
0
 42
0.0000001
 43
0.0000001
 44
0.0000000001
 40
0.0
 40
0.0
 40
0.0
 40
0.0
 40
0.0554174147
 40
0.1110253707
 40
0.1670120229
 40
0.2235607797
 40
0.2808483446
 40
0.3390428612
 40
0.3983026007
 40
0.4587749334
 40
0.520595602
 40
0.5838885778
 40
0.7152936419
 40
0.7836284851
 40
0.8538144885
 40
0.9259190821
 40
1.0
 40
1.0
 40
1.0
 40
1.0
 10
17.1429063872
 20
14.0708049922
 30
0.0
 10
17.1378763158
 20
14.0708049966
 30
0.0
 10
17.1277959406
 20
14.0704830537
 30
0.0
 10
17.1126963256
 20
14.0690357304
 30
0.0
 10
17.0976159183
 20
14.0666246465
 30
0.0
 10
17.0825652985
 20
14.0632517926
 30
0.0
 10
17.0675539324
 20
14.0589195674
 30
0.0
 10
17.0525913863
 20
14.0536311985
 30
0.0
 10
17.0376869784
 20
14.0473904127
 30
0.0
 10
17.0228500491
 20
14.0402015659
 30
0.0
 10
17.0080892374
 20
14.0320693509
 30
0.0
 10
16.9882767336
 20
14.0198242613
 30
0.0
 10
16.9688962026
 20
14.005814436
 30
0.0
 10
16.9499899535
 20
13.9902246893
 30
0.0
 10
16.9357437999
 20
13.9774671744
 30
0.0
 10
16.9216272995
 20
13.9638070895
 30
0.0
 10
16.9124337193
 20
13.9542348333
 30
0.0
 10
16.9078595744
 20
13.94930627
 30
0.0
  0
SPLINE
  5
2A9
100
AcDbEntity
  8
LAYER_FEATURE
100
AcDbSpline
 62
7
  6
CONTINUOUS
 70
0
 71
3
 72
40
 73
36
 74
0
 42
0.0000001
 43
0.0000001
 44
0.0000000001
 40
0.0
 40
0.0
 40
0.0
 40
0.0
 40
0.0443811139
 40
0.0879667349
 40
0.1307332134
 40
0.1726614725
 40
0.2137326659
 40
0.2539296163
 40
0.2932370197
 40
0.331641343
 40
0.369131063
 40
0.4056967748
 40
0.4413313788
 40
0.4760302962
 40
0.5097916243
 40
0.5426163818
 40
0.5745088053
 40
0.6054765756
 40
0.6355311223
 40
0.6646880074
 40
0.692967238
 40
0.7203936252
 40
0.746997217
 40
0.7728136618
 40
0.7978845448
 40
0.8101562374
 40
0.8222600457
 40
0.8459899735
 40
0.8691376753
 40
0.8917708177
 40
0.9139634692
 40
0.9357956004
 40
0.9573523562
 40
0.9787230683
 40
1.0
 40
1.0
 40
1.0
 40
1.0
 10
16.442571549
 20
13.8569013792
 30
0.0
 10
16.4474428715
 20
13.8726649845
 30
0.0
 10
16.457350629
 20
13.90383237
 30
0.0
 10
16.4728543198
 20
13.9498970159
 30
0.0
 10
16.4888562017
 20
13.99482443
 30
0.0
 10
16.505343385
 20
14.0385786177
 30
0.0
 10
16.5223029775
 20
14.0811253868
 30
0.0
 10
16.5397215592
 20
14.122431093
 30
0.0
 10
16.5575853961
 20
14.1624631384
 30
0.0
 10
16.5758804161
 20
14.2011899765
 30
0.0
 10
16.594592182
 20
14.238581094
 30
0.0
 10
16.6137059889
 20
14.2746070221
 30
0.0
 10
16.6332068294
 20
14.3092393824
 30
0.0
 10
16.6530793672
 20
14.3424509317
 30
0.0
 10
16.6733080426
 20
14.3742155298
 30
0.0
 10
16.6938770647
 20
14.4045081673
 30
0.0
 10
16.714770352
 20
14.4333050383
 30
0.0
 10
16.7359716442
 20
14.4605834882
 30
0.0
 10
16.7574645245
 20
14.486322011
 30
0.0
 10
16.779232335
 20
14.5105003351
 30
0.0
 10
16.8012582897
 20
14.5330993751
 30
0.0
 10
16.8235254523
 20
14.5541011439
 30
0.0
 10
16.8460168742
 20
14.5734889845
 30
0.0
 10
16.8687148442
 20
14.591247008
 30
0.0
 10
16.8879233369
 20
14.6047706643
 30
0.0
 10
16.9033706252
 20
14.6147387014
 30
0.0
 10
16.918659744
 20
14.6240196394
 30
0.0
 10
16.9378772867
 20
14.6346053338
 30
0.0
 10
16.961227584
 20
14.6457116551
 30
0.0
 10
16.9846961978
 20
14.6551275121
 30
0.0
 10
17.0082640407
 20
14.662844018
 30
0.0
 10
17.0319119816
 20
14.6688538356
 30
0.0
 10
17.0556208946
 20
14.6731509387
 30
0.0
 10
17.0793691901
 20
14.6757310005
 30
0.0
 10
17.0952297994
 20
14.6763049978
 30
0.0
 10
17.1031397112
 20
14.6763049921
 30
0.0
  0
SPLINE
  5
2AA
100
AcDbEntity
  8
LAYER_FEATURE
100
AcDbSpline
 62
7
  6
CONTINUOUS
 70
0
 71
3
 72
76
 73
72
 74
0
 42
0.0000001
 43
0.0000001
 44
0.0000000001
 40
0.0
 40
0.0
 40
0.0
 40
0.0
 40
0.016357916
 40
0.0330507548
 40
0.050063749
 40
0.067382025
 40
0.0849896775
 40
0.10287032
 40
0.1210069572
 40
0.1393820801
 40
0.1579777045
 40
0.1767754155
 40
0.195756411
 40
0.2149015417
 40
0.2341913516
 40
0.2536061161
 40
0.2731258822
 40
0.2927305062
 40
0.3123996917
 40
0.3321130259
 40
0.3518500169
 40
0.3715901301
 40
0.3913128259
 40
0.4109975958
 40
0.430623999
 40
0.4501716997
 40
0.4696205031
 40
0.4889503943
 40
0.5081415763
 40
0.5271745074
 40
0.5460299407
 40
0.5646889635
 40
0.5831330381
 40
0.6013440449
 40
0.6193043266
 40
0.6369967321
 40
0.6544046637
 40
0.6715121263
 40
0.6883037806
 40
0.7047649998
 40
0.7208819312
 40
0.7366415593
 40
0.7520317764
 40
0.7670414605
 40
0.7816605608
 40
0.7958801951
 40
0.809692758
 40
0.8230920392
 40
0.8360733595
 40
0.8486337243
 40
0.8607719995
 40
0.8724891111
 40
0.8837882721
 40
0.894675232
 40
0.905158558
 40
0.9152499408
 40
0.9249645223
 40
0.9343212306
 40
0.9433431049
 40
0.9520575727
 40
0.9604966434
 40
0.9646249631
 40
0.9686985665
 40
0.9727227342
 40
0.9767030088
 40
0.9806451665
 40
0.9845552066
 40
0.9884393116
 40
0.9923038237
 40
0.9961552051
 40
1.0
 40
1.0
 40
1.0
 40
1.0
 10
13.0928337671
 20
13.8569013792
 30
0.0
 10
13.0866489273
 20
13.8368872302
 30
0.0
 10
13.07456663
 20
13.7963200699
 30
0.0
 10
13.0574634286
 20
13.7345279178
 30
0.0
 10
13.0412125949
 20
13.671235547
 30
0.0
 10
13.025834139
 20
13.6065210998
 30
0.0
 10
13.011346914
 20
13.5404635003
 30
0.0
 10
12.9977687015
 20
13.4731437996
 30
0.0
 10
12.9851161783
 20
13.4046444332
 30
0.0
 10
12.9734048715
 20
13.3350493494
 30
0.0
 10
12.9626491571
 20
13.2644438361
 30
0.0
 10
12.9528622407
 20
13.1929144272
 30
0.0
 10
12.9440561403
 20
13.1205487941
 30
0.0
 10
12.9362416719
 20
13.047435638
 30
0.0
 10
12.9294284372
 20
12.9736645821
 30
0.0
 10
12.9236247999
 20
12.8993260622
 30
0.0
 10
12.9188378836
 20
12.8245112133
 30
0.0
 10
12.9150735658
 20
12.7493117559
 30
0.0
 10
12.9123364698
 20
12.6738198833
 30
0.0
 10
12.9106299592
 20
12.5981281488
 30
0.0
 10
12.9099561351
 20
12.5223293528
 30
0.0
 10
12.910315823
 20
12.4465164276
 30
0.0
 10
12.9117085768
 20
12.3707823229
 30
0.0
 10
12.9141326846
 20
12.2952198904
 30
0.0
 10
12.9175851697
 20
12.2199217704
 30
0.0
 10
12.9220617939
 20
12.1449802789
 30
0.0
 10
12.9275570646
 20
12.0704872933
 30
0.0
 10
12.9340642322
 20
11.996534138
 30
0.0
 10
12.941575301
 20
11.9232114709
 30
0.0
 10
12.9500810455
 20
11.8506091728
 30
0.0
 10
12.959571021
 20
11.7788162378
 30
0.0
 10
12.9700335758
 20
11.7079206644
 30
0.0
 10
12.981455868
 20
11.6380093458
 30
0.0
 10
12.9938238736
 20
11.56916796
 30
0.0
 10
13.0071224033
 20
11.5014808622
 30
0.0
 10
13.0213351305
 20
11.435030983
 30
0.0
 10
13.0364446103
 20
11.3698997274
 30
0.0
 10
13.0524323014
 20
11.3061668744
 30
0.0
 10
13.0692785922
 20
11.2439104765
 30
0.0
 10
13.08696282
 20
11.1832067586
 30
0.0
 10
13.1054632947
 20
11.1241300195
 30
0.0
 10
13.1247573388
 20
11.0667525438
 30
0.0
 10
13.1448213161
 20
11.0111445133
 30
0.0
 10
13.1656306647
 20
10.9573739191
 30
0.0
 10
13.1871599346
 20
10.905506476
 30
0.0
 10
13.2093828224
 20
10.8556055339
 30
0.0
 10
13.2322722043
 20
10.8077319947
 30
0.0
 10
13.2558001941
 20
10.7619442436
 30
0.0
 10
13.2799381882
 20
10.7182980817
 30
0.0
 10
13.3046569176
 20
10.6768466627
 30
0.0
 10
13.3299265056
 20
10.6376404358
 30
0.0
 10
13.3557165277
 20
10.6007270938
 30
0.0
 10
13.3819960634
 20
10.566151529
 30
0.0
 10
13.4087337761
 20
10.5339558268
 30
0.0
 10
13.4358979761
 20
10.5041792686
 30
0.0
 10
13.4634566586
 20
10.4768583651
 30
0.0
 10
13.4913775895
 20
10.4520268886
 30
0.0
 10
13.5196281226
 20
10.4297160181
 30
0.0
 10
13.5481757742
 20
10.4099541664
 30
0.0
 10
13.5769858359
 20
10.3927679503
 30
0.0
 10
13.6013646675
 20
10.3805222068
 30
0.0
 10
13.6209353865
 20
10.3720769706
 30
0.0
 10
13.6355487748
 20
10.3664450082
 30
0.0
 10
13.6501989976
 20
10.3614713014
 30
0.0
 10
13.6648816956
 20
10.3571572675
 30
0.0
 10
13.6795922939
 20
10.3535045275
 30
0.0
 10
13.694326179
 20
10.3505141533
 30
0.0
 10
13.7090787265
 20
10.3481872778
 30
0.0
 10
13.7238453838
 20
10.3465246495
 30
0.0
 10
13.7386210944
 20
10.3455268082
 30
0.0
 10
13.7484782742
 20
10.3453050108
 30
0.0
 10
13.7534019293
 20
10.3453050102
 30
0.0
  0
SPLINE
  5
2AB
100
AcDbEntity
  8
LAYER_FEATURE
100
AcDbSpline
 62
7
  6
CONTINUOUS
 70
0
 71
3
 72
40
 73
36
 74
0
 42
0.0000001
 43
0.0000001
 44
0.0000000001
 40
0.0
 40
0.0
 40
0.0
 40
0.0
 40
0.0443810441
 40
0.08796675
 40
0.1307332286
 40
0.1726614593
 40
0.2137326677
 40
0.25392962
 40
0.293237015
 40
0.3316413435
 40
0.3691310668
 40
0.4056967699
 40
0.4413313785
 40
0.4760303015
 40
0.509791619
 40
0.5426163802
 40
0.5745088119
 40
0.6054765708
 40
0.6355311192
 40
0.6646880143
 40
0.692967235
 40
0.7203936207
 40
0.7469972234
 40
0.7728136608
 40
0.7978845396
 40
0.8101562369
 40
0.8222600505
 40
0.8459899742
 40
0.8691376706
 40
0.8917708203
 40
0.9139634707
 40
0.9357955976
 40
0.9573523567
 40
0.9787230691
 40
1.0
 40
1.0
 40
1.0
 40
1.0
 10
13.0928337671
 20
13.8569013792
 30
0.0
 10
13.0977050819
 20
13.8726649596
 30
0.0
 10
13.1076128446
 20
13.9038323493
 30
0.0
 10
13.123116532
 20
13.9498970022
 30
0.0
 10
13.139118419
 20
13.994824437
 30
0.0
 10
13.1556056089
 20
14.0385786168
 30
0.0
 10
13.1725651935
 20
14.0811253843
 30
0.0
 10
13.1899837731
 20
14.1224310949
 30
0.0
 10
13.2078476205
 20
14.162463135
 30
0.0
 10
13.2261426338
 20
14.2011899762
 30
0.0
 10
13.2448543929
 20
14.2385810972
 30
0.0
 10
13.2639682152
 20
14.2746070168
 30
0.0
 10
13.2834690485
 20
14.3092393813
 30
0.0
 10
13.303341575
 20
14.3424509376
 30
0.0
 10
13.32357027
 20
14.3742155226
 30
0.0
 10
13.3441392859
 20
14.4045081643
 30
0.0
 10
13.3650325574
 20
14.4333050475
 30
0.0
 10
13.3862338711
 20
14.4605834802
 30
0.0
 10
13.4077267485
 20
14.4863220047
 30
0.0
 10
13.4294945393
 20
14.5105003479
 30
0.0
 10
13.451520514
 20
14.5330993681
 30
0.0
 10
13.4737876794
 20
14.5541011324
 30
0.0
 10
13.4962790788
 20
14.5734890006
 30
0.0
 10
13.5189770651
 20
14.5912470039
 30
0.0
 10
13.5381855619
 20
14.6047706488
 30
0.0
 10
13.5536328443
 20
14.6147386987
 30
0.0
 10
13.5689219534
 20
14.6240196571
 30
0.0
 10
13.5881395045
 20
14.6346053354
 30
0.0
 10
13.6114898123
 20
14.6457116295
 30
0.0
 10
13.6349584085
 20
14.6551275301
 30
0.0
 10
13.658526257
 20
14.6628440269
 30
0.0
 10
13.6821742058
 20
14.6688538049
 30
0.0
 10
13.7058831094
 20
14.6731509531
 30
0.0
 10
13.729631408
 20
14.6757310179
 30
0.0
 10
13.7454920178
 20
14.6763049764
 30
0.0
 10
13.7534019293
 20
14.6763049756
 30
0.0
  0
SPLINE
  5
2AC
100
AcDbEntity
  8
LAYER_FEATURE
100
AcDbSpline
 62
7
  6
CONTINUOUS
 70
0
 71
3
 72
108
 73
104
 74
0
 42
0.0000001
 43
0.0000001
 44
0.0000000001
 40
0.0
 40
0.0
 40
0.0
 40
0.0
 40
0.0178410578
 40
0.0361828497
 40
0.0549938683
 40
0.0742403219
 40
0.0938867103
 40
0.1138958905
 40
0.134229306
 40
0.1548471626
 40
0.1757086058
 40
0.196771889
 40
0.2179945367
 40
0.2393335047
 40
0.2607453364
 40
0.2821863186
 40
0.3036126362
 40
0.3249805254
 40
0.3462464278
 40
0.3673671451
 40
0.3882999959
 40
0.4090029748
 40
0.4294349144
 40
0.4495556515
 40
0.4693261998
 40
0.4887089298
 40
0.5076677606
 40
0.526168362
 40
0.5441783725
 40
0.5529901105
 40
0.5616680898
 40
0.5702089296
 40
0.5786094275
 40
0.586866554
 40
0.5949774868
 40
0.6029395984
 40
0.610750487
 40
0.6184079835
 40
0.6259101596
 40
0.6332553634
 40
0.640442211
 40
0.6474696315
 40
0.6543368707
 40
0.6610435187
 40
0.667589545
 40
0.6739753049
 40
0.680201597
 40
0.6862696704
 40
0.692181276
 40
0.6979387021
 40
0.7035448031
 40
0.7090030639
 40
0.7143176172
 40
0.7194933104
 40
0.7245357356
 40
0.7294512703
 40
0.7342471243
 40
0.7389313479
 40
0.7435128683
 40
0.7480014745
 40
0.7524078068
 40
0.7567433172
 40
0.761020196
 40
0.7652512896
 40
0.7694499723
 40
0.7736300104
 40
0.7778053989
 40
0.7819901912
 40
0.7861983226
 40
0.7904434455
 40
0.7947387689
 40
0.799096929
 40
0.8035298773
 40
0.808048793
 40
0.8126640366
 40
0.8173851018
 40
0.8222206201
 40
0.8271783559
 40
0.8322652291
 40
0.8374873542
 40
0.8428500587
 40
0.8483579491
 40
0.8540149313
 40
0.8598242699
 40
0.8657886289
 40
0.8719101021
 40
0.8781902748
 40
0.8846302336
 40
0.8912306252
 40
0.8979916738
 40
0.904913211
 40
0.9119947165
 40
0.9192353176
 40
0.9266338407
 40
0.934188809
 40
0.9418984696
 40
0.9497608155
 40
0.957773601
 40
0.9659343518
 40
0.974240313
 40
0.9826886646
 40
0.9912764975
 40
1.0
 40
1.0
 40
1.0
 40
1.0
 10
16.5363959839
 20
13.7714714653
 30
0.0
 10
16.528244492
 20
13.745093228
 30
0.0
 10
16.5124827918
 20
13.6913556587
 30
0.0
 10
16.4907246002
 20
13.609071755
 30
0.0
 10
16.4705621653
 20
13.5241454156
 30
0.0
 10
16.4520443842
 20
13.4367813886
 30
0.0
 10
16.435215848
 20
13.3471894823
 30
0.0
 10
16.4201171932
 20
13.2555851155
 30
0.0
 10
16.4067848579
 20
13.1621885649
 30
0.0
 10
16.395251023
 20
13.0672244876
 30
0.0
 10
16.385543532
 20
12.9709213472
 30
0.0
 10
16.3776858237
 20
12.8735108624
 30
0.0
 10
16.3716968732
 20
12.7752274402
 30
0.0
 10
16.3675911469
 20
12.6763076082
 30
0.0
 10
16.3653785612
 20
12.5769894399
 30
0.0
 10
16.3650644536
 20
12.4775119761
 30
0.0
 10
16.3666495806
 20
12.3781146436
 30
0.0
 10
16.3701301143
 20
12.2790366741
 30
0.0
 10
16.3754976515
 20
12.1805165251
 30
0.0
 10
16.3827392361
 20
12.0827913007
 30
0.0
 10
16.3918373814
 20
11.986096174
 30
0.0
 10
16.4027701139
 20
11.8906638145
 30
0.0
 10
16.4155110365
 20
11.7967238218
 30
0.0
 10
16.4300293908
 20
11.7045021717
 30
0.0
 10
16.446290136
 20
11.6142206472
 30
0.0
 10
16.4642540323
 20
11.526096356
 30
0.0
 10
16.4838777566
 20
11.4403409653
 30
0.0
 10
16.5051139185
 20
11.3571609989
 30
0.0
 10
16.5242480902
 20
11.2896753478
 30
0.0
 10
16.5403423305
 20
11.2371483072
 30
0.0
 10
16.5526956165
 20
11.1988054241
 30
0.0
 10
16.5654114358
 20
11.1612525154
 30
0.0
 10
16.5784821411
 20
11.1245120894
 30
0.0
 10
16.5918999217
 20
11.0886062789
 30
0.0
 10
16.6056566349
 20
11.0535566511
 30
0.0
 10
16.6197440607
 20
11.019384295
 30
0.0
 10
16.6341537072
 20
10.9861097456
 30
0.0
 10
16.6488768953
 20
10.9537529935
 30
0.0
 10
16.6639048362
 20
10.9223334996
 30
0.0
 10
16.6792284314
 20
10.8918701091
 30
0.0
 10
16.6948385641
 20
10.8623811454
 30
0.0
 10
16.7107258224
 20
10.833884291
 30
0.0
 10
16.726880707
 20
10.8063966552
 30
0.0
 10
16.7432935812
 20
10.7799347473
 30
0.0
 10
16.7599545729
 20
10.7545144091
 30
0.0
 10
16.776853825
 20
10.7301509357
 30
0.0
 10
16.7939811897
 20
10.7068588966
 30
0.0
 10
16.8113265323
 20
10.6846522959
 30
0.0
 10
16.8288795478
 20
10.6635444608
 30
0.0
 10
16.8466298016
 20
10.6435480443
 30
0.0
 10
16.8645668731
 20
10.624675136
 30
0.0
 10
16.8826800949
 20
10.6069370454
 30
0.0
 10
16.9009588792
 20
10.590344571
 30
0.0
 10
16.9193924371
 20
10.5749077602
 30
0.0
 10
16.9379699465
 20
10.5606360537
 30
0.0
 10
16.9566805389
 20
10.5475383114
 30
0.0
 10
16.9755131478
 20
10.5356226157
 30
0.0
 10
16.9944567453
 20
10.5248966152
 30
0.0
 10
17.0135000469
 20
10.51536712
 30
0.0
 10
17.0326317222
 20
10.5070404352
 30
0.0
 10
17.0518402486
 20
10.4999221673
 30
0.0
 10
17.0711138999
 20
10.4940171319
 30
0.0
 10
17.0904408286
 20
10.4893296195
 30
0.0
 10
17.1098089255
 20
10.4858628693
 30
0.0
 10
17.1292059788
 20
10.4836195447
 30
0.0
 10
17.1486196049
 20
10.4826012708
 30
0.0
 10
17.1680373588
 20
10.4828087894
 30
0.0
 10
17.1874467609
 20
10.4842420418
 30
0.0
 10
17.2068353948
 20
10.4868998084
 30
0.0
 10
17.2261909105
 20
10.4907802564
 30
0.0
 10
17.2455011411
 20
10.4958804409
 30
0.0
 10
17.2647540718
 20
10.5021967528
 30
0.0
 10
17.2839378616
 20
10.509724808
 30
0.0
 10
17.3030409154
 20
10.5184593818
 30
0.0
 10
17.322051705
 20
10.5283947758
 30
0.0
 10
17.3409589806
 20
10.5395243966
 30
0.0
 10
17.3597515166
 20
10.5518412016
 30
0.0
 10
17.3784182583
 20
10.5653374115
 30
0.0
 10
17.3969482679
 20
10.5800046093
 30
0.0
 10
17.4153306016
 20
10.5958338421
 30
0.0
 10
17.4335545457
 20
10.6128153627
 30
0.0
 10
17.4516093053
 20
10.6309389419
 30
0.0
 10
17.4694842945
 20
10.6501935797
 30
0.0
 10
17.487168954
 20
10.6705676846
 30
0.0
 10
17.5046527848
 20
10.6920490298
 30
0.0
 10
17.5219254946
 20
10.7146246654
 30
0.0
 10
17.5389767368
 20
10.7382810988
 30
0.0
 10
17.5557964407
 20
10.76300409
 30
0.0
 10
17.5723745363
 20
10.7887788352
 30
0.0
 10
17.5887011268
 20
10.8155898705
 30
0.0
 10
17.6047664951
 20
10.8434210907
 30
0.0
 10
17.6205609524
 20
10.8722558274
 30
0.0
 10
17.6360751188
 20
10.9020767359
 30
0.0
 10
17.6512996252
 20
10.9328659402
 30
0.0
 10
17.6662253681
 20
10.9646049343
 30
0.0
 10
17.6808433915
 20
10.997274644
 30
0.0
 10
17.6951448746
 20
11.0308554631
 30
0.0
 10
17.7091212873
 20
11.0653272011
 30
0.0
 10
17.7227641238
 20
11.1006690943
 30
0.0
 10
17.7360652705
 20
11.136859882
 30
0.0
 10
17.7490167781
 20
11.1738781277
 30
0.0
 10
17.7616106242
 20
11.211701054
 30
0.0
 10
17.7697007574
 20
11.237240708
 30
0.0
 10
17.7736864829
 20
11.2501385205
 30
0.0
  0
SPLINE
  5
2AD
100
AcDbEntity
  8
LAYER_FEATURE
100
AcDbSpline
 62
7
  6
CONTINUOUS
 70
0
 71
3
 72
76
 73
72
 74
0
 42
0.0000001
 43
0.0000001
 44
0.0000000001
 40
0.0
 40
0.0
 40
0.0
 40
0.0
 40
0.0163579319
 40
0.0330507458
 40
0.0500637514
 40
0.0673820247
 40
0.0849896778
 40
0.1028703205
 40
0.1210069566
 40
0.1393820792
 40
0.1579777039
 40
0.1767754155
 40
0.1957564115
 40
0.2149015422
 40
0.2341913514
 40
0.2536061154
 40
0.2731258816
 40
0.292730506
 40
0.3123996917
 40
0.3321130259
 40
0.3518500166
 40
0.3715901299
 40
0.391312826
 40
0.4109975959
 40
0.4306239989
 40
0.450171699
 40
0.4696205022
 40
0.4889503939
 40
0.5081415766
 40
0.5271745082
 40
0.5460299411
 40
0.5646889628
 40
0.5831330367
 40
0.601344044
 40
0.6193043266
 40
0.636996733
 40
0.6544046645
 40
0.6715121261
 40
0.6883037794
 40
0.7047649988
 40
0.7208819308
 40
0.7366415595
 40
0.7520317768
 40
0.7670414605
 40
0.7816605603
 40
0.7958801947
 40
0.8096927578
 40
0.8230920391
 40
0.836073359
 40
0.8486337234
 40
0.8607719989
 40
0.8724891115
 40
0.8837882728
 40
0.8946752324
 40
0.9051585573
 40
0.9152499392
 40
0.9249645208
 40
0.9343212306
 40
0.943343106
 40
0.9520575736
 40
0.9604966434
 40
0.9646249637
 40
0.9686985657
 40
0.9727227351
 40
0.976703008
 40
0.9806451669
 40
0.9845552064
 40
0.9884393115
 40
0.9923038239
 40
0.996155205
 40
1.0
 40
1.0
 40
1.0
 40
1.0
 10
16.5283912747
 20
13.8569013792
 30
0.0
 10
16.5222064289
 20
13.8368872107
 30
0.0
 10
16.5101241317
 20
13.7963200623
 30
0.0
 10
16.4930209347
 20
13.7345279058
 30
0.0
 10
16.4767701015
 20
13.6712355563
 30
0.0
 10
16.4613916469
 20
13.6065210965
 30
0.0
 10
16.4469044236
 20
13.5404634991
 30
0.0
 10
16.4333262115
 20
13.4731437987
 30
0.0
 10
16.420673684
 20
13.4046444346
 30
0.0
 10
16.408962375
 20
13.3350493524
 30
0.0
 10
16.3982066617
 20
13.2644438382
 30
0.0
 10
16.3884197482
 20
13.1929144271
 30
0.0
 10
16.3796136514
 20
13.1205487922
 30
0.0
 10
16.3717991848
 20
13.0474356361
 30
0.0
 10
16.3649859455
 20
12.9736645821
 30
0.0
 10
16.3591823021
 20
12.8993260639
 30
0.0
 10
16.354395385
 20
12.824511215
 30
0.0
 10
16.3506310708
 20
12.7493117564
 30
0.0
 10
16.3478939803
 20
12.6738198829
 30
0.0
 10
16.3461874737
 20
12.5981281484
 30
0.0
 10
16.3455136468
 20
12.5223293528
 30
0.0
 10
16.3458733279
 20
12.4465164275
 30
0.0
 10
16.3472660768
 20
12.3707823221
 30
0.0
 10
16.3496901863
 20
12.2952198893
 30
0.0
 10
16.3531426774
 20
12.2199217704
 30
0.0
 10
16.3576193076
 20
12.1449802806
 30
0.0
 10
16.3631145783
 20
12.0704872955
 30
0.0
 10
16.3696217405
 20
11.9965341384
 30
0.0
 10
16.3771328038
 20
11.9232114685
 30
0.0
 10
16.385638546
 20
11.850609169
 30
0.0
 10
16.3951285252
 20
11.7788162358
 30
0.0
 10
16.4055910868
 20
11.7079206661
 30
0.0
 10
16.4170133814
 20
11.6380093497
 30
0.0
 10
16.4293813837
 20
11.5691679624
 30
0.0
 10
16.4426799092
 20
11.5014808608
 30
0.0
 10
16.4568926337
 20
11.4350309786
 30
0.0
 10
16.4720021134
 20
11.3698997232
 30
0.0
 10
16.4879898091
 20
11.3061668739
 30
0.0
 10
16.5048361035
 20
11.2439104796
 30
0.0
 10
16.5225203296
 20
11.1832067614
 30
0.0
 10
16.5410208021
 20
11.1241300197
 30
0.0
 10
16.5603148446
 20
11.0667525414
 30
0.0
 10
16.5803788217
 20
11.0111445102
 30
0.0
 10
16.6011881715
 20
10.9573739175
 30
0.0
 10
16.6227174434
 20
10.9055064762
 30
0.0
 10
16.6449403302
 20
10.8556055339
 30
0.0
 10
16.6678297112
 20
10.8077319937
 30
0.0
 10
16.691357701
 20
10.7619442426
 30
0.0
 10
16.7154956959
 20
10.7182980822
 30
0.0
 10
16.7402144267
 20
10.6768466647
 30
0.0
 10
16.7654840144
 20
10.6376404362
 30
0.0
 10
16.7912740332
 20
10.6007270894
 30
0.0
 10
16.8175535686
 20
10.5661515229
 30
0.0
 10
16.8442912823
 20
10.5339558232
 30
0.0
 10
16.8714554843
 20
10.5041792708
 30
0.0
 10
16.8990141689
 20
10.4768583727
 30
0.0
 10
16.9269351006
 20
10.4520268961
 30
0.0
 10
16.9551856286
 20
10.4297160134
 30
0.0
 10
16.9837332787
 20
10.4099541546
 30
0.0
 10
17.0125433395
 20
10.3927679345
 30
0.0
 10
17.0369221818
 20
10.380522217
 30
0.0
 10
17.0564928868
 20
10.3720769518
 30
0.0
 10
17.0711062933
 20
10.3664450352
 30
0.0
 10
17.0857564931
 20
10.361471265
 30
0.0
 10
17.1004392136
 20
10.3571573014
 30
0.0
 10
17.1151497951
 20
10.353504503
 30
0.0
 10
17.1298836889
 20
10.3505141609
 30
0.0
 10
17.1446362349
 20
10.348187287
 30
0.0
 10
17.1594028892
 20
10.3465246203
 30
0.0
 10
17.1741786039
 20
10.3455268455
 30
0.0
 10
17.1840357817
 20
10.3453049972
 30
0.0
 10
17.1889594369
 20
10.3453049937
 30
0.0
  0
SPLINE
  5
2AE
100
AcDbEntity
  8
LAYER_FEATURE
100
AcDbSpline
 62
7
  6
CONTINUOUS
 70
0
 71
3
 72
22
 73
18
 74
0
 42
0.0000001
 43
0.0000001
 44
0.0000000001
 40
0.0
 40
0.0
 40
0.0
 40
0.0
 40
0.0373552172
 40
0.0758854344
 40
0.1166245276
 40
0.1604193522
 40
0.2078845952
 40
0.2594296429
 40
0.315292813
 40
0.3755720454
 40
0.4402538199
 40
0.5092364337
 40
0.5823453183
 40
0.6593470679
 40
0.7399569898
 40
0.8238483556
 40
1.0
 40
1.0
 40
1.0
 40
1.0
 10
13.1474700281
 20
13.0886920529
 30
0.0
 10
13.1470943176
 20
13.088692045
 30
0.0
 10
13.1463291265
 20
13.0886162681
 30
0.0
 10
13.1451990694
 20
13.0882793305
 30
0.0
 10
13.14408696
 20
13.0877234294
 30
0.0
 10
13.1429992875
 20
13.0869546606
 30
0.0
 10
13.14194071
 20
13.0859789001
 30
0.0
 10
13.1409159858
 20
13.0848022549
 30
0.0
 10
13.1399299904
 20
13.0834313928
 30
0.0
 10
13.1389877422
 20
13.0818739058
 30
0.0
 10
13.1380942443
 20
13.0801384369
 30
0.0
 10
13.1372544422
 20
13.0782346603
 30
0.0
 10
13.1364730512
 20
13.0761732712
 30
0.0
 10
13.135754511
 20
13.0739659606
 30
0.0
 10
13.1351029055
 20
13.0716252536
 30
0.0
 10
13.1343156944
 20
13.068290046
 30
0.0
 10
13.1338576537
 20
13.065712136
 30
0.0
 10
13.1336032709
 20
13.0639587993
 30
0.0
  0
SPLINE
  5
2AF
100
AcDbEntity
  8
LAYER_FEATURE
100
AcDbSpline
 62
7
  6
CONTINUOUS
 70
0
 71
3
 72
22
 73
18
 74
0
 42
0.0000001
 43
0.0000001
 44
0.0000000001
 40
0.0
 40
0.0
 40
0.0
 40
0.0
 40
0.0397255609
 40
0.0804019864
 40
0.1228981289
 40
0.1679490666
 40
0.2161337763
 40
0.2678758417
 40
0.3234636167
 40
0.3830675047
 40
0.4467637695
 40
0.5145494717
 40
0.5863570093
 40
0.6620663347
 40
0.7415056519
 40
0.8244750187
 40
1.0
 40
1.0
 40
1.0
 40
1.0
 10
13.1892933109
 20
13.3735562547
 30
0.0
 10
13.1889665033
 20
13.3735562525
 30
0.0
 10
13.1883037544
 20
13.3734993652
 30
0.0
 10
13.1873208109
 20
13.3732453372
 30
0.0
 10
13.1863490977
 20
13.3728249656
 30
0.0
 10
13.1853932991
 20
13.3722415443
 30
0.0
 10
13.1844569178
 20
13.3714986739
 30
0.0
 10
13.1835432733
 20
13.3706001536
 30
0.0
 10
13.1826557699
 20
13.3695499644
 30
0.0
 10
13.1817977342
 20
13.3683526744
 30
0.0
 10
13.1809726177
 20
13.3670133305
 30
0.0
 10
13.180183816
 20
13.3655376078
 30
0.0
 10
13.1794346009
 20
13.3639317936
 30
0.0
 10
13.1787282563
 20
13.3622027661
 30
0.0
 10
13.1780676965
 20
13.3603579499
 30
0.0
 10
13.1772364051
 20
13.3577045249
 30
0.0
 10
13.176715357
 20
13.3556404573
 30
0.0
 10
13.176405466
 20
13.3542301227
 30
0.0
  0
SPLINE
  5
2B0
100
AcDbEntity
  8
LAYER_FEATURE
100
AcDbSpline
 62
7
  6
CONTINUOUS
 70
0
 71
3
 72
22
 73
18
 74
0
 42
0.0000001
 43
0.0000001
 44
0.0000000001
 40
0.0
 40
0.0
 40
0.0
 40
0.0
 40
0.0426299206
 40
0.0860022193
 40
0.1308144839
 40
0.1776816946
 40
0.2271194827
 40
0.2795361481
 40
0.3352423483
 40
0.3944563707
 40
0.4573222301
 40
0.5239157825
 40
0.5942604237
 40
0.6683260101
 40
0.7460472047
 40
0.8273325044
 40
1.0
 40
1.0
 40
1.0
 40
1.0
 10
13.2479551652
 20
13.6381123368
 30
0.0
 10
13.2476771267
 20
13.6381123462
 30
0.0
 10
13.2471153927
 20
13.6380713975
 30
0.0
 10
13.2462793892
 20
13.6378882568
 30
0.0
 10
13.2454499685
 20
13.637584285
 30
0.0
 10
13.2446301076
 20
13.637161289
 30
0.0
 10
13.2438222524
 20
13.6366210848
 30
0.0
 10
13.2430286011
 20
13.6359658684
 30
0.0
 10
13.2422514121
 20
13.6351978102
 30
0.0
 10
13.2414927661
 20
13.634319478
 30
0.0
 10
13.2407549281
 20
13.6333335535
 30
0.0
 10
13.2400399757
 20
13.6322431455
 30
0.0
 10
13.2393501605
 20
13.6310515826
 30
0.0
 10
13.2386874971
 20
13.6297626384
 30
0.0
 10
13.2380540734
 20
13.6283802253
 30
0.0
 10
13.2372346266
 20
13.6263777331
 30
0.0
 10
13.2366960707
 20
13.6248094793
 30
0.0
 10
13.2363635742
 20
13.6237335203
 30
0.0
  0
SPLINE
  5
2B1
100
AcDbEntity
  8
LAYER_CHAMFER_FEAT
100
AcDbSpline
 62
7
  6
CONTINUOUS
 70
0
 71
3
 72
47
 73
43
 74
0
 42
0.0000001
 43
0.0000001
 44
0.0000000001
 40
0.0
 40
0.0
 40
0.0
 40
0.0
 40
0.0439483524
 40
0.0865518713
 40
0.1277984629
 40
0.1676844463
 40
0.2062110625
 40
0.2433870495
 40
0.2792289027
 40
0.3137617537
 40
0.3470203446
 40
0.3790500086
 40
0.4099077428
 40
0.4396632111
 40
0.4683996535
 40
0.4962145857
 40
0.5232201341
 40
0.5364610235
 40
0.5495481816
 40
0.5624995218
 40
0.5753336632
 40
0.5880699032
 40
0.6007280963
 40
0.6133285565
 40
0.6258919568
 40
0.6384391896
 40
0.6509912521
 40
0.663569108
 40
0.676193568
 40
0.6888851481
 40
0.7016639717
 40
0.7145496464
 40
0.7275611618
 40
0.7540289227
 40
0.7812098723
 40
0.8092272665
 40
0.838189875
 40
0.8681919007
 40
0.8993133901
 40
0.9316209903
 40
0.9651689194
 40
1.0
 40
1.0
 40
1.0
 40
1.0
 10
17.5903174908
 20
13.7797945865
 30
0.0
 10
17.5847030338
 20
13.7912356469
 30
0.0
 10
17.5733336064
 20
13.8136163101
 30
0.0
 10
17.555568098
 20
13.8461467479
 30
0.0
 10
17.5373744806
 20
13.8770814952
 30
0.0
 10
17.5187746653
 20
13.9063832949
 30
0.0
 10
17.4997903047
 20
13.9340175685
 30
0.0
 10
17.480443725
 20
13.9599514205
 30
0.0
 10
17.46075748
 20
13.9841540714
 30
0.0
 10
17.4407543947
 20
14.0065967118
 30
0.0
 10
17.4204575253
 20
14.0272525192
 30
0.0
 10
17.3998901196
 20
14.0460966134
 30
0.0
 10
17.3790756136
 20
14.0631060618
 30
0.0
 10
17.3580377669
 20
14.0782597535
 30
0.0
 10
17.3368002418
 20
14.09153847
 30
0.0
 10
17.3153884761
 20
14.1029243218
 30
0.0
 10
17.2973003068
 20
14.1108745621
 30
0.0
 10
17.2827931949
 20
14.1162457212
 30
0.0
 10
17.2719572614
 20
14.1197671275
 30
0.0
 10
17.2610988305
 20
14.1228064204
 30
0.0
 10
17.250220998
 20
14.1253625844
 30
0.0
 10
17.2393271485
 20
14.1274348243
 30
0.0
 10
17.2284206038
 20
14.1290224693
 30
0.0
 10
17.217504711
 20
14.1301248981
 30
0.0
 10
17.2065828483
 20
14.1307418684
 30
0.0
 10
17.1956583805
 20
14.1308730632
 30
0.0
 10
17.1847346923
 20
14.1305184821
 30
0.0
 10
17.1738151526
 20
14.1296782871
 30
0.0
 10
17.1629031482
 20
14.1283526505
 30
0.0
 10
17.1520020113
 20
14.1265421383
 30
0.0
 10
17.1411151482
 20
14.1242472915
 30
0.0
 10
17.130245706
 20
14.1214687865
 30
0.0
 10
17.1156998647
 20
14.1170964222
 30
0.0
 10
17.0975447707
 20
14.1103927013
 30
0.0
 10
17.0760152081
 20
14.1004751559
 30
0.0
 10
17.0546406643
 20
14.0886524876
 30
0.0
 10
17.0334470812
 20
14.0749411549
 30
0.0
 10
17.0124584169
 20
14.0593590152
 30
0.0
 10
16.9916986781
 20
14.0419258434
 30
0.0
 10
16.9711913241
 20
14.022663027
 30
0.0
 10
16.9509602408
 20
14.0015945181
 30
0.0
 10
16.9379200867
 20
13.9866456762
 30
0.0
 10
16.9314476832
 20
13.9788914087
 30
0.0
  0
SPLINE
  5
2B2
100
AcDbEntity
  8
02___PRT_ALL_AXES
100
AcDbSpline
 62
7
  6
CONTINUOUS
 70
0
 71
3
 72
70
 73
66
 74
0
 42
0.0000001
 43
0.0000001
 44
0.0000000001
 40
0.0
 40
0.0
 40
0.0
 40
0.0
 40
0.0038535251
 40
0.007740034
 40
0.0116649314
 40
0.0156334183
 40
0.0237194154
 40
0.0320366024
 40
0.0406180015
 40
0.0494925385
 40
0.0540481689
 40
0.0586860828
 40
0.0682176833
 40
0.0781057158
 40
0.0883642202
 40
0.0990041689
 40
0.1100337417
 40
0.1214585937
 40
0.1332821005
 40
0.1455055778
 40
0.1581284762
 40
0.1711485519
 40
0.1845620271
 40
0.1983637279
 40
0.212547206
 40
0.2271048436
 40
0.2420279463
 40
0.2573068341
 40
0.2729309196
 40
0.2888887768
 40
0.3051682028
 40
0.3217562742
 40
0.3386394049
 40
0.3558033974
 40
0.3732334881
 40
0.3909143898
 40
0.4088303325
 40
0.4269651071
 40
0.4453021033
 40
0.463824346
 40
0.4825145289
 40
0.5013550501
 40
0.5203280481
 40
0.5394154342
 40
0.5585989255
 40
0.597179454
 40
0.6359215492
 40
0.6746751768
 40
0.7132902249
 40
0.7324995289
 40
0.7516183758
 40
0.7706284284
 40
0.7895115352
 40
0.8082497618
 40
0.8268254232
 40
0.8452211181
 40
0.8634197657
 40
0.8814046396
 40
0.8991594057
 40
0.9166681527
 40
0.9339154382
 40
0.9508863616
 40
0.9675664263
 40
0.9839421789
 40
1.0
 40
1.0
 40
1.0
 40
1.0
 10
17.1439451462
 20
10.7392690541
 30
0.0
 10
17.1400444314
 20
10.7400563928
 30
0.0
 10
17.1322419825
 20
10.7418030893
 30
0.0
 10
17.1206027095
 20
10.7449187672
 30
0.0
 10
17.1089857928
 20
10.7485394061
 30
0.0
 10
17.0934359439
 20
10.7540723124
 30
0.0
 10
17.0740428741
 20
10.7622819077
 30
0.0
 10
17.0510694773
 20
10.774071632
 30
0.0
 10
17.0282728483
 20
10.7878456107
 30
0.0
 10
17.0096091454
 20
10.8008481664
 30
0.0
 10
16.9947942646
 20
10.8121940616
 30
0.0
 10
16.9797911413
 20
10.8243969383
 30
0.0
 10
16.9611947187
 20
10.8408903544
 30
0.0
 10
16.9393544389
 20
10.8624087075
 30
0.0
 10
16.9178130458
 20
10.885806305
 30
0.0
 10
16.8965947623
 20
10.9110559594
 30
0.0
 10
16.8757228889
 20
10.9381290794
 30
0.0
 10
16.8552206666
 20
10.9669949057
 30
0.0
 10
16.8351109848
 20
10.9976207322
 30
0.0
 10
16.8154164091
 20
11.0299718551
 30
0.0
 10
16.7961591196
 20
11.0640116048
 30
0.0
 10
16.7773608518
 20
11.0997013586
 30
0.0
 10
16.7590428828
 20
11.1370005977
 30
0.0
 10
16.7412259897
 20
11.1758669533
 30
0.0
 10
16.7239304192
 20
11.2162562522
 30
0.0
 10
16.7071758534
 20
11.2581225589
 30
0.0
 10
16.6909813629
 20
11.3014182218
 30
0.0
 10
16.6753654037
 20
11.3460939413
 30
0.0
 10
16.6603457868
 20
11.392098831
 30
0.0
 10
16.645939658
 20
11.4393804754
 30
0.0
 10
16.6321634689
 20
11.4878849834
 30
0.0
 10
16.6190329438
 20
11.5375570484
 30
0.0
 10
16.6065630811
 20
11.5883400219
 30
0.0
 10
16.5947681299
 20
11.6401759819
 30
0.0
 10
16.5836615765
 20
11.6930057978
 30
0.0
 10
16.5732561187
 20
11.7467691928
 30
0.0
 10
16.5635636427
 20
11.801404813
 30
0.0
 10
16.5545952279
 20
11.8568503048
 30
0.0
 10
16.5463611288
 20
11.913042388
 30
0.0
 10
16.5388707672
 20
11.9699169272
 30
0.0
 10
16.5321327097
 20
12.0274089978
 30
0.0
 10
16.5261546503
 20
12.085452976
 30
0.0
 10
16.5209434341
 20
12.1439825632
 30
0.0
 10
16.5165049822
 20
12.2029310691
 30
0.0
 10
16.5116153368
 20
12.2821436566
 30
0.0
 10
16.5074744085
 20
12.3817284192
 30
0.0
 10
16.505657065
 20
12.5015955301
 30
0.0
 10
16.5069908512
 20
12.6215046371
 30
0.0
 10
16.51072937
 20
12.7211795426
 30
0.0
 10
16.5152981148
 20
12.8005062245
 30
0.0
 10
16.5194982303
 20
12.8595698378
 30
0.0
 10
16.5244727688
 20
12.9182351468
 30
0.0
 10
16.5302160741
 20
12.9764353064
 30
0.0
 10
16.536721568
 20
13.0341038405
 30
0.0
 10
16.5439818167
 20
13.0911749238
 30
0.0
 10
16.5519885263
 20
13.1475834041
 30
0.0
 10
16.560732537
 20
13.2032648951
 30
0.0
 10
16.5702038455
 20
13.2581558484
 30
0.0
 10
16.5803916245
 20
13.3121936184
 30
0.0
 10
16.5912842291
 20
13.3653165332
 30
0.0
 10
16.6028692181
 20
13.4174640065
 30
0.0
 10
16.6151333407
 20
13.4685764283
 30
0.0
 10
16.6280625989
 20
13.5185958166
 30
0.0
 10
16.6416421686
 20
13.5674645679
 30
0.0
 10
16.6512147778
 20
13.5995628588
 30
0.0
 10
16.6561106498
 20
13.6154059065
 30
0.0
  0
SPLINE
  5
2B3
100
AcDbEntity
  8
LAYER_CHAMFER_FEAT
100
AcDbSpline
 62
7
  6
CONTINUOUS
 70
0
 71
3
 72
28
 73
24
 74
0
 42
0.0000001
 43
0.0000001
 44
0.0000000001
 40
0.0
 40
0.0
 40
0.0
 40
0.0
 40
0.0835099152
 40
0.1639062348
 40
0.2411638705
 40
0.3152793562
 40
0.386271481
 40
0.4541854331
 40
0.5190958474
 40
0.5811108569
 40
0.6403762273
 40
0.6970796105
 40
0.751454399
 40
0.7778611762
 40
0.8037957655
 40
0.8293011223
 40
0.8544231919
 40
0.8792107113
 40
0.9037150479
 40
0.927989834
 40
0.9520906791
 40
0.9760746805
 40
1.0
 40
1.0
 40
1.0
 40
1.0
 10
17.5205298517
 20
13.7327949719
 30
0.0
 10
17.5140007382
 20
13.7460999065
 30
0.0
 10
17.5007488041
 20
13.7720025542
 30
0.0
 10
17.4798692125
 20
13.8093750286
 30
0.0
 10
17.4583970577
 20
13.8444718477
 30
0.0
 10
17.4363695894
 20
13.877231435
 30
0.0
 10
17.4138242328
 20
13.907597096
 30
0.0
 10
17.3907991717
 20
13.9355160144
 30
0.0
 10
17.3673328835
 20
13.9609395381
 30
0.0
 10
17.3434643568
 20
13.983822901
 30
0.0
 10
17.3192322523
 20
14.0041254287
 30
0.0
 10
17.2946776345
 20
14.0218090196
 30
0.0
 10
17.2737758167
 20
14.0344575958
 30
0.0
 10
17.2569595786
 20
14.0431814088
 30
0.0
 10
17.2444178124
 20
14.0489875702
 30
0.0
 10
17.231830321
 20
14.0541172686
 30
0.0
 10
17.2192024658
 20
14.0585682314
 30
0.0
 10
17.2065398809
 20
14.0623381653
 30
0.0
 10
17.1938482463
 20
14.0654253326
 30
0.0
 10
17.1811332912
 20
14.0678280325
 30
0.0
 10
17.1684006958
 20
14.0695452092
 30
0.0
 10
17.1556567442
 20
14.0705757989
 30
0.0
 10
17.1471524451
 20
14.0708049885
 30
0.0
 10
17.1429063872
 20
14.0708049922
 30
0.0
  0
SPLINE
  5
2B4
100
AcDbEntity
  8
LAYER_CHAMFER_FEAT
100
AcDbSpline
 62
7
  6
CONTINUOUS
 70
0
 71
3
 72
96
 73
92
 74
0
 42
0.0000001
 43
0.0000001
 44
0.0000000001
 40
0.0
 40
0.0
 40
0.0
 40
0.0
 40
0.0057647055
 40
0.0113895548
 40
0.0168771949
 40
0.0222307601
 40
0.0274539243
 40
0.0325509106
 40
0.0375265463
 40
0.0423862662
 40
0.0517806096
 40
0.0563317973
 40
0.0607954555
 40
0.0651803748
 40
0.0694959816
 40
0.0737523199
 40
0.0779599732
 40
0.0821300055
 40
0.0862738547
 40
0.0904032346
 40
0.0945300101
 40
0.0986660742
 40
0.1028232223
 40
0.1070130262
 40
0.1112467273
 40
0.1155351279
 40
0.1198885186
 40
0.1243165993
 40
0.1288284457
 40
0.1381339372
 40
0.1429448098
 40
0.1478690129
 40
0.1529122658
 40
0.1580796589
 40
0.1633756758
 40
0.1688042264
 40
0.1743686786
 40
0.1800718866
 40
0.1859162299
 40
0.1919036327
 40
0.1980356075
 40
0.2043132652
 40
0.2107373617
 40
0.2173082977
 40
0.2240261687
 40
0.2308907554
 40
0.2379015754
 40
0.2450578659
 40
0.252358637
 40
0.2598026475
 40
0.2673884594
 40
0.275114409
 40
0.2829786604
 40
0.2909791746
 40
0.3073795987
 40
0.3242966586
 40
0.3417084975
 40
0.3595911558
 40
0.3779187808
 40
0.3966638161
 40
0.4157971728
 40
0.4352883886
 40
0.4551057746
 40
0.4752165545
 40
0.4955869962
 40
0.5161825388
 40
0.5369679142
 40
0.5579072664
 40
0.5789642675
 40
0.6001022324
 40
0.6212842311
 40
0.6424732014
 40
0.6636320601
 40
0.6847238144
 40
0.705711674
 40
0.7265591633
 40
0.7472302355
 40
0.7676893877
 40
0.787901779
 40
0.8078333512
 40
0.8274509535
 40
0.8467224724
 40
0.8656169678
 40
0.8841048165
 40
0.9021578668
 40
0.919749604
 40
0.9368553348
 40
0.953452382
 40
0.96952033
 40
0.9850412314
 40
1.0
 40
1.0
 40
1.0
 40
1.0
 10
16.9314476849
 20
11.0427185868
 30
0.0
 10
16.9357235284
 20
11.03759592
 30
0.0
 10
16.9443177748
 20
11.027595755
 30
0.0
 10
16.9575001692
 20
11.0131743395
 30
0.0
 10
16.9708074413
 20
10.9995246085
 30
0.0
 10
16.9842327553
 20
10.9866538371
 30
0.0
 10
16.9977693517
 20
10.9745685694
 30
0.0
 10
17.0114102581
 20
10.9632752837
 30
0.0
 10
17.0251492103
 20
10.9527794045
 30
0.0
 10
17.0433800666
 20
10.9400019461
 30
0.0
 10
17.0619956991
 20
10.9286526462
 30
0.0
 10
17.0809388096
 20
10.9188798952
 30
0.0
 10
17.0950601733
 20
10.9124484077
 30
0.0
 10
17.1092362248
 20
10.9068422885
 30
0.0
 10
17.1234600533
 20
10.902064677
 30
0.0
 10
17.1377240488
 20
10.8981182616
 30
0.0
 10
17.152020743
 20
10.8950055583
 30
0.0
 10
17.1663424463
 20
10.8927282795
 30
0.0
 10
17.1806814729
 20
10.8912880147
 30
0.0
 10
17.195030021
 20
10.8906854763
 30
0.0
 10
17.2093802827
 20
10.8909212265
 30
0.0
 10
17.2237244377
 20
10.8919949383
 30
0.0
 10
17.2380546723
 20
10.8939061107
 30
0.0
 10
17.2523632617
 20
10.8966533975
 30
0.0
 10
17.2666424917
 20
10.9002352644
 30
0.0
 10
17.2808848373
 20
10.9046494351
 30
0.0
 10
17.2950826623
 20
10.9098933646
 30
0.0
 10
17.309229005
 20
10.9159641516
 30
0.0
 10
17.3282046621
 20
10.9252503839
 30
0.0
 10
17.3468661495
 20
10.9361245534
 30
0.0
 10
17.3651498424
 20
10.9484388161
 30
0.0
 10
17.3789293322
 20
10.9585838025
 30
0.0
 10
17.3926137558
 20
10.9695287005
 30
0.0
 10
17.4061969093
 20
10.9812681798
 30
0.0
 10
17.4196717419
 20
10.9937959998
 30
0.0
 10
17.4330315015
 20
11.0071056847
 30
0.0
 10
17.4462694004
 20
11.021190348
 30
0.0
 10
17.4593787532
 20
11.0360427059
 30
0.0
 10
17.4723528737
 20
11.0516551251
 30
0.0
 10
17.4851852018
 20
11.0680195439
 30
0.0
 10
17.4978691546
 20
11.0851275742
 30
0.0
 10
17.5103983151
 20
11.1029703878
 30
0.0
 10
17.5227662209
 20
11.1215388466
 30
0.0
 10
17.5349666136
 20
11.1408233699
 30
0.0
 10
17.5469931706
 20
11.1608140806
 30
0.0
 10
17.5588398065
 20
11.1815006636
 30
0.0
 10
17.5705003579
 20
11.2028725178
 30
0.0
 10
17.5819689258
 20
11.2249186141
 30
0.0
 10
17.5932395246
 20
11.2476276468
 30
0.0
 10
17.6043064534
 20
11.2709878952
 30
0.0
 10
17.6151639252
 20
11.2949873729
 30
0.0
 10
17.6258064367
 20
11.3196136813
 30
0.0
 10
17.6362284603
 20
11.3448542202
 30
0.0
 10
17.6499362547
 20
11.3795961023
 30
0.0
 10
17.6664623469
 20
11.4244840438
 30
0.0
 10
17.6851697708
 20
11.4801513944
 30
0.0
 10
17.7028750013
 20
11.5379421256
 30
0.0
 10
17.7195414674
 20
11.5977370533
 30
0.0
 10
17.7351348114
 20
11.6594133276
 30
0.0
 10
17.749622841
 20
11.7228440148
 30
0.0
 10
17.7629756397
 20
11.7878985577
 30
0.0
 10
17.7751656238
 20
11.854442999
 30
0.0
 10
17.7861676062
 20
11.9223402784
 30
0.0
 10
17.7959588499
 20
11.9914505174
 30
0.0
 10
17.8045191176
 20
12.0616313127
 30
0.0
 10
17.8118307145
 20
12.1327380341
 30
0.0
 10
17.8178785259
 20
12.2046241266
 30
0.0
 10
17.822650049
 20
12.2771414151
 30
0.0
 10
17.8261354191
 20
12.3501404134
 30
0.0
 10
17.8283274304
 20
12.4234706346
 30
0.0
 10
17.829221551
 20
12.4969809042
 30
0.0
 10
17.8288159324
 20
12.5705196736
 30
0.0
 10
17.8271114131
 20
12.643935335
 30
0.0
 10
17.8241115172
 20
12.7170765365
 30
0.0
 10
17.8198224469
 20
12.7897924959
 30
0.0
 10
17.8142530694
 20
12.8619333142
 30
0.0
 10
17.8074148987
 20
12.9333502873
 30
0.0
 10
17.799322071
 20
13.0038962151
 30
0.0
 10
17.7899913155
 20
13.0734257083
 30
0.0
 10
17.7794419185
 20
13.1417954913
 30
0.0
 10
17.7676956826
 20
13.2088647021
 30
0.0
 10
17.7547768803
 20
13.2744951864
 30
0.0
 10
17.7407122008
 20
13.3385517887
 30
0.0
 10
17.7255306924
 20
13.4009026357
 30
0.0
 10
17.709263696
 20
13.4614194175
 30
0.0
 10
17.6919447794
 20
13.5199776534
 30
0.0
 10
17.6736096395
 20
13.5764569832
 30
0.0
 10
17.6542960784
 20
13.6307413274
 30
0.0
 10
17.6340436981
 20
13.6827195103
 30
0.0
 10
17.6128945187
 20
13.7322840892
 30
0.0
 10
17.5979454176
 20
13.7642505059
 30
0.0
 10
17.5903174908
 20
13.7797945865
 30
0.0
  0
SPLINE
  5
2B5
100
AcDbEntity
  8
02___PRT_ALL_AXES
100
AcDbSpline
 62
7
  6
CONTINUOUS
 70
0
 71
3
 72
39
 73
35
 74
0
 42
0.0000001
 43
0.0000001
 44
0.0000000001
 40
0.0
 40
0.0
 40
0.0
 40
0.0
 40
0.0431151641
 40
0.0855277556
 40
0.1272174794
 40
0.1681687462
 40
0.208366344
 40
0.2477956236
 40
0.2864435364
 40
0.3242983226
 40
0.3613495599
 40
0.397588375
 40
0.4330074455
 40
0.4676012263
 40
0.501365982
 40
0.5342999594
 40
0.5664035894
 40
0.5976795454
 40
0.6281330518
 40
0.6577719951
 40
0.6866071531
 40
0.7146524909
 40
0.7419252919
 40
0.7684465281
 40
0.7942410506
 40
0.8193378452
 40
0.8437703466
 40
0.8675765552
 40
0.8907993
 40
0.9134862995
 40
0.9356901667
 40
0.9574683657
 40
0.9788829057
 40
1.0
 40
1.0
 40
1.0
 40
1.0
 10
16.6561106498
 20
13.6154059065
 30
0.0
 10
16.65976245
 20
13.6272231362
 30
0.0
 10
16.6671795693
 20
13.6506120136
 30
0.0
 10
16.678744748
 20
13.6852279295
 30
0.0
 10
16.6906521301
 20
13.7190704221
 30
0.0
 10
16.7028936731
 20
13.7521167498
 30
0.0
 10
16.7154613587
 20
13.7843454821
 30
0.0
 10
16.7283470051
 20
13.815735387
 30
0.0
 10
16.7415420536
 20
13.8462657896
 30
0.0
 10
16.7550378538
 20
13.8759166277
 30
0.0
 10
16.7688255603
 20
13.9046684103
 30
0.0
 10
16.7828960662
 20
13.9325022598
 30
0.0
 10
16.7972402042
 20
13.959399866
 30
0.0
 10
16.8118485186
 20
13.9853435889
 30
0.0
 10
16.8267114606
 20
14.0103163904
 30
0.0
 10
16.8418193364
 20
14.0343018654
 30
0.0
 10
16.8571622202
 20
14.0572843076
 30
0.0
 10
16.8727301778
 20
14.0792485993
 30
0.0
 10
16.8885130289
 20
14.1001803571
 30
0.0
 10
16.9045005318
 20
14.1200658398
 30
0.0
 10
16.9206823647
 20
14.1388919563
 30
0.0
 10
16.9370480017
 20
14.1566463751
 30
0.0
 10
16.953586958
 20
14.1733173393
 30
0.0
 10
16.9702885518
 20
14.1888938584
 30
0.0
 10
16.987142059
 20
14.2033655897
 30
0.0
 10
17.0041367177
 20
14.2167228032
 30
0.0
 10
17.0212615723
 20
14.2289565592
 30
0.0
 10
17.0385056981
 20
14.2400584285
 30
0.0
 10
17.0558579644
 20
14.2500207457
 30
0.0
 10
17.0733071622
 20
14.2588364945
 30
0.0
 10
17.0908418803
 20
14.2664992092
 30
0.0
 10
17.1084507857
 20
14.2730033692
 30
0.0
 10
17.126121192
 20
14.2783437307
 30
0.0
 10
17.13800696
 20
14.2811423386
 30
0.0
 10
17.1439451466
 20
14.2823409197
 30
0.0
  0
SPLINE
  5
2B6
100
AcDbEntity
  8
LAYER_CHAMFER_FEAT
100
AcDbSpline
 62
7
  6
CONTINUOUS
 70
0
 71
3
 72
76
 73
72
 74
0
 42
0.0000001
 43
0.0000001
 44
0.0000000001
 40
0.0
 40
0.0
 40
0.0
 40
0.0
 40
0.0038601513
 40
0.0077283337
 40
0.0116125173
 40
0.0155205503
 40
0.0194601018
 40
0.0234386165
 40
0.0274632586
 40
0.0315408912
 40
0.0356780262
 40
0.0398808208
 40
0.0485043939
 40
0.0574550146
 40
0.0667679955
 40
0.0764726621
 40
0.0865927437
 40
0.0971468441
 40
0.108148937
 40
0.1196088478
 40
0.1315327018
 40
0.143923328
 40
0.1567806156
 40
0.1701018307
 40
0.1838818905
 40
0.1981136008
 40
0.2127878638
 40
0.2278938586
 40
0.2434191997
 40
0.2593500759
 40
0.2756713768
 40
0.2923668054
 40
0.3094189796
 40
0.3268095248
 40
0.3445191594
 40
0.3625277733
 40
0.3808145022
 40
0.3993577984
 40
0.4181354985
 40
0.4371248878
 40
0.4563027617
 40
0.4756454861
 40
0.4951290558
 40
0.5147291508
 40
0.5344211942
 40
0.5541804076
 40
0.5739818662
 40
0.5938005533
 40
0.613611415
 40
0.6333894137
 40
0.6531095835
 40
0.6727470846
 40
0.6922772582
 40
0.7116756821
 40
0.7309182263
 40
0.7499811101
 40
0.7688409599
 40
0.7874748694
 40
0.8058604614
 40
0.8239759503
 40
0.8418002084
 40
0.8593128338
 40
0.8764942241
 40
0.893325653
 40
0.9097893544
 40
0.9258686153
 40
0.9415478606
 40
0.9568128087
 40
0.971650435
 40
0.986049519
 40
1.0
 40
1.0
 40
1.0
 40
1.0
 10
17.1429063872
 20
10.9508049936
 30
0.0
 10
17.1468161744
 20
10.9508049902
 30
0.0
 10
17.1546452654
 20
10.9509992531
 30
0.0
 10
17.1663791718
 20
10.9518728554
 30
0.0
 10
17.1781042803
 20
10.9533284888
 30
0.0
 10
17.1898156844
 20
10.9553655049
 30
0.0
 10
17.2015090028
 20
10.9579829958
 30
0.0
 10
17.2131797087
 20
10.9611799641
 30
0.0
 10
17.2248234356
 20
10.96495495
 30
0.0
 10
17.2364356887
 20
10.969306527
 30
0.0
 10
17.2480123457
 20
10.9742329121
 30
0.0
 10
17.2635259655
 20
10.9816278152
 30
0.0
 10
17.2828306074
 20
10.9923505222
 30
0.0
 10
17.3055758374
 20
11.0073698827
 30
0.0
 10
17.3280684228
 20
11.0246268679
 30
0.0
 10
17.3502756396
 20
11.0440936231
 30
0.0
 10
17.3721667819
 20
11.0657404338
 30
0.0
 10
17.3937109284
 20
11.0895346709
 30
0.0
 10
17.4148775345
 20
11.1154409309
 30
0.0
 10
17.4356362985
 20
11.1434208773
 30
0.0
 10
17.4559572787
 20
11.1734332183
 30
0.0
 10
17.4758109597
 20
11.2054336898
 30
0.0
 10
17.4951683481
 20
11.2393750731
 30
0.0
 10
17.5140010408
 20
11.275207245
 30
0.0
 10
17.5322813012
 20
11.3128772377
 30
0.0
 10
17.5499821268
 20
11.3523293112
 30
0.0
 10
17.5670773093
 20
11.3935050329
 30
0.0
 10
17.5835414908
 20
11.436343365
 30
0.0
 10
17.5993502127
 20
11.4807807549
 30
0.0
 10
17.6144799708
 20
11.5267512305
 30
0.0
 10
17.62890825
 20
11.5741865049
 30
0.0
 10
17.6426135643
 20
11.623016084
 30
0.0
 10
17.6555754933
 20
11.6731673744
 30
0.0
 10
17.6677747157
 20
11.7245657947
 30
0.0
 10
17.6791930407
 20
11.7771348881
 30
0.0
 10
17.6898134358
 20
11.8307964376
 30
0.0
 10
17.6996200611
 20
11.8854705827
 30
0.0
 10
17.7085982889
 20
11.9410759421
 30
0.0
 10
17.7167347245
 20
11.9975297383
 30
0.0
 10
17.7240172276
 20
12.0547479225
 30
0.0
 10
17.7304349304
 20
12.1126453007
 30
0.0
 10
17.7359782543
 20
12.1711356612
 30
0.0
 10
17.7406389235
 20
12.2301319033
 30
0.0
 10
17.7444099832
 20
12.2895461671
 30
0.0
 10
17.7472858083
 20
12.3492899667
 30
0.0
 10
17.7492621078
 20
12.4092743232
 30
0.0
 10
17.7503359328
 20
12.4694098983
 30
0.0
 10
17.7505056801
 20
12.5296071273
 30
0.0
 10
17.749771095
 20
12.5897763528
 30
0.0
 10
17.7481332709
 20
12.6498279589
 30
0.0
 10
17.7455946519
 20
12.7096725057
 30
0.0
 10
17.7421590299
 20
12.7692208637
 30
0.0
 10
17.7378315337
 20
12.8283843477
 30
0.0
 10
17.7326186223
 20
12.8870748489
 30
0.0
 10
17.7265280748
 20
12.9452049663
 30
0.0
 10
17.7195689792
 20
13.0026881379
 30
0.0
 10
17.7117517177
 20
13.0594387699
 30
0.0
 10
17.7030879537
 20
13.1153723675
 30
0.0
 10
17.6935906174
 20
13.1704056628
 30
0.0
 10
17.6832738795
 20
13.224456739
 30
0.0
 10
17.6721531305
 20
13.2774451534
 30
0.0
 10
17.6602449565
 20
13.3292920578
 30
0.0
 10
17.6475671137
 20
13.3799203179
 30
0.0
 10
17.6341384995
 20
13.4292546302
 30
0.0
 10
17.6199791235
 20
13.4772216423
 30
0.0
 10
17.6051100786
 20
13.5237500503
 30
0.0
 10
17.589553502
 20
13.5687707704
 30
0.0
 10
17.5733325442
 20
13.6122168364
 30
0.0
 10
17.5564712474
 20
13.6540240886
 30
0.0
 10
17.5389948632
 20
13.6941297963
 30
0.0
 10
17.5267546601
 20
13.7201101461
 30
0.0
 10
17.5205298517
 20
13.7327949719
 30
0.0
  0
SPLINE
  5
2B7
100
AcDbEntity
  8
LAYER_CUT_FEAT
100
AcDbSpline
 62
7
  6
CONTINUOUS
 70
0
 71
3
 72
15
 73
11
 74
0
 42
0.0000001
 43
0.0000001
 44
0.0000000001
 40
0.0
 40
0.0
 40
0.0
 40
0.0
 40
0.1243128702
 40
0.2492199678
 40
0.3745231513
 40
0.5000231925
 40
0.6255203247
 40
0.7508147893
 40
0.8757073817
 40
1.0
 40
1.0
 40
1.0
 40
1.0
 10
16.5743320078
 20
12.7470426023
 30
0.0
 10
16.5756644193
 20
12.7274239663
 30
0.0
 10
16.5779944995
 20
12.6880689274
 30
0.0
 10
16.5804842195
 20
12.6288764154
 30
0.0
 10
16.5819740805
 20
12.5694622991
 30
0.0
 10
16.582461267
 20
12.5099382273
 30
0.0
 10
16.5819448676
 20
12.4504157808
 30
0.0
 10
16.5804258492
 20
12.3910065372
 30
0.0
 10
16.5779070785
 20
12.3318221366
 30
0.0
 10
16.5755576362
 20
12.2924737553
 30
0.0
 10
16.574215554
 20
12.2728589894
 30
0.0
  0
SPLINE
  5
2B8
100
AcDbEntity
  8
LAYER_FEATURE
100
AcDbSpline
 62
7
  6
CONTINUOUS
 70
0
 71
3
 72
39
 73
35
 74
0
 42
0.0000001
 43
0.0000001
 44
0.0000000001
 40
0.0
 40
0.0
 40
0.0
 40
0.0
 40
0.0220554903
 40
0.0441930748
 40
0.0664937184
 40
0.0890362048
 40
0.1118961891
 40
0.1351453807
 40
0.1588509753
 40
0.183075165
 40
0.2078749089
 40
0.2333018399
 40
0.2594022143
 40
0.2862171217
 40
0.3137826011
 40
0.3421298973
 40
0.3712857854
 40
0.4012727442
 40
0.4321093548
 40
0.4638105177
 40
0.4963877011
 40
0.5298492862
 40
0.5642006756
 40
0.5994446107
 40
0.6355813454
 40
0.6726087746
 40
0.7105227052
 40
0.7493168756
 40
0.7889832443
 40
0.829512067
 40
0.8708916049
 40
0.9131091671
 40
0.9561514235
 40
1.0
 40
1.0
 40
1.0
 40
1.0
 10
13.8731398585
 20
14.4888049768
 30
0.0
 10
13.8665030359
 20
14.4888049739
 30
0.0
 10
13.8532004888
 20
14.48836291
 30
0.0
 10
13.8332766809
 20
14.4863752481
 30
0.0
 10
13.8133804338
 20
14.4830644136
 30
0.0
 10
13.7935269337
 20
14.4784331403
 30
0.0
 10
13.7737297106
 20
14.4724851505
 30
0.0
 10
13.7540023949
 20
14.4652252834
 30
0.0
 10
13.7343583424
 20
14.4566590433
 30
0.0
 10
13.7148106474
 20
14.4467929349
 30
0.0
 10
13.6953721995
 20
14.4356342012
 30
0.0
 10
13.6760557779
 20
14.4231907655
 30
0.0
 10
13.6568738998
 20
14.409471468
 30
0.0
 10
13.6378390729
 20
14.3944857328
 30
0.0
 10
13.6189636355
 20
14.3782438265
 30
0.0
 10
13.6002598035
 20
14.3607567833
 30
0.0
 10
13.5817398047
 20
14.3420363042
 30
0.0
 10
13.563415632
 20
14.3220949911
 30
0.0
 10
13.5452992883
 20
14.3009461195
 30
0.0
 10
13.5274026435
 20
14.2786037713
 30
0.0
 10
13.5097373855
 20
14.2550828446
 30
0.0
 10
13.4923152066
 20
14.2303989254
 30
0.0
 10
13.4751475305
 20
14.204568454
 30
0.0
 10
13.4582457082
 20
14.1776085832
 30
0.0
 10
13.4416209523
 20
14.1495372116
 30
0.0
 10
13.4252842095
 20
14.1203730284
 30
0.0
 10
13.4092463841
 20
14.0901353975
 30
0.0
 10
13.3935180797
 20
14.0588444441
 30
0.0
 10
13.3781097367
 20
14.0265209689
 30
0.0
 10
13.3630316865
 20
13.9931865099
 30
0.0
 10
13.3482938694
 20
13.9588633077
 30
0.0
 10
13.3339060457
 20
13.9235738822
 30
0.0
 10
13.3198780455
 20
13.8873422451
 30
0.0
 10
13.3108546217
 20
13.8628003441
 30
0.0
 10
13.3064024709
 20
13.8503794731
 30
0.0
  0
SPLINE
  5
2B9
100
AcDbEntity
  8
LAYER_FEATURE
100
AcDbSpline
 62
7
  6
CONTINUOUS
 70
0
 71
3
 72
108
 73
104
 74
0
 42
0.0000001
 43
0.0000001
 44
0.0000000001
 40
0.0
 40
0.0
 40
0.0
 40
0.0
 40
0.0087235025
 40
0.0173113354
 40
0.025759687
 40
0.0340656482
 40
0.042226399
 40
0.0502391845
 40
0.0581015304
 40
0.065811191
 40
0.0733661593
 40
0.0807646824
 40
0.0880052835
 40
0.095086789
 40
0.1020083262
 40
0.1087693748
 40
0.1153697664
 40
0.1218097252
 40
0.1280898979
 40
0.1342113711
 40
0.1401757301
 40
0.1459850687
 40
0.1516420509
 40
0.1571499413
 40
0.1625126458
 40
0.1677347709
 40
0.1728216441
 40
0.1777793799
 40
0.1826148982
 40
0.1873359634
 40
0.191951207
 40
0.1964701227
 40
0.200903071
 40
0.2052612311
 40
0.2095565545
 40
0.2138016774
 40
0.2180098088
 40
0.2221946011
 40
0.2263699896
 40
0.2305500277
 40
0.2347487104
 40
0.238979804
 40
0.2432566828
 40
0.2475921932
 40
0.2519985255
 40
0.2564871317
 40
0.2610686521
 40
0.2657528757
 40
0.2705487297
 40
0.2754642644
 40
0.2805066896
 40
0.2856823828
 40
0.2909969361
 40
0.2964551969
 40
0.3020612979
 40
0.307818724
 40
0.3137303296
 40
0.319798403
 40
0.3260246951
 40
0.332410455
 40
0.3389564813
 40
0.3456631293
 40
0.3525303685
 40
0.359557789
 40
0.3667446366
 40
0.3740898404
 40
0.3815920165
 40
0.389249513
 40
0.3970604016
 40
0.4050225132
 40
0.413133446
 40
0.4213905725
 40
0.4297910704
 40
0.4383319102
 40
0.4470098895
 40
0.4558216275
 40
0.473831638
 40
0.4923322394
 40
0.5112910702
 40
0.5306738002
 40
0.5504443485
 40
0.5705650856
 40
0.5909970252
 40
0.6117000041
 40
0.6326328549
 40
0.6537535722
 40
0.6750194746
 40
0.6963873638
 40
0.7178136814
 40
0.7392546636
 40
0.7606664953
 40
0.7820054633
 40
0.803228111
 40
0.8242913942
 40
0.8451528374
 40
0.865770694
 40
0.8861041095
 40
0.9061132897
 40
0.9257596781
 40
0.9450061317
 40
0.9638171503
 40
0.9821589422
 40
1.0
 40
1.0
 40
1.0
 40
1.0
 10
16.5363959839
 20
13.7714714653
 30
0.0
 10
16.5403817094
 20
13.7843692778
 30
0.0
 10
16.5484718426
 20
13.8099089318
 30
0.0
 10
16.5610656887
 20
13.8477318581
 30
0.0
 10
16.5740171963
 20
13.8847501038
 30
0.0
 10
16.587318343
 20
13.9209408915
 30
0.0
 10
16.6009611795
 20
13.9562827847
 30
0.0
 10
16.6149375922
 20
13.9907545227
 30
0.0
 10
16.6292390753
 20
14.0243353419
 30
0.0
 10
16.6438570987
 20
14.0570050515
 30
0.0
 10
16.6587828416
 20
14.0887440456
 30
0.0
 10
16.674007348
 20
14.1195332499
 30
0.0
 10
16.6895215144
 20
14.1493541584
 30
0.0
 10
16.7053159717
 20
14.1781888951
 30
0.0
 10
16.72138134
 20
14.2060201153
 30
0.0
 10
16.7377079304
 20
14.2328311506
 30
0.0
 10
16.7542860261
 20
14.2586058958
 30
0.0
 10
16.77110573
 20
14.2833288871
 30
0.0
 10
16.7881569722
 20
14.3069853204
 30
0.0
 10
16.805429682
 20
14.329560956
 30
0.0
 10
16.8229135128
 20
14.3510423012
 30
0.0
 10
16.8405981723
 20
14.3714164061
 30
0.0
 10
16.8584731615
 20
14.3906710439
 30
0.0
 10
16.8765279211
 20
14.4087946231
 30
0.0
 10
16.8947518652
 20
14.4257761437
 30
0.0
 10
16.9131341989
 20
14.4416053765
 30
0.0
 10
16.9316642085
 20
14.4562725743
 30
0.0
 10
16.9503309502
 20
14.4697687842
 30
0.0
 10
16.9691234862
 20
14.4820855892
 30
0.0
 10
16.9880307618
 20
14.49321521
 30
0.0
 10
17.0070415514
 20
14.503150604
 30
0.0
 10
17.0261446052
 20
14.5118851778
 30
0.0
 10
17.045328395
 20
14.5194132331
 30
0.0
 10
17.0645813257
 20
14.5257295449
 30
0.0
 10
17.0838915563
 20
14.5308297294
 30
0.0
 10
17.103247072
 20
14.5347101774
 30
0.0
 10
17.1226357058
 20
14.5373679441
 30
0.0
 10
17.142045108
 20
14.5388011964
 30
0.0
 10
17.1614628619
 20
14.539008715
 30
0.0
 10
17.180876488
 20
14.5379904411
 30
0.0
 10
17.2002735413
 20
14.5357471165
 30
0.0
 10
17.2196416382
 20
14.5322803664
 30
0.0
 10
17.2389685669
 20
14.5275928539
 30
0.0
 10
17.2582422182
 20
14.5216878185
 30
0.0
 10
17.2774507446
 20
14.5145695506
 30
0.0
 10
17.2965824199
 20
14.5062428658
 30
0.0
 10
17.3156257215
 20
14.4967133707
 30
0.0
 10
17.334569319
 20
14.4859873701
 30
0.0
 10
17.3534019279
 20
14.4740716745
 30
0.0
 10
17.3721125203
 20
14.4609739321
 30
0.0
 10
17.3906900297
 20
14.4467022256
 30
0.0
 10
17.4091235876
 20
14.4312654148
 30
0.0
 10
17.4274023719
 20
14.4146729404
 30
0.0
 10
17.4455155937
 20
14.3969348498
 30
0.0
 10
17.4634526652
 20
14.3780619416
 30
0.0
 10
17.481202919
 20
14.358065525
 30
0.0
 10
17.4987559345
 20
14.3369576899
 30
0.0
 10
17.5161012771
 20
14.3147510892
 30
0.0
 10
17.5332286418
 20
14.2914590501
 30
0.0
 10
17.5501278939
 20
14.2670955767
 30
0.0
 10
17.5667888856
 20
14.2416752385
 30
0.0
 10
17.5832017598
 20
14.2152133306
 30
0.0
 10
17.5993566444
 20
14.1877256948
 30
0.0
 10
17.6152439027
 20
14.1592288404
 30
0.0
 10
17.6308540354
 20
14.1297398767
 30
0.0
 10
17.6461776306
 20
14.0992764862
 30
0.0
 10
17.6612055715
 20
14.0678569923
 30
0.0
 10
17.6759287596
 20
14.0355002402
 30
0.0
 10
17.6903384061
 20
14.0022256908
 30
0.0
 10
17.7044258319
 20
13.9680533347
 30
0.0
 10
17.7181825451
 20
13.9330037069
 30
0.0
 10
17.7316003257
 20
13.8970978964
 30
0.0
 10
17.744671031
 20
13.8603574704
 30
0.0
 10
17.7573868503
 20
13.8228045617
 30
0.0
 10
17.7697401362
 20
13.7844616787
 30
0.0
 10
17.7858343766
 20
13.731934638
 30
0.0
 10
17.8049685482
 20
13.6644489869
 30
0.0
 10
17.8262047102
 20
13.5812690205
 30
0.0
 10
17.8458284345
 20
13.4955136298
 30
0.0
 10
17.8637923307
 20
13.4073893386
 30
0.0
 10
17.880053076
 20
13.3171078141
 30
0.0
 10
17.8945714303
 20
13.224886164
 30
0.0
 10
17.9073123529
 20
13.1309461714
 30
0.0
 10
17.9182450854
 20
13.0355138119
 30
0.0
 10
17.9273432306
 20
12.9388186851
 30
0.0
 10
17.9345848153
 20
12.8410934607
 30
0.0
 10
17.9399523525
 20
12.7425733117
 30
0.0
 10
17.9434328862
 20
12.6434953422
 30
0.0
 10
17.9450180132
 20
12.5440980097
 30
0.0
 10
17.9447039056
 20
12.4446205459
 30
0.0
 10
17.9424913199
 20
12.3453023776
 30
0.0
 10
17.9383855936
 20
12.2463825456
 30
0.0
 10
17.9323966431
 20
12.1480991234
 30
0.0
 10
17.9245389348
 20
12.0506886386
 30
0.0
 10
17.9148314438
 20
11.9543854982
 30
0.0
 10
17.9032976089
 20
11.8594214209
 30
0.0
 10
17.8899652735
 20
11.7660248703
 30
0.0
 10
17.8748666188
 20
11.6744205035
 30
0.0
 10
17.8580380826
 20
11.5848285973
 30
0.0
 10
17.8395203015
 20
11.4974645702
 30
0.0
 10
17.8193578666
 20
11.4125382308
 30
0.0
 10
17.797599675
 20
11.3302543271
 30
0.0
 10
17.7818379748
 20
11.2765167578
 30
0.0
 10
17.7736864829
 20
11.2501385205
 30
0.0
  0
SPLINE
  5
2BA
100
AcDbEntity
  8
LAYER_FEATURE
100
AcDbSpline
 62
7
  6
CONTINUOUS
 70
0
 71
3
 72
40
 73
36
 74
0
 42
0.0000001
 43
0.0000001
 44
0.0000000001
 40
0.0
 40
0.0
 40
0.0
 40
0.0
 40
0.0443811139
 40
0.0879667349
 40
0.1307332134
 40
0.1726614725
 40
0.2137326659
 40
0.2539296163
 40
0.2932370197
 40
0.331641343
 40
0.369131063
 40
0.4056967748
 40
0.4413313788
 40
0.4760302962
 40
0.5097916243
 40
0.5426163818
 40
0.5745088053
 40
0.6054765756
 40
0.6355311223
 40
0.6646880074
 40
0.692967238
 40
0.7203936252
 40
0.746997217
 40
0.7728136618
 40
0.7978845448
 40
0.8101562374
 40
0.8222600457
 40
0.8459899735
 40
0.8691376753
 40
0.8917708177
 40
0.9139634692
 40
0.9357956004
 40
0.9573523562
 40
0.9787230683
 40
1.0
 40
1.0
 40
1.0
 40
1.0
 10
16.5283912747
 20
13.8569013792
 30
0.0
 10
16.5332625972
 20
13.8726649845
 30
0.0
 10
16.5431703547
 20
13.90383237
 30
0.0
 10
16.5586740455
 20
13.9498970159
 30
0.0
 10
16.5746759274
 20
13.99482443
 30
0.0
 10
16.5911631107
 20
14.0385786177
 30
0.0
 10
16.6081227032
 20
14.0811253868
 30
0.0
 10
16.6255412849
 20
14.122431093
 30
0.0
 10
16.6434051218
 20
14.1624631384
 30
0.0
 10
16.6617001418
 20
14.2011899765
 30
0.0
 10
16.6804119077
 20
14.238581094
 30
0.0
 10
16.6995257146
 20
14.2746070221
 30
0.0
 10
16.7190265551
 20
14.3092393824
 30
0.0
 10
16.7388990929
 20
14.3424509317
 30
0.0
 10
16.7591277683
 20
14.3742155298
 30
0.0
 10
16.7796967904
 20
14.4045081673
 30
0.0
 10
16.8005900777
 20
14.4333050383
 30
0.0
 10
16.8217913699
 20
14.4605834882
 30
0.0
 10
16.8432842502
 20
14.486322011
 30
0.0
 10
16.8650520607
 20
14.5105003351
 30
0.0
 10
16.8870780154
 20
14.5330993751
 30
0.0
 10
16.909345178
 20
14.5541011439
 30
0.0
 10
16.9318365999
 20
14.5734889845
 30
0.0
 10
16.9545345699
 20
14.591247008
 30
0.0
 10
16.9737430626
 20
14.6047706643
 30
0.0
 10
16.9891903509
 20
14.6147387014
 30
0.0
 10
17.0044794697
 20
14.6240196394
 30
0.0
 10
17.0236970125
 20
14.6346053338
 30
0.0
 10
17.0470473097
 20
14.6457116551
 30
0.0
 10
17.0705159235
 20
14.6551275121
 30
0.0
 10
17.0940837664
 20
14.662844018
 30
0.0
 10
17.1177317073
 20
14.6688538356
 30
0.0
 10
17.1414406203
 20
14.6731509387
 30
0.0
 10
17.1651889158
 20
14.6757310005
 30
0.0
 10
17.1810495251
 20
14.6763049978
 30
0.0
 10
17.1889594369
 20
14.6763049921
 30
0.0
  0
SPLINE
  5
2BB
100
AcDbEntity
  8
LAYER_FEATURE
100
AcDbSpline
 62
7
  6
CONTINUOUS
 70
0
 71
3
 72
76
 73
72
 74
0
 42
0.0000001
 43
0.0000001
 44
0.0000000001
 40
0.0
 40
0.0
 40
0.0
 40
0.0
 40
0.016357916
 40
0.0330507548
 40
0.050063749
 40
0.067382025
 40
0.0849896775
 40
0.10287032
 40
0.1210069572
 40
0.1393820801
 40
0.1579777045
 40
0.1767754155
 40
0.195756411
 40
0.2149015417
 40
0.2341913516
 40
0.2536061161
 40
0.2731258822
 40
0.2927305062
 40
0.3123996917
 40
0.3321130259
 40
0.3518500169
 40
0.3715901301
 40
0.3913128259
 40
0.4109975958
 40
0.430623999
 40
0.4501716997
 40
0.4696205031
 40
0.4889503943
 40
0.5081415763
 40
0.5271745074
 40
0.5460299407
 40
0.5646889635
 40
0.5831330381
 40
0.6013440449
 40
0.6193043266
 40
0.6369967321
 40
0.6544046637
 40
0.6715121263
 40
0.6883037806
 40
0.7047649998
 40
0.7208819312
 40
0.7366415593
 40
0.7520317764
 40
0.7670414605
 40
0.7816605608
 40
0.7958801951
 40
0.809692758
 40
0.8230920392
 40
0.8360733595
 40
0.8486337243
 40
0.8607719995
 40
0.8724891111
 40
0.8837882721
 40
0.894675232
 40
0.905158558
 40
0.9152499408
 40
0.9249645223
 40
0.9343212306
 40
0.9433431049
 40
0.9520575727
 40
0.9604966434
 40
0.9646249631
 40
0.9686985665
 40
0.9727227342
 40
0.9767030088
 40
0.9806451665
 40
0.9845552066
 40
0.9884393116
 40
0.9923038237
 40
0.9961552051
 40
1.0
 40
1.0
 40
1.0
 40
1.0
 10
13.1786534928
 20
13.8569013792
 30
0.0
 10
13.172468653
 20
13.8368872302
 30
0.0
 10
13.1603863557
 20
13.7963200699
 30
0.0
 10
13.1432831543
 20
13.7345279178
 30
0.0
 10
13.1270323206
 20
13.671235547
 30
0.0
 10
13.1116538647
 20
13.6065210998
 30
0.0
 10
13.0971666397
 20
13.5404635003
 30
0.0
 10
13.0835884272
 20
13.4731437996
 30
0.0
 10
13.070935904
 20
13.4046444332
 30
0.0
 10
13.0592245972
 20
13.3350493494
 30
0.0
 10
13.0484688828
 20
13.2644438361
 30
0.0
 10
13.0386819664
 20
13.1929144272
 30
0.0
 10
13.029875866
 20
13.1205487941
 30
0.0
 10
13.0220613976
 20
13.047435638
 30
0.0
 10
13.0152481629
 20
12.9736645821
 30
0.0
 10
13.0094445256
 20
12.8993260622
 30
0.0
 10
13.0046576093
 20
12.8245112133
 30
0.0
 10
13.0008932915
 20
12.7493117559
 30
0.0
 10
12.9981561955
 20
12.6738198833
 30
0.0
 10
12.9964496849
 20
12.5981281488
 30
0.0
 10
12.9957758608
 20
12.5223293528
 30
0.0
 10
12.9961355487
 20
12.4465164276
 30
0.0
 10
12.9975283025
 20
12.3707823229
 30
0.0
 10
12.9999524103
 20
12.2952198904
 30
0.0
 10
13.0034048954
 20
12.2199217704
 30
0.0
 10
13.0078815196
 20
12.1449802789
 30
0.0
 10
13.0133767903
 20
12.0704872933
 30
0.0
 10
13.0198839579
 20
11.996534138
 30
0.0
 10
13.0273950267
 20
11.9232114709
 30
0.0
 10
13.0359007712
 20
11.8506091728
 30
0.0
 10
13.0453907467
 20
11.7788162378
 30
0.0
 10
13.0558533015
 20
11.7079206644
 30
0.0
 10
13.0672755937
 20
11.6380093458
 30
0.0
 10
13.0796435993
 20
11.56916796
 30
0.0
 10
13.092942129
 20
11.5014808622
 30
0.0
 10
13.1071548562
 20
11.435030983
 30
0.0
 10
13.122264336
 20
11.3698997274
 30
0.0
 10
13.1382520271
 20
11.3061668744
 30
0.0
 10
13.1550983179
 20
11.2439104765
 30
0.0
 10
13.1727825457
 20
11.1832067586
 30
0.0
 10
13.1912830204
 20
11.1241300195
 30
0.0
 10
13.2105770645
 20
11.0667525438
 30
0.0
 10
13.2306410418
 20
11.0111445133
 30
0.0
 10
13.2514503904
 20
10.9573739191
 30
0.0
 10
13.2729796603
 20
10.905506476
 30
0.0
 10
13.2952025481
 20
10.8556055339
 30
0.0
 10
13.31809193
 20
10.8077319947
 30
0.0
 10
13.3416199198
 20
10.7619442436
 30
0.0
 10
13.365757914
 20
10.7182980817
 30
0.0
 10
13.3904766433
 20
10.6768466627
 30
0.0
 10
13.4157462313
 20
10.6376404358
 30
0.0
 10
13.4415362534
 20
10.6007270938
 30
0.0
 10
13.4678157891
 20
10.566151529
 30
0.0
 10
13.4945535018
 20
10.5339558268
 30
0.0
 10
13.5217177018
 20
10.5041792686
 30
0.0
 10
13.5492763843
 20
10.4768583651
 30
0.0
 10
13.5771973152
 20
10.4520268886
 30
0.0
 10
13.6054478483
 20
10.4297160181
 30
0.0
 10
13.6339954999
 20
10.4099541664
 30
0.0
 10
13.6628055616
 20
10.3927679503
 30
0.0
 10
13.6871843932
 20
10.3805222068
 30
0.0
 10
13.7067551122
 20
10.3720769706
 30
0.0
 10
13.7213685005
 20
10.3664450082
 30
0.0
 10
13.7360187233
 20
10.3614713014
 30
0.0
 10
13.7507014213
 20
10.3571572675
 30
0.0
 10
13.7654120196
 20
10.3535045275
 30
0.0
 10
13.7801459047
 20
10.3505141533
 30
0.0
 10
13.7948984522
 20
10.3481872778
 30
0.0
 10
13.8096651096
 20
10.3465246495
 30
0.0
 10
13.8244408201
 20
10.3455268082
 30
0.0
 10
13.8342979999
 20
10.3453050108
 30
0.0
 10
13.839221655
 20
10.3453050102
 30
0.0
  0
SPLINE
  5
2BC
100
AcDbEntity
  8
LAYER_FEATURE
100
AcDbSpline
 62
7
  6
CONTINUOUS
 70
0
 71
3
 72
48
 73
44
 74
0
 42
0.0000001
 43
0.0000001
 44
0.0000000001
 40
0.0
 40
0.0
 40
0.0
 40
0.0
 40
0.0469750368
 40
0.0928903314
 40
0.1377099632
 40
0.1814030068
 40
0.2239406172
 40
0.2652979024
 40
0.3054537107
 40
0.344391139
 40
0.3820979245
 40
0.4185669094
 40
0.4537965821
 40
0.4877916839
 40
0.5205639045
 40
0.5521326512
 40
0.5825258927
 40
0.6117810833
 40
0.6399461368
 40
0.6670804106
 40
0.6932556339
 40
0.7185566604
 40
0.7430819255
 40
0.7550905015
 40
0.7669482713
 40
0.7786712477
 40
0.7902761803
 40
0.8017804634
 40
0.813202095
 40
0.8245595547
 40
0.8358717229
 40
0.8471577616
 40
0.8584369973
 40
0.8697288001
 40
0.881052462
 40
0.8924270712
 40
0.9038713993
 40
0.9154037984
 40
0.9270420838
 40
0.9388034811
 40
0.9507045118
 40
0.9749832761
 40
1.0
 40
1.0
 40
1.0
 40
1.0
 10
13.254494609
 20
13.7714714653
 30
0.0
 10
13.260168045
 20
13.7898307108
 30
0.0
 10
13.2717516413
 20
13.8260236685
 30
0.0
 10
13.2900580868
 20
13.8793030408
 30
0.0
 10
13.309079974
 20
13.9309032416
 30
0.0
 10
13.3287936889
 20
13.9807605734
 30
0.0
 10
13.3491752658
 20
14.0288142925
 30
0.0
 10
13.370199697
 20
14.0750055199
 30
0.0
 10
13.3918413281
 20
14.1192778262
 30
0.0
 10
13.4140737557
 20
14.1615771402
 30
0.0
 10
13.4368699273
 20
14.2018518476
 30
0.0
 10
13.4602021829
 20
14.2400528375
 30
0.0
 10
13.4840423061
 20
14.2761335536
 30
0.0
 10
13.5083615896
 20
14.3100500351
 30
0.0
 10
13.5331308827
 20
14.3417609565
 30
0.0
 10
13.5583206526
 20
14.371227641
 30
0.0
 10
13.5839010565
 20
14.39841404
 30
0.0
 10
13.6098419684
 20
14.4232866943
 30
0.0
 10
13.6361130513
 20
14.4458146944
 30
0.0
 10
13.6626835704
 20
14.4659695387
 30
0.0
 10
13.6895229263
 20
14.4837252858
 30
0.0
 10
13.71659832
 20
14.499057711
 30
0.0
 10
13.7394936284
 20
14.5098737079
 30
0.0
 10
13.7578653213
 20
14.5172570022
 30
0.0
 10
13.7715849574
 20
14.5221395383
 30
0.0
 10
13.7853364092
 20
14.5264035904
 30
0.0
 10
13.7991155743
 20
14.5300479631
 30
0.0
 10
13.8129181368
 20
14.5330712514
 30
0.0
 10
13.8267397457
 20
14.5354725796
 30
0.0
 10
13.840576066
 20
14.537251029
 30
0.0
 10
13.8544227163
 20
14.5384060074
 30
0.0
 10
13.8682753078
 20
14.5389371777
 30
0.0
 10
13.8821294446
 20
14.5388442259
 30
0.0
 10
13.8959807285
 20
14.5381273417
 30
0.0
 10
13.9098247589
 20
14.5367866349
 30
0.0
 10
13.9236571551
 20
14.5348226504
 30
0.0
 10
13.9374735515
 20
14.5322360638
 30
0.0
 10
13.9512695928
 20
14.5290276738
 30
0.0
 10
13.965040946
 20
14.5251987247
 30
0.0
 10
13.9787834512
 20
14.5207502555
 30
0.0
 10
13.9971830754
 20
14.5139507561
 30
0.0
 10
14.0201232439
 20
14.5038630558
 30
0.0
 10
14.0379350489
 20
14.4943659952
 30
0.0
 10
14.0467919519
 20
14.4892396495
 30
0.0
  0
SPLINE
  5
2BD
100
AcDbEntity
  8
LAYER_FEATURE
100
AcDbSpline
 62
7
  6
CONTINUOUS
 70
0
 71
3
 72
82
 73
78
 74
0
 42
0.0000001
 43
0.0000001
 44
0.0000000001
 40
0.0
 40
0.0
 40
0.0
 40
0.0
 40
0.017126981
 40
0.0346373087
 40
0.052512447
 40
0.0707332001
 40
0.0892792566
 40
0.1081295596
 40
0.1272622648
 40
0.1466548525
 40
0.1662841837
 40
0.1861265683
 40
0.2061578283
 40
0.2263533586
 40
0.2466881874
 40
0.2671370352
 40
0.2876743727
 40
0.3082744779
 40
0.3289114927
 40
0.3495594794
 40
0.3701924765
 40
0.3907845547
 40
0.4113098734
 40
0.4317427364
 40
0.4520576492
 40
0.4722293764
 40
0.4922329993
 40
0.5120439751
 40
0.5316381972
 40
0.5509920566
 40
0.5700825058
 40
0.5888871244
 40
0.6073841879
 40
0.6255527394
 40
0.643372666
 40
0.6608247803
 40
0.677890907
 40
0.6945539771
 40
0.7107981311
 40
0.7266088326
 40
0.7419729945
 40
0.756879121
 40
0.7713174679
 40
0.7852802247
 40
0.7987617236
 40
0.8117586786
 40
0.8242704615
 40
0.8362994171
 40
0.8478512242
 40
0.8589353037
 40
0.8695652719
 40
0.8747160729
 40
0.8797606378
 40
0.8895424907
 40
0.8942884355
 40
0.8989427657
 40
0.9079936931
 40
0.9167385068
 40
0.9210119335
 40
0.9252274083
 40
0.9293918871
 40
0.933512668
 40
0.9375973443
 40
0.9416537685
 40
0.94569
 40
0.9497142486
 40
0.9537348164
 40
0.9577600336
 40
0.9617981935
 40
0.9658574935
 40
0.9699459695
 40
0.9740714479
 40
0.9782414893
 40
0.9824633525
 40
0.9867439567
 40
0.9910898534
 40
1.0
 40
1.0
 40
1.0
 40
1.0
 10
13.254494609
 20
13.7714714653
 30
0.0
 10
13.2481207968
 20
13.7508458015
 30
0.0
 10
13.235700345
 20
13.7089862288
 30
0.0
 10
13.2182254682
 20
13.6451396315
 30
0.0
 10
13.2017195361
 20
13.5796129663
 30
0.0
 10
13.186207125
 20
13.5125037522
 30
0.0
 10
13.1717112178
 20
13.4439110351
 30
0.0
 10
13.1582533161
 20
13.3739364254
 30
0.0
 10
13.1458533906
 20
13.302683468
 30
0.0
 10
13.1345298381
 20
13.2302576598
 30
0.0
 10
13.1242994639
 20
13.1567662338
 30
0.0
 10
13.1151774507
 20
13.0823180162
 30
0.0
 10
13.1071773383
 20
13.0070232588
 30
0.0
 10
13.100311001
 20
12.930993476
 30
0.0
 10
13.0945886294
 20
12.8543412775
 30
0.0
 10
13.0900187166
 20
12.7771802002
 30
0.0
 10
13.0866080453
 20
12.6996245387
 30
0.0
 10
13.084361678
 20
12.6217891747
 30
0.0
 10
13.0832829489
 20
12.5437894067
 30
0.0
 10
13.0833734593
 20
12.4657407776
 30
0.0
 10
13.0846330752
 20
12.3877589033
 30
0.0
 10
13.0870599272
 20
12.3099593004
 30
0.0
 10
13.0906504137
 20
12.2324572145
 30
0.0
 10
13.0953992061
 20
12.1553674481
 30
0.0
 10
13.1012992556
 20
12.0788041898
 30
0.0
 10
13.1083418037
 20
12.0028808434
 30
0.0
 10
13.1165163967
 20
11.9277098595
 30
0.0
 10
13.1258109014
 20
11.853402567
 30
0.0
 10
13.1362115229
 20
11.7800690078
 30
0.0
 10
13.1477028262
 20
11.7078177722
 30
0.0
 10
13.160267759
 20
11.6367558362
 30
0.0
 10
13.1738876777
 20
11.5669884015
 30
0.0
 10
13.1885423764
 20
11.4986187379
 30
0.0
 10
13.2042101178
 20
11.4317480274
 30
0.0
 10
13.2208676676
 20
11.366475212
 30
0.0
 10
13.2384903292
 20
11.3028968424
 30
0.0
 10
13.2570519848
 20
11.2411069322
 30
0.0
 10
13.2765251385
 20
11.1811968158
 30
0.0
 10
13.2968809629
 20
11.1232550087
 30
0.0
 10
13.318089348
 20
11.0673670725
 30
0.0
 10
13.340118956
 20
11.0136154839
 30
0.0
 10
13.362937279
 20
10.9620795088
 30
0.0
 10
13.3865107035
 20
10.9128350813
 30
0.0
 10
13.4108045794
 20
10.865954691
 30
0.0
 10
13.4357832995
 20
10.8215072754
 30
0.0
 10
13.4614103766
 20
10.7795581338
 30
0.0
 10
13.4876485611
 20
10.7401688166
 30
0.0
 10
13.5144598476
 20
10.70339717
 30
0.0
 10
13.5418059199
 20
10.6692969436
 30
0.0
 10
13.5696470614
 20
10.6379190572
 30
0.0
 10
13.5934734837
 20
10.6138295518
 30
0.0
 10
13.6127502305
 20
10.5960066846
 30
0.0
 10
13.6317582607
 20
10.5794868508
 30
0.0
 10
13.6511444058
 20
10.5641935692
 30
0.0
 10
13.6708927742
 20
10.5502358983
 30
0.0
 10
13.6903618753
 20
10.5375058748
 30
0.0
 10
13.7148993557
 20
10.5233513176
 30
0.0
 10
13.7400717687
 20
10.5114294749
 30
0.0
 10
13.7602737172
 20
10.5034286137
 30
0.0
 10
13.7753535243
 20
10.4982176945
 30
0.0
 10
13.7904705002
 20
10.4937535953
 30
0.0
 10
13.8056191628
 20
10.4900379056
 30
0.0
 10
13.8207937284
 20
10.4870722668
 30
0.0
 10
13.8359884243
 20
10.4848579017
 30
0.0
 10
13.8511974244
 20
10.483395712
 30
0.0
 10
13.8664148872
 20
10.4826864099
 30
0.0
 10
13.8816349435
 20
10.4827301664
 30
0.0
 10
13.8968517195
 20
10.4835271291
 30
0.0
 10
13.9120593628
 20
10.485076772
 30
0.0
 10
13.9272520075
 20
10.4873786206
 30
0.0
 10
13.9424238661
 20
10.4904315311
 30
0.0
 10
13.9575691243
 20
10.4942343586
 30
0.0
 10
13.9726821046
 20
10.4987854447
 30
0.0
 10
13.9877569814
 20
10.5040829059
 30
0.0
 10
14.0027885949
 20
10.5101248626
 30
0.0
 10
14.022929537
 20
10.5192441329
 30
0.0
 10
14.0377079846
 20
10.5270919081
 30
0.0
 10
14.0474189352
 20
10.532733904
 30
0.0
  0
SPLINE
  5
2BE
100
AcDbEntity
  8
LAYER_FEATURE
100
AcDbSpline
 62
7
  6
CONTINUOUS
 70
0
 71
3
 72
17
 73
13
 74
0
 42
0.0000001
 43
0.0000001
 44
0.0000000001
 40
0.0
 40
0.0
 40
0.0
 40
0.0
 40
0.1216319139
 40
0.2492224137
 40
0.3803412662
 40
0.5124258907
 40
0.6428837168
 40
0.7691775829
 40
0.8300167904
 40
0.8889340754
 40
0.945680134
 40
1.0
 40
1.0
 40
1.0
 40
1.0
 10
13.2317751476
 20
13.6062212329
 30
0.0
 10
13.2313942363
 20
13.6044876802
 30
0.0
 10
13.2307490988
 20
13.6009049904
 30
0.0
 10
13.2301255962
 20
13.5953865902
 30
0.0
 10
13.2298319036
 20
13.5896880503
 30
0.0
 10
13.2298750622
 20
13.5839403869
 30
0.0
 10
13.2302540325
 20
13.5782756638
 30
0.0
 10
13.2308493357
 20
13.5736759984
 30
0.0
 10
13.2314924047
 20
13.5701429339
 30
0.0
 10
13.2320447052
 20
13.5676266022
 30
0.0
 10
13.232669695
 20
13.5652255236
 30
0.0
 10
13.2331433087
 20
13.5636748922
 30
0.0
 10
13.2333926171
 20
13.5629224592
 30
0.0
  0
SPLINE
  5
2BF
100
AcDbEntity
  8
LAYER_FEATURE
100
AcDbSpline
 62
7
  6
CONTINUOUS
 70
0
 71
3
 72
11
 73
7
 74
0
 42
0.0000001
 43
0.0000001
 44
0.0000000001
 40
0.0
 40
0.0
 40
0.0
 40
0.0
 40
0.2632430318
 40
0.5183968628
 40
0.7643286454
 40
1.0
 40
1.0
 40
1.0
 40
1.0
 10
13.250783875
 20
13.4963879557
 30
0.0
 10
13.2501190782
 20
13.5005634827
 30
0.0
 10
13.2486730297
 20
13.5087652358
 30
0.0
 10
13.2461111811
 20
13.5207741166
 30
0.0
 10
13.2432019463
 20
13.5322474729
 30
0.0
 10
13.2409920248
 20
13.5396634272
 30
0.0
 10
13.2398273057
 20
13.5432650529
 30
0.0
  0
SPLINE
  5
2C0
100
AcDbEntity
  8
LAYER_FEATURE
100
AcDbSpline
 62
7
  6
CONTINUOUS
 70
0
 71
3
 72
11
 73
7
 74
0
 42
0.0000001
 43
0.0000001
 44
0.0000000001
 40
0.0
 40
0.0
 40
0.0
 40
0.0
 40
0.254697422
 40
0.50792656
 40
0.7571750543
 40
1.0
 40
1.0
 40
1.0
 40
1.0
 10
13.2518975693
 20
13.4798475919
 30
0.0
 10
13.2519226533
 20
13.4812564782
 30
0.0
 10
13.2519133577
 20
13.4840675389
 30
0.0
 10
13.2517227412
 20
13.4882534855
 30
0.0
 10
13.2513577319
 20
13.492361939
 30
0.0
 10
13.2509951049
 20
13.4950612404
 30
0.0
 10
13.250783875
 20
13.4963879557
 30
0.0
  0
SPLINE
  5
2C1
100
AcDbEntity
  8
LAYER_FEATURE
100
AcDbSpline
 62
7
  6
CONTINUOUS
 70
0
 71
3
 72
20
 73
16
 74
0
 42
0.0000001
 43
0.0000001
 44
0.0000000001
 40
0.0
 40
0.0
 40
0.0
 40
0.0
 40
0.0475963127
 40
0.0977296784
 40
0.1503335634
 40
0.205328026
 40
0.26260798
 40
0.3220518877
 40
0.3835230433
 40
0.4468713123
 40
0.511935022
 40
0.5785422763
 40
0.7156465811
 40
0.8566680073
 40
1.0
 40
1.0
 40
1.0
 40
1.0
 10
13.2289335264
 20
13.3753367025
 30
0.0
 10
13.2297964075
 20
13.3768172739
 30
0.0
 10
13.2314826343
 20
13.3799077735
 30
0.0
 10
13.2338386149
 20
13.3847828031
 30
0.0
 10
13.2360798085
 20
13.3900027695
 30
0.0
 10
13.2381985715
 20
13.395549688
 30
0.0
 10
13.2401877165
 20
13.4014049492
 30
0.0
 10
13.2420404688
 20
13.4075486162
 30
0.0
 10
13.2437505098
 20
13.4139598095
 30
0.0
 10
13.2453119697
 20
13.4206166972
 30
0.0
 10
13.2467195284
 20
13.42749664
 30
0.0
 10
13.2484006334
 20
13.4370275317
 30
0.0
 10
13.2500750312
 20
13.4493317908
 30
0.0
 10
13.2513914164
 20
13.464454032
 30
0.0
 10
13.2518057046
 20
13.4746878557
 30
0.0
 10
13.2518975693
 20
13.4798475919
 30
0.0
  0
LINE
  5
2C2
100
AcDbEntity
  8
LAYER_FEATURE
100
AcDbLine
 62
7
  6
CONTINUOUS
 10
13.2277693057
 20
13.3735273868
 11
13.2289335264
 21
13.3753367025
  0
SPLINE
  5
2C3
100
AcDbEntity
  8
LAYER_FEATURE
100
AcDbSpline
 62
7
  6
CONTINUOUS
 70
0
 71
3
 72
40
 73
36
 74
0
 42
0.0000001
 43
0.0000001
 44
0.0000000001
 40
0.0
 40
0.0
 40
0.0
 40
0.0
 40
0.0443810441
 40
0.08796675
 40
0.1307332286
 40
0.1726614593
 40
0.2137326677
 40
0.25392962
 40
0.293237015
 40
0.3316413435
 40
0.3691310668
 40
0.4056967699
 40
0.4413313785
 40
0.4760303015
 40
0.509791619
 40
0.5426163802
 40
0.5745088119
 40
0.6054765708
 40
0.6355311192
 40
0.6646880143
 40
0.692967235
 40
0.7203936207
 40
0.7469972234
 40
0.7728136608
 40
0.7978845396
 40
0.8101562369
 40
0.8222600505
 40
0.8459899742
 40
0.8691376706
 40
0.8917708203
 40
0.9139634707
 40
0.9357955976
 40
0.9573523567
 40
0.9787230691
 40
1.0
 40
1.0
 40
1.0
 40
1.0
 10
13.1786534928
 20
13.8569013792
 30
0.0
 10
13.1835248076
 20
13.8726649596
 30
0.0
 10
13.1934325703
 20
13.9038323493
 30
0.0
 10
13.2089362577
 20
13.9498970022
 30
0.0
 10
13.2249381447
 20
13.994824437
 30
0.0
 10
13.2414253346
 20
14.0385786168
 30
0.0
 10
13.2583849192
 20
14.0811253843
 30
0.0
 10
13.2758034988
 20
14.1224310949
 30
0.0
 10
13.2936673462
 20
14.162463135
 30
0.0
 10
13.3119623596
 20
14.2011899762
 30
0.0
 10
13.3306741186
 20
14.2385810972
 30
0.0
 10
13.3497879409
 20
14.2746070168
 30
0.0
 10
13.3692887742
 20
14.3092393813
 30
0.0
 10
13.3891613007
 20
14.3424509376
 30
0.0
 10
13.4093899957
 20
14.3742155226
 30
0.0
 10
13.4299590116
 20
14.4045081643
 30
0.0
 10
13.4508522831
 20
14.4333050475
 30
0.0
 10
13.4720535968
 20
14.4605834802
 30
0.0
 10
13.4935464742
 20
14.4863220047
 30
0.0
 10
13.515314265
 20
14.5105003479
 30
0.0
 10
13.5373402397
 20
14.5330993681
 30
0.0
 10
13.5596074051
 20
14.5541011324
 30
0.0
 10
13.5820988045
 20
14.5734890006
 30
0.0
 10
13.6047967908
 20
14.5912470039
 30
0.0
 10
13.6240052876
 20
14.6047706488
 30
0.0
 10
13.63945257
 20
14.6147386987
 30
0.0
 10
13.6547416791
 20
14.6240196571
 30
0.0
 10
13.6739592302
 20
14.6346053354
 30
0.0
 10
13.697309538
 20
14.6457116295
 30
0.0
 10
13.7207781342
 20
14.6551275301
 30
0.0
 10
13.7443459827
 20
14.6628440269
 30
0.0
 10
13.7679939315
 20
14.6688538049
 30
0.0
 10
13.7917028351
 20
14.6731509531
 30
0.0
 10
13.8154511337
 20
14.6757310179
 30
0.0
 10
13.8313117435
 20
14.6763049764
 30
0.0
 10
13.839221655
 20
14.6763049756
 30
0.0
  0
SPLINE
  5
2C4
100
AcDbEntity
  8
LAYER_FEATURE
100
AcDbSpline
 62
7
  6
CONTINUOUS
 70
0
 71
3
 72
18
 73
14
 74
0
 42
0.0000001
 43
0.0000001
 44
0.0000000001
 40
0.0
 40
0.0
 40
0.0
 40
0.0
 40
0.1306138326
 40
0.2647480557
 40
0.3997901723
 40
0.5330865423
 40
0.6620465073
 40
0.7241390029
 40
0.784251962
 40
0.8421205405
 40
0.8975025107
 40
0.9501943561
 40
1.0
 40
1.0
 40
1.0
 40
1.0
 10
13.1729403519
 20
13.3350902094
 30
0.0
 10
13.1726727052
 20
13.3332454502
 30
0.0
 10
13.1722555075
 20
13.3294871307
 30
0.0
 10
13.1719722873
 20
13.3237853362
 30
0.0
 10
13.1720259225
 20
13.3180382188
 30
0.0
 10
13.1724152706
 20
13.3123781982
 30
0.0
 10
13.1730190321
 20
13.3077851036
 30
0.0
 10
13.1736687253
 20
13.3042592786
 30
0.0
 10
13.1742256462
 20
13.3017497638
 30
0.0
 10
13.174855015
 20
13.299356287
 30
0.0
 10
13.1755532401
 20
13.2970924639
 30
0.0
 10
13.176316261
 20
13.2949715227
 30
0.0
 10
13.1768816386
 20
13.2936214481
 30
0.0
 10
13.1771756019
 20
13.2929742742
 30
0.0
  0
SPLINE
  5
2C5
100
AcDbEntity
  8
LAYER_FEATURE
100
AcDbSpline
 62
7
  6
CONTINUOUS
 70
0
 71
3
 72
11
 73
7
 74
0
 42
0.0000001
 43
0.0000001
 44
0.0000000001
 40
0.0
 40
0.0
 40
0.0
 40
0.0
 40
0.2678663378
 40
0.5244650965
 40
0.7687940962
 40
1.0
 40
1.0
 40
1.0
 40
1.0
 10
13.1984059234
 20
13.2342452177
 30
0.0
 10
13.1975001497
 20
13.2380802415
 30
0.0
 10
13.195585261
 20
13.2455566023
 30
0.0
 10
13.1923259877
 20
13.2563900335
 30
0.0
 10
13.1887562641
 20
13.2665556046
 30
0.0
 10
13.1861071797
 20
13.2730344727
 30
0.0
 10
13.1847285675
 20
13.2761437821
 30
0.0
  0
SPLINE
  5
2C6
100
AcDbEntity
  8
LAYER_FEATURE
100
AcDbSpline
 62
7
  6
CONTINUOUS
 70
0
 71
3
 72
11
 73
7
 74
0
 42
0.0000001
 43
0.0000001
 44
0.0000000001
 40
0.0
 40
0.0
 40
0.0
 40
0.0
 40
0.2603345497
 40
0.5154083141
 40
0.7627425542
 40
1.0
 40
1.0
 40
1.0
 40
1.0
 10
13.2005135196
 20
13.2183558788
 30
0.0
 10
13.2004529086
 20
13.2197473722
 30
0.0
 10
13.2002746487
 20
13.2225000875
 30
0.0
 10
13.1998327065
 20
13.2265581676
 30
0.0
 10
13.1992233172
 20
13.2304696673
 30
0.0
 10
13.1986976964
 20
13.233009858
 30
0.0
 10
13.1984059234
 20
13.2342452177
 30
0.0
  0
SPLINE
  5
2C7
100
AcDbEntity
  8
LAYER_FEATURE
100
AcDbSpline
 62
7
  6
CONTINUOUS
 70
0
 71
3
 72
19
 73
15
 74
0
 42
0.0000001
 43
0.0000001
 44
0.0000000001
 40
0.0
 40
0.0
 40
0.0
 40
0.0
 40
0.0511965193
 40
0.1045863208
 40
0.1600530221
 40
0.2174760439
 40
0.2767163157
 40
0.3376245113
 40
0.4000414145
 40
0.4637990225
 40
0.5946188492
 40
0.728622911
 40
0.8642726458
 40
1.0
 40
1.0
 40
1.0
 40
1.0
 10
13.1841988436
 20
13.1059067341
 30
0.0
 10
13.1849571423
 20
13.1077067711
 30
0.0
 10
13.1864276174
 20
13.1114174716
 30
0.0
 10
13.1884583431
 20
13.1171775904
 30
0.0
 10
13.1903547798
 20
13.1232326815
 30
0.0
 10
13.1921104379
 20
13.1295618674
 30
0.0
 10
13.1937193052
 20
13.1361437785
 30
0.0
 10
13.1951758723
 20
13.1429559228
 30
0.0
 10
13.1964751894
 20
13.1499751206
 30
0.0
 10
13.1980048928
 20
13.1596608129
 30
0.0
 10
13.1994857588
 20
13.1721146109
 30
0.0
 10
13.2005666285
 20
13.1873605635
 30
0.0
 10
13.2009511094
 20
13.2028269415
 30
0.0
 10
13.2007388612
 20
13.2131825373
 30
0.0
 10
13.2005135196
 20
13.2183558788
 30
0.0
  0
SPLINE
  5
2C8
100
AcDbEntity
  8
LAYER_FEATURE
100
AcDbSpline
 62
7
  6
CONTINUOUS
 70
0
 71
3
 72
14
 73
10
 74
0
 42
0.0000001
 43
0.0000001
 44
0.0000000001
 40
0.0
 40
0.0
 40
0.0
 40
0.0
 40
0.1020273593
 40
0.2102853377
 40
0.3250507401
 40
0.446512999
 40
0.5747759559
 40
0.7098558074
 40
1.0
 40
1.0
 40
1.0
 40
1.0
 10
13.1785564009
 20
13.0974320916
 30
0.0
 10
13.1788253049
 20
13.0976550638
 30
0.0
 10
13.1793582017
 20
13.0981407773
 30
0.0
 10
13.1801182808
 20
13.0989550641
 30
0.0
 10
13.1808597008
 20
13.0998735335
 30
0.0
 10
13.1815803741
 20
13.1008932668
 30
0.0
 10
13.1822783636
 20
13.1020114726
 30
0.0
 10
13.1831980759
 20
13.1036690612
 30
0.0
 10
13.1838131807
 20
13.1049912539
 30
0.0
 10
13.1841988436
 20
13.1059067341
 30
0.0
  0
SPLINE
  5
2C9
100
AcDbEntity
  8
LAYER_FEATURE
100
AcDbSpline
 62
7
  6
CONTINUOUS
 70
0
 71
3
 72
15
 73
11
 74
0
 42
0.0000001
 43
0.0000001
 44
0.0000000001
 40
0.0
 40
0.0
 40
0.0
 40
0.0
 40
0.1154310417
 40
0.2319889807
 40
0.3505454307
 40
0.4719390918
 40
0.5969425205
 40
0.7262441423
 40
0.8604388747
 40
1.0
 40
1.0
 40
1.0
 40
1.0
 10
13.1575374408
 20
13.088728541
 30
0.0
 10
13.1584294488
 20
13.0887455298
 30
0.0
 10
13.1602216956
 20
13.0888679291
 30
0.0
 10
13.1628980729
 20
13.0893141648
 30
0.0
 10
13.165565001
 20
13.0900227662
 30
0.0
 10
13.1682178736
 20
13.090992004
 30
0.0
 10
13.1708528681
 20
13.092220101
 30
0.0
 10
13.1734663445
 20
13.093704826
 30
0.0
 10
13.1760542937
 20
13.0954436267
 30
0.0
 10
13.1777260522
 20
13.096743576
 30
0.0
 10
13.1785564009
 20
13.0974320916
 30
0.0
  0
SPLINE
  5
2CA
100
AcDbEntity
  8
LAYER_FEATURE
100
AcDbSpline
 62
7
  6
CONTINUOUS
 70
0
 71
3
 72
19
 73
15
 74
0
 42
0.0000001
 43
0.0000001
 44
0.0000000001
 40
0.0
 40
0.0
 40
0.0
 40
0.0
 40
0.140040415
 40
0.2809342665
 40
0.4199241052
 40
0.5543064936
 40
0.6189780071
 40
0.6815655376
 40
0.7417947876
 40
0.7994172393
 40
0.8542119245
 40
0.9059922925
 40
0.9546239109
 40
1.0
 40
1.0
 40
1.0
 40
1.0
 10
13.131346792
 20
13.0436625482
 30
0.0
 10
13.1311964052
 20
13.0417531068
 30
0.0
 10
13.1310127471
 20
13.0379123895
 30
0.0
 10
13.1310769304
 20
13.0321661997
 30
0.0
 10
13.1314765868
 20
13.0265109579
 30
0.0
 10
13.1320888476
 20
13.0219245498
 30
0.0
 10
13.1327451174
 20
13.018406073
 30
0.0
 10
13.1333066465
 20
13.0159033685
 30
0.0
 10
13.1339404274
 20
13.0135175498
 30
0.0
 10
13.1346428003
 20
13.0112623087
 30
0.0
 10
13.135409689
 20
13.009150612
 30
0.0
 10
13.13623674
 20
13.0071943856
 30
0.0
 10
13.1371191893
 20
13.0054050151
 30
0.0
 10
13.13776367
 20
13.0042909173
 30
0.0
 10
13.1380955365
 20
13.0037664856
 30
0.0
  0
SPLINE
  5
2CB
100
AcDbEntity
  8
LAYER_FEATURE
100
AcDbSpline
 62
7
  6
CONTINUOUS
 70
0
 71
3
 72
13
 73
9
 74
0
 42
0.0000001
 43
0.0000001
 44
0.0000000001
 40
0.0
 40
0.0
 40
0.0
 40
0.0
 40
0.2727907657
 40
0.5308313388
 40
0.6540895602
 40
0.773407598
 40
0.888730056
 40
1.0
 40
1.0
 40
1.0
 40
1.0
 10
13.1626421606
 20
12.9542889803
 30
0.0
 10
13.1615208417
 20
12.9576919061
 30
0.0
 10
13.1591907052
 20
12.9642662717
 30
0.0
 10
13.1559119167
 20
12.9722118643
 30
0.0
 10
13.1531412861
 20
12.9781758257
 30
0.0
 10
13.151031149
 20
12.9823772483
 30
0.0
 10
13.1488602268
 20
12.9863692232
 30
0.0
 10
13.1473474576
 20
12.9889331132
 30
0.0
 10
13.1465808001
 20
12.9901773304
 30
0.0
  0
SPLINE
  5
2CC
100
AcDbEntity
  8
LAYER_FEATURE
100
AcDbSpline
 62
7
  6
CONTINUOUS
 70
0
 71
3
 72
11
 73
7
 74
0
 42
0.0000001
 43
0.0000001
 44
0.0000000001
 40
0.0
 40
0.0
 40
0.0
 40
0.0
 40
0.266294663
 40
0.5232779679
 40
0.7685640009
 40
1.0
 40
1.0
 40
1.0
 40
1.0
 10
13.1656917627
 20
12.9394419147
 30
0.0
 10
13.1655481996
 20
12.9407819471
 30
0.0
 10
13.1652079314
 20
12.9434093714
 30
0.0
 10
13.1645256568
 20
12.9472402943
 30
0.0
 10
13.1636870346
 20
12.9508593175
 30
0.0
 10
13.1630087289
 20
12.9531765362
 30
0.0
 10
13.1626421606
 20
12.9542889803
 30
0.0
  0
SPLINE
  5
2CD
100
AcDbEntity
  8
LAYER_FEATURE
100
AcDbSpline
 62
7
  6
CONTINUOUS
 70
0
 71
3
 72
18
 73
14
 74
0
 42
0.0000001
 43
0.0000001
 44
0.0000000001
 40
0.0
 40
0.0
 40
0.0
 40
0.0
 40
0.054780671
 40
0.1113604502
 40
0.1695915273
 40
0.2293276744
 40
0.2904081473
 40
0.3526660305
 40
0.4800064808
 40
0.6099148106
 40
0.7408939576
 40
0.8714246086
 40
1.0
 40
1.0
 40
1.0
 40
1.0
 10
13.156428175
 20
12.8218233858
 30
0.0
 10
13.1570643587
 20
12.823895705
 30
0.0
 10
13.1582854745
 20
12.8281308463
 30
0.0
 10
13.1599412118
 20
12.8346354455
 30
0.0
 10
13.1614463319
 20
12.8413776078
 30
0.0
 10
13.162795683
 20
12.8483340676
 30
0.0
 10
13.1639846505
 20
12.8554813033
 30
0.0
 10
13.1653608192
 20
12.8653061094
 30
0.0
 10
13.1666462021
 20
12.8778894949
 30
0.0
 10
13.1674897651
 20
12.8932344674
 30
0.0
 10
13.1676340426
 20
12.9087283836
 30
0.0
 10
13.1670770713
 20
12.9241597808
 30
0.0
 10
13.1662337554
 20
12.9343828994
 30
0.0
 10
13.1656917627
 20
12.9394419147
 30
0.0
  0
SPLINE
  5
2CE
100
AcDbEntity
  8
LAYER_FEATURE
100
AcDbSpline
 62
7
  6
CONTINUOUS
 70
0
 71
3
 72
13
 73
9
 74
0
 42
0.0000001
 43
0.0000001
 44
0.0000000001
 40
0.0
 40
0.0
 40
0.0
 40
0.0
 40
0.1047984946
 40
0.2155254129
 40
0.3321514364
 40
0.4546168246
 40
0.7165695654
 40
1.0
 40
1.0
 40
1.0
 40
1.0
 10
13.1513714623
 20
12.8111864369
 30
0.0
 10
13.1516232307
 20
12.8115143711
 30
0.0
 10
13.1521186363
 20
12.8122061786
 30
0.0
 10
13.1528190794
 20
12.8133143238
 30
0.0
 10
13.1534950627
 20
12.8145181472
 30
0.0
 10
13.154381034
 20
12.8162857937
 30
0.0
 10
13.1554066784
 20
12.8187158717
 30
0.0
 10
13.1561000289
 20
12.8207544754
 30
0.0
 10
13.156428175
 20
12.8218233858
 30
0.0
  0
SPLINE
  5
2CF
100
AcDbEntity
  8
LAYER_FEATURE
100
AcDbSpline
 62
7
  6
CONTINUOUS
 70
0
 71
3
 72
15
 73
11
 74
0
 42
0.0000001
 43
0.0000001
 44
0.0000000001
 40
0.0
 40
0.0
 40
0.0
 40
0.0
 40
0.1088398817
 40
0.2214851339
 40
0.3384196679
 40
0.4600699908
 40
0.5867968349
 40
0.7188923637
 40
0.856581817
 40
1.0
 40
1.0
 40
1.0
 40
1.0
 10
13.1311414873
 20
12.7941464489
 30
0.0
 10
13.1320336737
 20
12.7945267584
 30
0.0
 10
13.1338164848
 20
12.795379614
 30
0.0
 10
13.1364268701
 20
12.7968951317
 30
0.0
 10
13.1390117001
 20
12.7986646358
 30
0.0
 10
13.1415671341
 20
12.8006849659
 30
0.0
 10
13.1440897893
 20
12.8029531951
 30
0.0
 10
13.146576358
 20
12.8054659918
 30
0.0
 10
13.1490231116
 20
12.8082195582
 30
0.0
 10
13.15059321
 20
12.8101727451
 30
0.0
 10
13.1513714623
 20
12.8111864369
 30
0.0
  0
SPLINE
  5
2D0
100
AcDbEntity
  8
LAYER_FEATURE
100
AcDbSpline
 62
7
  6
CONTINUOUS
 70
0
 71
3
 72
22
 73
18
 74
0
 42
0.0000001
 43
0.0000001
 44
0.0000000001
 40
0.0
 40
0.0
 40
0.0
 40
0.0
 40
0.0367031911
 40
0.0761818642
 40
0.1189797043
 40
0.1654722652
 40
0.2158703273
 40
0.2702590884
 40
0.3286249577
 40
0.3908724958
 40
0.4568408541
 40
0.5263162406
 40
0.5990395891
 40
0.6747153191
 40
0.7530147437
 40
0.8335821688
 40
1.0
 40
1.0
 40
1.0
 40
1.0
 10
13.1212666855
 20
12.7900928248
 30
0.0
 10
13.1208838515
 20
12.7899416946
 30
0.0
 10
13.1201163766
 20
12.7895562342
 30
0.0
 10
13.1190252661
 20
12.7887813406
 30
0.0
 10
13.1179632412
 20
12.787797809
 30
0.0
 10
13.1169355835
 20
12.7866121149
 30
0.0
 10
13.1159470254
 20
12.7852309302
 30
0.0
 10
13.1150026883
 20
12.7836619847
 30
0.0
 10
13.1141076562
 20
12.7819140198
 30
0.0
 10
13.1132668968
 20
12.7799968672
 30
0.0
 10
13.11248515
 20
12.7779213993
 30
0.0
 10
13.1117669175
 20
12.7756994428
 30
0.0
 10
13.1111163395
 20
12.7733437128
 30
0.0
 10
13.110537183
 20
12.7708677701
 30
0.0
 10
13.1100327934
 20
12.7682858519
 30
0.0
 10
13.1094578146
 20
12.7646832373
 30
0.0
 10
13.1091574475
 20
12.7619274208
 30
0.0
 10
13.109010921
 20
12.7600669933
 30
0.0
  0
SPLINE
  5
2D1
100
AcDbEntity
  8
LAYER_FEATURE
100
AcDbSpline
 62
7
  6
CONTINUOUS
 70
0
 71
3
 72
59
 73
55
 74
0
 42
0.0000001
 43
0.0000001
 44
0.0000000001
 40
0.0
 40
0.0
 40
0.0
 40
0.0
 40
0.0415589937
 40
0.0832552277
 40
0.1249896964
 40
0.1666626501
 40
0.2081748246
 40
0.2494275768
 40
0.2903233396
 40
0.330766037
 40
0.3706615101
 40
0.4099179609
 40
0.4484464013
 40
0.4861611249
 40
0.5046879772
 40
0.522981024
 40
0.541030708
 40
0.5588277712
 40
0.5763632982
 40
0.593628705
 40
0.6106157821
 40
0.6273167205
 40
0.64372411
 40
0.6598310021
 40
0.6756309152
 40
0.6911178606
 40
0.7062864082
 40
0.7211316841
 40
0.7356494336
 40
0.749836072
 40
0.7636887005
 40
0.7772051993
 40
0.7903842629
 40
0.8032254557
 40
0.8157293193
 40
0.8278974094
 40
0.8397324011
 40
0.8512381932
 40
0.8624199726
 40
0.8732843597
 40
0.8838395016
 40
0.8940951766
 40
0.9040629452
 40
0.9137562274
 40
0.92319042
 40
0.9323829919
 40
0.9413535127
 40
0.9501236969
 40
0.9587173584
 40
0.9671603072
 40
0.9754802009
 40
0.9837062843
 40
0.9918690787
 40
1.0
 40
1.0
 40
1.0
 40
1.0
 10
13.109010921
 20
12.7600669933
 30
0.0
 10
13.1072907206
 20
12.72529282
 30
0.0
 10
13.1045751074
 20
12.6555913672
 30
0.0
 10
13.102667892
 20
12.5508895889
 30
0.0
 10
13.1029221323
 20
12.4460748206
 30
0.0
 10
13.105337195
 20
12.3414419051
 30
0.0
 10
13.109906254
 20
12.2372847342
 30
0.0
 10
13.1166164178
 20
12.1338958889
 30
0.0
 10
13.1254487585
 20
12.0315657509
 30
0.0
 10
13.1363783796
 20
11.9305816986
 30
0.0
 10
13.149374476
 20
11.8312273292
 30
0.0
 10
13.1644004015
 20
11.7337814354
 30
0.0
 10
13.1814137731
 20
11.6385179928
 30
0.0
 10
13.1973003722
 20
11.5607190773
 30
0.0
 10
13.210984898
 20
11.4997929427
 30
0.0
 10
13.2216530281
 20
11.4550786712
 30
0.0
 10
13.2327788429
 20
11.4111064796
 30
0.0
 10
13.2443546033
 20
11.3679071898
 30
0.0
 10
13.2563721046
 20
11.3255111555
 30
0.0
 10
13.2688229361
 20
11.2839481555
 30
0.0
 10
13.2816983469
 20
11.2432473801
 30
0.0
 10
13.2949892482
 20
11.2034373975
 30
0.0
 10
13.3086863556
 20
11.164546171
 30
0.0
 10
13.3227800106
 20
11.1266009887
 30
0.0
 10
13.33726031
 20
11.0896284773
 30
0.0
 10
13.3521171353
 20
11.0536545933
 30
0.0
 10
13.3673400041
 20
11.0187045504
 30
0.0
 10
13.3829182756
 20
10.9848028689
 30
0.0
 10
13.3988410421
 20
10.95197332
 30
0.0
 10
13.415097105
 20
10.9202388909
 30
0.0
 10
13.4316751508
 20
10.8896218403
 30
0.0
 10
13.4485635586
 20
10.8601435952
 30
0.0
 10
13.4657505267
 20
10.8318247855
 30
0.0
 10
13.4832241313
 20
10.8046852631
 30
0.0
 10
13.5009721507
 20
10.7787439844
 30
0.0
 10
13.5189822914
 20
10.7540191186
 30
0.0
 10
13.5372420897
 20
10.7305279847
 30
0.0
 10
13.5557388658
 20
10.7082869921
 30
0.0
 10
13.5744599275
 20
10.6873117791
 30
0.0
 10
13.5933923687
 20
10.667617056
 30
0.0
 10
13.612523184
 20
10.6492166758
 30
0.0
 10
13.6318393426
 20
10.6321237196
 30
0.0
 10
13.6513275901
 20
10.6163502999
 30
0.0
 10
13.6709746555
 20
10.6019077779
 30
0.0
 10
13.6907671444
 20
10.5888066946
 30
0.0
 10
13.7106914571
 20
10.5770566571
 30
0.0
 10
13.7307339349
 20
10.5666666009
 30
0.0
 10
13.7508806534
 20
10.5576445165
 30
0.0
 10
13.77111746
 20
10.5499975164
 30
0.0
 10
13.7914300237
 20
10.5437319482
 30
0.0
 10
13.8118035424
 20
10.53885299
 30
0.0
 10
13.8322234192
 20
10.535364896
 30
0.0
 10
13.8526732025
 20
10.5332708278
 30
0.0
 10
13.8663280525
 20
10.5328049872
 30
0.0
 10
13.8731398585
 20
10.5328049968
 30
0.0
  0
SPLINE
  5
2D2
100
AcDbEntity
  8
LAYER_FEATURE
100
AcDbSpline
 62
7
  6
CONTINUOUS
 70
0
 71
3
 72
17
 73
13
 74
0
 42
0.0000001
 43
0.0000001
 44
0.0000000001
 40
0.0
 40
0.0
 40
0.0
 40
0.0
 40
0.0553114546
 40
0.1129409975
 40
0.1726232349
 40
0.2341007807
 40
0.3612668174
 40
0.4920289546
 40
0.6238353867
 40
0.7540988461
 40
0.8802819441
 40
1.0
 40
1.0
 40
1.0
 40
1.0
 10
13.3064024709
 20
13.8503794731
 30
0.0
 10
13.3061636486
 20
13.8496066437
 30
0.0
 10
13.305711459
 20
13.8480174615
 30
0.0
 10
13.3051186749
 20
13.8455629578
 30
0.0
 10
13.3046000782
 20
13.8429996321
 30
0.0
 10
13.3040049812
 20
13.8394165272
 30
0.0
 10
13.3034711605
 20
13.8347725448
 30
0.0
 10
13.3031670589
 20
13.8290778048
 30
0.0
 10
13.3031996915
 20
13.8233296837
 30
0.0
 10
13.3035683082
 20
13.8176602329
 30
0.0
 10
13.3042640878
 20
13.812199777
 30
0.0
 10
13.3049575568
 20
13.8086673744
 30
0.0
 10
13.3053623325
 20
13.8069640205
 30
0.0
  0
SPLINE
  5
2D3
100
AcDbEntity
  8
LAYER_FEATURE
100
AcDbSpline
 62
7
  6
CONTINUOUS
 70
0
 71
3
 72
11
 73
7
 74
0
 42
0.0000001
 43
0.0000001
 44
0.0000000001
 40
0.0
 40
0.0
 40
0.0
 40
0.0
 40
0.2589585554
 40
0.5127343902
 40
0.7601282916
 40
1.0
 40
1.0
 40
1.0
 40
1.0
 10
13.3184862964
 20
13.7342623703
 30
0.0
 10
13.3180818794
 20
13.7386772539
 30
0.0
 10
13.3171466202
 20
13.7474070089
 30
0.0
 10
13.3153454386
 20
13.7602974399
 30
0.0
 10
13.3131683864
 20
13.7727982965
 30
0.0
 10
13.3114456808
 20
13.7809627499
 30
0.0
 10
13.3105203007
 20
13.7849637304
 30
0.0
  0
SPLINE
  5
2D4
100
AcDbEntity
  8
LAYER_FEATURE
100
AcDbSpline
 62
7
  6
CONTINUOUS
 70
0
 71
3
 72
17
 73
13
 74
0
 42
0.0000001
 43
0.0000001
 44
0.0000000001
 40
0.0
 40
0.0
 40
0.0
 40
0.0
 40
0.05040575
 40
0.1027580903
 40
0.1570118455
 40
0.2131110866
 40
0.330569011
 40
0.4545348466
 40
0.5842934122
 40
0.7190454053
 40
0.8579201297
 40
1.0
 40
1.0
 40
1.0
 40
1.0
 10
13.2990203377
 20
13.6380504883
 30
0.0
 10
13.299654999
 20
13.6392788187
 30
0.0
 10
13.3009001066
 20
13.6418083447
 30
0.0
 10
13.302664678
 20
13.6457378555
 30
0.0
 10
13.3043585227
 20
13.6498676893
 30
0.0
 10
13.3065516352
 20
13.6557197859
 30
0.0
 10
13.3090807284
 20
13.6634835923
 30
0.0
 10
13.311738373
 20
13.6733158658
 30
0.0
 10
13.3140418998
 20
13.6837231979
 30
0.0
 10
13.3159724496
 20
13.6946212847
 30
0.0
 10
13.3175142486
 20
13.7059219189
 30
0.0
 10
13.3182676466
 20
13.7135935156
 30
0.0
 10
13.3185786659
 20
13.7174782602
 30
0.0
  0
ENDSEC
  0
SECTION
  2
OBJECTS
  0
DICTIONARY
  5
C
100
AcDbDictionary
280
0
281
1
  3
ACAD_GROUP
350
D
  3
ACAD_MLINESTYLE
350
17
  3
ACAD_LAYOUT
350
1A
  3
ACAD_PLOTSETTINGS
350
19
  3
ACAD_PLOTSTYLENAME
350
E
  0
DICTIONARY
  5
D
102
{ACAD_REACTORS
330
C
102
}
100
AcDbDictionary
280
0
281
1
  0
ACDBDICTIONARYWDFLT
  5
E
102
{ACAD_REACTORS
330
C
102
}
100
AcDbDictionary
281
1
  3
Normal
350
F
100
AcDbDictionaryWithDefault
340
F
  0
DICTIONARY
  5
17
102
{ACAD_REACTORS
330
C
102
}
100
AcDbDictionary
280
0
281
1
  3
Standard
350
18
  0
DICTIONARY
  5
19
102
{ACAD_REACTORS
330
C
102
}
100
AcDbDictionary
281
1
  0
DICTIONARY
  5
1A
102
{ACAD_REACTORS
330
C
102
}
100
AcDbDictionary
281
1
  3
Model
350
2D5
  3
Layout1
350
2D6
  0
ACDBPLACEHOLDER
  5
F
102
{ACAD_REACTORS
330
E
102
}
  0
MLINESTYLE
  5
18
102
{ACAD_REACTORS
330
17
102
}
100
AcDbMlineStyle
  2
STANDARD
 70
0
  3

 62
256
 51
90.0
 52
90.0
 71
2
 49
0.5
 62
256
  6
BYLAYER
 49
-0.5
 62
256
  6
BYLAYER
  0
LAYOUT
  5
2D5
102
{ACAD_REACTORS
330
1A
102
}
100
AcDbPlotSettings
  1

  2
none_device
  4
ANSI_C_(22.00_x_17.00_Inches)
  6

 40
0.0
 41
0.0
 42
0.0
 43
0.0
 44
558.8
 45
431.8
 46
0.0
 47
0.0
 48
0.0
 49
0.0
140
0.0
141
0.0
142
1.0
143
1.0
 70
1024
 72
0
 73
0
 74
0
  7

 75
0
147
1.0
148
0.0
149
0.0
100
AcDbLayout
  1
Model
 70
0
 71
0
 10
0.0
 20
0.0
 11
22.0
 21
17.0
 12
0.0
 22
0.0
 32
0.0
 14
0.0
 24
0.0
 34
0.0
 15
0.0
 25
0.0
 35
0.0
146
0.0
 13
0.0
 23
0.0
 33
0.0
 16
1.0
 26
0.0
 36
0.0
 17
0.0
 27
1.0
 37
0.0
 76
0
330
222
345
0
346
0
  0
LAYOUT
  5
2D6
102
{ACAD_REACTORS
330
1A
102
}
100
AcDbPlotSettings
  1

  2
none_device
  4
ANSI_C_(22.00_x_17.00_Inches)
  6

 40
0.0
 41
0.0
 42
0.0
 43
0.0
 44
558.8
 45
431.8
 46
0.0
 47
0.0
 48
0.0
 49
0.0
140
0.0
141
0.0
142
1.0
143
1.0
 70
0
 72
0
 73
0
 74
0
  7

 75
0
147
1.0
148
0.0
149
0.0
100
AcDbLayout
  1
Layout1
 70
0
 71
1
 10
0.0
 20
0.0
 11
22.0
 21
17.0
 12
0.0
 22
0.0
 32
0.0
 14
0.0
 24
0.0
 34
0.0
 15
0.0
 25
0.0
 35
0.0
146
0.0
 13
0.0
 23
0.0
 33
0.0
 16
1.0
 26
0.0
 36
0.0
 17
0.0
 27
1.0
 37
0.0
 76
0
330
223
345
0
346
0
  0
ENDSEC
  0
EOF