999
DXF file: _cgs_temp_output.dxf
999
Pro/ENGINEER 2016360 by Parametric Technology Corporation
  0
SECTION
  2
HEADER
  9
$ACADVER
  1
AC1021
  9
$DWGCODEPAGE
  3
ANSI_1252
  9
$EXTMAX
 10
22.0
 20
17.0
 30
0.0
  9
$EXTMIN
 10
0.0
 20
0.0
 30
0.0
  9
$LIMMIN
 10
0.0
 20
0.0
  9
$LIMMAX
 10
22.0
 20
17.0
  9
$VIEWCTR
 10
11.0
 20
8.5
  9
$VIEWSIZE
 40
17.0
  9
$CLAYER
  8
0
  9
$LTSCALE
 40
1.21
  9
$CELTYPE
  6
BYLAYER
  9
$DIMSCALE
 40
1.0
  9
$DIMASZ
 40
0.1875
  9
$DIMEXO
 40
0.0625
  9
$DIMDLI
 40
0.836
  9
$DIMEXE
 40
0.125
  9
$DIMCEN
 40
0.198
  9
$DIMLFAC
 40
1.0
  9
$DIMBLK
  1
_CLOSED
  9
$DIMALT
 70
0
  9
$DIMALTF
 40
25.4
  9
$DIMTXT
 40
0.15625
  9
$DIMTOL
 70
0
  9
$DIMLIM
 70
0
  9
$DIMTFAC
 40
1.0
  9
$DIMGAP
 40
0.09
  9
$DIMDSEP
 70
46
  9
$AUNITS
 70
0
  9
$PDMODE
 70
3
  9
$PDSIZE
 40
0.3125
  9
$HANDSEED
  5
3DE
  9
$TILEMODE
 70
1
  9
$MEASUREMENT
 70
0
  9
$INSUNITS
 70
1
  0
ENDSEC
  0
SECTION
  2
CLASSES
  0
CLASS
  1
ACDBDICTIONARYWDFLT
  2
AcDbDictionaryWithDefault
  3
AutoCAD 2000
 90
0
 91
1
280
0
281
0
  0
CLASS
  1
ACDBPLACEHOLDER
  2
AcDbPlaceHolder
  3
AutoCAD 2000
 90
0
 91
1
280
0
281
0
  0
CLASS
  1
LAYOUT
  2
AcDbLayout
  3
AutoCAD 2000
 90
0
 91
0
280
0
281
0
  0
ENDSEC
  0
SECTION
  2
TABLES
  0
TABLE
  2
VPORT
  5
8
100
AcDbSymbolTable
 70
2
  0
VPORT
  5
1F4
100
AcDbSymbolTableRecord
100
AcDbViewportTableRecord
  2
*ACTIVE
 70
0
 10
0.0
 20
0.0
 11
1.0
 21
1.0
 12
11.0
 22
8.5
 13
0.0
 23
0.0
 14
1.0
 24
1.0
 15
0.0
 25
0.0
 16
0.0
 26
0.0
 36
1.0
 17
0.0
 27
0.0
 37
0.0
 40
17.0
 41
1.2941176471
 42
50.0
 43
0.0
 44
0.0
 50
0.0
 51
0.0
 71
0
 72
100
 73
1
 74
1
 75
0
 76
0
 77
0
 78
0
  0
ENDTAB
  0
TABLE
  2
LTYPE
  5
5
100
AcDbSymbolTable
 70
6
  0
LTYPE
  5
14
100
AcDbSymbolTableRecord
100
AcDbLinetypeTableRecord
  2
BYBLOCK
 70
0
  3

 72
65
 73
0
 40
0.0
  0
LTYPE
  5
15
100
AcDbSymbolTableRecord
100
AcDbLinetypeTableRecord
  2
BYLAYER
 70
0
  3

 72
65
 73
0
 40
0.0
  0
LTYPE
  5
16
100
AcDbSymbolTableRecord
100
AcDbLinetypeTableRecord
  2
CONTINUOUS
 70
64
  3
Solid line
 72
65
 73
0
 40
0.0
  0
LTYPE
  5
1F5
100
AcDbSymbolTableRecord
100
AcDbLinetypeTableRecord
  2
CENTER
 70
64
  3
____ _ ____ _ ____ _ ____ _ ____ _ ____ _ ____
 72
65
 73
4
 40
0.6
 49
0.375
 74
0
 49
-0.075
 74
0
 49
0.075
 74
0
 49
-0.075
 74
0
  0
LTYPE
  5
1F6
100
AcDbSymbolTableRecord
100
AcDbLinetypeTableRecord
  2
HIDDEN
 70
64
  3
- - - - - - - - - - - - - - - - - - - -
 72
65
 73
2
 40
0.2
 49
0.1
 74
0
 49
-0.1
 74
0
  0
LTYPE
  5
1F7
100
AcDbSymbolTableRecord
100
AcDbLinetypeTableRecord
  2
PHANTOM
 70
64
  3
_____ _ _ _____ _ _ _____ _ _ _____
 72
65
 73
6
 40
0.8
 49
0.45
 74
0
 49
-0.05
 74
0
 49
0.1
 74
0
 49
-0.05
 74
0
 49
0.1
 74
0
 49
-0.05
 74
0
  0
LTYPE
  5
1F8
100
AcDbSymbolTableRecord
100
AcDbLinetypeTableRecord
  2
DOT
 70
64
  3
. . . . . . . . . . . . . . . . . . . .
 72
65
 73
2
 40
0.2
 49
0.1
 74
0
 49
-0.1
 74
0
  0
LTYPE
  5
1F9
100
AcDbSymbolTableRecord
100
AcDbLinetypeTableRecord
  2
DASHED
 70
64
  3
- - - - - - - - - - - - - - - - - - - -
 72
65
 73
2
 40
0.2
 49
0.1
 74
0
 49
-0.1
 74
0
  0
ENDTAB
  0
TABLE
  2
LAYER
  5
2
100
AcDbSymbolTable
 70
36
  0
LAYER
  5
10
100
AcDbSymbolTableRecord
100
AcDbLayerTableRecord
  2
0
 70
0
 62
7
  6
CONTINUOUS
370
-3
390
F
  0
LAYER
  5
1FA
100
AcDbSymbolTableRecord
100
AcDbLayerTableRecord
  2
DEFAULT_1
 70
0
 62
7
  6
CENTER
370
-3
390
F
  0
LAYER
  5
1FB
100
AcDbSymbolTableRecord
100
AcDbLayerTableRecord
  2
DEFAULT_2
 70
0
 62
8
  6
HIDDEN
370
-3
390
F
  0
LAYER
  5
1FC
100
AcDbSymbolTableRecord
100
AcDbLayerTableRecord
  2
DEFAULT_3
 70
0
 62
7
  6
PHANTOM
370
-3
390
F
  0
LAYER
  5
1FD
100
AcDbSymbolTableRecord
100
AcDbLayerTableRecord
  2
01_ALL_DTM_PLN
 70
0
 62
7
  6
CONTINUOUS
370
-3
390
F
  0
LAYER
  5
1FE
100
AcDbSymbolTableRecord
100
AcDbLayerTableRecord
  2
01__ASM_ALL_DTM_PLN
 70
0
 62
7
  6
CONTINUOUS
370
-3
390
F
  0
LAYER
  5
1FF
100
AcDbSymbolTableRecord
100
AcDbLayerTableRecord
  2
01__ASM_DEF_DTM_PLN
 70
0
 62
7
  6
CONTINUOUS
370
-3
390
F
  0
LAYER
  5
200
100
AcDbSymbolTableRecord
100
AcDbLayerTableRecord
  2
01___PRT_ALL_DTM_PLN
 70
0
 62
7
  6
CONTINUOUS
370
-3
390
F
  0
LAYER
  5
201
100
AcDbSymbolTableRecord
100
AcDbLayerTableRecord
  2
01___PRT_DEF_DTM_PLN
 70
0
 62
7
  6
CONTINUOUS
370
-3
390
F
  0
LAYER
  5
202
100
AcDbSymbolTableRecord
100
AcDbLayerTableRecord
  2
02_ALL_AXES
 70
0
 62
7
  6
CONTINUOUS
370
-3
390
F
  0
LAYER
  5
203
100
AcDbSymbolTableRecord
100
AcDbLayerTableRecord
  2
02__ASM_ALL_AXES
 70
0
 62
7
  6
CONTINUOUS
370
-3
390
F
  0
LAYER
  5
204
100
AcDbSymbolTableRecord
100
AcDbLayerTableRecord
  2
02___PRT_ALL_AXES
 70
0
 62
7
  6
CONTINUOUS
370
-3
390
F
  0
LAYER
  5
205
100
AcDbSymbolTableRecord
100
AcDbLayerTableRecord
  2
03_ALL_CURVES
 70
0
 62
7
  6
CONTINUOUS
370
-3
390
F
  0
LAYER
  5
206
100
AcDbSymbolTableRecord
100
AcDbLayerTableRecord
  2
03__ASM_ALL_CURVES
 70
0
 62
7
  6
CONTINUOUS
370
-3
390
F
  0
LAYER
  5
207
100
AcDbSymbolTableRecord
100
AcDbLayerTableRecord
  2
03___PRT_ALL_CURVES
 70
0
 62
7
  6
CONTINUOUS
370
-3
390
F
  0
LAYER
  5
208
100
AcDbSymbolTableRecord
100
AcDbLayerTableRecord
  2
04_ALL_DTM_PNT
 70
0
 62
7
  6
CONTINUOUS
370
-3
390
F
  0
LAYER
  5
209
100
AcDbSymbolTableRecord
100
AcDbLayerTableRecord
  2
04__ASM_ALL_DTM_PNT
 70
0
 62
7
  6
CONTINUOUS
370
-3
390
F
  0
LAYER
  5
20A
100
AcDbSymbolTableRecord
100
AcDbLayerTableRecord
  2
04___PRT_ALL_DTM_PNT
 70
0
 62
7
  6
CONTINUOUS
370
-3
390
F
  0
LAYER
  5
20B
100
AcDbSymbolTableRecord
100
AcDbLayerTableRecord
  2
05_ALL_DTM_CSYS
 70
0
 62
7
  6
CONTINUOUS
370
-3
390
F
  0
LAYER
  5
20C
100
AcDbSymbolTableRecord
100
AcDbLayerTableRecord
  2
05__ASM_ALL_DTM_CSYS
 70
0
 62
7
  6
CONTINUOUS
370
-3
390
F
  0
LAYER
  5
20D
100
AcDbSymbolTableRecord
100
AcDbLayerTableRecord
  2
05__ASM_DEF_DTM_CSYS
 70
0
 62
7
  6
CONTINUOUS
370
-3
390
F
  0
LAYER
  5
20E
100
AcDbSymbolTableRecord
100
AcDbLayerTableRecord
  2
05___PRT_ALL_DTM_CSYS
 70
0
 62
7
  6
CONTINUOUS
370
-3
390
F
  0
LAYER
  5
20F
100
AcDbSymbolTableRecord
100
AcDbLayerTableRecord
  2
05___PRT_DEF_DTM_CSYS
 70
0
 62
7
  6
CONTINUOUS
370
-3
390
F
  0
LAYER
  5
210
100
AcDbSymbolTableRecord
100
AcDbLayerTableRecord
  2
06_ALL_SURFS
 70
0
 62
7
  6
CONTINUOUS
370
-3
390
F
  0
LAYER
  5
211
100
AcDbSymbolTableRecord
100
AcDbLayerTableRecord
  2
06__ASM_ALL_SURFS
 70
0
 62
7
  6
CONTINUOUS
370
-3
390
F
  0
LAYER
  5
212
100
AcDbSymbolTableRecord
100
AcDbLayerTableRecord
  2
06___PRT_ALL_SURFS
 70
0
 62
7
  6
CONTINUOUS
370
-3
390
F
  0
LAYER
  5
213
100
AcDbSymbolTableRecord
100
AcDbLayerTableRecord
  2
07__ASM_ALL_SKELETONS
 70
0
 62
7
  6
CONTINUOUS
370
-3
390
F
  0
LAYER
  5
214
100
AcDbSymbolTableRecord
100
AcDbLayerTableRecord
  2
LAYER_AXIS
 70
0
 62
7
  6
CONTINUOUS
370
-3
390
F
  0
LAYER
  5
215
100
AcDbSymbolTableRecord
100
AcDbLayerTableRecord
  2
LAYER_CHAMFER_FEAT
 70
0
 62
7
  6
CONTINUOUS
370
-3
390
F
  0
LAYER
  5
216
100
AcDbSymbolTableRecord
100
AcDbLayerTableRecord
  2
LAYER_CUT_FEAT
 70
0
 62
7
  6
CONTINUOUS
370
-3
390
F
  0
LAYER
  5
217
100
AcDbSymbolTableRecord
100
AcDbLayerTableRecord
  2
LAYER_DATUM
 70
0
 62
7
  6
CONTINUOUS
370
-3
390
F
  0
LAYER
  5
218
100
AcDbSymbolTableRecord
100
AcDbLayerTableRecord
  2
LAYER_DIM
 70
0
 62
7
  6
CONTINUOUS
370
-3
390
F
  0
LAYER
  5
219
100
AcDbSymbolTableRecord
100
AcDbLayerTableRecord
  2
LAYER_FEATURE
 70
0
 62
7
  6
CONTINUOUS
370
-3
390
F
  0
LAYER
  5
21A
100
AcDbSymbolTableRecord
100
AcDbLayerTableRecord
  2
LAYER_GEOM_FEAT
 70
0
 62
7
  6
CONTINUOUS
370
-3
390
F
  0
LAYER
  5
21B
100
AcDbSymbolTableRecord
100
AcDbLayerTableRecord
  2
LAYER_NOGEOM_FEAT
 70
0
 62
7
  6
CONTINUOUS
370
-3
390
F
  0
LAYER
  5
21C
100
AcDbSymbolTableRecord
100
AcDbLayerTableRecord
  2
LAYER_PARAMETER_DIM
 70
0
 62
7
  6
CONTINUOUS
370
-3
390
F
  0
LAYER
  5
21D
100
AcDbSymbolTableRecord
100
AcDbLayerTableRecord
  2
LAYER_PROTRUSION_FEAT
 70
0
 62
7
  6
CONTINUOUS
370
-3
390
F
  0
LAYER
  5
21E
100
AcDbSymbolTableRecord
100
AcDbLayerTableRecord
  2
LAYER_QUILT
 70
0
 62
7
  6
CONTINUOUS
370
-3
390
F
  0
LAYER
  5
21F
100
AcDbSymbolTableRecord
100
AcDbLayerTableRecord
  2
LAYER_ROUND_FEAT
 70
0
 62
7
  6
CONTINUOUS
370
-3
390
F
  0
ENDTAB
  0
TABLE
  2
STYLE
  5
3
100
AcDbSymbolTable
 70
1
  0
STYLE
  5
11
100
AcDbSymbolTableRecord
100
AcDbTextStyleTableRecord
  2
STANDARD
 70
0
 40
0.0
 41
0.8
 50
0.0
 71
0
 42
0.2
  3
txt
  4

  0
STYLE
  5
220
100
AcDbSymbolTableRecord
100
AcDbTextStyleTableRecord
  2
TEXTSTYLE_1
 70
0
 40
0.0
 41
0.8
 50
0.0
 71
0
 42
0.2
  3
gdt
  4

  0
ENDTAB
  0
TABLE
  2
VIEW
  5
6
100
AcDbSymbolTable
 70
0
  0
ENDTAB
  0
TABLE
  2
UCS
  5
7
100
AcDbSymbolTable
 70
0
  0
ENDTAB
  0
TABLE
  2
APPID
  5
9
100
AcDbSymbolTable
 70
1
  0
APPID
  5
221
100
AcDbSymbolTableRecord
100
AcDbRegAppTableRecord
  2
ACAD
 70
0
  0
ENDTAB
  0
TABLE
  2
BLOCK_RECORD
  5
1
100
AcDbSymbolTable
 70
0
  0
BLOCK_RECORD
  5
222
100
AcDbSymbolTableRecord
100
AcDbBlockTableRecord
  2
*Model_Space
  0
BLOCK_RECORD
  5
223
100
AcDbSymbolTableRecord
100
AcDbBlockTableRecord
  2
*Paper_Space
  0
ENDTAB
  0
TABLE
  2
DIMSTYLE
  5
A
100
AcDbSymbolTable
 70
1
100
AcDbDimStyleTable
 71
0
  0
DIMSTYLE
105
224
100
AcDbSymbolTableRecord
100
AcDbDimStyleTableRecord
  2
STANDARD
 70
0
  3

  4

 40
1.0
 41
0.1875
 42
0.0625
 43
0.38
 44
0.125
 45
0.0
 46
0.0
 47
0.0001
 48
0.0001
140
0.15625
141
0.09
142
0.0
143
25.4
144
1.0
145
0.0
146
1.0
147
0.09
 71
0.0
 72
0.0
 73
1
 74
1
 75
0
 76
0
 77
0
 78
4
 79
1
170
0
171
3
172
0
173
0
174
0
175
0
176
0
177
0
178
0
270
2
179
4
271
4
272
4
273
2
274
2
275
0
280
0
281
0
282
0
283
1
284
4
285
0
286
0
287
3
288
0
340
11
278
46
  0
ENDTAB
  0
ENDSEC
  0
SECTION
  2
BLOCKS
  0
BLOCK
  5
20
100
AcDbEntity
  8
0
100
AcDbBlockBegin
  2
*Model_Space
 70
0
 10
0.0
 20
0.0
 30
0.0
  3
*Model_Space
  1

  0
ENDBLK
  5
21
100
AcDbEntity
  8
0
100
AcDbBlockEnd
  0
BLOCK
  5
1C
100
AcDbEntity
  8
0
100
AcDbBlockBegin
  2
*Paper_Space
 70
0
 10
0.0
 20
0.0
 30
0.0
  3
*Paper_Space
  1

  0
ENDBLK
  5
1D
100
AcDbEntity
  8
0
100
AcDbBlockEnd
  0
ENDSEC
  0
SECTION
  2
ENTITIES
  0
MTEXT
  5
225
100
AcDbEntity
  8
0
100
AcDbMText
 62
7
  6
CONTINUOUS
  7
STANDARD
 71
1
 72
1
 10
15.9560215477
 20
0.9479130325
 30
0.0
 11
1.0
 21
0.0
 31
0.0
 44
0.9
  1
SCALE: 1:1.000
 40
0.3
 41
3.36
  0
LINE
  5
226
100
AcDbEntity
  8
0
100
AcDbLine
 62
7
  6
CONTINUOUS
 10
0.0
 20
0.0
 11
0.0
 21
17.0
  0
LINE
  5
227
100
AcDbEntity
  8
0
100
AcDbLine
 62
7
  6
CONTINUOUS
 10
0.0
 20
0.0
 11
22.0
 21
0.0
  0
LINE
  5
228
100
AcDbEntity
  8
0
100
AcDbLine
 62
7
  6
CONTINUOUS
 10
0.0
 20
17.0
 11
22.0
 21
17.0
  0
LINE
  5
229
100
AcDbEntity
  8
0
100
AcDbLine
 62
7
  6
CONTINUOUS
 10
22.0
 20
0.0
 11
22.0
 21
17.0
  0
LINE
  5
22A
100
AcDbEntity
  8
LAYER_FEATURE
100
AcDbLine
 62
7
  6
CONTINUOUS
 10
6.7733672762
 20
4.1551198968
 11
6.7086551916
 21
4.1551198968
  0
LINE
  5
22B
100
AcDbEntity
  8
LAYER_FEATURE
100
AcDbLine
 62
7
  6
CONTINUOUS
 10
5.4873672762
 20
4.1551198968
 11
5.5520793607
 21
4.1551198968
  0
LINE
  5
22C
100
AcDbEntity
  8
LAYER_FEATURE
100
AcDbLine
 62
7
  6
CONTINUOUS
 10
5.5903672762
 20
4.2923503665
 11
6.6703672762
 21
4.2923503665
  0
LINE
  5
22D
100
AcDbEntity
  8
LAYER_FEATURE
100
AcDbLine
 62
7
  6
CONTINUOUS
 10
5.5903672762
 20
4.2946498521
 11
6.6703672762
 21
4.2946498521
  0
LINE
  5
22E
100
AcDbEntity
  8
0
100
AcDbLine
 62
7
  6
CONTINUOUS
 10
5.5903672762
 20
4.3200117849
 11
6.6703672762
 21
4.3200117849
  0
LINE
  5
22F
100
AcDbEntity
  8
LAYER_FEATURE
100
AcDbLine
 62
7
  6
CONTINUOUS
 10
5.5903672762
 20
4.3202826414
 11
6.6703672762
 21
4.3202826414
  0
LINE
  5
230
100
AcDbEntity
  8
LAYER_FEATURE
100
AcDbLine
 62
7
  6
CONTINUOUS
 10
5.5903672762
 20
4.3271244773
 11
6.6703672762
 21
4.3271244773
  0
LINE
  5
231
100
AcDbEntity
  8
0
100
AcDbLine
 62
7
  6
CONTINUOUS
 10
5.5903672762
 20
4.3766821349
 11
6.6703672762
 21
4.3766821349
  0
LINE
  5
232
100
AcDbEntity
  8
LAYER_FEATURE
100
AcDbLine
 62
7
  6
CONTINUOUS
 10
5.5903672762
 20
4.3777588916
 11
6.6703672762
 21
4.3777588916
  0
LINE
  5
233
100
AcDbEntity
  8
LAYER_FEATURE
100
AcDbLine
 62
7
  6
CONTINUOUS
 10
5.5903672762
 20
4.3889746091
 11
6.6703672762
 21
4.3889746091
  0
LINE
  5
234
100
AcDbEntity
  8
0
100
AcDbLine
 62
7
  6
CONTINUOUS
 10
5.5903672762
 20
4.4609660045
 11
6.6703672762
 21
4.4609660045
  0
LINE
  5
235
100
AcDbEntity
  8
LAYER_FEATURE
100
AcDbLine
 62
7
  6
CONTINUOUS
 10
5.5903672762
 20
4.463363861
 11
6.6703672762
 21
4.463363861
  0
LINE
  5
236
100
AcDbEntity
  8
LAYER_FEATURE
100
AcDbLine
 62
7
  6
CONTINUOUS
 10
5.5903672762
 20
4.478677292
 11
6.6703672762
 21
4.478677292
  0
LINE
  5
237
100
AcDbEntity
  8
02___PRT_ALL_AXES
100
AcDbLine
 62
7
  6
CONTINUOUS
 10
5.4853672762
 20
4.4511198968
 11
5.4873672762
 21
4.4514905748
  0
LINE
  5
238
100
AcDbEntity
  8
0
100
AcDbLine
 62
7
  6
CONTINUOUS
 10
5.5903672762
 20
4.5707880451
 11
6.6703672762
 21
4.5707880451
  0
LINE
  5
239
100
AcDbEntity
  8
LAYER_FEATURE
100
AcDbLine
 62
7
  6
CONTINUOUS
 10
5.5903672762
 20
4.5749896712
 11
6.6703672762
 21
4.5749896712
  0
LINE
  5
23A
100
AcDbEntity
  8
LAYER_FEATURE
100
AcDbLine
 62
7
  6
CONTINUOUS
 10
5.5903672762
 20
4.5940237481
 11
6.6703672762
 21
4.5940237481
  0
LINE
  5
23B
100
AcDbEntity
  8
02___PRT_ALL_AXES
100
AcDbLine
 62
7
  6
CONTINUOUS
 10
6.7733672762
 20
4.4514905748
 11
6.7753672762
 21
4.4511198968
  0
LINE
  5
23C
100
AcDbEntity
  8
0
100
AcDbLine
 62
7
  6
CONTINUOUS
 10
5.5903672762
 20
4.7034440734
 11
6.6703672762
 21
4.7034440734
  0
LINE
  5
23D
100
AcDbEntity
  8
LAYER_FEATURE
100
AcDbLine
 62
7
  6
CONTINUOUS
 10
5.5903672762
 20
4.7098877242
 11
6.6703672762
 21
4.7098877242
  0
LINE
  5
23E
100
AcDbEntity
  8
LAYER_FEATURE
100
AcDbLine
 62
7
  6
CONTINUOUS
 10
5.5903672762
 20
4.7321737649
 11
6.6703672762
 21
4.7321737649
  0
LINE
  5
23F
100
AcDbEntity
  8
02___PRT_ALL_AXES
100
AcDbLine
 62
7
  6
CONTINUOUS
 10
5.4853672762
 20
4.4511198968
 11
5.4853672762
 21
6.5891198968
  0
LINE
  5
240
100
AcDbEntity
  8
LAYER_FEATURE
100
AcDbLine
 62
7
  6
CONTINUOUS
 10
5.4873672762
 20
6.8851198968
 11
5.4873672762
 21
4.1551198968
  0
LINE
  5
241
100
AcDbEntity
  8
0
100
AcDbLine
 62
7
  6
CONTINUOUS
 10
5.5903672762
 20
4.8556676579
 11
6.6703672762
 21
4.8556676579
  0
LINE
  5
242
100
AcDbEntity
  8
LAYER_FEATURE
100
AcDbLine
 62
7
  6
CONTINUOUS
 10
5.5903672762
 20
4.8647363824
 11
6.6703672762
 21
4.8647363824
  0
LINE
  5
243
100
AcDbEntity
  8
LAYER_FEATURE
100
AcDbLine
 62
7
  6
CONTINUOUS
 10
5.5903672762
 20
4.8897256305
 11
6.6703672762
 21
4.8897256305
  0
LINE
  5
244
100
AcDbEntity
  8
LAYER_FEATURE
100
AcDbLine
 62
7
  6
CONTINUOUS
 10
5.5520793607
 20
6.8851198968
 11
5.5520793607
 21
4.1551198968
  0
LINE
  5
245
100
AcDbEntity
  8
LAYER_FEATURE
100
AcDbLine
 62
7
  6
CONTINUOUS
 10
5.5903672762
 20
6.7903539806
 11
5.5903672762
 21
4.2498858129
  0
LINE
  5
246
100
AcDbEntity
  8
0
100
AcDbLine
 62
7
  6
CONTINUOUS
 10
5.5903672762
 20
5.0237215124
 11
6.6703672762
 21
5.0237215124
  0
LINE
  5
247
100
AcDbEntity
  8
LAYER_FEATURE
100
AcDbLine
 62
7
  6
CONTINUOUS
 10
5.5903672762
 20
5.0357227577
 11
6.6703672762
 21
5.0357227577
  0
LINE
  5
248
100
AcDbEntity
  8
LAYER_FEATURE
100
AcDbLine
 62
7
  6
CONTINUOUS
 10
5.5903672762
 20
5.0627998952
 11
6.6703672762
 21
5.0627998952
  0
LINE
  5
249
100
AcDbEntity
  8
0
100
AcDbLine
 62
7
  6
CONTINUOUS
 10
5.5903672762
 20
5.2036097913
 11
6.6703672762
 21
5.2036097913
  0
LINE
  5
24A
100
AcDbEntity
  8
LAYER_FEATURE
100
AcDbLine
 62
7
  6
CONTINUOUS
 10
5.5903672762
 20
5.2186365983
 11
6.6703672762
 21
5.2186365983
  0
LINE
  5
24B
100
AcDbEntity
  8
LAYER_FEATURE
100
AcDbLine
 62
7
  6
CONTINUOUS
 10
5.5903672762
 20
5.247134896
 11
6.6703672762
 21
5.247134896
  0
LINE
  5
24C
100
AcDbEntity
  8
LAYER_FEATURE
100
AcDbLine
 62
7
  6
CONTINUOUS
 10
5.5903672762
 20
5.4089739582
 11
6.6703672762
 21
5.4089739582
  0
LINE
  5
24D
100
AcDbEntity
  8
LAYER_FEATURE
100
AcDbLine
 62
7
  6
CONTINUOUS
 10
5.5520793607
 20
4.1551198968
 11
5.5903672762
 21
4.2498858129
  0
LINE
  5
24E
100
AcDbEntity
  8
LAYER_FEATURE
100
AcDbLine
 62
7
  6
CONTINUOUS
 10
5.5903672762
 20
5.4381916935
 11
6.6703672762
 21
5.4381916935
  0
LINE
  5
24F
100
AcDbEntity
  8
LAYER_FEATURE
100
AcDbLine
 62
7
  6
CONTINUOUS
 10
5.5520793607
 20
6.8851198968
 11
5.5903672762
 21
6.7903539806
  0
LINE
  5
250
100
AcDbEntity
  8
LAYER_FEATURE
100
AcDbLine
 62
7
  6
CONTINUOUS
 10
6.7086551916
 20
6.8851198968
 11
6.6703672762
 21
6.7903539806
  0
LINE
  5
251
100
AcDbEntity
  8
LAYER_FEATURE
100
AcDbLine
 62
7
  6
CONTINUOUS
 10
5.5903672762
 20
5.6020481
 11
6.6703672762
 21
5.6020481
  0
LINE
  5
252
100
AcDbEntity
  8
LAYER_FEATURE
100
AcDbLine
 62
7
  6
CONTINUOUS
 10
5.5903672762
 20
5.6312658353
 11
6.6703672762
 21
5.6312658353
  0
LINE
  5
253
100
AcDbEntity
  8
LAYER_FEATURE
100
AcDbLine
 62
7
  6
CONTINUOUS
 10
6.7086551916
 20
4.1551198968
 11
6.6703672762
 21
4.2498858129
  0
LINE
  5
254
100
AcDbEntity
  8
LAYER_FEATURE
100
AcDbLine
 62
7
  6
CONTINUOUS
 10
5.5903672762
 20
5.7931048975
 11
6.6703672762
 21
5.7931048975
  0
LINE
  5
255
100
AcDbEntity
  8
LAYER_FEATURE
100
AcDbLine
 62
7
  6
CONTINUOUS
 10
5.5903672762
 20
5.8216031952
 11
6.6703672762
 21
5.8216031952
  0
LINE
  5
256
100
AcDbEntity
  8
0
100
AcDbLine
 62
7
  6
CONTINUOUS
 10
5.5903672762
 20
5.8367929316
 11
6.6703672762
 21
5.8367929316
  0
LINE
  5
257
100
AcDbEntity
  8
LAYER_FEATURE
100
AcDbLine
 62
7
  6
CONTINUOUS
 10
5.5903672762
 20
5.9774398983
 11
6.6703672762
 21
5.9774398983
  0
LINE
  5
258
100
AcDbEntity
  8
LAYER_FEATURE
100
AcDbLine
 62
7
  6
CONTINUOUS
 10
5.5903672762
 20
6.0045170358
 11
6.6703672762
 21
6.0045170358
  0
LINE
  5
259
100
AcDbEntity
  8
0
100
AcDbLine
 62
7
  6
CONTINUOUS
 10
5.5903672762
 20
6.0165182811
 11
6.6703672762
 21
6.0165182811
  0
LINE
  5
25A
100
AcDbEntity
  8
LAYER_FEATURE
100
AcDbLine
 62
7
  6
CONTINUOUS
 10
6.6703672762
 20
6.7903539806
 11
6.6703672762
 21
4.2498858129
  0
LINE
  5
25B
100
AcDbEntity
  8
LAYER_FEATURE
100
AcDbLine
 62
7
  6
CONTINUOUS
 10
6.7086551916
 20
6.8851198968
 11
6.7086551916
 21
4.1551198968
  0
LINE
  5
25C
100
AcDbEntity
  8
LAYER_FEATURE
100
AcDbLine
 62
7
  6
CONTINUOUS
 10
6.7733672762
 20
6.8851198968
 11
6.7733672762
 21
4.1551198968
  0
LINE
  5
25D
100
AcDbEntity
  8
02___PRT_ALL_AXES
100
AcDbLine
 62
7
  6
CONTINUOUS
 10
6.7753672762
 20
4.4511198968
 11
6.7753672762
 21
6.5891198968
  0
LINE
  5
25E
100
AcDbEntity
  8
LAYER_FEATURE
100
AcDbLine
 62
7
  6
CONTINUOUS
 10
5.5903672762
 20
6.150514163
 11
6.6703672762
 21
6.150514163
  0
LINE
  5
25F
100
AcDbEntity
  8
LAYER_FEATURE
100
AcDbLine
 62
7
  6
CONTINUOUS
 10
5.5903672762
 20
6.1755034111
 11
6.6703672762
 21
6.1755034111
  0
LINE
  5
260
100
AcDbEntity
  8
0
100
AcDbLine
 62
7
  6
CONTINUOUS
 10
5.5903672762
 20
6.1845721356
 11
6.6703672762
 21
6.1845721356
  0
LINE
  5
261
100
AcDbEntity
  8
LAYER_FEATURE
100
AcDbLine
 62
7
  6
CONTINUOUS
 10
5.5903672762
 20
6.3080660286
 11
6.6703672762
 21
6.3080660286
  0
LINE
  5
262
100
AcDbEntity
  8
LAYER_FEATURE
100
AcDbLine
 62
7
  6
CONTINUOUS
 10
5.5903672762
 20
6.3303520693
 11
6.6703672762
 21
6.3303520693
  0
LINE
  5
263
100
AcDbEntity
  8
0
100
AcDbLine
 62
7
  6
CONTINUOUS
 10
5.5903672762
 20
6.3367957201
 11
6.6703672762
 21
6.3367957201
  0
LINE
  5
264
100
AcDbEntity
  8
02___PRT_ALL_AXES
100
AcDbLine
 62
7
  6
CONTINUOUS
 10
6.7733672762
 20
6.5887492187
 11
6.7753672762
 21
6.5891198968
  0
LINE
  5
265
100
AcDbEntity
  8
LAYER_FEATURE
100
AcDbLine
 62
7
  6
CONTINUOUS
 10
5.5903672762
 20
6.4462160454
 11
6.6703672762
 21
6.4462160454
  0
LINE
  5
266
100
AcDbEntity
  8
LAYER_FEATURE
100
AcDbLine
 62
7
  6
CONTINUOUS
 10
5.5903672762
 20
6.4652501223
 11
6.6703672762
 21
6.4652501223
  0
LINE
  5
267
100
AcDbEntity
  8
0
100
AcDbLine
 62
7
  6
CONTINUOUS
 10
5.5903672762
 20
6.4694517485
 11
6.6703672762
 21
6.4694517485
  0
LINE
  5
268
100
AcDbEntity
  8
02___PRT_ALL_AXES
100
AcDbLine
 62
7
  6
CONTINUOUS
 10
5.4853672762
 20
6.5891198968
 11
5.4873672762
 21
6.5887492187
  0
LINE
  5
269
100
AcDbEntity
  8
LAYER_FEATURE
100
AcDbLine
 62
7
  6
CONTINUOUS
 10
5.5903672762
 20
6.5615625015
 11
6.6703672762
 21
6.5615625015
  0
LINE
  5
26A
100
AcDbEntity
  8
LAYER_FEATURE
100
AcDbLine
 62
7
  6
CONTINUOUS
 10
5.5903672762
 20
6.5768759325
 11
6.6703672762
 21
6.5768759325
  0
LINE
  5
26B
100
AcDbEntity
  8
LAYER_CUT_FEAT
100
AcDbLine
 62
7
  6
CONTINUOUS
 10
5.5903672762
 20
6.579273789
 11
6.6703672762
 21
6.579273789
  0
LINE
  5
26C
100
AcDbEntity
  8
LAYER_FEATURE
100
AcDbLine
 62
7
  6
CONTINUOUS
 10
5.5903672762
 20
6.6512651844
 11
6.6703672762
 21
6.6512651844
  0
LINE
  5
26D
100
AcDbEntity
  8
LAYER_FEATURE
100
AcDbLine
 62
7
  6
CONTINUOUS
 10
5.5903672762
 20
6.6624809019
 11
6.6703672762
 21
6.6624809019
  0
LINE
  5
26E
100
AcDbEntity
  8
LAYER_CUT_FEAT
100
AcDbLine
 62
7
  6
CONTINUOUS
 10
5.5903672762
 20
6.6635576586
 11
6.6703672762
 21
6.6635576586
  0
LINE
  5
26F
100
AcDbEntity
  8
LAYER_FEATURE
100
AcDbLine
 62
7
  6
CONTINUOUS
 10
5.5903672762
 20
6.7131153162
 11
6.6703672762
 21
6.7131153162
  0
LINE
  5
270
100
AcDbEntity
  8
LAYER_FEATURE
100
AcDbLine
 62
7
  6
CONTINUOUS
 10
5.5903672762
 20
6.7199571521
 11
6.6703672762
 21
6.7199571521
  0
LINE
  5
271
100
AcDbEntity
  8
LAYER_CUT_FEAT
100
AcDbLine
 62
7
  6
CONTINUOUS
 10
5.5903672762
 20
6.7202280086
 11
6.6703672762
 21
6.7202280086
  0
LINE
  5
272
100
AcDbEntity
  8
LAYER_FEATURE
100
AcDbLine
 62
7
  6
CONTINUOUS
 10
5.5903672762
 20
6.7455899414
 11
6.6703672762
 21
6.7455899414
  0
LINE
  5
273
100
AcDbEntity
  8
LAYER_FEATURE
100
AcDbLine
 62
7
  6
CONTINUOUS
 10
5.5903672762
 20
6.747889427
 11
6.6703672762
 21
6.747889427
  0
LINE
  5
274
100
AcDbEntity
  8
LAYER_FEATURE
100
AcDbLine
 62
7
  6
CONTINUOUS
 10
6.7733672762
 20
6.8851198968
 11
6.7086551916
 21
6.8851198968
  0
LINE
  5
275
100
AcDbEntity
  8
LAYER_FEATURE
100
AcDbLine
 62
7
  6
CONTINUOUS
 10
5.4873672762
 20
6.8851198968
 11
5.5520793607
 21
6.8851198968
  0
LINE
  5
276
100
AcDbEntity
  8
LAYER_FEATURE
100
AcDbLine
 62
7
  6
CONTINUOUS
 10
5.4278720839
 20
11.2350477814
 11
5.4925841684
 21
11.2350477814
  0
LINE
  5
277
100
AcDbEntity
  8
LAYER_FEATURE
100
AcDbLine
 62
7
  6
CONTINUOUS
 10
6.6491599993
 20
11.2350477814
 11
6.7138720839
 21
11.2350477814
  0
LINE
  5
278
100
AcDbEntity
  8
LAYER_FEATURE
100
AcDbLine
 62
7
  6
CONTINUOUS
 10
5.5308720839
 20
11.3722782511
 11
6.6108720839
 21
11.3722782511
  0
LINE
  5
279
100
AcDbEntity
  8
LAYER_FEATURE
100
AcDbLine
 62
7
  6
CONTINUOUS
 10
5.5308720839
 20
11.3745777367
 11
6.6108720839
 21
11.3745777367
  0
LINE
  5
27A
100
AcDbEntity
  8
0
100
AcDbLine
 62
7
  6
CONTINUOUS
 10
5.5308720839
 20
11.3999396695
 11
6.6108720839
 21
11.3999396695
  0
LINE
  5
27B
100
AcDbEntity
  8
LAYER_FEATURE
100
AcDbLine
 62
7
  6
CONTINUOUS
 10
5.5308720839
 20
11.400210526
 11
6.6108720839
 21
11.400210526
  0
LINE
  5
27C
100
AcDbEntity
  8
LAYER_FEATURE
100
AcDbLine
 62
7
  6
CONTINUOUS
 10
5.5308720839
 20
11.407052362
 11
6.6108720839
 21
11.407052362
  0
LINE
  5
27D
100
AcDbEntity
  8
0
100
AcDbLine
 62
7
  6
CONTINUOUS
 10
5.5308720839
 20
11.4566100195
 11
6.6108720839
 21
11.4566100195
  0
LINE
  5
27E
100
AcDbEntity
  8
LAYER_FEATURE
100
AcDbLine
 62
7
  6
CONTINUOUS
 10
5.5308720839
 20
11.4576867762
 11
6.6108720839
 21
11.4576867762
  0
LINE
  5
27F
100
AcDbEntity
  8
LAYER_FEATURE
100
AcDbLine
 62
7
  6
CONTINUOUS
 10
5.5308720839
 20
11.4689024938
 11
6.6108720839
 21
11.4689024938
  0
LINE
  5
280
100
AcDbEntity
  8
0
100
AcDbLine
 62
7
  6
CONTINUOUS
 10
5.5308720839
 20
11.5408938891
 11
6.6108720839
 21
11.5408938891
  0
LINE
  5
281
100
AcDbEntity
  8
LAYER_FEATURE
100
AcDbLine
 62
7
  6
CONTINUOUS
 10
5.5308720839
 20
11.5432917456
 11
6.6108720839
 21
11.5432917456
  0
LINE
  5
282
100
AcDbEntity
  8
LAYER_FEATURE
100
AcDbLine
 62
7
  6
CONTINUOUS
 10
5.5308720839
 20
11.5586051766
 11
6.6108720839
 21
11.5586051766
  0
LINE
  5
283
100
AcDbEntity
  8
02___PRT_ALL_AXES
100
AcDbLine
 62
7
  6
CONTINUOUS
 10
5.4278720839
 20
11.5314184595
 11
5.4258720839
 21
11.5310477814
  0
LINE
  5
284
100
AcDbEntity
  8
0
100
AcDbLine
 62
7
  6
CONTINUOUS
 10
5.5308720839
 20
11.6507159297
 11
6.6108720839
 21
11.6507159297
  0
LINE
  5
285
100
AcDbEntity
  8
LAYER_FEATURE
100
AcDbLine
 62
7
  6
CONTINUOUS
 10
5.5308720839
 20
11.6549175558
 11
6.6108720839
 21
11.6549175558
  0
LINE
  5
286
100
AcDbEntity
  8
LAYER_FEATURE
100
AcDbLine
 62
7
  6
CONTINUOUS
 10
5.5308720839
 20
11.6739516327
 11
6.6108720839
 21
11.6739516327
  0
LINE
  5
287
100
AcDbEntity
  8
02___PRT_ALL_AXES
100
AcDbLine
 62
7
  6
CONTINUOUS
 10
6.7158720839
 20
11.5310477814
 11
6.7138720839
 21
11.5314184595
  0
LINE
  5
288
100
AcDbEntity
  8
0
100
AcDbLine
 62
7
  6
CONTINUOUS
 10
5.5308720839
 20
11.783371958
 11
6.6108720839
 21
11.783371958
  0
LINE
  5
289
100
AcDbEntity
  8
LAYER_FEATURE
100
AcDbLine
 62
7
  6
CONTINUOUS
 10
5.5308720839
 20
11.7898156088
 11
6.6108720839
 21
11.7898156088
  0
LINE
  5
28A
100
AcDbEntity
  8
LAYER_FEATURE
100
AcDbLine
 62
7
  6
CONTINUOUS
 10
5.5308720839
 20
11.8121016495
 11
6.6108720839
 21
11.8121016495
  0
LINE
  5
28B
100
AcDbEntity
  8
02___PRT_ALL_AXES
100
AcDbLine
 62
7
  6
CONTINUOUS
 10
5.4258720839
 20
11.5310478585
 11
5.4258720839
 21
13.6690477042
  0
LINE
  5
28C
100
AcDbEntity
  8
LAYER_FEATURE
100
AcDbLine
 62
7
  6
CONTINUOUS
 10
5.4278720839
 20
11.2350477814
 11
5.4278720839
 21
13.9650477814
  0
LINE
  5
28D
100
AcDbEntity
  8
0
100
AcDbLine
 62
7
  6
CONTINUOUS
 10
5.5308720839
 20
11.9355955425
 11
6.6108720839
 21
11.9355955425
  0
LINE
  5
28E
100
AcDbEntity
  8
LAYER_FEATURE
100
AcDbLine
 62
7
  6
CONTINUOUS
 10
5.5308720839
 20
11.944664267
 11
6.6108720839
 21
11.944664267
  0
LINE
  5
28F
100
AcDbEntity
  8
LAYER_FEATURE
100
AcDbLine
 62
7
  6
CONTINUOUS
 10
5.5308720839
 20
11.9696535152
 11
6.6108720839
 21
11.9696535152
  0
LINE
  5
290
100
AcDbEntity
  8
LAYER_FEATURE
100
AcDbLine
 62
7
  6
CONTINUOUS
 10
5.4925841684
 20
11.2350477814
 11
5.4925841684
 21
13.9650477814
  0
LINE
  5
291
100
AcDbEntity
  8
LAYER_FEATURE
100
AcDbLine
 62
7
  6
CONTINUOUS
 10
5.5308720839
 20
11.3298136975
 11
5.5308720839
 21
13.8702818652
  0
LINE
  5
292
100
AcDbEntity
  8
LAYER_CUT_FEAT
100
AcDbLine
 62
7
  6
CONTINUOUS
 10
5.5308720839
 20
12.1036493971
 11
6.6108720839
 21
12.1036493971
  0
LINE
  5
293
100
AcDbEntity
  8
LAYER_FEATURE
100
AcDbLine
 62
7
  6
CONTINUOUS
 10
5.5308720839
 20
12.1156506423
 11
6.6108720839
 21
12.1156506423
  0
LINE
  5
294
100
AcDbEntity
  8
LAYER_FEATURE
100
AcDbLine
 62
7
  6
CONTINUOUS
 10
5.5308720839
 20
12.1427277798
 11
6.6108720839
 21
12.1427277798
  0
LINE
  5
295
100
AcDbEntity
  8
LAYER_CUT_FEAT
100
AcDbLine
 62
7
  6
CONTINUOUS
 10
5.5308720839
 20
12.283537676
 11
6.6108720839
 21
12.283537676
  0
LINE
  5
296
100
AcDbEntity
  8
LAYER_FEATURE
100
AcDbLine
 62
7
  6
CONTINUOUS
 10
5.5308720839
 20
12.2985644829
 11
6.6108720839
 21
12.2985644829
  0
LINE
  5
297
100
AcDbEntity
  8
LAYER_FEATURE
100
AcDbLine
 62
7
  6
CONTINUOUS
 10
5.5308720839
 20
12.3270627806
 11
6.6108720839
 21
12.3270627806
  0
LINE
  5
298
100
AcDbEntity
  8
LAYER_FEATURE
100
AcDbLine
 62
7
  6
CONTINUOUS
 10
5.5308720839
 20
12.4889018428
 11
6.6108720839
 21
12.4889018428
  0
LINE
  5
299
100
AcDbEntity
  8
LAYER_FEATURE
100
AcDbLine
 62
7
  6
CONTINUOUS
 10
5.4925841684
 20
11.2350477814
 11
5.5308720839
 21
11.3298136975
  0
LINE
  5
29A
100
AcDbEntity
  8
LAYER_FEATURE
100
AcDbLine
 62
7
  6
CONTINUOUS
 10
5.5308720839
 20
12.5181195781
 11
6.6108720839
 21
12.5181195781
  0
LINE
  5
29B
100
AcDbEntity
  8
LAYER_FEATURE
100
AcDbLine
 62
7
  6
CONTINUOUS
 10
5.4925841684
 20
13.9650477814
 11
5.5308720839
 21
13.8702818652
  0
LINE
  5
29C
100
AcDbEntity
  8
LAYER_FEATURE
100
AcDbLine
 62
7
  6
CONTINUOUS
 10
6.6108720839
 20
13.8702818652
 11
6.6491599993
 21
13.9650477814
  0
LINE
  5
29D
100
AcDbEntity
  8
LAYER_FEATURE
100
AcDbLine
 62
7
  6
CONTINUOUS
 10
5.5308720839
 20
12.6819759846
 11
6.6108720839
 21
12.6819759846
  0
LINE
  5
29E
100
AcDbEntity
  8
LAYER_FEATURE
100
AcDbLine
 62
7
  6
CONTINUOUS
 10
5.5308720839
 20
12.7111937199
 11
6.6108720839
 21
12.7111937199
  0
LINE
  5
29F
100
AcDbEntity
  8
LAYER_FEATURE
100
AcDbLine
 62
7
  6
CONTINUOUS
 10
6.6108720839
 20
11.3298136975
 11
6.6491599993
 21
11.2350477814
  0
LINE
  5
2A0
100
AcDbEntity
  8
LAYER_FEATURE
100
AcDbLine
 62
7
  6
CONTINUOUS
 10
5.5308720839
 20
12.8730327821
 11
6.6108720839
 21
12.8730327821
  0
LINE
  5
2A1
100
AcDbEntity
  8
LAYER_FEATURE
100
AcDbLine
 62
7
  6
CONTINUOUS
 10
5.5308720839
 20
12.9015310799
 11
6.6108720839
 21
12.9015310799
  0
LINE
  5
2A2
100
AcDbEntity
  8
0
100
AcDbLine
 62
7
  6
CONTINUOUS
 10
5.5308720839
 20
12.9167208162
 11
6.6108720839
 21
12.9167208162
  0
LINE
  5
2A3
100
AcDbEntity
  8
LAYER_FEATURE
100
AcDbLine
 62
7
  6
CONTINUOUS
 10
5.5308720839
 20
13.057367783
 11
6.6108720839
 21
13.057367783
  0
LINE
  5
2A4
100
AcDbEntity
  8
LAYER_FEATURE
100
AcDbLine
 62
7
  6
CONTINUOUS
 10
5.5308720839
 20
13.0844449204
 11
6.6108720839
 21
13.0844449204
  0
LINE
  5
2A5
100
AcDbEntity
  8
0
100
AcDbLine
 62
7
  6
CONTINUOUS
 10
5.5308720839
 20
13.0964461657
 11
6.6108720839
 21
13.0964461657
  0
LINE
  5
2A6
100
AcDbEntity
  8
LAYER_FEATURE
100
AcDbLine
 62
7
  6
CONTINUOUS
 10
6.6108720839
 20
11.3298136975
 11
6.6108720839
 21
13.8702818652
  0
LINE
  5
2A7
100
AcDbEntity
  8
LAYER_FEATURE
100
AcDbLine
 62
7
  6
CONTINUOUS
 10
6.6491599993
 20
11.2350477814
 11
6.6491599993
 21
13.9650477814
  0
LINE
  5
2A8
100
AcDbEntity
  8
LAYER_FEATURE
100
AcDbLine
 62
7
  6
CONTINUOUS
 10
6.7138720839
 20
11.2350477814
 11
6.7138720839
 21
13.9650477814
  0
LINE
  5
2A9
100
AcDbEntity
  8
02___PRT_ALL_AXES
100
AcDbLine
 62
7
  6
CONTINUOUS
 10
6.7158720839
 20
11.5310478585
 11
6.7158720839
 21
13.6690477042
  0
LINE
  5
2AA
100
AcDbEntity
  8
LAYER_FEATURE
100
AcDbLine
 62
7
  6
CONTINUOUS
 10
5.5308720839
 20
13.2304420476
 11
6.6108720839
 21
13.2304420476
  0
LINE
  5
2AB
100
AcDbEntity
  8
LAYER_FEATURE
100
AcDbLine
 62
7
  6
CONTINUOUS
 10
5.5308720839
 20
13.2554312958
 11
6.6108720839
 21
13.2554312958
  0
LINE
  5
2AC
100
AcDbEntity
  8
0
100
AcDbLine
 62
7
  6
CONTINUOUS
 10
5.5308720839
 20
13.2645000202
 11
6.6108720839
 21
13.2645000202
  0
LINE
  5
2AD
100
AcDbEntity
  8
LAYER_FEATURE
100
AcDbLine
 62
7
  6
CONTINUOUS
 10
5.5308720839
 20
13.3879939132
 11
6.6108720839
 21
13.3879939132
  0
LINE
  5
2AE
100
AcDbEntity
  8
LAYER_FEATURE
100
AcDbLine
 62
7
  6
CONTINUOUS
 10
5.5308720839
 20
13.4102799539
 11
6.6108720839
 21
13.4102799539
  0
LINE
  5
2AF
100
AcDbEntity
  8
0
100
AcDbLine
 62
7
  6
CONTINUOUS
 10
5.5308720839
 20
13.4167236047
 11
6.6108720839
 21
13.4167236047
  0
LINE
  5
2B0
100
AcDbEntity
  8
02___PRT_ALL_AXES
100
AcDbLine
 62
7
  6
CONTINUOUS
 10
6.7158720839
 20
13.6690477814
 11
6.7138720839
 21
13.6686771033
  0
LINE
  5
2B1
100
AcDbEntity
  8
LAYER_FEATURE
100
AcDbLine
 62
7
  6
CONTINUOUS
 10
5.5308720839
 20
13.52614393
 11
6.6108720839
 21
13.52614393
  0
LINE
  5
2B2
100
AcDbEntity
  8
LAYER_FEATURE
100
AcDbLine
 62
7
  6
CONTINUOUS
 10
5.5308720839
 20
13.5451780069
 11
6.6108720839
 21
13.5451780069
  0
LINE
  5
2B3
100
AcDbEntity
  8
0
100
AcDbLine
 62
7
  6
CONTINUOUS
 10
5.5308720839
 20
13.5493796331
 11
6.6108720839
 21
13.5493796331
  0
LINE
  5
2B4
100
AcDbEntity
  8
02___PRT_ALL_AXES
100
AcDbLine
 62
7
  6
CONTINUOUS
 10
5.4278720839
 20
13.6686771033
 11
5.4258720839
 21
13.6690477814
  0
LINE
  5
2B5
100
AcDbEntity
  8
LAYER_FEATURE
100
AcDbLine
 62
7
  6
CONTINUOUS
 10
5.5308720839
 20
13.6414903862
 11
6.6108720839
 21
13.6414903862
  0
LINE
  5
2B6
100
AcDbEntity
  8
LAYER_FEATURE
100
AcDbLine
 62
7
  6
CONTINUOUS
 10
5.5308720839
 20
13.6568038171
 11
6.6108720839
 21
13.6568038171
  0
LINE
  5
2B7
100
AcDbEntity
  8
0
100
AcDbLine
 62
7
  6
CONTINUOUS
 10
5.5308720839
 20
13.6592016736
 11
6.6108720839
 21
13.6592016736
  0
LINE
  5
2B8
100
AcDbEntity
  8
LAYER_FEATURE
100
AcDbLine
 62
7
  6
CONTINUOUS
 10
5.5308720839
 20
13.731193069
 11
6.6108720839
 21
13.731193069
  0
LINE
  5
2B9
100
AcDbEntity
  8
LAYER_FEATURE
100
AcDbLine
 62
7
  6
CONTINUOUS
 10
5.5308720839
 20
13.7424087865
 11
6.6108720839
 21
13.7424087865
  0
LINE
  5
2BA
100
AcDbEntity
  8
0
100
AcDbLine
 62
7
  6
CONTINUOUS
 10
5.5308720839
 20
13.7434855432
 11
6.6108720839
 21
13.7434855432
  0
LINE
  5
2BB
100
AcDbEntity
  8
LAYER_FEATURE
100
AcDbLine
 62
7
  6
CONTINUOUS
 10
5.5308720839
 20
13.7930432008
 11
6.6108720839
 21
13.7930432008
  0
LINE
  5
2BC
100
AcDbEntity
  8
LAYER_FEATURE
100
AcDbLine
 62
7
  6
CONTINUOUS
 10
5.5308720839
 20
13.7998850367
 11
6.6108720839
 21
13.7998850367
  0
LINE
  5
2BD
100
AcDbEntity
  8
0
100
AcDbLine
 62
7
  6
CONTINUOUS
 10
5.5308720839
 20
13.8001558932
 11
6.6108720839
 21
13.8001558932
  0
LINE
  5
2BE
100
AcDbEntity
  8
LAYER_FEATURE
100
AcDbLine
 62
7
  6
CONTINUOUS
 10
5.5308720839
 20
13.825517826
 11
6.6108720839
 21
13.825517826
  0
LINE
  5
2BF
100
AcDbEntity
  8
LAYER_FEATURE
100
AcDbLine
 62
7
  6
CONTINUOUS
 10
5.5308720839
 20
13.8278173117
 11
6.6108720839
 21
13.8278173117
  0
LINE
  5
2C0
100
AcDbEntity
  8
LAYER_FEATURE
100
AcDbLine
 62
7
  6
CONTINUOUS
 10
5.4278720839
 20
13.9650477814
 11
5.4925841684
 21
13.9650477814
  0
LINE
  5
2C1
100
AcDbEntity
  8
LAYER_FEATURE
100
AcDbLine
 62
7
  6
CONTINUOUS
 10
6.6491599993
 20
13.9650477814
 11
6.7138720839
 21
13.9650477814
  0
LINE
  5
2C2
100
AcDbEntity
  8
LAYER_FEATURE
100
AcDbLine
 62
7
  6
CONTINUOUS
 10
14.8788308571
 20
11.1458049929
 11
14.9384346341
 21
11.1458049929
  0
LINE
  5
2C3
100
AcDbEntity
  8
LAYER_FEATURE
100
AcDbLine
 62
7
  6
CONTINUOUS
 10
16.0037115185
 20
11.1458049929
 11
16.0633152954
 21
11.1458049929
  0
LINE
  5
2C4
100
AcDbEntity
  8
LAYER_FEATURE
100
AcDbLine
 62
7
  6
CONTINUOUS
 10
14.9852724996
 20
11.2806638841
 11
15.7734228776
 21
11.2806638841
  0
LINE
  5
2C5
100
AcDbEntity
  8
0
100
AcDbLine
 62
7
  6
CONTINUOUS
 10
14.9218851742
 20
11.2876022051
 11
15.7679452207
 21
11.2876022051
  0
LINE
  5
2C6
100
AcDbEntity
  8
LAYER_FEATURE
100
AcDbLine
 62
7
  6
CONTINUOUS
 10
14.9215213677
 20
11.2876220502
 11
15.7679300807
 21
11.2876220502
  0
LINE
  5
2C7
100
AcDbEntity
  8
LAYER_FEATURE
100
AcDbLine
 62
7
  6
CONTINUOUS
 10
14.9101917349
 20
11.2911601934
 11
15.7652307836
 21
11.2911601934
  0
LINE
  5
2C8
100
AcDbEntity
  8
0
100
AcDbLine
 62
7
  6
CONTINUOUS
 10
14.8493476904
 20
11.3232057572
 11
15.7418674997
 21
11.3232057572
  0
LINE
  5
2C9
100
AcDbEntity
  8
LAYER_FEATURE
100
AcDbLine
 62
7
  6
CONTINUOUS
 10
14.847649366
 20
11.3236423602
 11
15.7415647715
 21
11.3236423602
  0
LINE
  5
2CA
100
AcDbEntity
  8
LAYER_FEATURE
100
AcDbLine
 62
7
  6
CONTINUOUS
 10
14.8366747579
 20
11.3316882054
 11
15.7359860105
 21
11.3316882054
  0
LINE
  5
2CB
100
AcDbEntity
  8
LAYER_FEATURE
100
AcDbLine
 62
7
  6
CONTINUOUS
 10
14.9215213677
 20
11.2876220502
 11
14.9218851742
 21
11.2876022806
  0
LINE
  5
2CC
100
AcDbEntity
  8
LAYER_FEATURE
100
AcDbLine
 62
7
  6
CONTINUOUS
 10
15.9980204837
 20
11.4516858131
 11
15.9989176672
 21
11.451877909
  0
LINE
  5
2CD
100
AcDbEntity
  8
LAYER_FEATURE
100
AcDbLine
 62
7
  6
CONTINUOUS
 10
15.9980249802
 20
11.4515247857
 11
15.9989229977
 21
11.4516926681
  0
LINE
  5
2CE
100
AcDbEntity
  8
0
100
AcDbLine
 62
7
  6
CONTINUOUS
 10
14.7798721766
 20
11.3875102307
 11
15.7018171856
 21
11.3875102307
  0
LINE
  5
2CF
100
AcDbEntity
  8
LAYER_FEATURE
100
AcDbLine
 62
7
  6
CONTINUOUS
 10
14.7768811526
 20
11.3888945542
 11
15.7010142475
 21
11.3888945542
  0
LINE
  5
2D0
100
AcDbEntity
  8
LAYER_FEATURE
100
AcDbLine
 62
7
  6
CONTINUOUS
 10
14.7665318006
 20
11.4012499859
 11
15.6942417624
 21
11.4012499859
  0
LINE
  5
2D1
100
AcDbEntity
  8
0
100
AcDbLine
 62
7
  6
CONTINUOUS
 10
14.7151693505
 20
11.4789322364
 11
15.6558968872
 21
11.4789322364
  0
LINE
  5
2D2
100
AcDbEntity
  8
LAYER_FEATURE
100
AcDbLine
 62
7
  6
CONTINUOUS
 10
14.7109592759
 20
11.4817719066
 11
15.6546118103
 21
11.4817719066
  0
LINE
  5
2D3
100
AcDbEntity
  8
LAYER_FEATURE
100
AcDbLine
 62
7
  6
CONTINUOUS
 10
14.7014900154
 20
11.4981326932
 11
15.6473499871
 21
11.4981326932
  0
LINE
  5
2D4
100
AcDbEntity
  8
02___PRT_ALL_AXES
100
AcDbLine
 62
7
  6
CONTINUOUS
 10
16.0325370354
 20
11.445092039
 11
15.9870980219
 21
11.4542636343
  0
LINE
  5
2D5
100
AcDbEntity
  8
0
100
AcDbLine
 62
7
  6
CONTINUOUS
 10
14.6568324104
 20
11.5952206608
 11
15.6095995892
 21
11.5952206608
  0
LINE
  5
2D6
100
AcDbEntity
  8
LAYER_FEATURE
100
AcDbLine
 62
7
  6
CONTINUOUS
 10
14.6515069513
 20
11.5999874688
 11
15.6079014619
 21
11.5999874688
  0
LINE
  5
2D7
100
AcDbEntity
  8
LAYER_FEATURE
100
AcDbLine
 62
7
  6
CONTINUOUS
 10
14.6431509468
 20
11.6199507533
 11
15.6010720798
 21
11.6199507533
  0
LINE
  5
2D8
100
AcDbEntity
  8
0
100
AcDbLine
 62
7
  6
CONTINUOUS
 10
14.6062978055
 20
11.7335120972
 11
15.5668045726
 21
11.7335120972
  0
LINE
  5
2D9
100
AcDbEntity
  8
LAYER_FEATURE
100
AcDbLine
 62
7
  6
CONTINUOUS
 10
14.5999880922
 20
11.7406303813
 11
15.5648764622
 21
11.7406303813
  0
LINE
  5
2DA
100
AcDbEntity
  8
LAYER_FEATURE
100
AcDbLine
 62
7
  6
CONTINUOUS
 10
14.5929510964
 20
11.7637046014
 11
15.5589654618
 21
11.7637046014
  0
LINE
  5
2DB
100
AcDbEntity
  8
0
100
AcDbLine
 62
7
  6
CONTINUOUS
 10
14.5648098653
 20
11.8904013513
 11
15.530323889
 21
11.8904013513
  0
LINE
  5
2DC
100
AcDbEntity
  8
LAYER_FEATURE
100
AcDbLine
 62
7
  6
CONTINUOUS
 10
14.5576712641
 20
11.9002375487
 11
15.5284138812
 21
11.9002375487
  0
LINE
  5
2DD
100
AcDbEntity
  8
LAYER_FEATURE
100
AcDbLine
 62
7
  6
CONTINUOUS
 10
14.552126551
 20
11.9258545406
 11
15.5234395347
 21
11.9258545406
  0
LINE
  5
2DE
100
AcDbEntity
  8
LAYER_FEATURE
100
AcDbLine
 62
7
  6
CONTINUOUS
 10
14.5325788845
 20
12.062124151
 11
14.5330951512
 21
12.0620612409
  0
LINE
  5
2DF
100
AcDbEntity
  8
0
100
AcDbLine
 62
7
  6
CONTINUOUS
 10
14.5330951512
 20
12.0620612389
 11
15.5017931914
 21
12.0620612389
  0
LINE
  5
2E0
100
AcDbEntity
  8
LAYER_FEATURE
100
AcDbLine
 62
7
  6
CONTINUOUS
 10
14.5255984475
 20
12.074878913
 11
15.5000091949
 21
12.074878913
  0
LINE
  5
2E1
100
AcDbEntity
  8
LAYER_FEATURE
100
AcDbLine
 62
7
  6
CONTINUOUS
 10
14.5216825466
 20
12.1024079013
 11
15.496614578
 21
12.1024079013
  0
LINE
  5
2E2
100
AcDbEntity
  8
0
100
AcDbLine
 62
7
  6
CONTINUOUS
 10
14.5120358141
 20
12.2444104692
 11
15.4824430988
 21
12.2444104692
  0
LINE
  5
2E3
100
AcDbEntity
  8
LAYER_FEATURE
100
AcDbLine
 62
7
  6
CONTINUOUS
 10
14.5045593818
 20
12.2602542241
 11
15.48129362
 21
12.2602542241
  0
LINE
  5
2E4
100
AcDbEntity
  8
LAYER_FEATURE
100
AcDbLine
 62
7
  6
CONTINUOUS
 10
14.5023687154
 20
12.2890173538
 11
15.4792305164
 21
12.2890173538
  0
LINE
  5
2E5
100
AcDbEntity
  8
LAYER_FEATURE
100
AcDbLine
 62
7
  6
CONTINUOUS
 10
14.4950721185
 20
12.4517989267
 11
15.472670222
 21
12.4517989267
  0
LINE
  5
2E6
100
AcDbEntity
  8
LAYER_FEATURE
100
AcDbLine
 62
7
  6
CONTINUOUS
 10
14.4946606281
 20
12.481087954
 11
15.4723835814
 21
12.481087954
  0
LINE
  5
2E7
100
AcDbEntity
  8
LAYER_FEATURE
100
AcDbLine
 62
7
  6
CONTINUOUS
 10
14.4973702656
 20
12.6447965545
 11
15.4748236272
 21
12.6447965545
  0
LINE
  5
2E8
100
AcDbEntity
  8
LAYER_FEATURE
100
AcDbLine
 62
7
  6
CONTINUOUS
 10
14.4987480835
 20
12.6738902864
 11
15.4760151001
 21
12.6738902864
  0
LINE
  5
2E9
100
AcDbEntity
  8
LAYER_FEATURE
100
AcDbLine
 62
7
  6
CONTINUOUS
 10
14.511397235
 20
12.8344948653
 11
15.4873733169
 21
12.8344948653
  0
LINE
  5
2EA
100
AcDbEntity
  8
LAYER_FEATURE
100
AcDbLine
 62
7
  6
CONTINUOUS
 10
14.5145304347
 20
12.8626769175
 11
15.4902135356
 21
12.8626769175
  0
LINE
  5
2EB
100
AcDbEntity
  8
LAYER_CUT_FEAT
100
AcDbLine
 62
7
  6
CONTINUOUS
 10
14.5220408269
 20
12.876884924
 11
15.4916454344
 21
12.876884924
  0
LINE
  5
2EC
100
AcDbEntity
  8
LAYER_FEATURE
100
AcDbLine
 62
7
  6
CONTINUOUS
 10
14.5490496662
 20
13.053987712
 11
14.5489957914
 21
13.0539870329
  0
LINE
  5
2ED
100
AcDbEntity
  8
LAYER_FEATURE
100
AcDbLine
 62
7
  6
CONTINUOUS
 10
14.5368076363
 20
13.0162228572
 11
15.5100359471
 21
13.0162228572
  0
LINE
  5
2EE
100
AcDbEntity
  8
LAYER_FEATURE
100
AcDbLine
 62
7
  6
CONTINUOUS
 10
14.541619068
 20
13.0427992941
 11
15.5142613527
 21
13.0427992941
  0
LINE
  5
2EF
100
AcDbEntity
  8
LAYER_CUT_FEAT
100
AcDbLine
 62
7
  6
CONTINUOUS
 10
14.5490496662
 20
13.0539877165
 11
15.5161670132
 21
13.0539877165
  0
LINE
  5
2F0
100
AcDbEntity
  8
LAYER_FEATURE
100
AcDbLine
 62
7
  6
CONTINUOUS
 10
14.5729757809
 20
13.1855057839
 11
15.5416864816
 21
13.1855057839
  0
LINE
  5
2F1
100
AcDbEntity
  8
LAYER_FEATURE
100
AcDbLine
 62
7
  6
CONTINUOUS
 10
14.5793469713
 20
13.2098222054
 11
15.5472552046
 21
13.2098222054
  0
LINE
  5
2F2
100
AcDbEntity
  8
LAYER_CUT_FEAT
100
AcDbLine
 62
7
  6
CONTINUOUS
 10
14.5860578923
 20
13.2181467861
 11
15.5491616234
 21
13.2181467861
  0
LINE
  5
2F3
100
AcDbEntity
  8
LAYER_FEATURE
100
AcDbLine
 62
7
  6
CONTINUOUS
 10
14.6190110892
 20
13.3381753379
 11
15.5810630495
 21
13.3381753379
  0
LINE
  5
2F4
100
AcDbEntity
  8
02___PRT_ALL_AXES
100
AcDbLine
 62
7
  6
CONTINUOUS
 10
16.0325370354
 20
13.5765179468
 11
15.9857604584
 21
13.5670763722
  0
LINE
  5
2F5
100
AcDbEntity
  8
LAYER_FEATURE
100
AcDbLine
 62
7
  6
CONTINUOUS
 10
14.6267851583
 20
13.3596329931
 11
15.5874357065
 21
13.3596329931
  0
LINE
  5
2F6
100
AcDbEntity
  8
0
100
AcDbLine
 62
7
  6
CONTINUOUS
 10
14.6325803715
 20
13.3654300757
 11
15.5893014763
 21
13.3654300757
  0
LINE
  5
2F7
100
AcDbEntity
  8
LAYER_FEATURE
100
AcDbLine
 62
7
  6
CONTINUOUS
 10
14.673780019
 20
13.4704722882
 11
15.6258152904
 21
13.4704722882
  0
LINE
  5
2F8
100
AcDbEntity
  8
LAYER_FEATURE
100
AcDbLine
 62
7
  6
CONTINUOUS
 10
14.6827655435
 20
13.4885428182
 11
15.6328924019
 21
13.4885428182
  0
LINE
  5
2F9
100
AcDbEntity
  8
0
100
AcDbLine
 62
7
  6
CONTINUOUS
 10
14.6875023514
 20
13.4922113724
 11
15.6343930269
 21
13.4922113724
  0
LINE
  5
2FA
100
AcDbEntity
  8
LAYER_FEATURE
100
AcDbLine
 62
7
  6
CONTINUOUS
 10
14.7359339775
 20
13.5791390446
 11
15.6729757123
 21
13.5791390446
  0
LINE
  5
2FB
100
AcDbEntity
  8
LAYER_FEATURE
100
AcDbLine
 62
7
  6
CONTINUOUS
 10
14.7459097041
 20
13.5933774932
 11
15.680036429
 21
13.5933774932
  0
LINE
  5
2FC
100
AcDbEntity
  8
0
100
AcDbLine
 62
7
  6
CONTINUOUS
 10
14.7494714707
 20
13.5953688999
 11
15.6810747068
 21
13.5953688999
  0
LINE
  5
2FD
100
AcDbEntity
  8
LAYER_FEATURE
100
AcDbLine
 62
7
  6
CONTINUOUS
 10
14.8039425281
 20
13.6614998712
 11
15.7179595934
 21
13.6614998712
  0
LINE
  5
2FE
100
AcDbEntity
  8
LAYER_FEATURE
100
AcDbLine
 62
7
  6
CONTINUOUS
 10
14.8146628211
 20
13.6715556404
 11
15.7241781521
 21
13.6715556404
  0
LINE
  5
2FF
100
AcDbEntity
  8
0
100
AcDbLine
 62
7
  6
CONTINUOUS
 10
14.816961844
 20
13.6723625776
 11
15.7246771678
 21
13.6723625776
  0
LINE
  5
300
100
AcDbEntity
  8
LAYER_FEATURE
100
AcDbLine
 62
7
  6
CONTINUOUS
 10
15.9989527147
 20
13.5699116767
 11
15.9984659281
 21
13.5700033973
  0
LINE
  5
301
100
AcDbEntity
  8
LAYER_FEATURE
100
AcDbLine
 62
7
  6
CONTINUOUS
 10
15.9989477162
 20
13.569738142
 11
15.9984614033
 21
13.5698437501
  0
LINE
  5
302
100
AcDbEntity
  8
LAYER_FEATURE
100
AcDbLine
 62
7
  6
CONTINUOUS
 10
14.8883116343
 20
13.7212965584
 11
14.8873319648
 21
13.7211522543
  0
LINE
  5
303
100
AcDbEntity
  8
LAYER_FEATURE
100
AcDbLine
 62
7
  6
CONTINUOUS
 10
14.8761310745
 20
13.7155267709
 11
15.7539921725
 21
13.7155267709
  0
LINE
  5
304
100
AcDbEntity
  8
LAYER_FEATURE
100
AcDbLine
 62
7
  6
CONTINUOUS
 10
14.8873319648
 20
13.7211522543
 11
15.7581750332
 21
13.7211522543
  0
LINE
  5
305
100
AcDbEntity
  8
0
100
AcDbLine
 62
7
  6
CONTINUOUS
 10
14.8883116343
 20
13.7212965656
 11
15.7582823367
 21
13.7212965656
  0
LINE
  5
306
100
AcDbEntity
  8
LAYER_FEATURE
100
AcDbLine
 62
7
  6
CONTINUOUS
 10
14.950722095
 20
13.7398894221
 11
15.7726937558
 21
13.7398894221
  0
LINE
  5
307
100
AcDbEntity
  8
LAYER_FEATURE
100
AcDbLine
 62
7
  6
CONTINUOUS
 10
14.9621277795
 20
13.7409461017
 11
15.7735617727
 21
13.7409461017
  0
LINE
  5
308
100
AcDbEntity
  8
LAYER_FEATURE
100
AcDbLine
 62
7
  6
CONTINUOUS
 10
14.8788308571
 20
13.8758049929
 11
14.9384346341
 21
13.8758049929
  0
LINE
  5
309
100
AcDbEntity
  8
LAYER_FEATURE
100
AcDbLine
 62
7
  6
CONTINUOUS
 10
16.0037115185
 20
13.8758049929
 11
16.0633152954
 21
13.8758049929
  0
CIRCLE
  5
30A
100
AcDbEntity
  8
LAYER_FEATURE
100
AcDbCircle
 62
7
  6
CONTINUOUS
 10
15.5603552569
 20
5.4606247044
 40
1.365
  0
CIRCLE
  5
30B
100
AcDbEntity
  8
LAYER_FEATURE
100
AcDbCircle
 62
7
  6
CONTINUOUS
 10
15.5603552569
 20
5.4606247044
 40
1.2702340839
  0
CIRCLE
  5
30C
100
AcDbEntity
  8
02___PRT_ALL_AXES
100
AcDbCircle
 62
7
  6
CONTINUOUS
 10
15.5603552569
 20
5.4606247044
 40
1.069
  0
CIRCLE
  5
30D
100
AcDbEntity
  8
LAYER_CHAMFER_FEAT
100
AcDbCircle
 62
7
  6
CONTINUOUS
 10
15.5603552569
 20
5.4606247044
 40
1.01
  0
CIRCLE
  5
30E
100
AcDbEntity
  8
LAYER_CHAMFER_FEAT
100
AcDbCircle
 62
7
  6
CONTINUOUS
 10
15.5603552569
 20
5.4606247044
 40
0.95
  0
ARC
  5
30F
100
AcDbEntity
  8
02___PRT_ALL_AXES
100
AcDbCircle
 62
7
  6
CONTINUOUS
 10
15.5603552569
 20
5.4606247044
 40
0.7555
100
AcDbArc
 50
246.8934190666
 51
43.1065809334
  0
ARC
  5
310
100
AcDbEntity
  8
02___PRT_ALL_AXES
100
AcDbCircle
 62
7
  6
CONTINUOUS
 10
15.5603552569
 20
5.4606247044
 40
0.7555
100
AcDbArc
 50
151.8934190666
 51
233.1065809334
  0
ARC
  5
311
100
AcDbEntity
  8
02___PRT_ALL_AXES
100
AcDbCircle
 62
7
  6
CONTINUOUS
 10
15.5603552569
 20
5.4606247044
 40
0.7555
100
AcDbArc
 50
56.8934190666
 51
138.1065809334
  0
ARC
  5
312
100
AcDbEntity
  8
02___PRT_ALL_AXES
100
AcDbCircle
 62
7
  6
CONTINUOUS
 10
15.5603552569
 20
5.4606247044
 40
0.7247322027
100
AcDbArc
 50
135.9668336828
 51
154.0331663172
  0
ARC
  5
313
100
AcDbEntity
  8
02___PRT_ALL_AXES
100
AcDbCircle
 62
7
  6
CONTINUOUS
 10
15.5603552569
 20
5.4606247044
 40
0.6939644055
100
AcDbArc
 50
60.2567357295
 51
229.7432642705
  0
ARC
  5
314
100
AcDbEntity
  8
02___PRT_ALL_AXES
100
AcDbCircle
 62
7
  6
CONTINUOUS
 10
15.5603552569
 20
5.4606247044
 40
0.6939644055
100
AcDbArc
 50
250.2567357295
 51
39.7432642705
  0
ARC
  5
315
100
AcDbEntity
  8
02___PRT_ALL_AXES
100
AcDbCircle
 62
7
  6
CONTINUOUS
 10
15.0164382995
 20
5.8414794582
 40
0.125
100
AcDbArc
 50
79.4532352815
 51
210.5467647185
  0
ARC
  5
316
100
AcDbEntity
  8
02___PRT_ALL_AXES
100
AcDbCircle
 62
7
  6
CONTINUOUS
 10
15.2283552569
 20
4.8855838363
 40
0.125
100
AcDbArc
 50
158.6847414281
 51
321.3152585719
  0
ARC
  5
317
100
AcDbEntity
  8
02___PRT_ALL_AXES
100
AcDbCircle
 62
7
  6
CONTINUOUS
 10
15.9871662298
 20
5.9692782147
 40
0.125
100
AcDbArc
 50
328.6847414281
 51
131.3152585719
  0
ARC
  5
318
100
AcDbEntity
  8
02___PRT_ALL_AXES
100
AcDbCircle
 62
7
  6
CONTINUOUS
 10
14.2651490708
 20
-2.0578774478
 40
13.9920071035
100
AcDbArc
 50
83.588051202
 51
83.8393573475
  0
ARC
  5
319
100
AcDbEntity
  8
LAYER_FEATURE
100
AcDbCircle
 62
7
  6
CONTINUOUS
 10
15.0200197854
 20
11.6646811333
 40
0.4444817697
100
AcDbArc
 50
162.0567931971
 51
163.9236519119
  0
ARC
  5
31A
100
AcDbEntity
  8
LAYER_FEATURE
100
AcDbCircle
 62
7
  6
CONTINUOUS
 10
14.8509941497
 20
11.8318041535
 40
0.3199210885
100
AcDbArc
 50
156.0626204284
 51
158.3889571718
  0
ARC
  5
31B
100
AcDbEntity
  8
LAYER_FEATURE
100
AcDbCircle
 62
7
  6
CONTINUOUS
 10
15.0302985481
 20
11.5842852094
 40
0.318269412
100
AcDbArc
 50
232.5286654873
 51
234.9786035044
  0
ARC
  5
31C
100
AcDbEntity
  8
LAYER_FEATURE
100
AcDbCircle
 62
7
  6
CONTINUOUS
 10
14.7111399788
 20
12.0235282507
 40
0.2125492222
100
AcDbArc
 50
148.3290485129
 51
151.3869396704
  0
ARC
  5
31D
100
AcDbEntity
  8
LAYER_FEATURE
100
AcDbCircle
 62
7
  6
CONTINUOUS
 10
14.9786388245
 20
11.4904288028
 40
0.2106964233
100
AcDbArc
 50
251.0428348939
 51
254.2709283511
  0
ARC
  5
31E
100
AcDbEntity
  8
LAYER_FEATURE
100
AcDbCircle
 62
7
  6
CONTINUOUS
 10
14.6351769142
 20
11.3737227478
 40
0.196286912
100
AcDbArc
 50
358.5353534761
 51
1.6913482848
  0
ARC
  5
31F
100
AcDbEntity
  8
LAYER_FEATURE
100
AcDbCircle
 62
7
  6
CONTINUOUS
 10
14.5746159736
 20
11.4565645644
 40
0.1896914637
100
AcDbArc
 50
354.9693343792
 51
358.2032022109
  0
ARC
  5
320
100
AcDbEntity
  8
LAYER_FEATURE
100
AcDbCircle
 62
7
  6
CONTINUOUS
 10
14.5293242792
 20
11.5640913563
 40
0.1736477497
100
AcDbArc
 50
351.1995296329
 51
354.6242238698
  0
ARC
  5
321
100
AcDbEntity
  8
LAYER_FEATURE
100
AcDbCircle
 62
7
  6
CONTINUOUS
 10
14.6752262549
 20
11.3749122508
 40
0.1562199113
100
AcDbArc
 50
1.6888117213
 51
4.6287766949
  0
ARC
  5
322
100
AcDbEntity
  8
LAYER_FEATURE
100
AcDbCircle
 62
7
  6
CONTINUOUS
 10
14.5007278139
 20
11.6923640152
 40
0.148056387
100
AcDbArc
 50
347.0098104803
 51
350.8187888583
  0
ARC
  5
323
100
AcDbEntity
  8
LAYER_FEATURE
100
AcDbCircle
 62
7
  6
CONTINUOUS
 10
14.521331739
 20
12.4846543246
 40
0.0551970359
100
AcDbArc
 50
248.9856509538
 51
252.8498039883
  0
ARC
  5
324
100
AcDbEntity
  8
LAYER_FEATURE
100
AcDbCircle
 62
7
  6
CONTINUOUS
 10
14.866842571
 20
11.3509732291
 40
0.0357006775
100
AcDbArc
 50
179.784273698
 51
183.7347644428
  0
ARC
  5
325
100
AcDbEntity
  8
LAYER_FEATURE
100
AcDbCircle
 62
7
  6
CONTINUOUS
 10
14.7976682945
 20
11.420338773
 40
0.0354935043
100
AcDbArc
 50
176.2618011372
 51
180.2354561777
  0
ARC
  5
326
100
AcDbEntity
  8
LAYER_FEATURE
100
AcDbCircle
 62
7
  6
CONTINUOUS
 10
14.9372007517
 20
11.3100570059
 40
0.0337123216
100
AcDbArc
 50
183.2972123026
 51
187.3935230405
  0
ARC
  5
327
100
AcDbEntity
  8
LAYER_FEATURE
100
AcDbCircle
 62
7
  6
CONTINUOUS
 10
14.731411209
 20
11.5167134405
 40
0.0331236362
100
AcDbArc
 50
172.5784055582
 51
176.7478552276
  0
ARC
  5
328
100
AcDbEntity
  8
LAYER_FEATURE
100
AcDbCircle
 62
7
  6
CONTINUOUS
 10
15.0625569994
 20
13.441171434
 40
0.4621757963
100
AcDbArc
 50
196.0704237378
 51
197.0076528575
  0
ARC
  5
329
100
AcDbEntity
  8
LAYER_FEATURE
100
AcDbCircle
 62
7
  6
CONTINUOUS
 10
15.0801834941
 20
13.3777460928
 40
0.3960117145
100
AcDbArc
 50
132.1046563073
 51
134.2313738228
  0
ARC
  5
32A
100
AcDbEntity
  8
LAYER_FEATURE
100
AcDbCircle
 62
7
  6
CONTINUOUS
 10
14.8865708571
 20
13.2844952722
 40
0.3362767686
100
AcDbArc
 50
201.6113719238
 51
202.7694734217
  0
ARC
  5
32B
100
AcDbEntity
  8
LAYER_FEATURE
100
AcDbCircle
 62
7
  6
CONTINUOUS
 10
14.9920656841
 20
13.4986533498
 40
0.2459164787
100
AcDbArc
 50
115.2071007049
 51
118.127743318
  0
ARC
  5
32C
100
AcDbEntity
  8
LAYER_FEATURE
100
AcDbCircle
 62
7
  6
CONTINUOUS
 10
14.7375221473
 20
13.1002469286
 40
0.2258571482
100
AcDbArc
 50
208.6235987533
 51
210.1330368528
  0
ARC
  5
32D
100
AcDbEntity
  8
LAYER_FEATURE
100
AcDbCircle
 62
7
  6
CONTINUOUS
 10
14.6761796796
 20
13.6842269674
 40
0.1938852001
100
AcDbArc
 50
356.488943492
 51
0.8475798404
  0
ARC
  5
32E
100
AcDbEntity
  8
LAYER_FEATURE
100
AcDbCircle
 62
7
  6
CONTINUOUS
 10
14.6067454165
 20
13.6162671036
 40
0.1934766335
100
AcDbArc
 50
355.3364456563
 51
4.3591163674
  0
ARC
  5
32F
100
AcDbEntity
  8
LAYER_FEATURE
100
AcDbCircle
 62
7
  6
CONTINUOUS
 10
14.9738024916
 20
13.5528463338
 40
0.1884617245
100
AcDbArc
 50
93.5515980354
 51
97.0345183332
  0
ARC
  5
330
100
AcDbEntity
  8
LAYER_FEATURE
100
AcDbCircle
 62
7
  6
CONTINUOUS
 10
14.6539517971
 20
13.6124973932
 40
0.1461195682
100
AcDbArc
 50
353.2675821306
 51
355.3047380808
  0
ARC
  5
331
100
AcDbEntity
  8
LAYER_FEATURE
100
AcDbCircle
 62
7
  6
CONTINUOUS
 10
14.6263131203
 20
12.8982750182
 40
0.1408376324
100
AcDbArc
 50
217.979072352
 51
220.0464716137
  0
ARC
  5
332
100
AcDbEntity
  8
LAYER_FEATURE
100
AcDbCircle
 62
7
  6
CONTINUOUS
 10
14.555933431
 20
12.6895642087
 40
0.0846924265
100
AcDbArc
 50
230.9864083545
 51
233.8883963551
  0
ARC
  5
333
100
AcDbEntity
  8
LAYER_FEATURE
100
AcDbCircle
 62
7
  6
CONTINUOUS
 10
14.5244731214
 20
12.6410438475
 40
0.0534538052
100
AcDbArc
 50
103.316980991
 51
110.9600688195
  0
ARC
  5
334
100
AcDbEntity
  8
LAYER_FEATURE
100
AcDbCircle
 62
7
  6
CONTINUOUS
 10
14.8347149062
 20
13.642250089
 40
0.0357638506
100
AcDbArc
 50
177.8776018771
 51
183.7049106376
  0
ARC
  5
335
100
AcDbEntity
  8
LAYER_FEATURE
100
AcDbCircle
 62
7
  6
CONTINUOUS
 10
14.9051124037
 20
13.696342933
 40
0.0351512381
100
AcDbArc
 50
174.3273397861
 51
180.2222701533
  0
ARC
  5
336
100
AcDbEntity
  8
LAYER_FEATURE
100
AcDbCircle
 62
7
  6
CONTINUOUS
 10
14.7662736829
 20
13.5602363667
 40
0.0341628143
100
AcDbArc
 50
181.3371481713
 51
187.3454320844
  0
ARC
  5
337
100
AcDbEntity
  8
LAYER_FEATURE
100
AcDbCircle
 62
7
  6
CONTINUOUS
 10
14.5523207052
 20
13.0716995716
 40
0.0270159134
100
AcDbArc
 50
318.9188016125
 51
322.5311007692
  0
ARC
  5
338
100
AcDbEntity
  8
LAYER_FEATURE
100
AcDbCircle
 62
7
  6
CONTINUOUS
 10
15.8262407149
 20
12.1034245844
 40
1.278064296
100
AcDbArc
 50
202.2275539333
 51
203.197757684
  0
ARC
  5
339
100
AcDbEntity
  8
LAYER_FEATURE
100
AcDbCircle
 62
7
  6
CONTINUOUS
 10
15.4441091249
 20
11.9170234785
 40
0.8526151722
100
AcDbArc
 50
209.4261360607
 51
210.6964780238
  0
ARC
  5
33A
100
AcDbEntity
  8
LAYER_FEATURE
100
AcDbCircle
 62
7
  6
CONTINUOUS
 10
15.6354947055
 20
11.3481366573
 40
0.8043580458
100
AcDbArc
 50
178.5346776228
 51
179.7883709435
  0
ARC
  5
33B
100
AcDbEntity
  8
LAYER_FEATURE
100
AcDbCircle
 62
7
  6
CONTINUOUS
 10
15.6939491315
 20
11.353839944
 40
0.7917262097
100
AcDbArc
 50
182.2175888887
 51
183.3106535794
  0
ARC
  5
33C
100
AcDbEntity
  8
LAYER_FEATURE
100
AcDbCircle
 62
7
  6
CONTINUOUS
 10
15.5269166393
 20
11.37263929
 40
0.7663001743
100
AcDbArc
 50
174.9621730052
 51
176.2578567269
  0
ARC
  5
33D
100
AcDbEntity
  8
LAYER_FEATURE
100
AcDbCircle
 62
7
  6
CONTINUOUS
 10
15.3773863679
 20
11.4324166198
 40
0.6845757518
100
AcDbArc
 50
171.1680452734
 51
172.5658142859
  0
ARC
  5
33E
100
AcDbEntity
  8
LAYER_FEATURE
100
AcDbCircle
 62
7
  6
CONTINUOUS
 10
15.202015968
 20
11.5300383694
 40
0.57177329
100
AcDbArc
 50
166.9564007292
 51
168.533540835
  0
ARC
  5
33F
100
AcDbEntity
  8
LAYER_FEATURE
100
AcDbCircle
 62
7
  6
CONTINUOUS
 10
15.1770811191
 20
11.7346285852
 40
0.528859181
100
AcDbArc
 50
219.0776542454
 51
220.8238396824
  0
ARC
  5
340
100
AcDbEntity
  8
LAYER_FEATURE
100
AcDbCircle
 62
7
  6
CONTINUOUS
 10
15.5972056354
 20
13.0225705564
 40
1.0263190685
100
AcDbArc
 50
152.9979226381
 51
154.1245900963
  0
ARC
  5
341
100
AcDbEntity
  8
LAYER_FEATURE
100
AcDbCircle
 62
7
  6
CONTINUOUS
 10
15.6758072345
 20
13.6989235169
 40
0.8058503845
100
AcDbArc
 50
180.1931747069
 51
180.8410337942
  0
ARC
  5
342
100
AcDbEntity
  8
LAYER_FEATURE
100
AcDbCircle
 62
7
  6
CONTINUOUS
 10
15.7269067874
 20
13.677668411
 40
0.7847822511
100
AcDbArc
 50
176.6676853216
 51
176.81309659
  0
ARC
  5
343
100
AcDbEntity
  8
LAYER_FEATURE
100
AcDbCircle
 62
7
  6
CONTINUOUS
 10
15.571786723
 20
13.6902713492
 40
0.7743983344
100
AcDbArc
 50
183.7265825951
 51
184.3916513598
  0
ARC
  5
344
100
AcDbEntity
  8
LAYER_FEATURE
100
AcDbCircle
 62
7
  6
CONTINUOUS
 10
15.424566899
 20
13.646028106
 40
0.6980228441
100
AcDbArc
 50
187.4212915039
 51
188.1337920238
  0
ARC
  5
345
100
AcDbEntity
  8
LAYER_FEATURE
100
AcDbCircle
 62
7
  6
CONTINUOUS
 10
15.2777423583
 20
13.2101516548
 40
0.6555211784
100
AcDbArc
 50
144.2243843032
 51
145.743989387
  0
ARC
  5
346
100
AcDbEntity
  8
LAYER_FEATURE
100
AcDbCircle
 62
7
  6
CONTINUOUS
 10
15.2485106976
 20
13.5629632631
 40
0.5885384325
100
AcDbArc
 50
191.4565275438
 51
192.2545768222
  0
ARC
  5
347
100
AcDbEntity
  8
LAYER_FEATURE
100
AcDbCircle
 62
7
  6
CONTINUOUS
 10
17.6495972928
 20
12.5107652106
 40
3.1550762427
100
AcDbArc
 50
180.5389431178
 51
181.0708824939
  0
ARC
  5
348
100
AcDbEntity
  8
LAYER_FEATURE
100
AcDbCircle
 62
7
  6
CONTINUOUS
 10
17.5939626177
 20
12.5127279544
 40
3.0994074127
100
AcDbArc
 50
177.0194019872
 51
177.5578347292
  0
ARC
  5
349
100
AcDbEntity
  8
LAYER_FEATURE
100
AcDbCircle
 62
7
  6
CONTINUOUS
 10
17.5104332688
 20
12.5036535146
 40
3.0157123601
100
AcDbArc
 50
184.0813416102
 51
184.6293995547
  0
ARC
  5
34A
100
AcDbEntity
  8
LAYER_FEATURE
100
AcDbCircle
 62
7
  6
CONTINUOUS
 10
17.3529455365
 20
12.5328448761
 40
2.8575145608
100
AcDbArc
 50
173.371791902
 51
173.9403516923
  0
ARC
  5
34B
100
AcDbEntity
  8
LAYER_FEATURE
100
AcDbCircle
 62
7
  6
CONTINUOUS
 10
17.1999513718
 20
12.4693391391
 40
2.7032873383
100
AcDbArc
 50
187.8011348713
 51
188.3904837968
  0
ARC
  5
34C
100
AcDbEntity
  8
LAYER_FEATURE
100
AcDbCircle
 62
7
  6
CONTINUOUS
 10
16.9668735989
 20
12.590004395
 40
2.4671608703
100
AcDbArc
 50
169.4246338212
 51
170.0518642851
  0
ARC
  5
34D
100
AcDbEntity
  8
LAYER_FEATURE
100
AcDbCircle
 62
7
  6
CONTINUOUS
 10
16.7695798309
 20
12.3924063935
 40
2.2660030185
100
AcDbArc
 50
191.8817198086
 51
192.5444469497
  0
ARC
  5
34E
100
AcDbEntity
  8
LAYER_FEATURE
100
AcDbCircle
 62
7
  6
CONTINUOUS
 10
16.4984954265
 20
12.6939897104
 40
1.9872629309
100
AcDbArc
 50
164.9554911182
 51
165.6802401539
  0
ARC
  5
34F
100
AcDbEntity
  8
LAYER_FEATURE
100
AcDbCircle
 62
7
  6
CONTINUOUS
 10
17.37658456
 20
12.7639446328
 40
1.8170051236
100
AcDbArc
 50
162.8281387462
 51
163.2938419793
  0
ARC
  5
350
100
AcDbEntity
  8
LAYER_FEATURE
100
AcDbCircle
 62
7
  6
CONTINUOUS
 10
16.2878837771
 20
12.2680018086
 40
1.7683643474
100
AcDbArc
 50
196.5694414417
 51
197.3510565785
  0
ARC
  5
351
100
AcDbEntity
  8
LAYER_FEATURE
100
AcDbCircle
 62
7
  6
CONTINUOUS
 10
16.0198294453
 20
12.8427985056
 40
1.4858298263
100
AcDbArc
 50
159.6446018364
 51
160.5246801093
  0
SPLINE
  5
352
100
AcDbEntity
  8
02___PRT_ALL_AXES
100
AcDbSpline
 62
7
  6
CONTINUOUS
 70
0
 71
3
 72
39
 73
35
 74
0
 42
0.0000001
 43
0.0000001
 44
0.0000000001
 40
0.0
 40
0.0
 40
0.0
 40
0.0
 40
0.0454991199
 40
0.0901085486
 40
0.1338004162
 40
0.176551778
 40
0.2183402503
 40
0.2591459199
 40
0.298951266
 40
0.3377412022
 40
0.3755034234
 40
0.4122286029
 40
0.4479106274
 40
0.4825468983
 40
0.5161386931
 40
0.5486915018
 40
0.5802154133
 40
0.6107255776
 40
0.6402427138
 40
0.6687935928
 40
0.696411578
 40
0.723137206
 40
0.7490187219
 40
0.7741125339
 40
0.7984835918
 40
0.8222056192
 40
0.8453610592
 40
0.8680407138
 40
0.8903430259
 40
0.9123729478
 40
0.9342403813
 40
0.9560582934
 40
0.9779406054
 40
1.0
 40
1.0
 40
1.0
 40
1.0
 10
16.3912471729
 20
11.8463039368
 30
0.0
 10
16.3886348846
 20
11.8378505691
 30
0.0
 10
16.3833144633
 20
11.8211540682
 30
0.0
 10
16.3749596457
 20
11.7965114627
 30
0.0
 10
16.3663154639
 20
11.7725359155
 30
0.0
 10
16.3573901383
 20
11.7492500646
 30
0.0
 10
16.3481919002
 20
11.7266754506
 30
0.0
 10
16.3387293594
 20
11.704833158
 30
0.0
 10
16.329011335
 20
11.6837435253
 30
0.0
 10
16.319046854
 20
11.663426192
 30
0.0
 10
16.3088451832
 20
11.6439000672
 30
0.0
 10
16.2984157994
 20
11.6251833049
 30
0.0
 10
16.2877683637
 20
11.6072933066
 30
0.0
 10
16.2769127077
 20
11.5902467057
 30
0.0
 10
16.265858853
 20
11.5740593301
 30
0.0
 10
16.2546169689
 20
11.5587462085
 30
0.0
 10
16.2431973534
 20
11.5443215743
 30
0.0
 10
16.2316104247
 20
11.530798852
 30
0.0
 10
16.2198667324
 20
11.5181906324
 30
0.0
 10
16.2079769133
 20
11.506508706
 30
0.0
 10
16.1959516839
 20
11.4957640794
 30
0.0
 10
16.1838018592
 20
11.4859669618
 30
0.0
 10
16.1715383609
 20
11.4771267727
 30
0.0
 10
16.1591722149
 20
11.4692521889
 30
0.0
 10
16.1467145868
 20
11.462351159
 30
0.0
 10
16.1341768544
 20
11.4564308479
 30
0.0
 10
16.1215706403
 20
11.4514976391
 30
0.0
 10
16.1089078597
 20
11.4475571022
 30
0.0
 10
16.0962007723
 20
11.4446138991
 30
0.0
 10
16.0834619654
 20
11.4426716219
 30
0.0
 10
16.0707043994
 20
11.4417327148
 30
0.0
 10
16.0579409145
 20
11.4417984595
 30
0.0
 10
16.0451856122
 20
11.4428686008
 30
0.0
 10
16.0367419216
 20
11.4442433106
 30
0.0
 10
16.0325370356
 20
11.4450920462
 30
0.0
  0
SPLINE
  5
353
100
AcDbEntity
  8
LAYER_FEATURE
100
AcDbSpline
 62
7
  6
CONTINUOUS
 70
0
 71
3
 72
24
 73
20
 74
0
 42
0.0000001
 43
0.0000001
 44
0.0000000001
 40
0.0
 40
0.0
 40
0.0
 40
0.0
 40
0.0539819675
 40
0.1081999635
 40
0.1628862228
 40
0.2182656611
 40
0.2745527453
 40
0.3319489853
 40
0.3906411323
 40
0.4507999351
 40
0.4814811028
 40
0.5125853334
 40
0.5761232067
 40
0.6415405026
 40
0.7089425242
 40
0.7784196466
 40
0.8500481988
 40
0.923891311
 40
1.0
 40
1.0
 40
1.0
 40
1.0
 10
14.9384346341
 20
13.8758049924
 30
0.0
 10
14.9434004662
 20
13.8758049889
 30
0.0
 10
14.9533575312
 20
13.875446115
 30
0.0
 10
14.9682665942
 20
13.8738329095
 30
0.0
 10
14.9831511467
 20
13.8711461164
 30
0.0
 10
14.9979977498
 20
13.8673884045
 30
0.0
 10
15.0127944867
 20
13.8625634866
 30
0.0
 10
15.0275294459
 20
13.8566759297
 30
0.0
 10
15.0421907408
 20
13.8497312521
 30
0.0
 10
15.0542582114
 20
13.8431117038
 30
0.0
 10
15.0638592484
 20
13.837307947
 30
0.0
 10
15.0735590936
 20
13.8310749442
 30
0.0
 10
15.0856213352
 20
13.8226185374
 30
0.0
 10
15.0998763625
 20
13.8115136469
 30
0.0
 10
15.1140027413
 20
13.799389248
 30
0.0
 10
15.1279894268
 20
13.786255223
 30
0.0
 10
15.1418258999
 20
13.772121833
 30
0.0
 10
15.1555014024
 20
13.7570004899
 30
0.0
 10
15.164369103
 20
13.746429792
 30
0.0
 10
15.1687755348
 20
13.7409890837
 30
0.0
  0
SPLINE
  5
354
100
AcDbEntity
  8
LAYER_FEATURE
100
AcDbSpline
 62
7
  6
CONTINUOUS
 70
0
 71
3
 72
24
 73
20
 74
0
 42
0.0000001
 43
0.0000001
 44
0.0000000001
 40
0.0
 40
0.0
 40
0.0
 40
0.0
 40
0.0539833097
 40
0.1082026023
 40
0.1628900739
 40
0.2182706019
 40
0.2745586061
 40
0.3319555764
 40
0.390648245
 40
0.4508073169
 40
0.4814885325
 40
0.5125927293
 40
0.5761303686
 40
0.6415471434
 40
0.7089483657
 40
0.7784244347
 40
0.850051652
 40
0.9238931559
 40
1.0
 40
1.0
 40
1.0
 40
1.0
 10
14.9384346341
 20
11.1458049934
 30
0.0
 10
14.9433999398
 20
11.1458049899
 30
0.0
 10
14.9533559436
 20
11.1461638039
 30
0.0
 10
14.9682634249
 20
11.1477766521
 30
0.0
 10
14.9831464035
 20
11.1504628765
 30
0.0
 10
14.9979914424
 20
11.1542197998
 30
0.0
 10
15.012786636
 20
11.1590436877
 30
0.0
 10
15.0275200716
 20
11.1649299967
 30
0.0
 10
15.0421798591
 20
11.1718732208
 30
0.0
 10
15.0542461285
 20
11.1784913724
 30
0.0
 10
15.0638462079
 20
11.1842939255
 30
0.0
 10
15.0735450877
 20
11.1905256021
 30
0.0
 10
15.0856061243
 20
11.1989802427
 30
0.0
 10
15.0998597818
 20
11.2100828092
 30
0.0
 10
15.1139848316
 20
11.2222046808
 30
0.0
 10
15.1279702226
 20
11.2353359878
 30
0.0
 10
15.1418054529
 20
11.2494664573
 30
0.0
 10
15.1554797703
 20
11.2645846813
 30
0.0
 10
15.1643467246
 20
11.2751532337
 30
0.0
 10
15.1687528001
 20
11.2805928333
 30
0.0
  0
SPLINE
  5
355
100
AcDbEntity
  8
LAYER_FEATURE
100
AcDbSpline
 62
7
  6
CONTINUOUS
 70
0
 71
3
 72
76
 73
72
 74
0
 42
0.0000001
 43
0.0000001
 44
0.0000000001
 40
0.0
 40
0.0
 40
0.0
 40
0.0
 40
0.0038447949
 40
0.0076961763
 40
0.0115606882
 40
0.0154447938
 40
0.019354833
 40
0.0232969918
 40
0.0272772655
 40
0.0313014335
 40
0.0353750373
 40
0.0395033555
 40
0.0479424261
 40
0.0566568948
 40
0.0656787707
 40
0.0750354801
 40
0.0847500608
 40
0.0948414419
 40
0.1053247665
 40
0.1162117264
 40
0.1275108884
 40
0.1392280017
 40
0.1513662771
 40
0.1639266411
 40
0.1769079607
 40
0.190307242
 40
0.2041198054
 40
0.21833944
 40
0.2329585395
 40
0.2479682227
 40
0.2633584398
 40
0.2791180688
 40
0.2952350014
 40
0.3116962213
 40
0.3284878748
 40
0.3455953359
 40
0.3630032665
 40
0.3806956722
 40
0.3986559551
 40
0.4168669631
 40
0.4353110378
 40
0.4539700599
 40
0.4728254925
 40
0.4918584234
 40
0.5110496055
 40
0.5303794972
 40
0.5498283007
 40
0.5693760012
 40
0.5890024044
 40
0.6086871743
 40
0.6284098701
 40
0.6481499833
 40
0.6678869742
 40
0.6876003085
 40
0.7072694943
 40
0.7268741184
 40
0.7463938842
 40
0.7658086482
 40
0.7850984576
 40
0.8042435887
 40
0.8232245851
 40
0.8420222969
 40
0.8606179211
 40
0.8789930431
 40
0.897129679
 40
0.9150103219
 40
0.932617976
 40
0.9499362462
 40
0.9669492622
 40
0.9836420544
 40
1.0
 40
1.0
 40
1.0
 40
1.0
 10
16.0633152954
 20
13.8758049852
 30
0.0
 10
16.0664188693
 20
13.8758049878
 30
0.0
 10
16.0726322384
 20
13.8756651737
 30
0.0
 10
16.0819459501
 20
13.8750361911
 30
0.0
 10
16.0912539591
 20
13.8739881891
 30
0.0
 10
16.1005530659
 20
13.8725214385
 30
0.0
 10
16.1098404221
 20
13.8706365217
 30
0.0
 10
16.1191130832
 20
13.8683340222
 30
0.0
 10
16.1283681737
 20
13.8656147412
 30
0.0
 10
16.1376027837
 20
13.8624796084
 30
0.0
 10
16.1468141753
 20
13.8589295554
 30
0.0
 10
16.1591503783
 20
13.8536062099
 30
0.0
 10
16.1745173135
 20
13.8458872285
 30
0.0
 10
16.1926774312
 20
13.8350540763
 30
0.0
 10
16.2106721387
 20
13.8225973934
 30
0.0
 10
16.228479561
 20
13.8085339674
 30
0.0
 10
16.2460792256
 20
13.7928817124
 30
0.0
 10
16.2634505516
 20
13.7756602767
 30
0.0
 10
16.2805732191
 20
13.7568909434
 30
0.0
 10
16.2974270538
 20
13.736596724
 30
0.0
 10
16.3139920795
 20
13.714802379
 30
0.0
 10
16.3302485438
 20
13.6915344396
 30
0.0
 10
16.3461769615
 20
13.6668212089
 30
0.0
 10
16.3617581523
 20
13.6406927478
 30
0.0
 10
16.3769732822
 20
13.6131808533
 30
0.0
 10
16.3918039014
 20
13.5843190291
 30
0.0
 10
16.40623198
 20
13.5541424492
 30
0.0
 10
16.4202399409
 20
13.5226879182
 30
0.0
 10
16.4338106901
 20
13.4899938264
 30
0.0
 10
16.4469276444
 20
13.4561001037
 30
0.0
 10
16.4595747603
 20
13.4210481704
 30
0.0
 10
16.4717365554
 20
13.3848808837
 30
0.0
 10
16.4833981315
 20
13.3476424835
 30
0.0
 10
16.494545195
 20
13.3093785358
 30
0.0
 10
16.5051640774
 20
13.2701358762
 30
0.0
 10
16.5152417529
 20
13.2299625507
 30
0.0
 10
16.5247658562
 20
13.1889077557
 30
0.0
 10
16.5337246982
 20
13.1470217773
 30
0.0
 10
16.5421072826
 20
13.104355929
 30
0.0
 10
16.5499033204
 20
13.0609624876
 30
0.0
 10
16.5571032406
 20
13.0168946276
 30
0.0
 10
16.5636982036
 20
12.9722063547
 30
0.0
 10
16.5696801116
 20
12.9269524398
 30
0.0
 10
16.5750416189
 20
12.8811883504
 30
0.0
 10
16.5797761412
 20
12.8349701831
 30
0.0
 10
16.5838778635
 20
12.7883545938
 30
0.0
 10
16.5873417479
 20
12.7413987286
 30
0.0
 10
16.5901635417
 20
12.6941601528
 30
0.0
 10
16.5923397799
 20
12.6466967802
 30
0.0
 10
16.5938677905
 20
12.5990668007
 30
0.0
 10
16.5947456969
 20
12.5513286095
 30
0.0
 10
16.5949724209
 20
12.5035407347
 30
0.0
 10
16.5945476836
 20
12.4557617661
 30
0.0
 10
16.5934720061
 20
12.4080502822
 30
0.0
 10
16.5917467082
 20
12.360464779
 30
0.0
 10
16.5893739095
 20
12.3130635971
 30
0.0
 10
16.5863565248
 20
12.2659048498
 30
0.0
 10
16.5826982603
 20
12.219046352
 30
0.0
 10
16.5784036089
 20
12.1725455484
 30
0.0
 10
16.5734778445
 20
12.1264594434
 30
0.0
 10
16.5679270157
 20
12.0808445306
 30
0.0
 10
16.5617579384
 20
12.0357567236
 30
0.0
 10
16.5549781868
 20
11.9912512861
 30
0.0
 10
16.5475960849
 20
11.9473827642
 30
0.0
 10
16.5396206982
 20
11.9042049157
 30
0.0
 10
16.5310618168
 20
11.8617706542
 30
0.0
 10
16.5219299497
 20
11.8201319483
 30
0.0
 10
16.5122363043
 20
11.7793398666
 30
0.0
 10
16.5019927635
 20
11.7394442161
 30
0.0
 10
16.4912119467
 20
11.7004941818
 30
0.0
 10
16.4835959988
 20
11.674923116
 30
0.0
 10
16.4796974434
 20
11.6623073862
 30
0.0
  0
SPLINE
  5
356
100
AcDbEntity
  8
LAYER_FEATURE
100
AcDbSpline
 62
7
  6
CONTINUOUS
 70
0
 71
3
 72
40
 73
36
 74
0
 42
0.0000001
 43
0.0000001
 44
0.0000000001
 40
0.0
 40
0.0
 40
0.0
 40
0.0
 40
0.021276931
 40
0.042647644
 40
0.0642044022
 40
0.0860365296
 40
0.1082291798
 40
0.1308623288
 40
0.1540100275
 40
0.1777399491
 40
0.1898437654
 40
0.2021154577
 40
0.2271863421
 40
0.2530027776
 40
0.2796063736
 40
0.3070327681
 40
0.3353119897
 40
0.3644688729
 40
0.3945234304
 40
0.4254911949
 40
0.4573836125
 40
0.490208379
 40
0.5239697063
 40
0.558668617
 40
0.5943032248
 40
0.6308689402
 40
0.6683586551
 40
0.7067629771
 40
0.7460703869
 40
0.7862673358
 40
0.8273385159
 40
0.8692667971
 40
0.9120332811
 40
0.9556188239
 40
1.0
 40
1.0
 40
1.0
 40
1.0
 10
16.0633152954
 20
11.1458050006
 30
0.0
 10
16.0683012244
 20
11.1458050047
 30
0.0
 10
16.0782987924
 20
11.1461667842
 30
0.0
 10
16.0932682797
 20
11.1477931137
 30
0.0
 10
16.1082129376
 20
11.1505017662
 30
0.0
 10
16.1231191709
 20
11.1542899701
 30
0.0
 10
16.1379749145
 20
11.1591539819
 30
0.0
 10
16.1527680981
 20
11.1650891909
 30
0.0
 10
16.1674867123
 20
11.1720899357
 30
0.0
 10
16.1796002989
 20
11.1787624954
 30
0.0
 10
16.1892376195
 20
11.1846126596
 30
0.0
 10
16.1989746609
 20
11.1908958996
 30
0.0
 10
16.2110825223
 20
11.199420402
 30
0.0
 10
16.2253899604
 20
11.2106139659
 30
0.0
 10
16.2395671847
 20
11.2228348937
 30
0.0
 10
16.2536030467
 20
11.2360731455
 30
0.0
 10
16.2674868841
 20
11.2503181999
 30
0.0
 10
16.2812079954
 20
11.2655587488
 30
0.0
 10
16.2947557926
 20
11.2817827653
 30
0.0
 10
16.3081198096
 20
11.2989774415
 30
0.0
 10
16.3212896781
 20
11.3171292394
 30
0.0
 10
16.3342551335
 20
11.3362238903
 30
0.0
 10
16.3470060666
 20
11.3562463675
 30
0.0
 10
16.3595325168
 20
11.3771809114
 30
0.0
 10
16.3718246609
 20
11.3990110557
 30
0.0
 10
16.3838728435
 20
11.4217196204
 30
0.0
 10
16.3956676122
 20
11.4452887121
 30
0.0
 10
16.4071996847
 20
11.4696997645
 30
0.0
 10
16.4184599603
 20
11.4949335436
 30
0.0
 10
16.4294395813
 20
11.5209701551
 30
0.0
 10
16.440129884
 20
11.5477890613
 30
0.0
 10
16.450522402
 20
11.5753690552
 30
0.0
 10
16.4606090162
 20
11.6036885634
 30
0.0
 10
16.4703816056
 20
11.6327249221
 30
0.0
 10
16.4766268525
 20
11.6523709506
 30
0.0
 10
16.4796974434
 20
11.6623073862
 30
0.0
  0
SPLINE
  5
357
100
AcDbEntity
  8
LAYER_CHAMFER_FEAT
100
AcDbSpline
 62
7
  6
CONTINUOUS
 70
0
 71
3
 72
15
 73
11
 74
0
 42
0.0000001
 43
0.0000001
 44
0.0000000001
 40
0.0
 40
0.0
 40
0.0
 40
0.0
 40
0.1375060016
 40
0.2714667399
 40
0.4018485959
 40
0.5286396659
 40
0.6518353097
 40
0.7714433989
 40
0.887486029
 40
1.0
 40
1.0
 40
1.0
 40
1.0
 10
15.8206704308
 20
11.7196448142
 30
0.0
 10
15.8236396208
 20
11.7135942411
 30
0.0
 10
15.8296418854
 20
11.7017173067
 30
0.0
 10
15.8389637911
 20
11.6843639514
 30
0.0
 10
15.8484797296
 20
11.6677182369
 30
0.0
 10
15.8581814254
 20
11.6517946355
 30
0.0
 10
15.8680607205
 20
11.6366065821
 30
0.0
 10
15.8781092948
 20
11.6221669882
 30
0.0
 10
15.8883184656
 20
11.6084884323
 30
0.0
 10
15.8953336318
 20
11.5997503655
 30
0.0
 10
15.8988675501
 20
11.5955165562
 30
0.0
  0
SPLINE
  5
358
100
AcDbEntity
  8
02___PRT_ALL_AXES
100
AcDbSpline
 62
7
  6
CONTINUOUS
 70
0
 71
3
 72
23
 73
19
 74
0
 42
0.0000001
 43
0.0000001
 44
0.0000000001
 40
0.0
 40
0.0
 40
0.0
 40
0.0
 40
0.0581884736
 40
0.1159339423
 40
0.1734681809
 40
0.2310261416
 40
0.2888424172
 40
0.347147736
 40
0.4061656637
 40
0.4661097896
 40
0.5271813172
 40
0.5895673273
 40
0.6534396981
 40
0.718954347
 40
0.7862511725
 40
0.8554543278
 40
0.9266725437
 40
1.0
 40
1.0
 40
1.0
 40
1.0
 10
16.0325370357
 20
13.5765179391
 30
0.0
 10
16.0362600992
 20
13.5772694206
 30
0.0
 10
16.0437305627
 20
13.5785189649
 30
0.0
 10
16.0550085376
 20
13.5796180742
 30
0.0
 10
16.066295051
 20
13.5799317789
 30
0.0
 10
16.0775805264
 20
13.5794597068
 30
0.0
 10
16.0888562236
 20
13.5782023066
 30
0.0
 10
16.1001132438
 20
13.5761607543
 30
0.0
 10
16.1113428837
 20
13.5733369887
 30
0.0
 10
16.1225365592
 20
13.5697335167
 30
0.0
 10
16.1336858726
 20
13.5653535146
 30
0.0
 10
16.1447826056
 20
13.5602007271
 30
0.0
 10
16.1558186583
 20
13.5542793567
 30
0.0
 10
16.1667861026
 20
13.5475941734
 30
0.0
 10
16.1776770967
 20
13.5401504259
 30
0.0
 10
16.1884839286
 20
13.5319537345
 30
0.0
 10
16.1991987311
 20
13.5230105349
 30
0.0
 10
16.2061717502
 20
13.5166497946
 30
0.0
 10
16.2096412311
 20
13.5133525929
 30
0.0
  0
SPLINE
  5
359
100
AcDbEntity
  8
02___PRT_ALL_AXES
100
AcDbSpline
 62
7
  6
CONTINUOUS
 70
0
 71
3
 72
15
 73
11
 74
0
 42
0.0000001
 43
0.0000001
 44
0.0000000001
 40
0.0
 40
0.0
 40
0.0
 40
0.0
 40
0.1140833082
 40
0.231177789
 40
0.351351566
 40
0.4746606255
 40
0.6011500428
 40
0.7308545289
 40
0.8637990873
 40
1.0
 40
1.0
 40
1.0
 40
1.0
 10
16.2096412311
 20
13.5133525929
 30
0.0
 10
16.2127958751
 20
13.5103545946
 30
0.0
 10
16.2190760229
 20
13.5041601499
 30
0.0
 10
16.2282865679
 20
13.4944197485
 30
0.0
 10
16.237403365
 20
13.4841166783
 30
0.0
 10
16.2464211472
 20
13.4732570271
 30
0.0
 10
16.2553348606
 20
13.461846943
 30
0.0
 10
16.2641394705
 20
13.4498929227
 30
0.0
 10
16.2728299633
 20
13.4374018946
 30
0.0
 10
16.2784759818
 20
13.4288249483
 30
0.0
 10
16.2812800932
 20
13.4244508873
 30
0.0
  0
SPLINE
  5
35A
100
AcDbEntity
  8
02___PRT_ALL_AXES
100
AcDbSpline
 62
7
  6
CONTINUOUS
 70
0
 71
3
 72
50
 73
46
 74
0
 42
0.0000001
 43
0.0000001
 44
0.0000000001
 40
0.0
 40
0.0
 40
0.0
 40
0.0
 40
0.0109294108
 40
0.0221416776
 40
0.0336360042
 40
0.0454108853
 40
0.0574641745
 40
0.0697930993
 40
0.082394328
 40
0.0952640062
 40
0.1083977696
 40
0.1217908066
 40
0.1354378682
 40
0.1493332916
 40
0.1634710479
 40
0.1778447374
 40
0.1924476261
 40
0.2072726729
 40
0.2223125242
 40
0.2375595561
 40
0.2686426954
 40
0.3004568013
 40
0.3329323795
 40
0.3659968936
 40
0.3995751757
 40
0.4335898118
 40
0.4679615228
 40
0.502609528
 40
0.5374518971
 40
0.5724058972
 40
0.6073883386
 40
0.6423159154
 40
0.6771055453
 40
0.7116747139
 40
0.7459418174
 40
0.7798265109
 40
0.8132500682
 40
0.8461357496
 40
0.878409176
 40
0.9099987259
 40
0.94083599
 40
0.9559524221
 40
0.9708567756
 40
0.9855419589
 40
1.0
 40
1.0
 40
1.0
 40
1.0
 10
16.2812800932
 20
13.4244508873
 30
0.0
 10
16.2844635051
 20
13.4194851653
 30
0.0
 10
16.2907748542
 20
13.4093361971
 30
0.0
 10
16.2999622307
 20
13.3936775946
 30
0.0
 10
16.3089848626
 20
13.3773997533
 30
0.0
 10
16.317836378
 20
13.3605142128
 30
0.0
 10
16.3265105935
 20
13.3430327246
 30
0.0
 10
16.3350014639
 20
13.3249675408
 30
0.0
 10
16.343303051
 20
13.3063312983
 30
0.0
 10
16.3514095226
 20
13.2871370351
 30
0.0
 10
16.3593152311
 20
13.2673982011
 30
0.0
 10
16.3670146192
 20
13.2471286147
 30
0.0
 10
16.3745022861
 20
13.2263424743
 30
0.0
 10
16.3817730038
 20
13.2050543508
 30
0.0
 10
16.3888216463
 20
13.1832791556
 30
0.0
 10
16.3956432812
 20
13.1610321564
 30
0.0
 10
16.4022331322
 20
13.1383289479
 30
0.0
 10
16.4085865416
 20
13.1151854531
 30
0.0
 10
16.4146991027
 20
13.0916178645
 30
0.0
 10
16.4225725199
 20
13.0594454856
 30
0.0
 10
16.4317689021
 20
13.0182810967
 30
0.0
 10
16.4417089792
 20
12.9677727931
 30
0.0
 10
16.4505949996
 20
12.9159832422
 30
0.0
 10
16.4584019423
 20
12.8630577968
 30
0.0
 10
16.4651078346
 20
12.8091446847
 30
0.0
 10
16.4706938089
 20
12.7543950388
 30
0.0
 10
16.4751441463
 20
12.6989623379
 30
0.0
 10
16.4784463155
 20
12.6430020028
 30
0.0
 10
16.4805910128
 20
12.5866709476
 30
0.0
 10
16.4815722097
 20
12.5301271383
 30
0.0
 10
16.4813871459
 20
12.4735291427
 30
0.0
 10
16.4800363364
 20
12.4170356822
 30
0.0
 10
16.4775235801
 20
12.3608051821
 30
0.0
 10
16.47385596
 20
12.3049953224
 30
0.0
 10
16.4690438013
 20
12.2497625912
 30
0.0
 10
16.4631006417
 20
12.1952618448
 30
0.0
 10
16.4560432095
 20
12.1416458548
 30
0.0
 10
16.4478913762
 20
12.089064908
 30
0.0
 10
16.4386680716
 20
12.037666255
 30
0.0
 10
16.4283992568
 20
11.9875941371
 30
0.0
 10
16.4189330979
 20
11.9468237425
 30
0.0
 10
16.4108484868
 20
11.9149887657
 30
0.0
 10
16.4045825404
 20
11.8916882611
 30
0.0
 10
16.3980785618
 20
11.8688223412
 30
0.0
 10
16.393550956
 20
11.8537589819
 30
0.0
 10
16.3912471729
 20
11.8463039368
 30
0.0
  0
SPLINE
  5
35B
100
AcDbEntity
  8
LAYER_CHAMFER_FEAT
100
AcDbSpline
 62
7
  6
CONTINUOUS
 70
0
 71
3
 72
63
 73
59
 74
0
 42
0.0000001
 43
0.0000001
 44
0.0000000001
 40
0.0
 40
0.0
 40
0.0
 40
0.0
 40
0.0101613709
 40
0.0206685404
 40
0.0315252142
 40
0.0427334051
 40
0.05429358
 40
0.0662048086
 40
0.0784648886
 40
0.0910704462
 40
0.1040170317
 40
0.1172992177
 40
0.1309106762
 40
0.1448442392
 40
0.1590919636
 40
0.173645197
 40
0.188494627
 40
0.2036303196
 40
0.2190417686
 40
0.2347179413
 40
0.2506473131
 40
0.2668178949
 40
0.2832172744
 40
0.2998326495
 40
0.3166508549
 40
0.3336583864
 40
0.3508414352
 40
0.3681859156
 40
0.3856774869
 40
0.4033015772
 40
0.4388873106
 40
0.4748236889
 40
0.5109884139
 40
0.5472578355
 40
0.5835076856
 40
0.6196138109
 40
0.6554529077
 40
0.6909032591
 40
0.7084456225
 40
0.7258462657
 40
0.7430907617
 40
0.7601649271
 40
0.7770548452
 40
0.7937468963
 40
0.8102277888
 40
0.8264845817
 40
0.8425047118
 40
0.8582760314
 40
0.8737868426
 40
0.8890259236
 40
0.903982566
 40
0.9186466239
 40
0.9330085447
 40
0.9470594353
 40
0.9607910817
 40
0.9741959357
 40
0.9872676774
 40
1.0
 40
1.0
 40
1.0
 40
1.0
 10
15.8988675496
 20
13.4260934323
 30
0.0
 10
15.8950266575
 20
13.4214918582
 30
0.0
 10
15.8874074996
 20
13.4119692398
 30
0.0
 10
15.8763489363
 20
13.397013963
 30
0.0
 10
15.8654813772
 20
13.3811647508
 30
0.0
 10
15.854815879
 20
13.3644378274
 30
0.0
 10
15.8443629719
 20
13.3468498926
 30
0.0
 10
15.8341331109
 20
13.3284186259
 30
0.0
 10
15.8241365345
 20
13.3091625216
 30
0.0
 10
15.8143832693
 20
13.2891009287
 30
0.0
 10
15.8048830985
 20
13.2682540237
 30
0.0
 10
15.7956455751
 20
13.2466427768
 30
0.0
 10
15.7866800071
 20
13.2242889316
 30
0.0
 10
15.7779954256
 20
13.2012149974
 30
0.0
 10
15.769600578
 20
13.1774442221
 30
0.0
 10
15.7615039343
 20
13.1530005567
 30
0.0
 10
15.7537136767
 20
13.1279086346
 30
0.0
 10
15.7462376648
 20
13.1021937571
 30
0.0
 10
15.7390834434
 20
13.0758818606
 30
0.0
 10
15.7322582421
 20
13.0489994832
 30
0.0
 10
15.7257689675
 20
13.0215737417
 30
0.0
 10
15.7196221689
 20
12.9936323119
 30
0.0
 10
15.7138240554
 20
12.9652033927
 30
0.0
 10
15.7083804919
 20
12.9363156737
 30
0.0
 10
15.7032969895
 20
12.9069983103
 30
0.0
 10
15.6985786781
 20
12.8772809004
 30
0.0
 10
15.6942303247
 20
12.8471934404
 30
0.0
 10
15.6902563374
 20
12.8167663197
 30
0.0
 10
15.6866607172
 20
12.7860301966
 30
0.0
 10
15.6823623309
 20
12.7445465232
 30
0.0
 10
15.6779671417
 20
12.6921392972
 30
0.0
 10
15.6742682587
 20
12.6287190875
 30
0.0
 10
15.6721430449
 20
12.5648230373
 30
0.0
 10
15.6716001344
 20
12.5007091605
 30
0.0
 10
15.6726417129
 20
12.4366360068
 30
0.0
 10
15.6752635674
 20
12.3728619566
 30
0.0
 10
15.6794550619
 20
12.3096445316
 30
0.0
 10
15.6842583369
 20
12.2574592843
 30
0.0
 10
15.6888802747
 20
12.2161932298
 30
0.0
 10
15.6927145886
 20
12.1856480335
 30
0.0
 10
15.6969247739
 20
12.1554312184
 30
0.0
 10
15.7015065956
 20
12.1255732291
 30
0.0
 10
15.7064554209
 20
12.0961042263
 30
0.0
 10
15.7117662526
 20
12.0670539548
 30
0.0
 10
15.7174337116
 20
12.0384517356
 30
0.0
 10
15.7234520681
 20
12.0103264355
 30
0.0
 10
15.7298152471
 20
11.9827064415
 30
0.0
 10
15.7365168182
 20
11.9556196242
 30
0.0
 10
15.743550001
 20
11.929093308
 30
0.0
 10
15.7509076898
 20
11.9031542511
 30
0.0
 10
15.7585824628
 20
11.8778286185
 30
0.0
 10
15.7665665673
 20
11.8531419486
 30
0.0
 10
15.7748519347
 20
11.8291191185
 30
0.0
 10
15.7834302125
 20
11.805784332
 30
0.0
 10
15.7922927441
 20
11.7831611637
 30
0.0
 10
15.801430637
 20
11.7612721979
 30
0.0
 10
15.8108345907
 20
11.7401398419
 30
0.0
 10
15.8173617608
 20
11.7263871746
 30
0.0
 10
15.8206704308
 20
11.7196448142
 30
0.0
  0
SPLINE
  5
35C
100
AcDbEntity
  8
LAYER_CHAMFER_FEAT
100
AcDbSpline
 62
7
  6
CONTINUOUS
 70
0
 71
3
 72
23
 73
19
 74
0
 42
0.0000001
 43
0.0000001
 44
0.0000000001
 40
0.0
 40
0.0
 40
0.0
 40
0.0
 40
0.0729666765
 40
0.1441234313
 40
0.2135294479
 40
0.281252627
 40
0.3473695478
 40
0.4119662919
 40
0.4751383134
 40
0.53699099
 40
0.5976393414
 40
0.6572081236
 40
0.7158312788
 40
0.7736514318
 40
0.8308189523
 40
0.8874908173
 40
0.9438292348
 40
1.0
 40
1.0
 40
1.0
 40
1.0
 10
15.876093397
 20
11.6251155944
 30
0.0
 10
15.8787191429
 20
11.6224998433
 30
0.0
 10
15.8839934807
 20
11.617420513
 30
0.0
 10
15.8920737381
 20
11.6101817948
 30
0.0
 10
15.9002177979
 20
11.6034243644
 30
0.0
 10
15.9084212262
 20
11.5971519434
 30
0.0
 10
15.9166798201
 20
11.5913679975
 30
0.0
 10
15.9249891947
 20
11.5860756588
 30
0.0
 10
15.933345041
 20
11.5812779488
 30
0.0
 10
15.9417429147
 20
11.5769775206
 30
0.0
 10
15.9501784011
 20
11.5731769083
 30
0.0
 10
15.9586469729
 20
11.5698782924
 30
0.0
 10
15.9671440842
 20
11.5670836836
 30
0.0
 10
15.9756651102
 20
11.564794767
 30
0.0
 10
15.9842053389
 20
11.5630129758
 30
0.0
 10
15.9927601341
 20
11.5617394525
 30
0.0
 10
16.0013242987
 20
11.560974992
 30
0.0
 10
16.0070405926
 20
11.5608049978
 30
0.0
 10
16.0098937578
 20
11.5608050008
 30
0.0
  0
SPLINE
  5
35D
100
AcDbEntity
  8
LAYER_CHAMFER_FEAT
100
AcDbSpline
 62
7
  6
CONTINUOUS
 70
0
 71
3
 72
23
 73
19
 74
0
 42
0.0000001
 43
0.0000001
 44
0.0000000001
 40
0.0
 40
0.0
 40
0.0
 40
0.0
 40
0.0561869981
 40
0.1125411643
 40
0.1692278157
 40
0.2264087253
 40
0.284240416
 40
0.3428729263
 40
0.4024484673
 40
0.4631007794
 40
0.5249542593
 40
0.58812385
 40
0.652714638
 40
0.7188220997
 40
0.7865321054
 40
0.855921318
 40
0.9270575215
 40
1.0
 40
1.0
 40
1.0
 40
1.0
 10
16.0098937578
 20
13.460804985
 30
0.0
 10
16.0070451438
 20
13.460804982
 30
0.0
 10
16.0013379995
 20
13.4606355444
 30
0.0
 10
15.9927875113
 20
13.4598735114
 30
0.0
 10
15.9842463418
 20
13.4586040719
 30
0.0
 10
15.9757196753
 20
13.4568279431
 30
0.0
 10
15.9672121044
 20
13.4545463479
 30
0.0
 10
15.95872835
 20
13.4517606068
 30
0.0
 10
15.9502729732
 20
13.4484725077
 30
0.0
 10
15.9418505504
 20
13.4446839288
 30
0.0
 10
15.9334655278
 20
13.4403971571
 30
0.0
 10
15.9251223663
 20
13.4356145936
 30
0.0
 10
15.91682542
 20
13.4303389845
 30
0.0
 10
15.9085790482
 20
13.4245732333
 30
0.0
 10
15.9003875491
 20
13.4183205387
 30
0.0
 10
15.8922551671
 20
13.411584273
 30
0.0
 10
15.8841862621
 20
13.4043681938
 30
0.0
 10
15.8789190957
 20
13.3993045774
 30
0.0
 10
15.8762968768
 20
13.3966969178
 30
0.0
  0
SPLINE
  5
35E
100
AcDbEntity
  8
LAYER_FEATURE
100
AcDbSpline
 62
7
  6
CONTINUOUS
 70
0
 71
3
 72
40
 73
36
 74
0
 42
0.0000001
 43
0.0000001
 44
0.0000000001
 40
0.0
 40
0.0
 40
0.0
 40
0.0
 40
0.0443811139
 40
0.0879667349
 40
0.1307332134
 40
0.1726614725
 40
0.2137326659
 40
0.2539296163
 40
0.2932370197
 40
0.331641343
 40
0.369131063
 40
0.4056967748
 40
0.4413313788
 40
0.4760302962
 40
0.5097916243
 40
0.5426163818
 40
0.5745088053
 40
0.6054765756
 40
0.6355311223
 40
0.6646880074
 40
0.692967238
 40
0.7203936252
 40
0.746997217
 40
0.7728136618
 40
0.7978845448
 40
0.8101562374
 40
0.8222600457
 40
0.8459899735
 40
0.8691376753
 40
0.8917708177
 40
0.9139634692
 40
0.9357956004
 40
0.9573523562
 40
0.9787230683
 40
1.0
 40
1.0
 40
1.0
 40
1.0
 10
14.4624487092
 20
13.3593025996
 30
0.0
 10
14.4655192957
 20
13.3692390213
 30
0.0
 10
14.4717645458
 20
13.3888850528
 30
0.0
 10
14.4815371332
 20
13.4179214147
 30
0.0
 10
14.49162375
 20
13.4462409345
 30
0.0
 10
14.5020162714
 20
13.4738209235
 30
0.0
 10
14.512706571
 20
13.500639829
 30
0.0
 10
14.5236861896
 20
13.5266764437
 30
0.0
 10
14.5349464701
 20
13.5519102197
 30
0.0
 10
14.5464785423
 20
13.5763212721
 30
0.0
 10
14.5582733058
 20
13.5998903672
 30
0.0
 10
14.5703214917
 20
13.6225989296
 30
0.0
 10
14.58261364
 20
13.6444290712
 30
0.0
 10
14.5951400839
 20
13.6653636198
 30
0.0
 10
14.6078910152
 20
13.6853860979
 30
0.0
 10
14.6208564806
 20
13.7044807413
 30
0.0
 10
14.6340263431
 20
13.7226325441
 30
0.0
 10
14.6473903531
 20
13.7398272262
 30
0.0
 10
14.6609381627
 20
13.7560512315
 30
0.0
 10
14.6746592716
 20
13.7712917822
 30
0.0
 10
14.688543099
 20
13.7855368477
 30
0.0
 10
14.7025789692
 20
13.7987750904
 30
0.0
 10
14.7167561988
 20
13.8109960105
 30
0.0
 10
14.7310636239
 20
13.8221895926
 30
0.0
 10
14.743171494
 20
13.8307140862
 30
0.0
 10
14.7529085286
 20
13.8369973328
 30
0.0
 10
14.7625458628
 20
13.8428474738
 30
0.0
 10
14.7746594374
 20
13.8495200542
 30
0.0
 10
14.7893780501
 20
13.8565208063
 30
0.0
 10
14.8041712424
 20
13.8624559921
 30
0.0
 10
14.8190269827
 20
13.8673200099
 30
0.0
 10
14.8339332118
 20
13.8711082348
 30
0.0
 10
14.8488778742
 20
13.8738168682
 30
0.0
 10
14.8638473608
 20
13.8754431829
 30
0.0
 10
14.873844928
 20
13.875804996
 30
0.0
 10
14.8788308571
 20
13.8758049924
 30
0.0
  0
SPLINE
  5
35F
100
AcDbEntity
  8
LAYER_FEATURE
100
AcDbSpline
 62
7
  6
CONTINUOUS
 70
0
 71
3
 72
39
 73
35
 74
0
 42
0.0000001
 43
0.0000001
 44
0.0000000001
 40
0.0
 40
0.0
 40
0.0
 40
0.0
 40
0.043592633
 40
0.0864490043
 40
0.1285474862
 40
0.1698712986
 40
0.2104039656
 40
0.2501298764
 40
0.2890351683
 40
0.3271074418
 40
0.3643358005
 40
0.4007111419
 40
0.436226166
 40
0.4708755374
 40
0.5046560983
 40
0.5375669314
 40
0.5696096397
 40
0.6007885183
 40
0.6311107247
 40
0.6605866273
 40
0.6892299691
 40
0.7170581749
 40
0.7440926952
 40
0.7703592114
 40
0.7958880202
 40
0.820714298
 40
0.8448783177
 40
0.8684257441
 40
0.8914076977
 40
0.9138808065
 40
0.9359071347
 40
0.9575538561
 40
0.9788928435
 40
1.0
 40
1.0
 40
1.0
 40
1.0
 10
15.7040953276
 20
13.1709547792
 30
0.0
 10
15.7063535686
 20
13.1782624496
 30
0.0
 10
15.7109425885
 20
13.1927204649
 30
0.0
 10
15.7181073858
 20
13.214107778
 30
0.0
 10
15.7254909105
 20
13.2349989366
 30
0.0
 10
15.7330878348
 20
13.2553789299
 30
0.0
 10
15.7408928299
 20
13.2752335869
 30
0.0
 10
15.7489004336
 20
13.2945488904
 30
0.0
 10
15.7571049769
 20
13.3133112157
 30
0.0
 10
15.7655006714
 20
13.3315073689
 30
0.0
 10
15.7740816443
 20
13.3491245289
 30
0.0
 10
15.7828418302
 20
13.3661503086
 30
0.0
 10
15.7917750852
 20
13.3825727286
 30
0.0
 10
15.8008751579
 20
13.3983802317
 30
0.0
 10
15.8101356379
 20
13.4135617219
 30
0.0
 10
15.8195500753
 20
13.4281065144
 30
0.0
 10
15.8291118838
 20
13.4420043936
 30
0.0
 10
15.8388143794
 20
13.455245606
 30
0.0
 10
15.8486508479
 20
13.4678208219
 30
0.0
 10
15.8586144305
 20
13.4797212201
 30
0.0
 10
15.8686982402
 20
13.4909384172
 30
0.0
 10
15.8788953343
 20
13.5014644826
 30
0.0
 10
15.8891986577
 20
13.5112919982
 30
0.0
 10
15.8996011642
 20
13.5204139488
 30
0.0
 10
15.9100957121
 20
13.5288238109
 30
0.0
 10
15.9206750949
 20
13.53651553
 30
0.0
 10
15.9313320913
 20
13.5434834343
 30
0.0
 10
15.9420593461
 20
13.5497223793
 30
0.0
 10
15.9528494475
 20
13.5552276208
 30
0.0
 10
15.9636948982
 20
13.559994848
 30
0.0
 10
15.9745879736
 20
13.5640202958
 30
0.0
 10
15.9855210828
 20
13.5673006258
 30
0.0
 10
15.9964856026
 20
13.569832979
 30
0.0
 10
16.0038435032
 20
13.5710263545
 30
0.0
 10
16.0075170962
 20
13.571495291
 30
0.0
  0
SPLINE
  5
360
100
AcDbEntity
  8
LAYER_FEATURE
100
AcDbSpline
 62
7
  6
CONTINUOUS
 70
0
 71
3
 72
72
 73
68
 74
0
 42
0.0000001
 43
0.0000001
 44
0.0000000001
 40
0.0
 40
0.0
 40
0.0
 40
0.0
 40
0.0161380096
 40
0.0325984453
 40
0.0493673784
 40
0.0664309933
 40
0.0837744247
 40
0.1013823868
 40
0.1192390336
 40
0.1373280383
 40
0.1556326383
 40
0.1741356683
 40
0.1928196008
 40
0.2116665798
 40
0.2306584594
 40
0.2497768395
 40
0.2690030997
 40
0.288318433
 40
0.3077038783
 40
0.327140355
 40
0.3660888199
 40
0.4050108959
 40
0.4244144305
 40
0.4437538353
 40
0.4630101087
 40
0.4821643909
 40
0.5011979984
 40
0.5200924587
 40
0.5388295432
 40
0.5573913019
 40
0.5757600986
 40
0.5939186491
 40
0.6118500602
 40
0.6295378663
 40
0.6469660695
 40
0.6641191816
 40
0.6809822704
 40
0.6975410087
 40
0.7137817214
 40
0.7296914387
 40
0.7452579529
 40
0.7604698845
 40
0.775316753
 40
0.7897890495
 40
0.8038783199
 40
0.8175772583
 40
0.8308798146
 40
0.8437813163
 40
0.8562785981
 40
0.8683701527
 40
0.8800563015
 40
0.8913393895
 40
0.9022240073
 40
0.9127172276
 40
0.9228288696
 40
0.9325717841
 40
0.9419621508
 40
0.951019777
 40
0.9597683642
 40
0.9682357214
 40
0.9764538842
 40
0.9804814413
 40
0.9844606392
 40
0.9883966232
 40
0.9922947658
 40
0.9961606414
 40
1.0
 40
1.0
 40
1.0
 40
1.0
 10
15.7040953276
 20
13.1709547792
 30
0.0
 10
15.701140894
 20
13.1613942287
 30
0.0
 10
15.6953656022
 20
13.1420220774
 30
0.0
 10
15.6871774969
 20
13.1125247294
 30
0.0
 10
15.6793857375
 20
13.0823270815
 30
0.0
 10
15.6719994306
 20
13.0514645715
 30
0.0
 10
15.6650271702
 20
13.019972896
 30
0.0
 10
15.6584770853
 20
12.9878887469
 30
0.0
 10
15.6523568043
 20
12.9552494233
 30
0.0
 10
15.6466734574
 20
12.9220928972
 30
0.0
 10
15.6414336674
 20
12.8884577418
 30
0.0
 10
15.6366435431
 20
12.8543830879
 30
0.0
 10
15.6323086722
 20
12.8199085817
 30
0.0
 10
15.6284341045
 20
12.7850743392
 30
0.0
 10
15.6250243536
 20
12.7499208968
 30
0.0
 10
15.6220833941
 20
12.7144891648
 30
0.0
 10
15.6196146542
 20
12.6788203714
 30
0.0
 10
15.6176210216
 20
12.642956047
 30
0.0
 10
15.6161047982
 20
12.606937858
 30
0.0
 10
15.6147212754
 20
12.5587337035
 30
0.0
 10
15.6141954246
 20
12.4983916167
 30
0.0
 10
15.6152703569
 20
12.4380772177
 30
0.0
 10
15.6170932304
 20
12.3899530528
 30
0.0
 10
15.6189371397
 20
12.3540358525
 30
0.0
 10
15.6212569204
 20
12.3183011671
 30
0.0
 10
15.6240498933
 20
12.2827905125
 30
0.0
 10
15.6273127969
 20
12.2475452348
 30
0.0
 10
15.631041825
 20
12.2126063443
 30
0.0
 10
15.6352326299
 20
12.1780144995
 30
0.0
 10
15.6398803272
 20
12.1438099525
 30
0.0
 10
15.6449795034
 20
12.1100325042
 30
0.0
 10
15.6505242163
 20
12.0767214544
 30
0.0
 10
15.6565079993
 20
12.0439155552
 30
0.0
 10
15.6629238784
 20
12.0116529673
 30
0.0
 10
15.6697643778
 20
11.9799712172
 30
0.0
 10
15.677021531
 20
11.9489071525
 30
0.0
 10
15.684686886
 20
11.9184968959
 30
0.0
 10
15.6927515103
 20
11.8887757996
 30
0.0
 10
15.7012060127
 20
11.8597784078
 30
0.0
 10
15.7100405519
 20
11.8315384175
 30
0.0
 10
15.7192448512
 20
11.8040886382
 30
0.0
 10
15.7288082088
 20
11.77746095
 30
0.0
 10
15.7387195043
 20
11.7516862607
 30
0.0
 10
15.7489672257
 20
11.7267944746
 30
0.0
 10
15.7595394825
 20
11.7028144595
 30
0.0
 10
15.7704240249
 20
11.6797740126
 30
0.0
 10
15.7816082613
 20
11.657699824
 30
0.0
 10
15.7930792681
 20
11.6366174401
 30
0.0
 10
15.8048238246
 20
11.6165512416
 30
0.0
 10
15.8168284333
 20
11.5975244219
 30
0.0
 10
15.8290793461
 20
11.5795589651
 30
0.0
 10
15.8415625922
 20
11.5626756274
 30
0.0
 10
15.8542639924
 20
11.5468939147
 30
0.0
 10
15.8671691996
 20
11.5322320895
 30
0.0
 10
15.8802637224
 20
11.5187071803
 30
0.0
 10
15.8935329367
 20
11.5063349998
 30
0.0
 10
15.9069621189
 20
11.4951301645
 30
0.0
 10
15.9205363363
 20
11.485106141
 30
0.0
 10
15.9342407235
 20
11.4762751918
 30
0.0
 10
15.9480593461
 20
11.4686487738
 30
0.0
 10
15.9597364707
 20
11.4632692806
 30
0.0
 10
15.9691045601
 20
11.4595954971
 30
0.0
 10
15.9761016302
 20
11.4571645619
 30
0.0
 10
15.9831140991
 20
11.4550406878
 30
0.0
 10
15.9901400425
 20
11.4532244675
 30
0.0
 10
15.9971771759
 20
11.4517164903
 30
0.0
 10
16.0018889135
 20
11.4509146166
 30
0.0
 10
16.0042438971
 20
11.4505659307
 30
0.0
  0
SPLINE
  5
361
100
AcDbEntity
  8
LAYER_FEATURE
100
AcDbSpline
 62
7
  6
CONTINUOUS
 70
0
 71
3
 72
76
 73
72
 74
0
 42
0.0000001
 43
0.0000001
 44
0.0000000001
 40
0.0
 40
0.0
 40
0.0
 40
0.0
 40
0.0163579456
 40
0.0330507378
 40
0.0500637538
 40
0.067382024
 40
0.0849896781
 40
0.102870321
 40
0.1210069569
 40
0.1393820789
 40
0.1579777031
 40
0.1767754149
 40
0.1957564113
 40
0.2149015424
 40
0.2341913518
 40
0.2536061158
 40
0.2731258816
 40
0.2927305057
 40
0.3123996915
 40
0.3321130258
 40
0.3518500167
 40
0.3715901299
 40
0.3913128257
 40
0.4109975956
 40
0.4306239988
 40
0.4501716993
 40
0.4696205028
 40
0.4889503945
 40
0.5081415766
 40
0.5271745075
 40
0.5460299401
 40
0.5646889622
 40
0.5831330369
 40
0.6013440449
 40
0.6193043278
 40
0.6369967335
 40
0.6544046641
 40
0.6715121252
 40
0.6883037787
 40
0.7047649986
 40
0.7208819312
 40
0.7366415602
 40
0.7520317773
 40
0.7670414605
 40
0.78166056
 40
0.7958801946
 40
0.809692758
 40
0.8230920393
 40
0.8360733589
 40
0.8486337229
 40
0.8607719983
 40
0.8724891116
 40
0.8837882736
 40
0.8946752335
 40
0.9051585581
 40
0.9152499392
 40
0.9249645199
 40
0.9343212293
 40
0.9433431052
 40
0.9520575739
 40
0.9604966445
 40
0.9646249627
 40
0.9686985665
 40
0.9727227345
 40
0.9767030082
 40
0.980645167
 40
0.9845552062
 40
0.9884393118
 40
0.9923038237
 40
0.9961552051
 40
1.0
 40
1.0
 40
1.0
 40
1.0
 10
15.5873293706
 20
13.3593025996
 30
0.0
 10
15.5834308152
 20
13.3466868698
 30
0.0
 10
15.5758148672
 20
13.321115804
 30
0.0
 10
15.5650340504
 20
13.2821657697
 30
0.0
 10
15.5547905096
 20
13.2422701192
 30
0.0
 10
15.5450968643
 20
13.2014780375
 30
0.0
 10
15.5359649971
 20
13.1598393316
 30
0.0
 10
15.5274061157
 20
13.1174050701
 30
0.0
 10
15.519430729
 20
13.0742272216
 30
0.0
 10
15.5120486272
 20
13.0303586998
 30
0.0
 10
15.5052688755
 20
12.9858532623
 30
0.0
 10
15.4990997982
 20
12.9407654552
 30
0.0
 10
15.4935489695
 20
12.8951505424
 30
0.0
 10
15.488623205
 20
12.8490644374
 30
0.0
 10
15.4843285536
 20
12.8025636338
 30
0.0
 10
15.4806702891
 20
12.755705136
 30
0.0
 10
15.4776529045
 20
12.7085463887
 30
0.0
 10
15.4752801057
 20
12.6611452068
 30
0.0
 10
15.4735548079
 20
12.6135597036
 30
0.0
 10
15.4724791303
 20
12.5658482197
 30
0.0
 10
15.472054393
 20
12.5180692511
 30
0.0
 10
15.472281117
 20
12.4702813763
 30
0.0
 10
15.4731590235
 20
12.4225431851
 30
0.0
 10
15.474687034
 20
12.3749132056
 30
0.0
 10
15.4768632723
 20
12.327449833
 30
0.0
 10
15.479685066
 20
12.2802112573
 30
0.0
 10
15.4831489505
 20
12.233255392
 30
0.0
 10
15.4872506728
 20
12.1866398027
 30
0.0
 10
15.4919851951
 20
12.1404216354
 30
0.0
 10
15.4973467023
 20
12.094657546
 30
0.0
 10
15.5033286103
 20
12.0494036311
 30
0.0
 10
15.5099235733
 20
12.0047153582
 30
0.0
 10
15.5171234936
 20
11.9606474982
 30
0.0
 10
15.5249195313
 20
11.9172540568
 30
0.0
 10
15.5333021158
 20
11.8745882085
 30
0.0
 10
15.5422609577
 20
11.8327022301
 30
0.0
 10
15.551785061
 20
11.7916474352
 30
0.0
 10
15.5618627365
 20
11.7514741096
 30
0.0
 10
15.5724816189
 20
11.71223145
 30
0.0
 10
15.5836286825
 20
11.6739675024
 30
0.0
 10
15.5952902585
 20
11.6367291021
 30
0.0
 10
15.6074520536
 20
11.6005618155
 30
0.0
 10
15.6200991695
 20
11.5655098821
 30
0.0
 10
15.6332161238
 20
11.5316161594
 30
0.0
 10
15.646786873
 20
11.4989220676
 30
0.0
 10
15.6607948339
 20
11.4674675366
 30
0.0
 10
15.6752229125
 20
11.4372909568
 30
0.0
 10
15.6900535317
 20
11.4084291325
 30
0.0
 10
15.7052686616
 20
11.380917238
 30
0.0
 10
15.7208498524
 20
11.3547887769
 30
0.0
 10
15.7367782702
 20
11.3300755462
 30
0.0
 10
15.7530347345
 20
11.3068076068
 30
0.0
 10
15.7695997601
 20
11.2850132618
 30
0.0
 10
15.7864535948
 20
11.2647190424
 30
0.0
 10
15.8035762624
 20
11.2459497091
 30
0.0
 10
15.8209475884
 20
11.2287282734
 30
0.0
 10
15.8385472529
 20
11.2130760184
 30
0.0
 10
15.8563546752
 20
11.1990125924
 30
0.0
 10
15.8743493828
 20
11.1865559096
 30
0.0
 10
15.8925095004
 20
11.1757227573
 30
0.0
 10
15.9078764356
 20
11.1680037759
 30
0.0
 10
15.9202126386
 20
11.1626804304
 30
0.0
 10
15.9294240302
 20
11.1591303774
 30
0.0
 10
15.9386586403
 20
11.1559952446
 30
0.0
 10
15.9479137307
 20
11.1532759636
 30
0.0
 10
15.9571863919
 20
11.1509734641
 30
0.0
 10
15.9664737481
 20
11.1490885474
 30
0.0
 10
15.9757728548
 20
11.1476217967
 30
0.0
 10
15.9850808638
 20
11.1465737947
 30
0.0
 10
15.9943945756
 20
11.1459448121
 30
0.0
 10
16.0006079447
 20
11.145804998
 30
0.0
 10
16.0037115185
 20
11.1458050006
 30
0.0
  0
SPLINE
  5
362
100
AcDbEntity
  8
LAYER_FEATURE
100
AcDbSpline
 62
7
  6
CONTINUOUS
 70
0
 71
3
 72
76
 73
72
 74
0
 42
0.0000001
 43
0.0000001
 44
0.0000000001
 40
0.0
 40
0.0
 40
0.0
 40
0.0
 40
0.0163579319
 40
0.0330507458
 40
0.0500637514
 40
0.0673820247
 40
0.0849896778
 40
0.1028703205
 40
0.1210069566
 40
0.1393820792
 40
0.1579777039
 40
0.1767754155
 40
0.1957564115
 40
0.2149015422
 40
0.2341913514
 40
0.2536061154
 40
0.2731258816
 40
0.292730506
 40
0.3123996917
 40
0.3321130259
 40
0.3518500166
 40
0.3715901299
 40
0.391312826
 40
0.4109975959
 40
0.4306239989
 40
0.450171699
 40
0.4696205022
 40
0.4889503939
 40
0.5081415766
 40
0.5271745082
 40
0.5460299411
 40
0.5646889628
 40
0.5831330367
 40
0.601344044
 40
0.6193043266
 40
0.636996733
 40
0.6544046645
 40
0.6715121261
 40
0.6883037794
 40
0.7047649988
 40
0.7208819308
 40
0.7366415595
 40
0.7520317768
 40
0.7670414605
 40
0.7816605603
 40
0.7958801947
 40
0.8096927578
 40
0.8230920391
 40
0.836073359
 40
0.8486337234
 40
0.8607719989
 40
0.8724891115
 40
0.8837882728
 40
0.8946752324
 40
0.9051585573
 40
0.9152499392
 40
0.9249645208
 40
0.9343212306
 40
0.943343106
 40
0.9520575736
 40
0.9604966434
 40
0.9646249637
 40
0.9686985657
 40
0.9727227351
 40
0.976703008
 40
0.9806451669
 40
0.9845552064
 40
0.9884393115
 40
0.9923038239
 40
0.996155205
 40
1.0
 40
1.0
 40
1.0
 40
1.0
 10
14.4624487092
 20
13.3593025996
 30
0.0
 10
14.4585501571
 20
13.3466868803
 30
0.0
 10
14.450934209
 20
13.3211158078
 30
0.0
 10
14.4401533898
 20
13.2821657762
 30
0.0
 10
14.4299098491
 20
13.2422701137
 30
0.0
 10
14.4202162031
 20
13.2014780391
 30
0.0
 10
14.4110843352
 20
13.1598393318
 30
0.0
 10
14.402525453
 20
13.1174050714
 30
0.0
 10
14.3945500662
 20
13.0742272224
 30
0.0
 10
14.3871679666
 20
13.0303586991
 30
0.0
 10
14.3803882165
 20
12.9858532606
 30
0.0
 10
14.3742191393
 20
12.9407654536
 30
0.0
 10
14.3686683094
 20
12.8951505418
 30
0.0
 10
14.3637425431
 20
12.8490644378
 30
0.0
 10
14.3594478898
 20
12.8025636349
 30
0.0
 10
14.3557896246
 20
12.7557051369
 30
0.0
 10
14.3527722421
 20
12.7085463889
 30
0.0
 10
14.3503994465
 20
12.6611452063
 30
0.0
 10
14.3486741505
 20
12.613559703
 30
0.0
 10
14.3475984721
 20
12.5658482195
 30
0.0
 10
14.3471737325
 20
12.5180692511
 30
0.0
 10
14.3474004536
 20
12.4702813763
 30
0.0
 10
14.3482783582
 20
12.4225431847
 30
0.0
 10
14.3498063699
 20
12.3749132051
 30
0.0
 10
14.3519826111
 20
12.327449833
 30
0.0
 10
14.3548044076
 20
12.2802112583
 30
0.0
 10
14.3582682933
 20
12.2332553937
 30
0.0
 10
14.3623700141
 20
12.1866398041
 30
0.0
 10
14.3671045334
 20
12.1404216353
 30
0.0
 10
14.3724660379
 20
12.0946575444
 30
0.0
 10
14.3784479458
 20
12.049403629
 30
0.0
 10
14.3850429108
 20
12.0047153572
 30
0.0
 10
14.3922428332
 20
11.960647499
 30
0.0
 10
14.4000388726
 20
11.9172540593
 30
0.0
 10
14.4084214573
 20
11.8745882114
 30
0.0
 10
14.4173802977
 20
11.8327022316
 30
0.0
 10
14.4269043983
 20
11.7916474343
 30
0.0
 10
14.4369820731
 20
11.7514741074
 30
0.0
 10
14.4476009564
 20
11.7122314484
 30
0.0
 10
14.4587480211
 20
11.6739675023
 30
0.0
 10
14.4704095981
 20
11.6367291035
 30
0.0
 10
14.4825713935
 20
11.6005618175
 30
0.0
 10
14.4952185091
 20
11.5655098838
 30
0.0
 10
14.5083354624
 20
11.5316161599
 30
0.0
 10
14.521906211
 20
11.4989220674
 30
0.0
 10
14.5359141725
 20
11.4674675367
 30
0.0
 10
14.5503422515
 20
11.4372909574
 30
0.0
 10
14.5651728708
 20
11.4084291332
 30
0.0
 10
14.5803880003
 20
11.380917238
 30
0.0
 10
14.5959691906
 20
11.3547887759
 30
0.0
 10
14.6118976077
 20
11.3300755448
 30
0.0
 10
14.628154073
 20
11.3068076074
 30
0.0
 10
14.6447190999
 20
11.2850132651
 30
0.0
 10
14.6615729347
 20
11.2647190466
 30
0.0
 10
14.6786956018
 20
11.2459497121
 30
0.0
 10
14.696066927
 20
11.2287282732
 30
0.0
 10
14.7136665907
 20
11.2130760148
 30
0.0
 10
14.7314740119
 20
11.1990125861
 30
0.0
 10
14.7494687209
 20
11.1865559076
 30
0.0
 10
14.7676288377
 20
11.1757227557
 30
0.0
 10
14.7829957829
 20
11.1680037973
 30
0.0
 10
14.7953319696
 20
11.1626804138
 30
0.0
 10
14.8045433757
 20
11.1591303948
 30
0.0
 10
14.813777974
 20
11.1559952314
 30
0.0
 10
14.8230330715
 20
11.1532759701
 30
0.0
 10
14.8323057308
 20
11.1509734673
 30
0.0
 10
14.8415930848
 20
11.1490885368
 30
0.0
 10
14.850892196
 20
11.1476218165
 30
0.0
 10
14.8602002002
 20
11.1465737721
 30
0.0
 10
14.8695139155
 20
11.1459448354
 30
0.0
 10
14.8757272832
 20
11.1458049956
 30
0.0
 10
14.8788308571
 20
11.1458049934
 30
0.0
  0
SPLINE
  5
363
100
AcDbEntity
  8
LAYER_FEATURE
100
AcDbSpline
 62
7
  6
CONTINUOUS
 70
0
 71
3
 72
40
 73
36
 74
0
 42
0.0000001
 43
0.0000001
 44
0.0000000001
 40
0.0
 40
0.0
 40
0.0
 40
0.0
 40
0.0443811761
 40
0.0879667189
 40
0.1307332029
 40
0.1726614841
 40
0.2137326642
 40
0.2539296131
 40
0.2932370229
 40
0.3316413449
 40
0.3691310598
 40
0.4056967752
 40
0.441331383
 40
0.4760302937
 40
0.509791621
 40
0.5426163875
 40
0.5745088051
 40
0.6054765696
 40
0.6355311271
 40
0.6646880103
 40
0.6929672319
 40
0.7203936264
 40
0.7469972224
 40
0.7728136579
 40
0.7978845423
 40
0.8101562346
 40
0.8222600509
 40
0.8459899725
 40
0.8691376712
 40
0.8917708202
 40
0.9139634704
 40
0.9357955978
 40
0.957352356
 40
0.978723069
 40
1.0
 40
1.0
 40
1.0
 40
1.0
 10
15.5873293706
 20
13.3593025996
 30
0.0
 10
15.5903999614
 20
13.3692390352
 30
0.0
 10
15.5966452084
 20
13.3888850638
 30
0.0
 10
15.6064177978
 20
13.4179214224
 30
0.0
 10
15.616504412
 20
13.4462409306
 30
0.0
 10
15.62689693
 20
13.4738209245
 30
0.0
 10
15.6375872326
 20
13.5006398307
 30
0.0
 10
15.6485668536
 20
13.5266764422
 30
0.0
 10
15.6598271292
 20
13.5519102213
 30
0.0
 10
15.6713592017
 20
13.5763212737
 30
0.0
 10
15.6831539704
 20
13.5998903654
 30
0.0
 10
15.695202153
 20
13.6225989301
 30
0.0
 10
15.7074942971
 20
13.6444290744
 30
0.0
 10
15.7200207473
 20
13.6653636183
 30
0.0
 10
15.7327716804
 20
13.6853860955
 30
0.0
 10
15.7457371358
 20
13.7044807464
 30
0.0
 10
15.7589070043
 20
13.7226325443
 30
0.0
 10
15.7722710213
 20
13.7398272205
 30
0.0
 10
15.7858188186
 20
13.756051237
 30
0.0
 10
15.7995399298
 20
13.771291786
 30
0.0
 10
15.8134237673
 20
13.7855368403
 30
0.0
 10
15.8274596292
 20
13.7987750921
 30
0.0
 10
15.8416368536
 20
13.8109960199
 30
0.0
 10
15.8559442916
 20
13.8221895838
 30
0.0
 10
15.8680521531
 20
13.8307140863
 30
0.0
 10
15.8777891944
 20
13.8369973262
 30
0.0
 10
15.887426515
 20
13.8428474904
 30
0.0
 10
15.8995401016
 20
13.8495200501
 30
0.0
 10
15.9142587159
 20
13.856520795
 30
0.0
 10
15.9290518995
 20
13.8624560039
 30
0.0
 10
15.943907643
 20
13.8673200157
 30
0.0
 10
15.9588138764
 20
13.8711082196
 30
0.0
 10
15.9737585342
 20
13.8738168722
 30
0.0
 10
15.9887280216
 20
13.8754432016
 30
0.0
 10
15.9987255895
 20
13.8758049811
 30
0.0
 10
16.0037115185
 20
13.8758049852
 30
0.0
  0
SPLINE
  5
364
100
AcDbEntity
  8
LAYER_FEATURE
100
AcDbSpline
 62
7
  6
CONTINUOUS
 70
0
 71
3
 72
17
 73
13
 74
0
 42
0.0000001
 43
0.0000001
 44
0.0000000001
 40
0.0
 40
0.0
 40
0.0
 40
0.0
 40
0.0461242111
 40
0.0927984304
 40
0.1405497529
 40
0.1898616594
 40
0.2946985637
 40
0.4100971062
 40
0.5377400013
 40
0.6785037453
 40
0.8326636495
 40
1.0
 40
1.0
 40
1.0
 40
1.0
 10
14.6325803715
 20
13.3654300742
 30
0.0
 10
14.632447584
 20
13.3654300776
 30
0.0
 10
14.6321801573
 20
13.3654140299
 30
0.0
 10
14.6317810881
 20
13.3653421154
 30
0.0
 10
14.6313840155
 20
13.3652225373
 30
0.0
 10
14.6308478405
 20
13.3649956068
 30
0.0
 10
14.6301836428
 20
13.3645848549
 30
0.0
 10
14.6294287436
 20
13.3639213091
 30
0.0
 10
14.6287035185
 20
13.3630839564
 30
0.0
 10
14.6280129321
 20
13.362079956
 30
0.0
 10
14.6273619589
 20
13.3609174924
 30
0.0
 10
14.6269732097
 20
13.3600765199
 30
0.0
 10
14.6267851583
 20
13.3596329931
 30
0.0
  0
LINE
  5
365
100
AcDbEntity
  8
LAYER_FEATURE
100
AcDbLine
 62
7
  6
CONTINUOUS
 10
14.5220408269
 20
12.8768849237
 11
14.5211347987
 21
12.8766902434
  0
SPLINE
  5
366
100
AcDbEntity
  8
LAYER_FEATURE
100
AcDbSpline
 62
7
  6
CONTINUOUS
 70
0
 71
3
 72
22
 73
18
 74
0
 42
0.0000001
 43
0.0000001
 44
0.0000000001
 40
0.0
 40
0.0
 40
0.0
 40
0.0
 40
0.0426283185
 40
0.0860004414
 40
0.1308128107
 40
0.1776805675
 40
0.2271178049
 40
0.2795350695
 40
0.3352407366
 40
0.3944554582
 40
0.457320994
 40
0.5239148216
 40
0.594258977
 40
0.6683257908
 40
0.7460475285
 40
0.8273311683
 40
1.0
 40
1.0
 40
1.0
 40
1.0
 10
14.5860578923
 20
13.2181467867
 30
0.0
 10
14.5858969287
 20
13.2181467855
 30
0.0
 10
14.5855717187
 20
13.2181231025
 30
0.0
 10
14.5850877316
 20
13.218017036
 30
0.0
 10
14.5846075232
 20
13.2178410966
 30
0.0
 10
14.5841328817
 20
13.2175961721
 30
0.0
 10
14.5836651563
 20
13.2172834494
 30
0.0
 10
14.583205693
 20
13.2169040921
 30
0.0
 10
14.5827557194
 20
13.2164594458
 30
0.0
 10
14.5823165205
 20
13.2159509227
 30
0.0
 10
14.5818893345
 20
13.2153801343
 30
0.0
 10
14.5814754269
 20
13.2147488394
 30
0.0
 10
14.5810760462
 20
13.214058991
 30
0.0
 10
14.5806924067
 20
13.2133127503
 30
0.0
 10
14.5803256824
 20
13.2125124081
 30
0.0
 10
14.5798512659
 20
13.2113530692
 30
0.0
 10
14.5795394707
 20
13.2104451339
 30
0.0
 10
14.5793469713
 20
13.2098222054
 30
0.0
  0
SPLINE
  5
367
100
AcDbEntity
  8
02___PRT_ALL_AXES
100
AcDbSpline
 62
7
  6
CONTINUOUS
 70
0
 71
3
 72
39
 73
35
 74
0
 42
0.0000001
 43
0.0000001
 44
0.0000000001
 40
0.0
 40
0.0
 40
0.0
 40
0.0
 40
0.0431152055
 40
0.0855277553
 40
0.1272174643
 40
0.16816875
 40
0.2083663467
 40
0.2477956229
 40
0.2864435346
 40
0.3242983249
 40
0.3613495599
 40
0.3975883729
 40
0.4330074482
 40
0.4676012239
 40
0.5013659839
 40
0.5342999602
 40
0.5664035859
 40
0.5976795493
 40
0.6281330489
 40
0.6577719961
 40
0.686607155
 40
0.7146524861
 40
0.7419252965
 40
0.7684465258
 40
0.79424105
 40
0.819337848
 40
0.8437703418
 40
0.8675765592
 40
0.8907992988
 40
0.9134862976
 40
0.9356901694
 40
0.9574683625
 40
0.9788829074
 40
1.0
 40
1.0
 40
1.0
 40
1.0
 10
15.739067662
 20
13.175306049
 30
0.0
 10
15.7412644983
 20
13.1824150139
 30
0.0
 10
15.745726456
 20
13.1964851942
 30
0.0
 10
15.7526837872
 20
13.2173092847
 30
0.0
 10
15.7598469761
 20
13.2376680995
 30
0.0
 10
15.7672111905
 20
13.2575479676
 30
0.0
 10
15.7747716066
 20
13.2769359914
 30
0.0
 10
15.7825232958
 20
13.295819395
 30
0.0
 10
15.7904611193
 20
13.3141857416
 30
0.0
 10
15.7985798614
 20
13.3320229666
 30
0.0
 10
15.8068742117
 20
13.3493193394
 30
0.0
 10
15.8153386883
 20
13.3660635054
 30
0.0
 10
15.8239677677
 20
13.3822444538
 30
0.0
 10
15.8327557807
 20
13.3978515641
 30
0.0
 10
15.8416969605
 20
13.4128745968
 30
0.0
 10
15.850785492
 20
13.427303675
 30
0.0
 10
15.8600154029
 20
13.4411293504
 30
0.0
 10
15.869380699
 20
13.4543425398
 30
0.0
 10
15.8788752869
 20
13.4669345712
 30
0.0
 10
15.8884929754
 20
13.4788971972
 30
0.0
 10
15.898227571
 20
13.4902225326
 30
0.0
 10
15.9080727488
 20
13.5009031521
 30
0.0
 10
15.9180221711
 20
13.5109320094
 30
0.0
 10
15.9280694531
 20
13.5203024562
 30
0.0
 10
15.9382081107
 20
13.5290083
 30
0.0
 10
15.9484316793
 20
13.5370436811
 30
0.0
 10
15.9587335863
 20
13.5444031972
 30
0.0
 10
15.9691072211
 20
13.5510818292
 30
0.0
 10
15.9795459302
 20
13.5570749058
 30
0.0
 10
15.9900429434
 20
13.5623782439
 30
0.0
 10
16.0005913972
 20
13.5669879622
 30
0.0
 10
16.0111844959
 20
13.5709006818
 30
0.0
 10
16.0218145737
 20
13.5741133428
 30
0.0
 10
16.0289647686
 20
13.5757968952
 30
0.0
 10
16.0325370357
 20
13.5765179391
 30
0.0
  0
SPLINE
  5
368
100
AcDbEntity
  8
02___PRT_ALL_AXES
100
AcDbSpline
 62
7
  6
CONTINUOUS
 70
0
 71
3
 72
72
 73
68
 74
0
 42
0.0000001
 43
0.0000001
 44
0.0000000001
 40
0.0
 40
0.0
 40
0.0
 40
0.0
 40
0.0038535174
 40
0.0077400202
 40
0.0116649114
 40
0.0156333899
 40
0.0237193738
 40
0.0320365484
 40
0.0406179338
 40
0.0494924537
 40
0.0540480773
 40
0.0586859801
 40
0.0682175653
 40
0.0781055836
 40
0.0883640719
 40
0.0990040001
 40
0.1100335513
 40
0.1214583847
 40
0.1332818745
 40
0.1455053325
 40
0.1581282069
 40
0.1711482577
 40
0.1845617107
 40
0.1983633911
 40
0.2125468465
 40
0.2271044571
 40
0.2420275318
 40
0.2573063941
 40
0.2729304558
 40
0.288888287
 40
0.3051676835
 40
0.3217557246
 40
0.3386388269
 40
0.3558027924
 40
0.3732328543
 40
0.3909137246
 40
0.4088296354
 40
0.4269643793
 40
0.4453013458
 40
0.4638235575
 40
0.4825137077
 40
0.5013541962
 40
0.520327162
 40
0.5394145164
 40
0.5585979752
 40
0.5778590916
 40
0.5971792894
 40
0.6359213189
 40
0.6746748804
 40
0.6940094748
 40
0.7132907129
 40
0.7324999839
 40
0.751618798
 40
0.7706288184
 40
0.7895118935
 40
0.8082500884
 40
0.8268257178
 40
0.845221381
 40
0.8634199979
 40
0.8814048416
 40
0.8991595774
 40
0.9166682948
 40
0.9339155501
 40
0.9508864442
 40
0.9675664862
 40
0.9839421966
 40
1.0
 40
1.0
 40
1.0
 40
1.0
 10
16.0325370356
 20
11.4450920462
 30
0.0
 10
16.0301904613
 20
11.4455656908
 30
0.0
 10
16.0254966941
 20
11.4466164428
 30
0.0
 10
16.0184947931
 20
11.4484907705
 30
0.0
 10
16.011506341
 20
11.4506688642
 30
0.0
 10
16.0021519225
 20
11.4539973045
 30
0.0
 10
15.9904855274
 20
11.4589360102
 30
0.0
 10
15.9766652912
 20
11.4660284269
 30
0.0
 10
15.9629513978
 20
11.474314525
 30
0.0
 10
15.951723759
 20
11.4821365339
 30
0.0
 10
15.9428114959
 20
11.488961956
 30
0.0
 10
15.9337859687
 20
11.4963028925
 30
0.0
 10
15.9225988203
 20
11.5062249403
 30
0.0
 10
15.9094602407
 20
11.519169864
 30
0.0
 10
15.8965014657
 20
11.5332452942
 30
0.0
 10
15.8837370581
 20
11.5484348657
 30
0.0
 10
15.8711810419
 20
11.5647213896
 30
0.0
 10
15.8588474048
 20
11.5820863711
 30
0.0
 10
15.8467499136
 20
11.6005101307
 30
0.0
 10
15.8349021385
 20
11.6199717829
 30
0.0
 10
15.8233174172
 20
11.6404492637
 30
0.0
 10
15.8120088318
 20
11.6619193463
 30
0.0
 10
15.8009891878
 20
11.684357663
 30
0.0
 10
15.790270983
 20
11.7077387234
 30
0.0
 10
15.7798663909
 20
11.7320359464
 30
0.0
 10
15.7697872476
 20
11.7572216949
 30
0.0
 10
15.7600450315
 20
11.7832673086
 30
0.0
 10
15.7506508503
 20
11.8101431359
 30
0.0
 10
15.7416154192
 20
11.8378185637
 30
0.0
 10
15.7329490448
 20
11.8662620536
 30
0.0
 10
15.7246616207
 20
11.8954411837
 30
0.0
 10
15.7167626121
 20
11.9253226871
 30
0.0
 10
15.7092610456
 20
11.9558724896
 30
0.0
 10
15.7021654948
 20
11.9870557463
 30
0.0
 10
15.6954840647
 20
12.0188368808
 30
0.0
 10
15.689224391
 20
12.0511796304
 30
0.0
 10
15.6833936296
 20
12.084047089
 30
0.0
 10
15.6779984485
 20
12.1174017489
 30
0.0
 10
15.6730450195
 20
12.1512055422
 30
0.0
 10
15.6685390024
 20
12.1854198831
 30
0.0
 10
15.6644855477
 20
12.220005715
 30
0.0
 10
15.6608892904
 20
12.2549235567
 30
0.0
 10
15.6577543447
 20
12.2901335455
 30
0.0
 10
15.6550842983
 20
12.3255954894
 30
0.0
 10
15.6528822065
 20
12.3612688818
 30
0.0
 10
15.6511505653
 20
12.3971130653
 30
0.0
 10
15.6494702516
 20
12.4451199839
 30
0.0
 10
15.6485584807
 20
12.5052648051
 30
0.0
 10
15.6492275269
 20
12.5654217492
 30
0.0
 10
15.6507136188
 20
12.6134636899
 30
0.0
 10
15.6523003868
 20
12.6493520911
 30
0.0
 10
15.6543582754
 20
12.6850822468
 30
0.0
 10
15.6568849506
 20
12.7206134349
 30
0.0
 10
15.6598775141
 20
12.755905071
 30
0.0
 10
15.6633325445
 20
12.7909168695
 30
0.0
 10
15.6672460911
 20
12.8256088587
 30
0.0
 10
15.6716136822
 20
12.8599414341
 30
0.0
 10
15.676430325
 20
12.8938754041
 30
0.0
 10
15.6816905082
 20
12.9273720358
 30
0.0
 10
15.6873882163
 20
12.9603930994
 30
0.0
 10
15.693516936
 20
12.9929009085
 30
0.0
 10
15.7000696636
 20
13.0248583618
 30
0.0
 10
15.7070389114
 20
13.0562290133
 30
0.0
 10
15.7144167091
 20
13.0869770066
 30
0.0
 10
15.7221946359
 20
13.1170674489
 30
0.0
 10
15.7303637736
 20
13.1464657026
 30
0.0
 10
15.7361224226
 20
13.165775251
 30
0.0
 10
15.739067662
 20
13.175306049
 30
0.0
  0
SPLINE
  5
369
100
AcDbEntity
  8
LAYER_CHAMFER_FEAT
100
AcDbSpline
 62
7
  6
CONTINUOUS
 70
0
 71
3
 72
48
 73
44
 74
0
 42
0.0000001
 43
0.0000001
 44
0.0000000001
 40
0.0
 40
0.0
 40
0.0
 40
0.0
 40
0.0439481831
 40
0.0865513876
 40
0.127797792
 40
0.1676835606
 40
0.2062099712
 40
0.2433857697
 40
0.2792274299
 40
0.3137600935
 40
0.3470185067
 40
0.379048009
 40
0.4099055838
 40
0.4396608906
 40
0.4683971752
 40
0.4962119607
 40
0.523217373
 40
0.5364581857
 40
0.549545282
 40
0.5624965483
 40
0.5753306237
 40
0.5880667982
 40
0.6007249212
 40
0.6133253175
 40
0.6258886502
 40
0.638435817
 40
0.6509878125
 40
0.663565604
 40
0.6761899943
 40
0.6888815098
 40
0.7016602661
 40
0.7145458684
 40
0.7275573229
 40
0.7407129203
 40
0.7540302152
 40
0.781211015
 40
0.809228263
 40
0.8381907279
 40
0.8681925975
 40
0.8993139141
 40
0.9316213364
 40
0.9651690924
 40
1.0
 40
1.0
 40
1.0
 40
1.0
 10
16.3096444041
 20
13.3019651716
 30
0.0
 10
16.3061440277
 20
13.3090981886
 30
0.0
 10
16.2990556856
 20
13.3230515621
 30
0.0
 10
16.2879796546
 20
13.343332883
 30
0.0
 10
16.2766367278
 20
13.3626193525
 30
0.0
 10
16.2650405418
 20
13.3808877607
 30
0.0
 10
16.2532046148
 20
13.3981165376
 30
0.0
 10
16.2411428614
 20
13.4142851766
 30
0.0
 10
16.2288693364
 20
13.429374482
 30
0.0
 10
16.2163982753
 20
13.4433664945
 30
0.0
 10
16.203744052
 20
13.4562444955
 30
0.0
 10
16.1909211681
 20
13.4679929816
 30
0.0
 10
16.1779442242
 20
13.4785976416
 30
0.0
 10
16.1648280335
 20
13.4880453081
 30
0.0
 10
16.1515873521
 20
13.496324008
 30
0.0
 10
16.138238039
 20
13.5034225873
 30
0.0
 10
16.1269608589
 20
13.5083792494
 30
0.0
 10
16.1179162874
 20
13.5117278997
 30
0.0
 10
16.1111605632
 20
13.5139233785
 30
0.0
 10
16.1043907917
 20
13.5158182185
 30
0.0
 10
16.0976089363
 20
13.5174118848
 30
0.0
 10
16.0908170943
 20
13.5187038541
 30
0.0
 10
16.0840173298
 20
13.5196936455
 30
0.0
 10
16.077211747
 20
13.520381003
 30
0.0
 10
16.0704024348
 20
13.5207656284
 30
0.0
 10
16.0635915026
 20
13.5208474278
 30
0.0
 10
16.056781053
 20
13.5206263839
 30
0.0
 10
16.049973196
 20
13.5201025181
 30
0.0
 10
16.0431700264
 20
13.5192760822
 30
0.0
 10
16.0363736469
 20
13.5181472824
 30
0.0
 10
16.0295861414
 20
13.5167165363
 30
0.0
 10
16.022809574
 20
13.5149843167
 30
0.0
 10
16.0160460493
 20
13.5129511613
 30
0.0
 10
16.009297494
 20
13.5106177424
 30
0.0
 10
16.0002616289
 20
13.5070835063
 30
0.0
 10
15.9889987492
 20
13.5018955381
 30
0.0
 10
15.9756731594
 20
13.494524769
 30
0.0
 10
15.9624597365
 20
13.4859762888
 30
0.0
 10
15.9493742536
 20
13.4762615081
 30
0.0
 10
15.9364314375
 20
13.4653926842
 30
0.0
 10
15.9236459892
 20
13.4533831573
 30
0.0
 10
15.9110327798
 20
13.4402478514
 30
0.0
 10
15.9029028196
 20
13.4309278806
 30
0.0
 10
15.8988675496
 20
13.4260934323
 30
0.0
  0
SPLINE
  5
36A
100
AcDbEntity
  8
LAYER_CHAMFER_FEAT
100
AcDbSpline
 62
7
  6
CONTINUOUS
 70
0
 71
3
 72
35
 73
31
 74
0
 42
0.0000001
 43
0.0000001
 44
0.0000000001
 40
0.0
 40
0.0
 40
0.0
 40
0.0
 40
0.0835067573
 40
0.1240965975
 40
0.1639035088
 40
0.2029257767
 40
0.24116233
 40
0.278613061
 40
0.3152795868
 40
0.3511650574
 40
0.3862742769
 40
0.420613693
 40
0.4541916556
 40
0.4870184579
 40
0.5191064948
 40
0.5504703778
 40
0.5811270567
 40
0.6403901336
 40
0.6970913218
 40
0.751464005
 40
0.77786977
 40
0.8038033462
 40
0.8293077284
 40
0.8544288148
 40
0.8792153872
 40
0.903718766
 40
0.927992622
 40
0.952092529
 40
0.9760756069
 40
1.0
 40
1.0
 40
1.0
 40
1.0
 10
16.239856765
 20
13.2549655571
 30
0.0
 10
16.2358806989
 20
13.2630679279
 30
0.0
 10
16.2297702811
 20
13.2750116687
 30
0.0
 10
16.2212675557
 20
13.2905531873
 30
0.0
 10
16.214857813
 20
13.3017568533
 30
0.0
 10
16.2083580435
 20
13.3126131085
 30
0.0
 10
16.2017710509
 20
13.3231173453
 30
0.0
 10
16.1950996826
 20
13.3332648991
 30
0.0
 10
16.1883468973
 20
13.3430513313
 30
0.0
 10
16.181515605
 20
13.3524723405
 30
0.0
 10
16.1746088071
 20
13.3615238216
 30
0.0
 10
16.1676294835
 20
13.3702017935
 30
0.0
 10
16.1605806864
 20
13.3785024569
 30
0.0
 10
16.153465454
 20
13.3864221766
 30
0.0
 10
16.1462869122
 20
13.3939574337
 30
0.0
 10
16.139048024
 20
13.4011050706
 30
0.0
 10
16.1294291583
 20
13.4100129324
 30
0.0
 10
16.1172715025
 20
13.42019899
 30
0.0
 10
16.1023186049
 20
13.4309676684
 30
0.0
 10
16.0895898738
 20
13.4386703548
 30
0.0
 10
16.0793492333
 20
13.4439829489
 30
0.0
 10
16.0717116062
 20
13.4475187294
 30
0.0
 10
16.0640461604
 20
13.4506426149
 30
0.0
 10
16.0563561063
 20
13.4533530998
 30
0.0
 10
16.0486449303
 20
13.4556489353
 30
0.0
 10
16.0409160381
 20
13.4575288941
 30
0.0
 10
16.0331729666
 20
13.458992126
 30
0.0
 10
16.0254191349
 20
13.4600377924
 30
0.0
 10
16.0176583999
 20
13.4606654426
 30
0.0
 10
16.012479498
 20
13.4608049878
 30
0.0
 10
16.0098937578
 20
13.460804985
 30
0.0
  0
SPLINE
  5
36B
100
AcDbEntity
  8
LAYER_FEATURE
100
AcDbSpline
 62
7
  6
CONTINUOUS
 70
0
 71
3
 72
15
 73
11
 74
0
 42
0.0000001
 43
0.0000001
 44
0.0000000001
 40
0.0
 40
0.0
 40
0.0
 40
0.0
 40
0.1005952837
 40
0.2041298182
 40
0.3132463634
 40
0.4301023527
 40
0.5563094542
 40
0.6929677897
 40
0.840774409
 40
1.0
 40
1.0
 40
1.0
 40
1.0
 10
14.6875023514
 20
13.4922113657
 30
0.0
 10
14.6872924902
 20
13.4922113634
 30
0.0
 10
14.6868656119
 20
13.4921706431
 30
0.0
 10
14.6862344077
 20
13.4919892301
 30
0.0
 10
14.6856124169
 20
13.4916897027
 30
0.0
 10
14.6850030964
 20
13.4912750474
 30
0.0
 10
14.6844089811
 20
13.490748295
 30
0.0
 10
14.6838325463
 20
13.4901125259
 30
0.0
 10
14.6832764388
 20
13.4893712061
 30
0.0
 10
14.682933673
 20
13.4888293019
 30
0.0
 10
14.6827655435
 20
13.4885428182
 30
0.0
  0
SPLINE
  5
36C
100
AcDbEntity
  8
LAYER_CHAMFER_FEAT
100
AcDbSpline
 62
7
  6
CONTINUOUS
 70
0
 71
3
 72
99
 73
95
 74
0
 42
0.0000001
 43
0.0000001
 44
0.0000000001
 40
0.0
 40
0.0
 40
0.0
 40
0.0
 40
0.0057646977
 40
0.0113895368
 40
0.0168771693
 40
0.0222307251
 40
0.0274538814
 40
0.0325508595
 40
0.0375264869
 40
0.0423861998
 40
0.0517805286
 40
0.0563317075
 40
0.0607953602
 40
0.0651802708
 40
0.0694958725
 40
0.0737522024
 40
0.0779598504
 40
0.082129875
 40
0.0862737182
 40
0.0904030913
 40
0.0945298601
 40
0.0986659181
 40
0.1028230587
 40
0.1070128571
 40
0.1112465501
 40
0.1155349454
 40
0.1198883275
 40
0.1243164028
 40
0.1288282406
 40
0.1381337177
 40
0.142944583
 40
0.1478687784
 40
0.1529120225
 40
0.1580794086
 40
0.1633754153
 40
0.1688039595
 40
0.1743684001
 40
0.1800716021
 40
0.1859159327
 40
0.1919033295
 40
0.198035291
 40
0.2043129424
 40
0.2107370251
 40
0.2173079541
 40
0.2240258113
 40
0.23089039
 40
0.2379011962
 40
0.2450574777
 40
0.2523582351
 40
0.2598022354
 40
0.2673880339
 40
0.2751139722
 40
0.2829782103
 40
0.2909787122
 40
0.3073791101
 40
0.324296143
 40
0.3417079543
 40
0.3595905842
 40
0.3779181802
 40
0.3966631857
 40
0.415796512
 40
0.4352876967
 40
0.4551050511
 40
0.4752157988
 40
0.495586208
 40
0.5161817176
 40
0.5369670598
 40
0.5579063785
 40
0.5789633461
 40
0.6001012773
 40
0.6212832424
 40
0.6424721792
 40
0.6636310043
 40
0.6847227252
 40
0.7057105514
 40
0.7265580075
 40
0.7472290467
 40
0.7676881662
 40
0.787900525
 40
0.8078320652
 40
0.827449636
 40
0.846721124
 40
0.8656155891
 40
0.8841034082
 40
0.9021564298
 40
0.919748139
 40
0.936853843
 40
0.9534508627
 40
0.9615523837
 40
0.9695192646
 40
0.9773493097
 40
0.9850406595
 40
0.9925915861
 40
1.0
 40
1.0
 40
1.0
 40
1.0
 10
15.8988675501
 20
11.5955165562
 30
0.0
 10
15.9015333527
 20
11.5923227926
 30
0.0
 10
15.9068914907
 20
11.5860881187
 30
0.0
 10
15.9151101517
 20
11.5770969951
 30
0.0
 10
15.9234066538
 20
11.5685869718
 30
0.0
 10
15.9317767625
 20
11.5605626069
 30
0.0
 10
15.940216242
 20
11.5530279616
 30
0.0
 10
15.9487207588
 20
11.5459870872
 30
0.0
 10
15.957286403
 20
11.5394433612
 30
0.0
 10
15.9686525526
 20
11.5314771656
 30
0.0
 10
15.9802585902
 20
11.5244013579
 30
0.0
 10
15.992068812
 20
11.5183084917
 30
0.0
 10
16.0008728602
 20
11.514298713
 30
0.0
 10
16.0097110288
 20
11.5108035705
 30
0.0
 10
16.0185789582
 20
11.5078248998
 30
0.0
 10
16.0274719553
 20
11.5053645217
 30
0.0
 10
16.0363853157
 20
11.5034238396
 30
0.0
 10
16.0453142873
 20
11.5020041044
 30
0.0
 10
16.0542540452
 20
11.5011061088
 30
0.0
 10
16.0631997473
 20
11.5007305061
 30
0.0
 10
16.0721465164
 20
11.5008774319
 30
0.0
 10
16.081089473
 20
11.5015468977
 30
0.0
 10
16.0900237622
 20
11.5027383808
 30
0.0
 10
16.0989445399
 20
11.504451242
 30
0.0
 10
16.107847034
 20
11.5066843395
 30
0.0
 10
16.1167265091
 20
11.5094364205
 30
0.0
 10
16.1255782514
 20
11.5127057539
 30
0.0
 10
16.1343978741
 20
11.5164906507
 30
0.0
 10
16.1462283863
 20
11.5222801948
 30
0.0
 10
16.1578630114
 20
11.5290597806
 30
0.0
 10
16.1692621054
 20
11.5367371898
 30
0.0
 10
16.1778530192
 20
11.5430621537
 30
0.0
 10
16.186384672
 20
11.5498858182
 30
0.0
 10
16.194853172
 20
11.5572048854
 30
0.0
 10
16.2032541604
 20
11.5650154283
 30
0.0
 10
16.2115833778
 20
11.5733134548
 30
0.0
 10
16.2198366537
 20
11.5820946195
 30
0.0
 10
16.2280097488
 20
11.5913544377
 30
0.0
 10
16.2360985737
 20
11.6010880918
 30
0.0
 10
16.2440989537
 20
11.6112906141
 30
0.0
 10
16.2520068724
 20
11.6219567185
 30
0.0
 10
16.2598182406
 20
11.6330809543
 30
0.0
 10
16.2675291167
 20
11.6446575749
 30
0.0
 10
16.2751355142
 20
11.656680652
 30
0.0
 10
16.2826335715
 20
11.6691439877
 30
0.0
 10
16.29001942
 20
11.6820411859
 30
0.0
 10
16.2972892852
 20
11.6953656073
 30
0.0
 10
16.3044394283
 20
11.7091104009
 30
0.0
 10
16.3114661712
 20
11.7232684974
 30
0.0
 10
16.3183659135
 20
11.7378326061
 30
0.0
 10
16.3251350858
 20
11.7527952409
 30
0.0
 10
16.3317702258
 20
11.7681486819
 30
0.0
 10
16.3382679117
 20
11.783885066
 30
0.0
 10
16.3468141257
 20
11.8055451293
 30
0.0
 10
16.3571174323
 20
11.8335308207
 30
0.0
 10
16.3687807021
 20
11.8682370086
 30
0.0
 10
16.3798191483
 20
11.9042670326
 30
0.0
 10
16.3902099694
 20
11.9415465866
 30
0.0
 10
16.3999317453
 20
11.979999079
 30
0.0
 10
16.4089644055
 20
12.0195453719
 30
0.0
 10
16.4172892983
 20
12.0601040686
 30
0.0
 10
16.4248892266
 20
12.1015916523
 30
0.0
 10
16.4317484873
 20
12.1439226721
 30
0.0
 10
16.4378529048
 20
12.1870099195
 30
0.0
 10
16.4431898622
 20
12.2307646126
 30
0.0
 10
16.4477483274
 20
12.2750965806
 30
0.0
 10
16.4515188771
 20
12.3199144527
 30
0.0
 10
16.4544937163
 20
12.3651258485
 30
0.0
 10
16.4566666947
 20
12.4106375696
 30
0.0
 10
16.4580333198
 20
12.456355794
 30
0.0
 10
16.458590766
 20
12.502186271
 30
0.0
 10
16.4583378808
 20
12.5480345164
 30
0.0
 10
16.4572751868
 20
12.5938060094
 30
0.0
 10
16.4554048811
 20
12.6394063884
 30
0.0
 10
16.4527308305
 20
12.6847416472
 30
0.0
 10
16.4492585636
 20
12.7297183302
 30
0.0
 10
16.4449952589
 20
12.7742437267
 30
0.0
 10
16.4399497297
 20
12.818226064
 30
0.0
 10
16.4341324061
 20
12.8615746981
 30
0.0
 10
16.4275553123
 20
12.904200303
 30
0.0
 10
16.4202320413
 20
12.9460150571
 30
0.0
 10
16.4121777259
 20
12.986932828
 30
0.0
 10
16.4034090059
 20
13.0268693503
 30
0.0
 10
16.3939439908
 20
13.0657424124
 30
0.0
 10
16.3838022239
 20
13.1034719985
 30
0.0
 10
16.3730046193
 20
13.1399805734
 30
0.0
 10
16.3615734833
 20
13.1751928348
 30
0.0
 10
16.3514595564
 20
13.2036201192
 30
0.0
 10
16.3430603427
 20
13.2256470095
 30
0.0
 10
16.3366682155
 20
13.2416659181
 30
0.0
 10
16.3301361181
 20
13.2573079674
 30
0.0
 10
16.3234673498
 20
13.2725652659
 30
0.0
 10
16.3166654186
 20
13.2874296694
 30
0.0
 10
16.3119996864
 20
13.297165611
 30
0.0
 10
16.3096444041
 20
13.3019651716
 30
0.0
  0
SPLINE
  5
36D
100
AcDbEntity
  8
LAYER_CHAMFER_FEAT
100
AcDbSpline
 62
7
  6
CONTINUOUS
 70
0
 71
3
 72
76
 73
72
 74
0
 42
0.0000001
 43
0.0000001
 44
0.0000000001
 40
0.0
 40
0.0
 40
0.0
 40
0.0
 40
0.0038601512
 40
0.0077283338
 40
0.0116125175
 40
0.0155205498
 40
0.0194601027
 40
0.0234386153
 40
0.02746326
 40
0.03154089
 40
0.0356780271
 40
0.0398808206
 40
0.0485043953
 40
0.0574550167
 40
0.0667679966
 40
0.0764726615
 40
0.0865927415
 40
0.0971468413
 40
0.1081489349
 40
0.1196088477
 40
0.1315327034
 40
0.1439233294
 40
0.156780616
 40
0.1701018301
 40
0.1838818893
 40
0.1981135996
 40
0.2127878631
 40
0.2278938586
 40
0.2434191997
 40
0.2593500757
 40
0.2756713764
 40
0.2923668051
 40
0.3094189796
 40
0.3268095252
 40
0.3445191597
 40
0.3625277729
 40
0.3808145013
 40
0.3993577975
 40
0.418135498
 40
0.4371248879
 40
0.4563027622
 40
0.4756454867
 40
0.4951290558
 40
0.5147291504
 40
0.5344211937
 40
0.5541804074
 40
0.5739818662
 40
0.5938005534
 40
0.6136114148
 40
0.6333894133
 40
0.6531095832
 40
0.6727470847
 40
0.6922772589
 40
0.711675683
 40
0.7309182268
 40
0.7499811096
 40
0.7688409587
 40
0.7874748683
 40
0.8058604611
 40
0.8239759511
 40
0.8418002098
 40
0.8593128352
 40
0.8764942244
 40
0.8933256522
 40
0.9097893533
 40
0.9258686148
 40
0.9415478615
 40
0.9568128062
 40
0.9716504442
 40
0.9860495039
 40
1.0
 40
1.0
 40
1.0
 40
1.0
 10
16.0098937578
 20
11.5608050008
 30
0.0
 10
16.0122747179
 20
11.5608050033
 30
0.0
 10
16.0170424342
 20
11.5609232761
 30
0.0
 10
16.0241880816
 20
11.5614552989
 30
0.0
 10
16.0313283711
 20
11.562341741
 30
0.0
 10
16.0384603203
 20
11.5635822136
 30
0.0
 10
16.0455812424
 20
11.5651762323
 30
0.0
 10
16.0526884165
 20
11.5671230603
 30
0.0
 10
16.0597791313
 20
11.5694219762
 30
0.0
 10
16.0668507121
 20
11.5720719339
 30
0.0
 10
16.0739005863
 20
11.5750720056
 30
0.0
 10
16.0833479935
 20
11.5795752922
 30
0.0
 10
16.0951040175
 20
11.5861051638
 30
0.0
 10
16.1089552801
 20
11.595251568
 30
0.0
 10
16.1226526884
 20
11.6057606273
 30
0.0
 10
16.1361763155
 20
11.6176153763
 30
0.0
 10
16.1495074611
 20
11.6307977242
 30
0.0
 10
16.1626272948
 20
11.6452878026
 30
0.0
 10
16.1755172149
 20
11.6610640526
 30
0.0
 10
16.1881587678
 20
11.6781031275
 30
0.0
 10
16.2005337217
 20
11.6963798775
 30
0.0
 10
16.2126241049
 20
11.7158673441
 30
0.0
 10
16.2244122591
 20
11.7365367742
 30
0.0
 10
16.2358808871
 20
11.7583576456
 30
0.0
 10
16.2470130976
 20
11.7812977038
 30
0.0
 10
16.2577924466
 20
11.8053230049
 30
0.0
 10
16.2682029739
 20
11.8303979647
 30
0.0
 10
16.2782292371
 20
11.8564854118
 30
0.0
 10
16.2878563435
 20
11.8835466431
 30
0.0
 10
16.2970699788
 20
11.9115414836
 30
0.0
 10
16.3058564312
 20
11.9404283491
 30
0.0
 10
16.3142026161
 20
11.9701643109
 30
0.0
 10
16.3220960979
 20
12.0007051615
 30
0.0
 10
16.3295251108
 20
12.0320054821
 30
0.0
 10
16.3364785776
 20
12.0640187118
 30
0.0
 10
16.3429461277
 20
12.0966972183
 30
0.0
 10
16.3489181125
 20
12.1299923697
 30
0.0
 10
16.3543856232
 20
12.1638546078
 30
0.0
 10
16.3593405031
 20
12.1982335229
 30
0.0
 10
16.3637753591
 20
12.2330779311
 30
0.0
 10
16.3676835738
 20
12.2683359507
 30
0.0
 10
16.3710593148
 20
12.3039550806
 30
0.0
 10
16.3738975444
 20
12.3398822785
 30
0.0
 10
16.3761940261
 20
12.3760640409
 30
0.0
 10
16.3779453321
 20
12.4124464827
 30
0.0
 10
16.3791488476
 20
12.448975418
 30
0.0
 10
16.3798027775
 20
12.4855964417
 30
0.0
 10
16.3799061465
 20
12.5222550107
 30
0.0
 10
16.3794588006
 20
12.5588965259
 30
0.0
 10
16.3784614078
 20
12.595466414
 30
0.0
 10
16.3769154565
 20
12.6319102088
 30
0.0
 10
16.3748232537
 20
12.6681736329
 30
0.0
 10
16.3721879215
 20
12.7042026786
 30
0.0
 10
16.3690133918
 20
12.7399436891
 30
0.0
 10
16.365304402
 20
12.775343439
 30
0.0
 10
16.3610664882
 20
12.8103492148
 30
0.0
 10
16.3563059749
 20
12.8449088934
 30
0.0
 10
16.351029966
 20
12.8789710205
 30
0.0
 10
16.3452463338
 20
12.9124848878
 30
0.0
 10
16.3389637068
 20
12.9454006093
 30
0.0
 10
16.3321914567
 20
12.9776691962
 30
0.0
 10
16.3249396837
 20
13.0092426312
 30
0.0
 10
16.3172192006
 20
13.0400739415
 30
0.0
 10
16.3090415167
 20
13.0701172705
 30
0.0
 10
16.3004188202
 20
13.0993279505
 30
0.0
 10
16.2913639541
 20
13.1276625594
 30
0.0
 10
16.2818903984
 20
13.1550790229
 30
0.0
 10
16.2720122517
 20
13.1815365698
 30
0.0
 10
16.2617441542
 20
13.2069961037
 30
0.0
 10
16.2511014873
 20
13.2314194542
 30
0.0
 10
16.2436475178
 20
13.247240815
 30
0.0
 10
16.239856765
 20
13.2549655571
 30
0.0
  0
SPLINE
  5
36E
100
AcDbEntity
  8
02___PRT_ALL_AXES
100
AcDbSpline
 62
7
  6
CONTINUOUS
 70
0
 71
3
 72
23
 73
19
 74
0
 42
0.0000001
 43
0.0000001
 44
0.0000000001
 40
0.0
 40
0.0
 40
0.0
 40
0.0
 40
0.0418686786
 40
0.0863694472
 40
0.1336683855
 40
0.1838714855
 40
0.2370337715
 40
0.2931671911
 40
0.3522471917
 40
0.4142180385
 40
0.4789973143
 40
0.5464796366
 40
0.6165395542
 40
0.6890341183
 40
0.7638053658
 40
0.8406797551
 40
0.9194782284
 40
1.0
 40
1.0
 40
1.0
 40
1.0
 10
15.796406188
 20
11.7734468762
 30
0.0
 10
15.7973074233
 20
11.7741331232
 30
0.0
 10
15.7990949833
 20
11.7756444736
 30
0.0
 10
15.8016435231
 20
11.7782156672
 30
0.0
 10
15.8041303799
 20
11.7811487166
 30
0.0
 10
15.8065479917
 20
11.7844341529
 30
0.0
 10
15.8088893493
 20
11.7880618873
 30
0.0
 10
15.8111473667
 20
11.7920206757
 30
0.0
 10
15.8133151446
 20
11.7962982553
 30
0.0
 10
15.8153859809
 20
11.8008813156
 30
0.0
 10
15.8173534256
 20
11.8057555547
 30
0.0
 10
15.8192113125
 20
11.8109057236
 30
0.0
 10
15.8209537961
 20
11.8163156765
 30
0.0
 10
15.8225753821
 20
11.821968434
 30
0.0
 10
15.8240709294
 20
11.8278461818
 30
0.0
 10
15.8254357611
 20
11.8339305061
 30
0.0
 10
15.8266654757
 20
11.8402020929
 30
0.0
 10
15.8273854821
 20
11.8444525273
 30
0.0
 10
15.8277229183
 20
11.8466047704
 30
0.0
  0
SPLINE
  5
36F
100
AcDbEntity
  8
LAYER_FEATURE
100
AcDbSpline
 62
7
  6
CONTINUOUS
 70
0
 71
3
 72
15
 73
11
 74
0
 42
0.0000001
 43
0.0000001
 44
0.0000000001
 40
0.0
 40
0.0
 40
0.0
 40
0.0
 40
0.1092561972
 40
0.2202433272
 40
0.3345961069
 40
0.4537678984
 40
0.5789969114
 40
0.7112997486
 40
0.851464691
 40
1.0
 40
1.0
 40
1.0
 40
1.0
 10
14.7494714707
 20
13.595368899
 30
0.0
 10
14.7493181289
 20
13.5953689018
 30
0.0
 10
14.749008607
 20
13.5953474215
 30
0.0
 10
14.7485475877
 20
13.5952512938
 30
0.0
 10
14.7480898144
 20
13.5950916452
 30
0.0
 10
14.7476367943
 20
13.5948693452
 30
0.0
 10
14.7471897659
 20
13.5945852529
 30
0.0
 10
14.746749845
 20
13.5942403868
 30
0.0
 10
14.7463182491
 20
13.5938358638
 30
0.0
 10
14.7460448937
 20
13.5935361868
 30
0.0
 10
14.7459097041
 20
13.5933774932
 30
0.0
  0
SPLINE
  5
370
100
AcDbEntity
  8
02___PRT_ALL_AXES
100
AcDbSpline
 62
7
  6
CONTINUOUS
 70
0
 71
3
 72
67
 73
63
 74
0
 42
0.0000001
 43
0.0000001
 44
0.0000000001
 40
0.0
 40
0.0
 40
0.0
 40
0.0
 40
0.0095320549
 40
0.0194449215
 40
0.0297510248
 40
0.0404595014
 40
0.0515765303
 40
0.0631056343
 40
0.0750479428
 40
0.0874024382
 40
0.1001661741
 40
0.1133344608
 40
0.1269010254
 40
0.140858151
 40
0.155196813
 40
0.1699067922
 40
0.1849767738
 40
0.2003944302
 40
0.216146507
 40
0.2322189011
 40
0.2485967281
 40
0.2652643811
 40
0.2822055864
 40
0.2994034649
 40
0.3168405841
 40
0.3344990064
 40
0.3523603315
 40
0.3704057457
 40
0.3886160681
 40
0.4069717924
 40
0.4254531272
 40
0.4440400359
 40
0.4814485223
 40
0.519034587
 40
0.5566332518
 40
0.5940794457
 40
0.6126945377
 40
0.6312102096
 40
0.6496063602
 40
0.6678631177
 40
0.6859608831
 40
0.7038803727
 40
0.7216026579
 40
0.7391092078
 40
0.7563819353
 40
0.7734032492
 40
0.7901560981
 40
0.8066240201
 40
0.8227911959
 40
0.8386425119
 40
0.8541636218
 40
0.8693410077
 40
0.8841620509
 40
0.8986151137
 40
0.9126896327
 40
0.9263762122
 40
0.9396667227
 40
0.9525544348
 40
0.9650341752
 40
0.9771023493
 40
0.9887576216
 40
1.0
 40
1.0
 40
1.0
 40
1.0
 10
15.78613371
 20
13.2226028943
 30
0.0
 10
15.7895241168
 20
13.2195055462
 30
0.0
 10
15.7962589766
 20
13.2129861086
 30
0.0
 10
15.8060248043
 20
13.2024872289
 30
0.0
 10
15.8156360324
 20
13.191094632
 30
0.0
 10
15.8250801963
 20
13.17882342
 30
0.0
 10
15.8343455731
 20
13.1656892361
 30
0.0
 10
15.8434204154
 20
13.1517089637
 30
0.0
 10
15.8522932197
 20
13.1369005392
 30
0.0
 10
15.8609526769
 20
13.121282984
 30
0.0
 10
15.8693877119
 20
13.1048763646
 30
0.0
 10
15.8775875012
 20
13.0877017755
 30
0.0
 10
15.8855414995
 20
13.0697813201
 30
0.0
 10
15.8932394708
 20
13.0511380871
 30
0.0
 10
15.9006714876
 20
13.0317961098
 30
0.0
 10
15.9078279535
 20
13.0117803332
 30
0.0
 10
15.9146996133
 20
12.9911165831
 30
0.0
 10
15.9212775842
 20
12.9698315401
 30
0.0
 10
15.9275533588
 20
12.9479526993
 30
0.0
 10
15.9335188133
 20
12.9255083282
 30
0.0
 10
15.9391662191
 20
12.9025274304
 30
0.0
 10
15.944488257
 20
12.8790397115
 30
0.0
 10
15.9494780388
 20
12.8550755431
 30
0.0
 10
15.9541290999
 20
12.8306659163
 30
0.0
 10
15.958435412
 20
12.8058423999
 30
0.0
 10
15.9623913872
 20
12.7806371015
 30
0.0
 10
15.9659919007
 20
12.7550826286
 30
0.0
 10
15.9692322892
 20
12.7292120457
 30
0.0
 10
15.9721083537
 20
12.7030588207
 30
0.0
 10
15.9746163567
 20
12.6766568103
 30
0.0
 10
15.9767530639
 20
12.6500401126
 30
0.0
 10
15.9791080875
 20
12.614236155
 30
0.0
 10
15.9811022456
 20
12.569189387
 30
0.0
 10
15.981976911
 20
12.5149459719
 30
0.0
 10
15.9813336513
 20
12.460681157
 30
0.0
 10
15.9795320452
 20
12.4155884558
 30
0.0
 10
15.9773304884
 20
12.3797263626
 30
0.0
 10
15.9753076155
 20
12.353051038
 30
0.0
 10
15.9729125571
 20
12.3265799204
 30
0.0
 10
15.9701483917
 20
12.3003471995
 30
0.0
 10
15.9670187093
 20
12.2743868368
 30
0.0
 10
15.9635275709
 20
12.2487324157
 30
0.0
 10
15.9596795024
 20
12.2234171283
 30
0.0
 10
15.9554794891
 20
12.1984737259
 30
0.0
 10
15.9509329692
 20
12.1739344762
 30
0.0
 10
15.9460458414
 20
12.1498311166
 30
0.0
 10
15.9408244403
 20
12.1261948161
 30
0.0
 10
15.9352755307
 20
12.1030561377
 30
0.0
 10
15.9294062944
 20
12.0804449977
 30
0.0
 10
15.9232243331
 20
12.0583906206
 30
0.0
 10
15.9167376557
 20
12.0369214999
 30
0.0
 10
15.9099546569
 20
12.0160653667
 30
0.0
 10
15.9028841079
 20
11.9958491542
 30
0.0
 10
15.8955351415
 20
11.9762989588
 30
0.0
 10
15.8879172562
 20
11.9574399964
 30
0.0
 10
15.8800402809
 20
11.939296579
 30
0.0
 10
15.8719143674
 20
11.9218920843
 30
0.0
 10
15.8635499557
 20
11.9052489087
 30
0.0
 10
15.8549578024
 20
11.8893885291
 30
0.0
 10
15.8461488431
 20
11.8743311259
 30
0.0
 10
15.837134533
 20
11.8600964951
 30
0.0
 10
15.8308830619
 20
11.8510034729
 30
0.0
 10
15.8277229183
 20
11.8466047704
 30
0.0
  0
SPLINE
  5
371
100
AcDbEntity
  8
LAYER_FEATURE
100
AcDbSpline
 62
7
  6
CONTINUOUS
 70
0
 71
3
 72
40
 73
36
 74
0
 42
0.0000001
 43
0.0000001
 44
0.0000000001
 40
0.0
 40
0.0
 40
0.0
 40
0.0
 40
0.0443811139
 40
0.0879667349
 40
0.1307332134
 40
0.1726614725
 40
0.2137326659
 40
0.2539296163
 40
0.2932370197
 40
0.331641343
 40
0.369131063
 40
0.4056967748
 40
0.4413313788
 40
0.4760302962
 40
0.5097916243
 40
0.5426163818
 40
0.5745088053
 40
0.6054765756
 40
0.6355311223
 40
0.6646880074
 40
0.692967238
 40
0.7203936252
 40
0.746997217
 40
0.7728136618
 40
0.7978845448
 40
0.8101562374
 40
0.8222600457
 40
0.8459899735
 40
0.8691376753
 40
0.8917708177
 40
0.9139634692
 40
0.9357956004
 40
0.9573523562
 40
0.9787230683
 40
1.0
 40
1.0
 40
1.0
 40
1.0
 10
14.5220524861
 20
13.3593025996
 30
0.0
 10
14.5251230727
 20
13.3692390213
 30
0.0
 10
14.5313683227
 20
13.3888850528
 30
0.0
 10
14.5411409101
 20
13.4179214147
 30
0.0
 10
14.551227527
 20
13.4462409345
 30
0.0
 10
14.5616200484
 20
13.4738209235
 30
0.0
 10
14.572310348
 20
13.500639829
 30
0.0
 10
14.5832899665
 20
13.5266764437
 30
0.0
 10
14.594550247
 20
13.5519102197
 30
0.0
 10
14.6060823192
 20
13.5763212721
 30
0.0
 10
14.6178770828
 20
13.5998903672
 30
0.0
 10
14.6299252686
 20
13.6225989296
 30
0.0
 10
14.6422174169
 20
13.6444290712
 30
0.0
 10
14.6547438608
 20
13.6653636198
 30
0.0
 10
14.6674947921
 20
13.6853860979
 30
0.0
 10
14.6804602575
 20
13.7044807413
 30
0.0
 10
14.69363012
 20
13.7226325441
 30
0.0
 10
14.7069941301
 20
13.7398272262
 30
0.0
 10
14.7205419396
 20
13.7560512315
 30
0.0
 10
14.7342630485
 20
13.7712917822
 30
0.0
 10
14.7481468759
 20
13.7855368477
 30
0.0
 10
14.7621827461
 20
13.7987750904
 30
0.0
 10
14.7763599758
 20
13.8109960105
 30
0.0
 10
14.7906674009
 20
13.8221895926
 30
0.0
 10
14.8027752709
 20
13.8307140862
 30
0.0
 10
14.8125123055
 20
13.8369973328
 30
0.0
 10
14.8221496398
 20
13.8428474738
 30
0.0
 10
14.8342632144
 20
13.8495200542
 30
0.0
 10
14.8489818271
 20
13.8565208063
 30
0.0
 10
14.8637750193
 20
13.8624559921
 30
0.0
 10
14.8786307596
 20
13.8673200099
 30
0.0
 10
14.8935369887
 20
13.8711082348
 30
0.0
 10
14.9084816511
 20
13.8738168682
 30
0.0
 10
14.9234511377
 20
13.8754431829
 30
0.0
 10
14.9334487049
 20
13.875804996
 30
0.0
 10
14.9384346341
 20
13.8758049924
 30
0.0
  0
SPLINE
  5
372
100
AcDbEntity
  8
LAYER_FEATURE
100
AcDbSpline
 62
7
  6
CONTINUOUS
 70
0
 71
3
 72
15
 73
11
 74
0
 42
0.0000001
 43
0.0000001
 44
0.0000000001
 40
0.0
 40
0.0
 40
0.0
 40
0.0
 40
0.1028206693
 40
0.2133703518
 40
0.3311003141
 40
0.4553241718
 40
0.5852447372
 40
0.7199773551
 40
0.8585640322
 40
1.0
 40
1.0
 40
1.0
 40
1.0
 10
14.6184186859
 20
13.2181311103
 30
0.0
 10
14.6189705448
 20
13.2192319167
 30
0.0
 10
14.6200242591
 20
13.2215627906
 30
0.0
 10
14.6214162276
 20
13.225278182
 30
0.0
 10
14.6226671073
 20
13.2293124648
 30
0.0
 10
14.6237657468
 20
13.2336302478
 30
0.0
 10
14.6247024652
 20
13.2381938927
 30
0.0
 10
14.6254689097
 20
13.2429633531
 30
0.0
 10
14.6260582752
 20
13.2478966521
 30
0.0
 10
14.6263275582
 20
13.2512403519
 30
0.0
 10
14.6264322256
 20
13.2529309663
 30
0.0
  0
SPLINE
  5
373
100
AcDbEntity
  8
LAYER_FEATURE
100
AcDbSpline
 62
7
  6
CONTINUOUS
 70
0
 71
3
 72
11
 73
7
 74
0
 42
0.0000001
 43
0.0000001
 44
0.0000000001
 40
0.0
 40
0.0
 40
0.0
 40
0.0
 40
0.2505870063
 40
0.5023475343
 40
0.7529296079
 40
1.0
 40
1.0
 40
1.0
 40
1.0
 10
14.6264322256
 20
13.2529309663
 30
0.0
 10
14.6265657728
 20
13.2550880549
 30
0.0
 10
14.6267428426
 20
13.2594184471
 30
0.0
 10
14.626742798
 20
13.2659139161
 30
0.0
 10
14.626478653
 20
13.2723736723
 30
0.0
 10
14.6261247944
 20
13.2766526583
 30
0.0
 10
14.6259027788
 20
13.2787719501
 30
0.0
  0
SPLINE
  5
374
100
AcDbEntity
  8
LAYER_FEATURE
100
AcDbSpline
 62
7
  6
CONTINUOUS
 70
0
 71
3
 72
11
 73
7
 74
0
 42
0.0000001
 43
0.0000001
 44
0.0000000001
 40
0.0
 40
0.0
 40
0.0
 40
0.0
 40
0.2644650718
 40
0.520633666
 40
0.766442071
 40
1.0
 40
1.0
 40
1.0
 40
1.0
 10
14.6259027788
 20
13.2787719501
 30
0.0
 10
14.625647758
 20
13.2812063003
 30
0.0
 10
14.6250474157
 20
13.2859890253
 30
0.0
 10
14.6238563828
 20
13.2929842924
 30
0.0
 10
14.622398909
 20
13.2996365711
 30
0.0
 10
14.6212266335
 20
13.3039182596
 30
0.0
 10
14.6205941398
 20
13.3059852754
 30
0.0
  0
LINE
  5
375
100
AcDbEntity
  8
LAYER_FEATURE
100
AcDbLine
 62
7
  6
CONTINUOUS
 10
14.6177545668
 20
13.3164132462
 11
14.6184420271
 21
13.3132325498
  0
SPLINE
  5
376
100
AcDbEntity
  8
LAYER_FEATURE
100
AcDbSpline
 62
7
  6
CONTINUOUS
 70
0
 71
3
 72
15
 73
11
 74
0
 42
0.0000001
 43
0.0000001
 44
0.0000000001
 40
0.0
 40
0.0
 40
0.0
 40
0.0
 40
0.1115853552
 40
0.2304415052
 40
0.3549991999
 40
0.4835218956
 40
0.6141728209
 40
0.745061256
 40
0.8742863921
 40
1.0
 40
1.0
 40
1.0
 40
1.0
 10
14.6190110892
 20
13.3381753379
 30
0.0
 10
14.6187698884
 20
13.3373948121
 30
0.0
 10
14.6183345354
 20
13.3357631065
 30
0.0
 10
14.6178288391
 20
13.3332122147
 30
0.0
 10
14.6174558523
 20
13.330513366
 30
0.0
 10
14.6172221131
 20
13.3277124194
 30
0.0
 10
14.6171316658
 20
13.3248568743
 30
0.0
 10
14.617186096
 20
13.3219952549
 30
0.0
 10
14.6173844204
 20
13.3191762872
 30
0.0
 10
14.6176145542
 20
13.3173229152
 30
0.0
 10
14.6177545668
 20
13.3164132462
 30
0.0
  0
SPLINE
  5
377
100
AcDbEntity
  8
LAYER_FEATURE
100
AcDbSpline
 62
7
  6
CONTINUOUS
 70
0
 71
3
 72
11
 73
7
 74
0
 42
0.0000001
 43
0.0000001
 44
0.0000000001
 40
0.0
 40
0.0
 40
0.0
 40
0.0
 40
0.2336301508
 40
0.4792589901
 40
0.735294152
 40
1.0
 40
1.0
 40
1.0
 40
1.0
 10
14.672097321
 20
13.3653998674
 30
0.0
 10
14.6725323009
 20
13.3667588912
 30
0.0
 10
14.673345945
 20
13.3695723478
 30
0.0
 10
14.6743801042
 20
13.3739441843
 30
0.0
 10
14.6752520381
 20
13.3785444549
 30
0.0
 10
14.6757134898
 20
13.381692348
 30
0.0
 10
14.6759168339
 20
13.3832962481
 30
0.0
  0
SPLINE
  5
378
100
AcDbEntity
  8
LAYER_FEATURE
100
AcDbSpline
 62
7
  6
CONTINUOUS
 70
0
 71
3
 72
11
 73
7
 74
0
 42
0.0000001
 43
0.0000001
 44
0.0000000001
 40
0.0
 40
0.0
 40
0.0
 40
0.0
 40
0.2453306483
 40
0.4953256615
 40
0.7476672194
 40
1.0
 40
1.0
 40
1.0
 40
1.0
 10
14.6759168339
 20
13.3832962481
 30
0.0
 10
14.6761820411
 20
13.3853880993
 30
0.0
 10
14.676622546
 20
13.3896241205
 30
0.0
 10
14.6770163331
 20
13.3960399571
 30
0.0
 10
14.6771471106
 20
13.4025267016
 30
0.0
 10
14.6770576377
 20
13.406864843
 30
0.0
 10
14.6769680982
 20
13.4090317723
 30
0.0
  0
SPLINE
  5
379
100
AcDbEntity
  8
LAYER_FEATURE
100
AcDbSpline
 62
7
  6
CONTINUOUS
 70
0
 71
3
 72
11
 73
7
 74
0
 42
0.0000001
 43
0.0000001
 44
0.0000000001
 40
0.0
 40
0.0
 40
0.0
 40
0.0
 40
0.2589747881
 40
0.5133746645
 40
0.7610613085
 40
1.0
 40
1.0
 40
1.0
 40
1.0
 10
14.6769680982
 20
13.4090317723
 30
0.0
 10
14.6768637982
 20
13.4115559173
 30
0.0
 10
14.676558674
 20
13.4165561516
 30
0.0
 10
14.6758062102
 20
13.4239441473
 30
0.0
 10
14.6747695259
 20
13.4311003145
 30
0.0
 10
14.6738774991
 20
13.4357649032
 30
0.0
 10
14.6733826109
 20
13.4380426065
 30
0.0
  0
LINE
  5
37A
100
AcDbEntity
  8
LAYER_FEATURE
100
AcDbLine
 62
7
  6
CONTINUOUS
 10
14.6712132536
 20
13.4494828854
 11
14.671698487
 21
13.4460651868
  0
SPLINE
  5
37B
100
AcDbEntity
  8
LAYER_FEATURE
100
AcDbSpline
 62
7
  6
CONTINUOUS
 70
0
 71
3
 72
17
 73
13
 74
0
 42
0.0000001
 43
0.0000001
 44
0.0000000001
 40
0.0
 40
0.0
 40
0.0
 40
0.0
 40
0.0508439399
 40
0.1041233927
 40
0.1596820217
 40
0.2173682853
 40
0.3383871158
 40
0.4656133837
 40
0.5972904998
 40
0.7315442379
 40
0.8664303056
 40
1.0
 40
1.0
 40
1.0
 40
1.0
 10
14.673780019
 20
13.4704722882
 30
0.0
 10
14.6736389099
 20
13.4701394767
 30
0.0
 10
14.6733663529
 20
13.4694508602
 30
0.0
 10
14.6729937958
 20
13.4683781143
 30
0.0
 10
14.6726492679
 20
13.4672450927
 30
0.0
 10
14.6722224821
 20
13.4656348253
 30
0.0
 10
14.67177283
 20
13.4635050433
 30
0.0
 10
14.671372703
 20
13.4608322677
 30
0.0
 10
14.671110714
 20
13.4580479656
 30
0.0
 10
14.6709914098
 20
13.4551994771
 30
0.0
 10
14.6710168388
 20
13.4523352442
 30
0.0
 10
14.6711311285
 20
13.4504289817
 30
0.0
 10
14.6712132536
 20
13.4494828854
 30
0.0
  0
SPLINE
  5
37C
100
AcDbEntity
  8
LAYER_FEATURE
100
AcDbSpline
 62
7
  6
CONTINUOUS
 70
0
 71
3
 72
11
 73
7
 74
0
 42
0.0000001
 43
0.0000001
 44
0.0000000001
 40
0.0
 40
0.0
 40
0.0
 40
0.0
 40
0.240002668
 40
0.4881814209
 40
0.7422939728
 40
1.0
 40
1.0
 40
1.0
 40
1.0
 10
14.7327338555
 20
13.4921778997
 30
0.0
 10
14.7331261713
 20
13.4941522628
 30
0.0
 10
14.7338229781
 20
13.4981889041
 30
0.0
 10
14.734600794
 20
13.5043678801
 30
0.0
 10
14.7351232422
 20
13.5107225809
 30
0.0
 10
14.7352966809
 20
13.5150132574
 30
0.0
 10
14.7353399453
 20
13.5171742702
 30
0.0
  0
SPLINE
  5
37D
100
AcDbEntity
  8
LAYER_FEATURE
100
AcDbSpline
 62
7
  6
CONTINUOUS
 70
0
 71
3
 72
11
 73
7
 74
0
 42
0.0000001
 43
0.0000001
 44
0.0000000001
 40
0.0
 40
0.0
 40
0.0
 40
0.0
 40
0.2537662073
 40
0.5064564988
 40
0.7559065605
 40
1.0
 40
1.0
 40
1.0
 40
1.0
 10
14.7353399453
 20
13.5171742702
 30
0.0
 10
14.7353910393
 20
13.5197263675
 30
0.0
 10
14.7353929544
 20
13.5248222987
 30
0.0
 10
14.7350977541
 20
13.5324220644
 30
0.0
 10
14.7345076046
 20
13.5399070812
 30
0.0
 10
14.7339133833
 20
13.5448376722
 30
0.0
 10
14.7335658963
 20
13.5472682702
 30
0.0
  0
SPLINE
  5
37E
100
AcDbEntity
  8
LAYER_FEATURE
100
AcDbSpline
 62
7
  6
CONTINUOUS
 70
0
 71
3
 72
18
 73
14
 74
0
 42
0.0000001
 43
0.0000001
 44
0.0000000001
 40
0.0
 40
0.0
 40
0.0
 40
0.0
 40
0.0469078516
 40
0.0966146072
 40
0.1490260404
 40
0.2040395347
 40
0.2615191101
 40
0.321304536
 40
0.4470449403
 40
0.5796627704
 40
0.7173426486
 40
0.858129251
 40
1.0
 40
1.0
 40
1.0
 40
1.0
 10
14.7359339775
 20
13.5791390446
 30
0.0
 10
14.7357734448
 20
13.5788655053
 30
0.0
 10
14.7354606908
 20
13.5782914754
 30
0.0
 10
14.7350275213
 20
13.5773812387
 30
0.0
 10
14.7346184033
 20
13.5764002993
 30
0.0
 10
14.7342350959
 20
13.57535291
 30
0.0
 10
14.7338791666
 20
13.5742434494
 30
0.0
 10
14.7334357681
 20
13.5726610064
 30
0.0
 10
14.7329644112
 20
13.5705604382
 30
0.0
 10
14.7325374182
 20
13.5679154624
 30
0.0
 10
14.7322473697
 20
13.5651497169
 30
0.0
 10
14.7320992639
 20
13.5623102894
 30
0.0
 10
14.7320968976
 20
13.5603981332
 30
0.0
 10
14.7321201714
 20
13.5594391597
 30
0.0
  0
SPLINE
  5
37F
100
AcDbEntity
  8
LAYER_FEATURE
100
AcDbSpline
 62
7
  6
CONTINUOUS
 70
0
 71
3
 72
19
 73
15
 74
0
 42
0.0000001
 43
0.0000001
 44
0.0000000001
 40
0.0
 40
0.0
 40
0.0
 40
0.0
 40
0.0431157717
 40
0.089258064
 40
0.1384390456
 40
0.1906397623
 40
0.2457916827
 40
0.3037890584
 40
0.3644963295
 40
0.4277519202
 40
0.5611349062
 40
0.702273728
 40
0.8492497747
 40
1.0
 40
1.0
 40
1.0
 40
1.0
 10
14.8039425281
 20
13.6614998712
 30
0.0
 10
14.8037665456
 20
13.6612932924
 30
0.0
 10
14.8034209682
 20
13.6608494481
 30
0.0
 10
14.8029375852
 20
13.6601237031
 30
0.0
 10
14.8024737816
 20
13.6593186231
 30
0.0
 10
14.8020315135
 20
13.6584376965
 30
0.0
 10
14.8016125593
 20
13.65748457
 30
0.0
 10
14.8012187277
 20
13.6564632514
 30
0.0
 10
14.8008516559
 20
13.6553780616
 30
0.0
 10
14.8003919085
 20
13.6538245702
 30
0.0
 10
14.7998991398
 20
13.6517546612
 30
0.0
 10
14.7994455819
 20
13.649139271
 30
0.0
 10
14.799127651
 20
13.6463940283
 30
0.0
 10
14.7990107132
 20
13.6445227688
 30
0.0
 10
14.7989755898
 20
13.6435745805
 30
0.0
  0
SPLINE
  5
380
100
AcDbEntity
  8
LAYER_FEATURE
100
AcDbSpline
 62
7
  6
CONTINUOUS
 70
0
 71
3
 72
20
 73
16
 74
0
 42
0.0000001
 43
0.0000001
 44
0.0000000001
 40
0.0
 40
0.0
 40
0.0
 40
0.0
 40
0.039930512
 40
0.0827971394
 40
0.12880832
 40
0.1781009277
 40
0.2307306042
 40
0.28669049
 40
0.345923066
 40
0.4083282439
 40
0.4737706267
 40
0.5420828687
 40
0.686506188
 40
0.8398277274
 40
1.0
 40
1.0
 40
1.0
 40
1.0
 10
14.8761310745
 20
13.7155267709
 30
0.0
 10
14.8759447829
 20
13.7153935077
 30
0.0
 10
14.8755753879
 20
13.7150930957
 30
0.0
 10
14.8750528267
 20
13.7145692439
 30
0.0
 10
14.8745451819
 20
13.713959344
 30
0.0
 10
14.8740545013
 20
13.7132661088
 30
0.0
 10
14.8735826282
 20
13.7124923848
 30
0.0
 10
14.8731315232
 20
13.7116413794
 30
0.0
 10
14.8727030298
 20
13.7107166628
 30
0.0
 10
14.8722989396
 20
13.7097221226
 30
0.0
 10
14.871920969
 20
13.7086619419
 30
0.0
 10
14.8714451644
 20
13.7071384847
 30
0.0
 10
14.8709312865
 20
13.7051006619
 30
0.0
 10
14.8704514568
 20
13.7025166985
 30
0.0
 10
14.8702249372
 20
13.7007316542
 30
0.0
 10
14.8701333065
 20
13.6998174546
 30
0.0
  0
LINE
  5
381
100
AcDbEntity
  8
LAYER_FEATURE
100
AcDbLine
 62
7
  6
CONTINUOUS
 10
14.9438411824
 20
13.7267828959
 11
14.9434514525
 21
13.7232855118
  0
SPLINE
  5
382
100
AcDbEntity
  8
LAYER_FEATURE
100
AcDbSpline
 62
7
  6
CONTINUOUS
 70
0
 71
3
 72
21
 73
17
 74
0
 42
0.0000001
 43
0.0000001
 44
0.0000000001
 40
0.0
 40
0.0
 40
0.0
 40
0.0
 40
0.0385424894
 40
0.0792499179
 40
0.1226711881
 40
0.1692338608
 40
0.2192319483
 40
0.2728497569
 40
0.3301810102
 40
0.3912446645
 40
0.4559988305
 40
0.5243486482
 40
0.5961581429
 40
0.6712551868
 40
0.8304357884
 40
1.0
 40
1.0
 40
1.0
 40
1.0
 10
14.950722095
 20
13.7398894221
 30
0.0
 10
14.9505324081
 20
13.7398333535
 30
0.0
 10
14.950151175
 20
13.7396865016
 30
0.0
 10
14.9496003863
 20
13.7393779559
 30
0.0
 10
14.9490598965
 20
13.7389781445
 30
0.0
 10
14.9485318382
 20
13.738489251
 30
0.0
 10
14.9480179806
 20
13.7379134818
 30
0.0
 10
14.9475202877
 20
13.7372532603
 30
0.0
 10
14.9470406631
 20
13.7365113581
 30
0.0
 10
14.9465810189
 20
13.7356908603
 30
0.0
 10
14.9461432655
 20
13.7347951786
 30
0.0
 10
14.9457292047
 20
13.7338280823
 30
0.0
 10
14.9453405758
 20
13.7327936324
 30
0.0
 10
14.944849028
 20
13.7313012888
 30
0.0
 10
14.9443143275
 20
13.7292970228
 30
0.0
 10
14.9439860146
 20
13.727640962
 30
0.0
 10
14.9438411824
 20
13.7267828959
 30
0.0
  0
SPLINE
  5
383
100
AcDbEntity
  8
LAYER_FEATURE
100
AcDbSpline
 62
7
  6
CONTINUOUS
 70
0
 71
3
 72
18
 73
14
 74
0
 42
0.0000001
 43
0.0000001
 44
0.0000000001
 40
0.0
 40
0.0
 40
0.0
 40
0.0
 40
0.1678530031
 40
0.3230783914
 40
0.4651888504
 40
0.5941104066
 40
0.7103211769
 40
0.7640485442
 40
0.8151269576
 40
0.8638574592
 40
0.9106146971
 40
0.9558346626
 40
1.0
 40
1.0
 40
1.0
 40
1.0
 10
14.9793916356
 20
11.2875825061
 30
0.0
 10
14.9795742185
 20
11.287083307
 30
0.0
 10
14.9799546029
 20
11.2861326007
 30
0.0
 10
14.9805990899
 20
11.2848063786
 30
0.0
 10
14.9812906155
 20
11.2836448311
 30
0.0
 10
14.9820232105
 20
11.2826584656
 30
0.0
 10
14.9826800868
 20
11.2819722924
 30
0.0
 10
14.9832212431
 20
11.2815272941
 30
0.0
 10
14.9836225314
 20
11.2812515785
 30
0.0
 10
14.9840289806
 20
11.2810259139
 30
0.0
 10
14.984439738
 20
11.2808509496
 30
0.0
 10
14.9848537206
 20
11.2807273509
 30
0.0
 10
14.9851334665
 20
11.280679059
 30
0.0
 10
14.9852724996
 20
11.2806638841
 30
0.0
  0
SPLINE
  5
384
100
AcDbEntity
  8
LAYER_FEATURE
100
AcDbSpline
 62
7
  6
CONTINUOUS
 70
0
 71
3
 72
20
 73
16
 74
0
 42
0.0000001
 43
0.0000001
 44
0.0000000001
 40
0.0
 40
0.0
 40
0.0
 40
0.0
 40
0.1645819165
 40
0.3207472597
 40
0.3950476849
 40
0.4665122089
 40
0.5349420565
 40
0.6001661213
 40
0.6620441619
 40
0.7204759018
 40
0.7754059826
 40
0.8268337605
 40
0.8748245442
 40
0.9195247404
 40
1.0
 40
1.0
 40
1.0
 40
1.0
 10
14.9037687239
 20
11.3057187866
 30
0.0
 10
14.9038852765
 20
11.3048276982
 30
0.0
 10
14.904159673
 20
11.3030968309
 30
0.0
 10
14.9046257394
 20
11.3009890258
 30
0.0
 10
14.9050650856
 20
11.2993996637
 30
0.0
 10
14.9054182375
 20
11.2982843632
 30
0.0
 10
14.905798945
 20
11.297230683
 30
0.0
 10
14.9062055921
 20
11.2962430706
 30
0.0
 10
14.906636486
 20
11.2953257011
 30
0.0
 10
14.9070897897
 20
11.294482425
 30
0.0
 10
14.9075636734
 20
11.2937167425
 30
0.0
 10
14.9080561369
 20
11.2930319359
 30
0.0
 10
14.9085655631
 20
11.2924305597
 30
0.0
 10
14.9092401101
 20
11.2917674023
 30
0.0
 10
14.9098017681
 20
11.2913627275
 30
0.0
 10
14.9101917349
 20
11.2911601934
 30
0.0
  0
SPLINE
  5
385
100
AcDbEntity
  8
LAYER_FEATURE
100
AcDbSpline
 62
7
  6
CONTINUOUS
 70
0
 71
3
 72
11
 73
7
 74
0
 42
0.0000001
 43
0.0000001
 44
0.0000000001
 40
0.0
 40
0.0
 40
0.0
 40
0.0
 40
0.2610506941
 40
0.5128267095
 40
0.7580879528
 40
1.0
 40
1.0
 40
1.0
 40
1.0
 10
14.847649366
 20
11.3236423602
 30
0.0
 10
14.8477860222
 20
11.3235713861
 30
0.0
 10
14.8480619391
 20
11.3234456628
 30
0.0
 10
14.8484883014
 20
11.3233074773
 30
0.0
 10
14.8489172904
 20
11.3232243103
 30
0.0
 10
14.849204992
 20
11.3232057559
 30
0.0
 10
14.8493476904
 20
11.3232057564
 30
0.0
  0
SPLINE
  5
386
100
AcDbEntity
  8
LAYER_FEATURE
100
AcDbSpline
 62
7
  6
CONTINUOUS
 70
0
 71
3
 72
20
 73
16
 74
0
 42
0.0000001
 43
0.0000001
 44
0.0000000001
 40
0.0
 40
0.0
 40
0.0
 40
0.0
 40
0.1550228763
 40
0.3049127207
 40
0.4476044309
 40
0.5156641201
 40
0.5812427399
 40
0.6441501863
 40
0.7042212733
 40
0.7613179489
 40
0.8153344935
 40
0.8662029171
 40
0.9139019398
 40
0.9584718507
 40
1.0
 40
1.0
 40
1.0
 40
1.0
 10
14.8312177118
 20
11.348647766
 30
0.0
 10
14.831279102
 20
11.3477123525
 30
0.0
 10
14.8314471454
 20
11.3458751711
 30
0.0
 10
14.8318406556
 20
11.3431959265
 30
0.0
 10
14.8322849253
 20
11.3410592017
 30
0.0
 10
14.8327076205
 20
11.3394422727
 30
0.0
 10
14.8330493054
 20
11.338303638
 30
0.0
 10
14.8334191776
 20
11.3372247627
 30
0.0
 10
14.8338156517
 20
11.3362102058
 30
0.0
 10
14.8342370524
 20
11.3352642556
 30
0.0
 10
14.8346816266
 20
11.3343909031
 30
0.0
 10
14.8351474829
 20
11.333593797
 30
0.0
 10
14.8356327917
 20
11.332876217
 30
0.0
 10
14.8361355397
 20
11.3322412868
 30
0.0
 10
14.836493306
 20
11.3318618059
 30
0.0
 10
14.8366747579
 20
11.3316882054
 30
0.0
  0
SPLINE
  5
387
100
AcDbEntity
  8
LAYER_FEATURE
100
AcDbSpline
 62
7
  6
CONTINUOUS
 70
0
 71
3
 72
13
 73
9
 74
0
 42
0.0000001
 43
0.0000001
 44
0.0000000001
 40
0.0
 40
0.0
 40
0.0
 40
0.0
 40
0.2795064456
 40
0.534738871
 40
0.655246792
 40
0.7722084958
 40
0.8867283296
 40
1.0
 40
1.0
 40
1.0
 40
1.0
 10
14.7768811526
 20
11.3888945542
 30
0.0
 10
14.7771084375
 20
11.388677104
 30
0.0
 10
14.7775708951
 20
11.3882882389
 30
0.0
 10
14.7782091539
 20
11.3879102781
 30
0.0
 10
14.7787237338
 20
11.3877014037
 30
0.0
 10
14.7791050498
 20
11.3875912568
 30
0.0
 10
14.7794881102
 20
11.3875249917
 30
0.0
 10
14.7797447025
 20
11.3875102346
 30
0.0
 10
14.7798721766
 20
11.387510236
 30
0.0
  0
SPLINE
  5
388
100
AcDbEntity
  8
LAYER_FEATURE
100
AcDbSpline
 62
7
  6
CONTINUOUS
 70
0
 71
3
 72
109
 73
105
 74
0
 42
0.0000001
 43
0.0000001
 44
0.0000000001
 40
0.0
 40
0.0
 40
0.0
 40
0.0
 40
0.0179978331
 40
0.0364855723
 40
0.0554315261
 40
0.0748016991
 40
0.0945604127
 40
0.1146704451
 40
0.1350932223
 40
0.1557889972
 40
0.1767170179
 40
0.1978356918
 40
0.2191027464
 40
0.240475386
 40
0.2619104448
 40
0.2833645392
 40
0.3047942194
 40
0.3261561208
 40
0.347407115
 40
0.3685044618
 40
0.389405965
 40
0.4100701284
 40
0.4304563152
 40
0.4505249129
 40
0.4702375047
 40
0.4895570499
 40
0.5084480711
 40
0.5268768552
 40
0.5359081105
 40
0.544812087
 40
0.5535851639
 40
0.5622238829
 40
0.5707249483
 40
0.5790852338
 40
0.5873018068
 40
0.5953719201
 40
0.6032930404
 40
0.6110628546
 40
0.6186792767
 40
0.626140481
 40
0.6334448977
 40
0.640591245
 40
0.6475785472
 40
0.6544061441
 40
0.6610737351
 40
0.6675813841
 40
0.6739295591
 40
0.6801191641
 40
0.6861515579
 40
0.6920286098
 40
0.6977527198
 40
0.7033268659
 40
0.7087546519
 40
0.7140403344
 40
0.7191888853
 40
0.7242060198
 40
0.7290982379
 40
0.7338728662
 40
0.7385380677
 40
0.7431028695
 40
0.747577151
 40
0.7519716225
 40
0.7562977874
 40
0.7605678625
 40
0.7647946905
 40
0.7689916149
 40
0.7731723366
 40
0.7773507556
 40
0.7815408001
 40
0.7857562554
 40
0.7900105992
 40
0.7943168551
 40
0.7986874576
 40
0.8031341551
 40
0.8076679264
 40
0.8122989274
 40
0.8170364701
 40
0.821889
 40
0.8268641185
 40
0.8319685964
 40
0.8372084015
 40
0.8425887497
 40
0.8481141267
 40
0.8537883476
 40
0.8596145941
 40
0.8655954495
 40
0.8717329573
 40
0.8780286388
 40
0.8844835443
 40
0.8910982847
 40
0.8978730508
 40
0.9048076623
 40
0.9119015738
 40
0.9191539104
 40
0.9265634919
 40
0.934128839
 40
0.9418482104
 40
0.9497195999
 40
0.9577407751
 40
0.9659092827
 40
0.9742223912
 40
0.9826772752
 40
0.9912710542
 40
1.0
 40
1.0
 40
1.0
 40
1.0
 10
15.6362723074
 20
13.2862672175
 30
0.0
 10
15.6312827516
 20
13.2696442448
 30
0.0
 10
15.6216423234
 20
13.235801709
 30
0.0
 10
15.608351905
 20
13.184020935
 30
0.0
 10
15.5960607005
 20
13.1306350053
 30
0.0
 10
15.5847982196
 20
13.0757713268
 30
0.0
 10
15.5745913405
 20
13.0195604816
 30
0.0
 10
15.5654644842
 20
12.9621364448
 30
0.0
 10
15.557439479
 20
12.9036360697
 30
0.0
 10
15.5505355286
 20
12.8441988189
 30
0.0
 10
15.5447691546
 20
12.7839664095
 30
0.0
 10
15.5401541494
 20
12.7230824766
 30
0.0
 10
15.5367015558
 20
12.6616922223
 30
0.0
 10
15.5344196366
 20
12.5999420665
 30
0.0
 10
15.5333138582
 20
12.5379792946
 30
0.0
 10
15.5333868656
 20
12.4759517043
 30
0.0
 10
15.5346384798
 20
12.4140072489
 30
0.0
 10
15.5370657051
 20
12.3522936814
 30
0.0
 10
15.5406627344
 20
12.2909582001
 30
0.0
 10
15.5454209653
 20
12.2301470942
 30
0.0
 10
15.5513290072
 20
12.1700053898
 30
0.0
 10
15.5583727204
 20
12.1106765005
 30
0.0
 10
15.5665352515
 20
12.0523018852
 30
0.0
 10
15.5757970764
 20
11.9950206973
 30
0.0
 10
15.5861360426
 20
11.9389694805
 30
0.0
 10
15.5975274272
 20
11.8842817053
 30
0.0
 10
15.609943967
 20
11.8310879138
 30
0.0
 10
15.6211949055
 20
11.7878242253
 30
0.0
 10
15.6306969246
 20
11.7540686974
 30
0.0
 10
15.6380127281
 20
11.7293733496
 30
0.0
 10
15.6455611881
 20
11.7051443142
 30
0.0
 10
15.6533378137
 20
11.6813959928
 30
0.0
 10
15.6613379521
 20
11.6581425533
 30
0.0
 10
15.6695568582
 20
11.6353978612
 30
0.0
 10
15.6779895955
 20
11.6131754642
 30
0.0
 10
15.6866311649
 20
11.5914886127
 30
0.0
 10
15.6954764049
 20
11.5703502251
 30
0.0
 10
15.7045200329
 20
11.5497728887
 30
0.0
 10
15.7137566946
 20
11.5297688701
 30
0.0
 10
15.7231808553
 20
11.5103500664
 30
0.0
 10
15.7327869347
 20
11.4915280466
 30
0.0
 10
15.7425692185
 20
11.4733140109
 30
0.0
 10
15.7525218761
 20
11.4557187863
 30
0.0
 10
15.7626390386
 20
11.4387528564
 30
0.0
 10
15.7729146716
 20
11.4224262918
 30
0.0
 10
15.7833427131
 20
11.4067488095
 30
0.0
 10
15.7939170023
 20
11.3917297335
 30
0.0
 10
15.8046312701
 20
11.3773779752
 30
0.0
 10
15.8154792444
 20
11.363702096
 30
0.0
 10
15.8264545104
 20
11.3507102093
 30
0.0
 10
15.8375506418
 20
11.3384100623
 30
0.0
 10
15.8487611523
 20
11.3268090045
 30
0.0
 10
15.8600794572
 20
11.3159139444
 30
0.0
 10
15.8714989942
 20
11.3057314583
 30
0.0
 10
15.8830130818
 20
11.2962676595
 30
0.0
 10
15.8946150257
 20
11.2875282996
 30
0.0
 10
15.90629809
 20
11.2795187588
 30
0.0
 10
15.9180554307
 20
11.2722439568
 30
0.0
 10
15.929880205
 20
11.2657085177
 30
0.0
 10
15.9417654394
 20
11.2599165937
 30
0.0
 10
15.9537040945
 20
11.2548719618
 30
0.0
 10
15.9656890456
 20
11.2505780331
 30
0.0
 10
15.9777130191
 20
11.2470376826
 30
0.0
 10
15.9897686697
 20
11.2442534474
 30
0.0
 10
16.0018485106
 20
11.2422272958
 30
0.0
 10
16.0139449679
 20
11.2409606897
 30
0.0
 10
16.0260503942
 20
11.2404546245
 30
0.0
 10
16.0381570917
 20
11.240709407
 30
0.0
 10
16.0502573611
 20
11.2417249016
 30
0.0
 10
16.0623435305
 20
11.2435003366
 30
0.0
 10
16.0744080052
 20
11.24603438
 30
0.0
 10
16.0864432585
 20
11.2493252653
 30
0.0
 10
16.0984419062
 20
11.253370603
 30
0.0
 10
16.1103966481
 20
11.2581676461
 30
0.0
 10
16.1223003058
 20
11.2637131616
 30
0.0
 10
16.1341458267
 20
11.2700034695
 30
0.0
 10
16.1459261987
 20
11.2770345723
 30
0.0
 10
16.1576345524
 20
11.2848019734
 30
0.0
 10
16.1692640405
 20
11.2933008622
 30
0.0
 10
16.1808078834
 20
11.3025260178
 30
0.0
 10
16.1922593924
 20
11.312471792
 30
0.0
 10
16.2036118599
 20
11.3231322146
 30
0.0
 10
16.2148587002
 20
11.3345008446
 30
0.0
 10
16.2259933332
 20
11.3465708882
 30
0.0
 10
16.2370092275
 20
11.3593351503
 30
0.0
 10
16.2478999577
 20
11.3727859993
 30
0.0
 10
16.2586590835
 20
11.386915458
 30
0.0
 10
16.2692802978
 20
11.401715103
 30
0.0
 10
16.2797573316
 20
11.4171761384
 30
0.0
 10
16.2900839722
 20
11.4332893846
 30
0.0
 10
16.3002541463
 20
11.450045242
 30
0.0
 10
16.3102617915
 20
11.467433766
 30
0.0
 10
16.3201009915
 20
11.4854446039
 30
0.0
 10
16.3297659086
 20
11.5040670396
 30
0.0
 10
16.3392507722
 20
11.5232900034
 30
0.0
 10
16.348549978
 20
11.5431020389
 30
0.0
 10
16.3576579594
 20
11.5634913595
 30
0.0
 10
16.3665693094
 20
11.5844458207
 30
0.0
 10
16.3752787314
 20
11.6059529486
 30
0.0
 10
16.3837809884
 20
11.6279999091
 30
0.0
 10
16.3920710621
 20
11.6505735448
 30
0.0
 10
16.4001440352
 20
11.6736605915
 30
0.0
 10
16.4079949711
 20
11.6972469979
 30
0.0
 10
16.4130391238
 20
11.7131725777
 30
0.0
 10
16.415524366
 20
11.7212148243
 30
0.0
  0
SPLINE
  5
389
100
AcDbEntity
  8
LAYER_FEATURE
100
AcDbSpline
 62
7
  6
CONTINUOUS
 70
0
 71
3
 72
76
 73
72
 74
0
 42
0.0000001
 43
0.0000001
 44
0.0000000001
 40
0.0
 40
0.0
 40
0.0
 40
0.0
 40
0.0163579456
 40
0.0330507378
 40
0.0500637538
 40
0.067382024
 40
0.0849896781
 40
0.102870321
 40
0.1210069569
 40
0.1393820789
 40
0.1579777031
 40
0.1767754149
 40
0.1957564113
 40
0.2149015424
 40
0.2341913518
 40
0.2536061158
 40
0.2731258816
 40
0.2927305057
 40
0.3123996915
 40
0.3321130258
 40
0.3518500167
 40
0.3715901299
 40
0.3913128257
 40
0.4109975956
 40
0.4306239988
 40
0.4501716993
 40
0.4696205028
 40
0.4889503945
 40
0.5081415766
 40
0.5271745075
 40
0.5460299401
 40
0.5646889622
 40
0.5831330369
 40
0.6013440449
 40
0.6193043278
 40
0.6369967335
 40
0.6544046641
 40
0.6715121252
 40
0.6883037787
 40
0.7047649986
 40
0.7208819312
 40
0.7366415602
 40
0.7520317773
 40
0.7670414605
 40
0.78166056
 40
0.7958801946
 40
0.809692758
 40
0.8230920393
 40
0.8360733589
 40
0.8486337229
 40
0.8607719983
 40
0.8724891116
 40
0.8837882736
 40
0.8946752335
 40
0.9051585581
 40
0.9152499392
 40
0.9249645199
 40
0.9343212293
 40
0.9433431052
 40
0.9520575739
 40
0.9604966445
 40
0.9646249627
 40
0.9686985665
 40
0.9727227345
 40
0.9767030082
 40
0.980645167
 40
0.9845552062
 40
0.9884393118
 40
0.9923038237
 40
0.9961552051
 40
1.0
 40
1.0
 40
1.0
 40
1.0
 10
15.6469331475
 20
13.3593025996
 30
0.0
 10
15.6430345921
 20
13.3466868698
 30
0.0
 10
15.6354186442
 20
13.321115804
 30
0.0
 10
15.6246378274
 20
13.2821657697
 30
0.0
 10
15.6143942866
 20
13.2422701192
 30
0.0
 10
15.6047006412
 20
13.2014780375
 30
0.0
 10
15.595568774
 20
13.1598393316
 30
0.0
 10
15.5870098926
 20
13.1174050701
 30
0.0
 10
15.5790345059
 20
13.0742272216
 30
0.0
 10
15.5716524041
 20
13.0303586998
 30
0.0
 10
15.5648726525
 20
12.9858532623
 30
0.0
 10
15.5587035752
 20
12.9407654552
 30
0.0
 10
15.5531527464
 20
12.8951505424
 30
0.0
 10
15.548226982
 20
12.8490644374
 30
0.0
 10
15.5439323305
 20
12.8025636338
 30
0.0
 10
15.540274066
 20
12.755705136
 30
0.0
 10
15.5372566814
 20
12.7085463887
 30
0.0
 10
15.5348838827
 20
12.6611452068
 30
0.0
 10
15.5331585848
 20
12.6135597036
 30
0.0
 10
15.5320829073
 20
12.5658482197
 30
0.0
 10
15.53165817
 20
12.5180692511
 30
0.0
 10
15.531884894
 20
12.4702813763
 30
0.0
 10
15.5327628004
 20
12.4225431851
 30
0.0
 10
15.5342908109
 20
12.3749132056
 30
0.0
 10
15.5364670492
 20
12.327449833
 30
0.0
 10
15.539288843
 20
12.2802112573
 30
0.0
 10
15.5427527274
 20
12.233255392
 30
0.0
 10
15.5468544497
 20
12.1866398027
 30
0.0
 10
15.551588972
 20
12.1404216354
 30
0.0
 10
15.5569504793
 20
12.094657546
 30
0.0
 10
15.5629323872
 20
12.0494036311
 30
0.0
 10
15.5695273502
 20
12.0047153582
 30
0.0
 10
15.5767272705
 20
11.9606474982
 30
0.0
 10
15.5845233082
 20
11.9172540568
 30
0.0
 10
15.5929058927
 20
11.8745882085
 30
0.0
 10
15.6018647346
 20
11.8327022301
 30
0.0
 10
15.611388838
 20
11.7916474352
 30
0.0
 10
15.6214665135
 20
11.7514741096
 30
0.0
 10
15.6320853958
 20
11.71223145
 30
0.0
 10
15.6432324594
 20
11.6739675024
 30
0.0
 10
15.6548940354
 20
11.6367291021
 30
0.0
 10
15.6670558306
 20
11.6005618155
 30
0.0
 10
15.6797029464
 20
11.5655098821
 30
0.0
 10
15.6928199007
 20
11.5316161594
 30
0.0
 10
15.7063906499
 20
11.4989220676
 30
0.0
 10
15.7203986108
 20
11.4674675366
 30
0.0
 10
15.7348266894
 20
11.4372909568
 30
0.0
 10
15.7496573086
 20
11.4084291325
 30
0.0
 10
15.7648724385
 20
11.380917238
 30
0.0
 10
15.7804536294
 20
11.3547887769
 30
0.0
 10
15.7963820471
 20
11.3300755462
 30
0.0
 10
15.8126385114
 20
11.3068076068
 30
0.0
 10
15.8292035371
 20
11.2850132618
 30
0.0
 10
15.8460573718
 20
11.2647190424
 30
0.0
 10
15.8631800393
 20
11.2459497091
 30
0.0
 10
15.8805513653
 20
11.2287282734
 30
0.0
 10
15.8981510299
 20
11.2130760184
 30
0.0
 10
15.9159584521
 20
11.1990125924
 30
0.0
 10
15.9339531597
 20
11.1865559096
 30
0.0
 10
15.9521132773
 20
11.1757227573
 30
0.0
 10
15.9674802125
 20
11.1680037759
 30
0.0
 10
15.9798164156
 20
11.1626804304
 30
0.0
 10
15.9890278071
 20
11.1591303774
 30
0.0
 10
15.9982624172
 20
11.1559952446
 30
0.0
 10
16.0075175076
 20
11.1532759636
 30
0.0
 10
16.0167901688
 20
11.1509734641
 30
0.0
 10
16.026077525
 20
11.1490885474
 30
0.0
 10
16.0353766317
 20
11.1476217967
 30
0.0
 10
16.0446846408
 20
11.1465737947
 30
0.0
 10
16.0539983525
 20
11.1459448121
 30
0.0
 10
16.0602117216
 20
11.145804998
 30
0.0
 10
16.0633152954
 20
11.1458050006
 30
0.0
  0
SPLINE
  5
38A
100
AcDbEntity
  8
LAYER_FEATURE
100
AcDbSpline
 62
7
  6
CONTINUOUS
 70
0
 71
3
 72
18
 73
14
 74
0
 42
0.0000001
 43
0.0000001
 44
0.0000000001
 40
0.0
 40
0.0
 40
0.0
 40
0.0
 40
0.1458729202
 40
0.2894682398
 40
0.4287397532
 40
0.5617414966
 40
0.6867057385
 40
0.7456968949
 40
0.8021318819
 40
0.8558718276
 40
0.9068070689
 40
0.9548674501
 40
1.0
 40
1.0
 40
1.0
 40
1.0
 10
14.7621750899
 20
11.4201929134
 30
0.0
 10
14.7621787726
 20
11.4192359679
 30
0.0
 10
14.7622341797
 20
11.4173368351
 30
0.0
 10
14.7624609832
 20
11.4145321553
 30
0.0
 10
14.7628272537
 20
11.4118272138
 30
0.0
 10
14.7633266747
 20
11.4092680126
 30
0.0
 10
14.7638563055
 20
11.4072553491
 30
0.0
 10
14.764344025
 20
11.4057552783
 30
0.0
 10
14.7647300756
 20
11.4047144629
 30
0.0
 10
14.7651416996
 20
11.4037405853
 30
0.0
 10
14.7655772298
 20
11.4028376992
 30
0.0
 10
14.7660348035
 20
11.4020097162
 30
0.0
 10
14.7663636252
 20
11.401493664
 30
0.0
 10
14.7665318006
 20
11.4012499859
 30
0.0
  0
SPLINE
  5
38B
100
AcDbEntity
  8
LAYER_FEATURE
100
AcDbSpline
 62
7
  6
CONTINUOUS
 70
0
 71
3
 72
11
 73
7
 74
0
 42
0.0000001
 43
0.0000001
 44
0.0000000001
 40
0.0
 40
0.0
 40
0.0
 40
0.0
 40
0.2541791202
 40
0.5074820986
 40
0.7570277541
 40
1.0
 40
1.0
 40
1.0
 40
1.0
 10
14.7642141687
 20
11.450616808
 30
0.0
 10
14.7642905123
 20
11.4530226073
 30
0.0
 10
14.7643337605
 20
11.4578300622
 30
0.0
 10
14.7640751226
 20
11.4649966335
 30
0.0
 10
14.7634966781
 20
11.4720380888
 30
0.0
 10
14.76289281
 20
11.4766651277
 30
0.0
 10
14.7625358256
 20
11.4789381499
 30
0.0
  0
SPLINE
  5
38C
100
AcDbEntity
  8
LAYER_FEATURE
100
AcDbSpline
 62
7
  6
CONTINUOUS
 70
0
 71
3
 72
15
 73
11
 74
0
 42
0.0000001
 43
0.0000001
 44
0.0000000001
 40
0.0
 40
0.0
 40
0.0
 40
0.0
 40
0.1545856274
 40
0.2989993438
 40
0.4336560193
 40
0.5593411427
 40
0.6771617583
 40
0.7885871785
 40
0.8954746023
 40
1.0
 40
1.0
 40
1.0
 40
1.0
 10
14.7109592759
 20
11.4817719066
 30
0.0
 10
14.7111137408
 20
11.4815480944
 30
0.0
 10
14.7114272916
 20
11.4811250764
 30
0.0
 10
14.7119295273
 20
11.4805496705
 30
0.0
 10
14.7124457546
 20
11.480057599
 30
0.0
 10
14.7129741035
 20
11.4796510508
 30
0.0
 10
14.7135127554
 20
11.4793319048
 30
0.0
 10
14.7140598549
 20
11.4791020946
 30
0.0
 10
14.7146128688
 20
11.4789633105
 30
0.0
 10
14.7149854742
 20
11.4789322404
 30
0.0
 10
14.7151693505
 20
11.4789322372
 30
0.0
  0
SPLINE
  5
38D
100
AcDbEntity
  8
LAYER_FEATURE
100
AcDbSpline
 62
7
  6
CONTINUOUS
 70
0
 71
3
 72
17
 73
13
 74
0
 42
0.0000001
 43
0.0000001
 44
0.0000000001
 40
0.0
 40
0.0
 40
0.0
 40
0.0
 40
0.1373174203
 40
0.2748791247
 40
0.4106990234
 40
0.5428231327
 40
0.6693978466
 40
0.788720892
 40
0.8451967136
 40
0.899323068
 40
0.9509679898
 40
1.0
 40
1.0
 40
1.0
 40
1.0
 10
14.6983409168
 20
11.5185925497
 30
0.0
 10
14.6982857788
 20
11.5176375971
 30
0.0
 10
14.6982251256
 20
11.5157227791
 30
0.0
 10
14.6982795597
 20
11.5128612294
 30
0.0
 10
14.6984778953
 20
11.510042187
 30
0.0
 10
14.6988167089
 20
11.5073135497
 30
0.0
 10
14.6992901249
 20
11.5047216695
 30
0.0
 10
14.6997988773
 20
11.5026758593
 30
0.0
 10
14.7002707535
 20
11.5011449508
 30
0.0
 10
14.7006460906
 20
11.5000785404
 30
0.0
 10
14.7010476972
 20
11.4990774028
 30
0.0
 10
14.7013395465
 20
11.4984393165
 30
0.0
 10
14.7014900154
 20
11.4981326932
 30
0.0
  0
SPLINE
  5
38E
100
AcDbEntity
  8
LAYER_FEATURE
100
AcDbSpline
 62
7
  6
CONTINUOUS
 70
0
 71
3
 72
11
 73
7
 74
0
 42
0.0000001
 43
0.0000001
 44
0.0000000001
 40
0.0
 40
0.0
 40
0.0
 40
0.0
 40
0.2495962206
 40
0.5021527845
 40
0.7536254602
 40
1.0
 40
1.0
 40
1.0
 40
1.0
 10
14.7022082676
 20
11.5478227509
 30
0.0
 10
14.7024736085
 20
11.5506266651
 30
0.0
 10
14.7028477727
 20
11.5562839491
 30
0.0
 10
14.702952933
 20
11.5647910684
 30
0.0
 10
14.7026063744
 20
11.5732554204
 30
0.0
 10
14.7020702633
 20
11.5788510156
 30
0.0
 10
14.7017238074
 20
11.581609431
 30
0.0
  0
SPLINE
  5
38F
100
AcDbEntity
  8
LAYER_FEATURE
100
AcDbSpline
 62
7
  6
CONTINUOUS
 70
0
 71
3
 72
11
 73
7
 74
0
 42
0.0000001
 43
0.0000001
 44
0.0000000001
 40
0.0
 40
0.0
 40
0.0
 40
0.0
 40
0.2597686625
 40
0.5136682809
 40
0.7607084162
 40
1.0
 40
1.0
 40
1.0
 40
1.0
 10
14.7017238074
 20
11.581609431
 30
0.0
 10
14.7015740261
 20
11.5828019616
 30
0.0
 10
14.7012437575
 20
11.5851559616
 30
0.0
 10
14.7006489791
 20
11.5886255578
 30
0.0
 10
14.6999626353
 20
11.5919815881
 30
0.0
 10
14.6994372472
 20
11.5941701221
 30
0.0
 10
14.6991589545
 20
11.5952417325
 30
0.0
  0
SPLINE
  5
390
100
AcDbEntity
  8
LAYER_FEATURE
100
AcDbSpline
 62
7
  6
CONTINUOUS
 70
0
 71
3
 72
17
 73
13
 74
0
 42
0.0000001
 43
0.0000001
 44
0.0000000001
 40
0.0
 40
0.0
 40
0.0
 40
0.0
 40
0.1639414232
 40
0.3153532546
 40
0.4542682554
 40
0.5811896228
 40
0.6971295139
 40
0.8037773294
 40
0.8544115914
 40
0.9037084088
 40
0.9520878199
 40
1.0
 40
1.0
 40
1.0
 40
1.0
 10
14.6515069513
 20
11.5999874688
 30
0.0
 10
14.651687635
 20
11.5996192741
 30
0.0
 10
14.6520584485
 20
11.5989220016
 30
0.0
 10
14.6526699351
 20
11.5979624958
 30
0.0
 10
14.6533111852
 20
11.5971365943
 30
0.0
 10
14.6539784357
 20
11.5964499103
 30
0.0
 10
14.6546679595
 20
11.5959074569
 30
0.0
 10
14.6552689975
 20
11.5955739198
 30
0.0
 10
14.6557525904
 20
11.5953895859
 30
0.0
 10
14.6561113107
 20
11.5952922348
 30
0.0
 10
14.6564714504
 20
11.5952336964
 30
0.0
 10
14.6567125466
 20
11.5952206652
 30
0.0
 10
14.6568324104
 20
11.5952206663
 30
0.0
  0
SPLINE
  5
391
100
AcDbEntity
  8
LAYER_FEATURE
100
AcDbSpline
 62
7
  6
CONTINUOUS
 70
0
 71
3
 72
15
 73
11
 74
0
 42
0.0000001
 43
0.0000001
 44
0.0000000001
 40
0.0
 40
0.0
 40
0.0
 40
0.0
 40
0.1292790561
 40
0.2610827407
 40
0.3935133539
 40
0.5246464859
 40
0.6525946401
 40
0.7755522857
 40
0.8918448466
 40
1.0
 40
1.0
 40
1.0
 40
1.0
 10
14.6412870016
 20
11.6414237494
 30
0.0
 10
14.64117336
 20
11.6404944596
 30
0.0
 10
14.6409961333
 20
11.6386110005
 30
0.0
 10
14.640876838
 20
11.6357625829
 30
0.0
 10
14.6409022726
 20
11.6328982792
 30
0.0
 10
14.6410720288
 20
11.6300668523
 30
0.0
 10
14.6413831413
 20
11.6273163984
 30
0.0
 10
14.6418302304
 20
11.6246934854
 30
0.0
 10
14.6424054696
 20
11.6222426154
 30
0.0
 10
14.6428871742
 20
11.6206882389
 30
0.0
 10
14.6431509468
 20
11.6199507533
 30
0.0
  0
LINE
  5
392
100
AcDbEntity
  8
LAYER_FEATURE
100
AcDbLine
 62
7
  6
CONTINUOUS
 10
14.6416545603
 20
11.6437036142
 11
14.6412870016
 21
11.6414237494
  0
SPLINE
  5
393
100
AcDbEntity
  8
LAYER_FEATURE
100
AcDbSpline
 62
7
  6
CONTINUOUS
 70
0
 71
3
 72
14
 73
10
 74
0
 42
0.0000001
 43
0.0000001
 44
0.0000000001
 40
0.0
 40
0.0
 40
0.0
 40
0.0
 40
0.120181727
 40
0.2427262454
 40
0.3671488816
 40
0.492962835
 40
0.6196656523
 40
0.7467485375
 40
1.0
 40
1.0
 40
1.0
 40
1.0
 10
14.6468873975
 20
11.6687405126
 30
0.0
 10
14.6471038191
 20
11.6700717877
 30
0.0
 10
14.6474993322
 20
11.6727674317
 30
0.0
 10
14.6479778888
 20
11.6768604518
 30
0.0
 10
14.6483459806
 20
11.6810283591
 30
0.0
 10
14.6486018729
 20
11.6852513649
 30
0.0
 10
14.6487443432
 20
11.6895096424
 30
0.0
 10
14.6487820769
 20
11.6952002322
 30
0.0
 10
14.6486396603
 20
11.6994689371
 30
0.0
 10
14.648467134
 20
11.7023058366
 30
0.0
  0
SPLINE
  5
394
100
AcDbEntity
  8
LAYER_FEATURE
100
AcDbSpline
 62
7
  6
CONTINUOUS
 70
0
 71
3
 72
15
 73
11
 74
0
 42
0.0000001
 43
0.0000001
 44
0.0000000001
 40
0.0
 40
0.0
 40
0.0
 40
0.0
 40
0.1377748508
 40
0.2732934192
 40
0.4058093941
 40
0.534611138
 40
0.6590242731
 40
0.7784245386
 40
0.8922471877
 40
1.0
 40
1.0
 40
1.0
 40
1.0
 10
14.648467134
 20
11.7023058366
 30
0.0
 10
14.6483779106
 20
11.7037729623
 30
0.0
 10
14.6481541333
 20
11.7066805799
 30
0.0
 10
14.6476787124
 20
11.7109845232
 30
0.0
 10
14.6470688354
 20
11.7151748696
 30
0.0
 10
14.6463285878
 20
11.7192238452
 30
0.0
 10
14.6454629032
 20
11.7231047252
 30
0.0
 10
14.644477535
 20
11.7267919627
 30
0.0
 10
14.6433790844
 20
11.7302611588
 30
0.0
 10
14.642552446
 20
11.7324772109
 30
0.0
 10
14.6421194334
 20
11.7335420882
 30
0.0
  0
SPLINE
  5
395
100
AcDbEntity
  8
LAYER_FEATURE
100
AcDbSpline
 62
7
  6
CONTINUOUS
 70
0
 71
3
 72
21
 73
17
 74
0
 42
0.0000001
 43
0.0000001
 44
0.0000000001
 40
0.0
 40
0.0
 40
0.0
 40
0.0
 40
0.1705319831
 40
0.3274638281
 40
0.4006527804
 40
0.4702713549
 40
0.5363269261
 40
0.5988760366
 40
0.65802323
 40
0.7139343382
 40
0.7668400051
 40
0.8170502262
 40
0.8649559396
 40
0.9110353796
 40
0.9558441832
 40
1.0
 40
1.0
 40
1.0
 40
1.0
 10
14.5999880922
 20
11.7406303813
 30
0.0
 10
14.6001806136
 20
11.7400921082
 30
0.0
 10
14.6005829899
 20
11.7390697171
 30
0.0
 10
14.6011690924
 20
11.737859344
 30
0.0
 10
14.6016693002
 20
11.7369874822
 30
0.0
 10
14.6020481065
 20
11.7363982461
 30
0.0
 10
14.6024383571
 20
11.7358599472
 30
0.0
 10
14.6028390301
 20
11.7353739785
 30
0.0
 10
14.6032491715
 20
11.7349416538
 30
0.0
 10
14.6036677423
 20
11.734564098
 30
0.0
 10
14.6040937854
 20
11.7342424108
 30
0.0
 10
14.6045262478
 20
11.7339775072
 30
0.0
 10
14.6049640996
 20
11.7337703243
 30
0.0
 10
14.6054061988
 20
11.733621607
 30
0.0
 10
14.6058511841
 20
11.7335320938
 30
0.0
 10
14.606149784
 20
11.7335121038
 30
0.0
 10
14.6062978055
 20
11.7335120993
 30
0.0
  0
SPLINE
  5
396
100
AcDbEntity
  8
LAYER_FEATURE
100
AcDbSpline
 62
7
  6
CONTINUOUS
 70
0
 71
3
 72
15
 73
11
 74
0
 42
0.0000001
 43
0.0000001
 44
0.0000000001
 40
0.0
 40
0.0
 40
0.0
 40
0.0
 40
0.1215859453
 40
0.2478080464
 40
0.3768843112
 40
0.5069494646
 40
0.6361173793
 40
0.7625244488
 40
0.8843739234
 40
1.0
 40
1.0
 40
1.0
 40
1.0
 10
14.5924182011
 20
11.7856620005
 30
0.0
 10
14.5922477674
 20
11.7847816402
 30
0.0
 10
14.5919563192
 20
11.7829761724
 30
0.0
 10
14.5916662822
 20
11.7802105381
 30
0.0
 10
14.5915181792
 20
11.7773710319
 30
0.0
 10
14.591514627
 20
11.7745059986
 30
0.0
 10
14.5916556746
 20
11.7716641242
 30
0.0
 10
14.591938884
 20
11.7688936619
 30
0.0
 10
14.5923592822
 20
11.7662417418
 30
0.0
 10
14.5927377544
 20
11.7645302349
 30
0.0
 10
14.5929510964
 20
11.7637046014
 30
0.0
  0
LINE
  5
397
100
AcDbEntity
  8
LAYER_FEATURE
100
AcDbLine
 62
7
  6
CONTINUOUS
 10
14.5929201203
 20
11.7877661433
 11
14.5924182011
 21
11.7856620005
  0
LINE
  5
398
100
AcDbEntity
  8
LAYER_FEATURE
100
AcDbLine
 62
7
  6
CONTINUOUS
 10
14.597156562
 20
11.8016144672
 11
14.5996137417
 21
11.8103926965
  0
SPLINE
  5
399
100
AcDbEntity
  8
LAYER_FEATURE
100
AcDbSpline
 62
7
  6
CONTINUOUS
 70
0
 71
3
 72
14
 73
10
 74
0
 42
0.0000001
 43
0.0000001
 44
0.0000000001
 40
0.0
 40
0.0
 40
0.0
 40
0.0
 40
0.1161394959
 40
0.2357521706
 40
0.358387453
 40
0.4835825121
 40
0.6108500372
 40
0.7396874086
 40
1.0
 40
1.0
 40
1.0
 40
1.0
 10
14.5996137417
 20
11.8103926965
 30
0.0
 10
14.5999101075
 20
11.8116269285
 30
0.0
 10
14.6004673166
 20
11.8141431459
 30
0.0
 10
14.6011887224
 20
11.8179936688
 30
0.0
 10
14.6018056104
 20
11.8219625094
 30
0.0
 10
14.6023150571
 20
11.8260308292
 30
0.0
 10
14.6027146415
 20
11.83017954
 30
0.0
 10
14.6030996405
 20
11.8358109244
 30
0.0
 10
14.6032163814
 20
11.8400651596
 30
0.0
 10
14.6032187765
 20
11.8429101747
 30
0.0
  0
SPLINE
  5
39A
100
AcDbEntity
  8
LAYER_FEATURE
100
AcDbSpline
 62
7
  6
CONTINUOUS
 70
0
 71
3
 72
21
 73
17
 74
0
 42
0.0000001
 43
0.0000001
 44
0.0000000001
 40
0.0
 40
0.0
 40
0.0
 40
0.0
 40
0.1449486024
 40
0.2878531991
 40
0.3579104826
 40
0.4267049711
 40
0.4940005171
 40
0.5595708385
 40
0.6232017896
 40
0.6846933988
 40
0.7438624396
 40
0.8005448453
 40
0.8545990653
 40
0.9059097387
 40
0.9543912449
 40
1.0
 40
1.0
 40
1.0
 40
1.0
 10
14.6032187765
 20
11.8429101747
 30
0.0
 10
14.6032207807
 20
11.8452907556
 30
0.0
 10
14.6031055957
 20
11.8500192629
 30
0.0
 10
14.6026624556
 20
11.8558835441
 30
0.0
 10
14.6021279748
 20
11.8604805393
 30
0.0
 10
14.601643976
 20
11.8638319197
 30
0.0
 10
14.6010763333
 20
11.8670953899
 30
0.0
 10
14.6004274377
 20
11.8702571994
 30
0.0
 10
14.5997000447
 20
11.8733040082
 30
0.0
 10
14.5988972346
 20
11.8762229848
 30
0.0
 10
14.5980224111
 20
11.8790018525
 30
0.0
 10
14.5970792679
 20
11.8816289529
 30
0.0
 10
14.5960717747
 20
11.8840932751
 30
0.0
 10
14.5950041113
 20
11.8863845534
 30
0.0
 10
14.5938807941
 20
11.8884931943
 30
0.0
 10
14.5930729429
 20
11.8898120142
 30
0.0
 10
14.5926594215
 20
11.8904365883
 30
0.0
  0
SPLINE
  5
39B
100
AcDbEntity
  8
LAYER_FEATURE
100
AcDbSpline
 62
7
  6
CONTINUOUS
 70
0
 71
3
 72
22
 73
18
 74
0
 42
0.0000001
 43
0.0000001
 44
0.0000000001
 40
0.0
 40
0.0
 40
0.0
 40
0.0
 40
0.1745071212
 40
0.2568018499
 40
0.335524345
 40
0.4105247864
 40
0.4816804585
 40
0.5489171961
 40
0.612210435
 40
0.671597025
 40
0.7271863385
 40
0.7791748711
 40
0.8278648882
 40
0.8736767417
 40
0.9171620841
 40
0.9590046499
 40
1.0
 40
1.0
 40
1.0
 40
1.0
 10
14.5576712641
 20
11.9002375487
 30
0.0
 10
14.5578589706
 20
11.8995111246
 30
0.0
 10
14.5581684493
 20
11.8984500337
 30
0.0
 10
14.5586504614
 20
11.8970900719
 30
0.0
 10
14.5590281597
 20
11.8961478944
 30
0.0
 10
14.5594276347
 20
11.8952670432
 30
0.0
 10
14.5598474601
 20
11.8944507976
 30
0.0
 10
14.5602860452
 20
11.8937021895
 30
0.0
 10
14.5607418288
 20
11.8930239954
 30
0.0
 10
14.5612131798
 20
11.8924187094
 30
0.0
 10
14.5616984752
 20
11.8918885725
 30
0.0
 10
14.5621961198
 20
11.8914356102
 30
0.0
 10
14.562704491
 20
11.8910616085
 30
0.0
 10
14.5632219743
 20
11.8907683015
 30
0.0
 10
14.5637468189
 20
11.8905572215
 30
0.0
 10
14.5642768323
 20
11.8904298392
 30
0.0
 10
14.5646336081
 20
11.890401364
 30
0.0
 10
14.5648098653
 20
11.8904013666
 30
0.0
  0
SPLINE
  5
39C
100
AcDbEntity
  8
LAYER_FEATURE
100
AcDbSpline
 62
7
  6
CONTINUOUS
 70
0
 71
3
 72
15
 73
11
 74
0
 42
0.0000001
 43
0.0000001
 44
0.0000000001
 40
0.0
 40
0.0
 40
0.0
 40
0.0
 40
0.1140747183
 40
0.2347780103
 40
0.3604791784
 40
0.489403122
 40
0.6196953567
 40
0.749466957
 40
0.876838006
 40
1.0
 40
1.0
 40
1.0
 40
1.0
 10
14.5529378273
 20
11.9477556787
 30
0.0
 10
14.5527136454
 20
11.9469466238
 30
0.0
 10
14.5523130794
 20
11.9452642632
 30
0.0
 10
14.5518595562
 20
11.9426489103
 30
0.0
 10
14.5515416198
 20
11.9399036095
 30
0.0
 10
14.5513648488
 20
11.9370750453
 30
0.0
 10
14.5513323008
 20
11.9342112257
 30
0.0
 10
14.5514445544
 20
11.9313608183
 30
0.0
 10
14.5516996183
 20
11.9285723573
 30
0.0
 10
14.5519676951
 20
11.9267469302
 30
0.0
 10
14.552126551
 20
11.9258545406
 30
0.0
  0
LINE
  5
39D
100
AcDbEntity
  8
LAYER_FEATURE
100
AcDbLine
 62
7
  6
CONTINUOUS
 10
14.5535617482
 20
11.9496322885
 11
14.5529378273
 21
11.9477556787
  0
LINE
  5
39E
100
AcDbEntity
  8
LAYER_FEATURE
100
AcDbLine
 62
7
  6
CONTINUOUS
 10
14.5585896507
 20
11.9616082822
 11
14.5615513345
 21
11.9692913556
  0
SPLINE
  5
39F
100
AcDbEntity
  8
LAYER_FEATURE
100
AcDbSpline
 62
7
  6
CONTINUOUS
 70
0
 71
3
 72
15
 73
11
 74
0
 42
0.0000001
 43
0.0000001
 44
0.0000000001
 40
0.0
 40
0.0
 40
0.0
 40
0.0
 40
0.1119647374
 40
0.2285197153
 40
0.3492669579
 40
0.4737829233
 40
0.6016083208
 40
0.7322576538
 40
0.8652313455
 40
1.0
 40
1.0
 40
1.0
 40
1.0
 10
14.5615513345
 20
11.9692913556
 30
0.0
 10
14.5619212629
 20
11.9703973892
 30
0.0
 10
14.5626281901
 20
11.9726711177
 30
0.0
 10
14.5635746263
 20
11.9761847192
 30
0.0
 10
14.5644250648
 20
11.9798570954
 30
0.0
 10
14.5651754744
 20
11.9836708432
 30
0.0
 10
14.5658222759
 20
11.9876080381
 30
0.0
 10
14.5663624281
 20
11.9916501421
 30
0.0
 10
14.5667933266
 20
11.9957780093
 30
0.0
 10
14.5670052764
 20
11.9985592471
 30
0.0
 10
14.5670928997
 20
11.9999602999
 30
0.0
  0
SPLINE
  5
3A0
100
AcDbEntity
  8
LAYER_FEATURE
100
AcDbSpline
 62
7
  6
CONTINUOUS
 70
0
 71
3
 72
20
 73
16
 74
0
 42
0.0000001
 43
0.0000001
 44
0.0000000001
 40
0.0
 40
0.0
 40
0.0
 40
0.0
 40
0.1383954399
 40
0.2771390389
 40
0.414009903
 40
0.4810675355
 40
0.5468506135
 40
0.6111065828
 40
0.6735943962
 40
0.7340868527
 40
0.7923732114
 40
0.8482626138
 40
0.9015852564
 40
0.9522028141
 40
1.0
 40
1.0
 40
1.0
 40
1.0
 10
14.5670928997
 20
11.9999602999
 30
0.0
 10
14.5672497418
 20
12.0024681242
 30
0.0
 10
14.5674259774
 20
12.0074997202
 30
0.0
 10
14.5672886772
 20
12.0150185421
 30
0.0
 10
14.5668403383
 20
12.0212274807
 30
0.0
 10
14.5662801419
 20
12.0260928176
 30
0.0
 10
14.5657669398
 20
12.029634895
 30
0.0
 10
14.565160354
 20
12.0330779746
 30
0.0
 10
14.5644632441
 20
12.036405848
 30
0.0
 10
14.5636789219
 20
12.0396028222
 30
0.0
 10
14.562811104
 20
12.0426538638
 30
0.0
 10
14.5618638956
 20
12.0455446093
 30
0.0
 10
14.5608417603
 20
12.0482616064
 30
0.0
 10
14.5597495239
 20
12.05079197
 30
0.0
 10
14.558954749
 20
12.0523935887
 30
0.0
 10
14.5585451778
 20
12.0531586691
 30
0.0
  0
SPLINE
  5
3A1
100
AcDbEntity
  8
LAYER_FEATURE
100
AcDbSpline
 62
7
  6
CONTINUOUS
 70
0
 71
3
 72
13
 73
9
 74
0
 42
0.0000001
 43
0.0000001
 44
0.0000000001
 40
0.0
 40
0.0
 40
0.0
 40
0.0
 40
0.2814832487
 40
0.4142323977
 40
0.5416488443
 40
0.6638078447
 40
0.7808217245
 40
1.0
 40
1.0
 40
1.0
 40
1.0
 10
14.5585451778
 20
12.0531586691
 30
0.0
 10
14.5580430482
 20
12.0540966488
 30
0.0
 10
14.5572573496
 20
12.0554532298
 30
0.0
 10
14.5561231519
 20
12.0571582159
 30
0.0
 10
14.5552701802
 20
12.0583253238
 30
0.0
 10
14.5543995003
 20
12.0594040687
 30
0.0
 10
14.553242334
 20
12.0606938693
 30
0.0
 10
14.5523148321
 20
12.0615687267
 30
0.0
 10
14.5516737318
 20
12.0620934071
 30
0.0
  0
SPLINE
  5
3A2
100
AcDbEntity
  8
LAYER_FEATURE
100
AcDbSpline
 62
7
  6
CONTINUOUS
 70
0
 71
3
 72
21
 73
17
 74
0
 42
0.0000001
 43
0.0000001
 44
0.0000000001
 40
0.0
 40
0.0
 40
0.0
 40
0.0
 40
0.1706720939
 40
0.3304847961
 40
0.4057282492
 40
0.4775779512
 40
0.5458696946
 40
0.6104778338
 40
0.6713207909
 40
0.728373714
 40
0.7816772244
 40
0.831352467
 40
0.8776180126
 40
0.9208096077
 40
0.9614033293
 40
1.0
 40
1.0
 40
1.0
 40
1.0
 10
14.5255984475
 20
12.074878913
 30
0.0
 10
14.5257496708
 20
12.0740294008
 30
0.0
 10
14.5260901033
 20
12.0723923939
 30
0.0
 10
14.526640291
 20
12.0704143293
 30
0.0
 10
14.5271435405
 20
12.0689461717
 30
0.0
 10
14.5275400326
 20
12.0679316112
 30
0.0
 10
14.5279614383
 20
12.0669856669
 30
0.0
 10
14.5284059931
 20
12.0661123056
 30
0.0
 10
14.5288718749
 20
12.065315198
 30
0.0
 10
14.5293571595
 20
12.0645976528
 30
0.0
 10
14.5298599303
 20
12.0639626533
 30
0.0
 10
14.5303782874
 20
12.063412877
 30
0.0
 10
14.5309102757
 20
12.0629506649
 30
0.0
 10
14.5314541283
 20
12.0625781745
 30
0.0
 10
14.5320076688
 20
12.0622975533
 30
0.0
 10
14.5323893247
 20
12.0621704547
 30
0.0
 10
14.5325788845
 20
12.062124151
 30
0.0
  0
SPLINE
  5
3A3
100
AcDbEntity
  8
LAYER_FEATURE
100
AcDbSpline
 62
7
  6
CONTINUOUS
 70
0
 71
3
 72
16
 73
12
 74
0
 42
0.0000001
 43
0.0000001
 44
0.0000000001
 40
0.0
 40
0.0
 40
0.0
 40
0.0
 40
0.0521613299
 40
0.1066214521
 40
0.2217431005
 40
0.3439632934
 40
0.4716394526
 40
0.6029831415
 40
0.7361106835
 40
0.8690890218
 40
1.0
 40
1.0
 40
1.0
 40
1.0
 10
14.523818018
 20
12.1237134998
 30
0.0
 10
14.5236841344
 20
12.1233628326
 30
0.0
 10
14.523426395
 20
12.1226398762
 30
0.0
 10
14.5229505829
 20
12.1211164518
 30
0.0
 10
14.5224367007
 20
12.1190785811
 30
0.0
 10
14.5219568721
 20
12.1164945686
 30
0.0
 10
14.5216113061
 20
12.1137715629
 30
0.0
 10
14.5214059765
 20
12.110955853
 30
0.0
 10
14.5213444667
 20
12.1080951892
 30
0.0
 10
14.5214278135
 20
12.1052382822
 30
0.0
 10
14.5215809497
 20
12.1033444506
 30
0.0
 10
14.5216825466
 20
12.1024079013
 30
0.0
  0
LINE
  5
3A4
100
AcDbEntity
  8
LAYER_FEATURE
100
AcDbLine
 62
7
  6
CONTINUOUS
 10
14.5245485776
 20
12.1253163681
 11
14.523818018
 21
12.1237134998
  0
SPLINE
  5
3A5
100
AcDbEntity
  8
LAYER_FEATURE
100
AcDbSpline
 62
7
  6
CONTINUOUS
 70
0
 71
3
 72
9
 73
5
 74
0
 42
0.0000001
 43
0.0000001
 44
0.0000000001
 40
0.0
 40
0.0
 40
0.0
 40
0.0
 40
0.4840729617
 40
1.0
 40
1.0
 40
1.0
 40
1.0
 10
14.5302441373
 20
12.135125143
 30
0.0
 10
14.5308583888
 20
12.136120027
 30
0.0
 10
14.5320534929
 20
12.1382213542
 30
0.0
 10
14.5331180056
 20
12.1403911059
 30
0.0
 10
14.5336373987
 20
12.1415238777
 30
0.0
  0
SPLINE
  5
3A6
100
AcDbEntity
  8
LAYER_FEATURE
100
AcDbSpline
 62
7
  6
CONTINUOUS
 70
0
 71
3
 72
15
 73
11
 74
0
 42
0.0000001
 43
0.0000001
 44
0.0000000001
 40
0.0
 40
0.0
 40
0.0
 40
0.0
 40
0.1076162459
 40
0.220936473
 40
0.3396494246
 40
0.4633980735
 40
0.5917730897
 40
0.7243238784
 40
0.8605728555
 40
1.0
 40
1.0
 40
1.0
 40
1.0
 10
14.5336373987
 20
12.1415238777
 30
0.0
 10
14.5340726794
 20
12.1424732041
 30
0.0
 10
14.5349137106
 20
12.1444466047
 30
0.0
 10
14.536061878
 20
12.1475373842
 30
0.0
 10
14.5371248995
 20
12.1508233842
 30
0.0
 10
14.538097741
 20
12.1542890559
 30
0.0
 10
14.5389757902
 20
12.157918179
 30
0.0
 10
14.5397549196
 20
12.1616937044
 30
0.0
 10
14.5404313882
 20
12.1655977771
 30
0.0
 10
14.540807963
 20
12.1682469063
 30
0.0
 10
14.5409790427
 20
12.1695891168
 30
0.0
  0
SPLINE
  5
3A7
100
AcDbEntity
  8
LAYER_FEATURE
100
AcDbSpline
 62
7
  6
CONTINUOUS
 70
0
 71
3
 72
19
 73
15
 74
0
 42
0.0000001
 43
0.0000001
 44
0.0000000001
 40
0.0
 40
0.0
 40
0.0
 40
0.0
 40
0.1299067226
 40
0.2625691815
 40
0.3958702955
 40
0.527672411
 40
0.5923598422
 40
0.6558937305
 40
0.7180287639
 40
0.7785300554
 40
0.8371759149
 40
0.893757899
 40
0.948090567
 40
1.0
 40
1.0
 40
1.0
 40
1.0
 10
14.5409790427
 20
12.1695891168
 30
0.0
 10
14.5412896294
 20
12.1720258346
 30
0.0
 10
14.5417720845
 20
12.1769704525
 30
0.0
 10
14.5420908818
 20
12.1844526807
 30
0.0
 10
14.5420100851
 20
12.1919771877
 30
0.0
 10
14.5416086463
 20
12.1982037514
 30
0.0
 10
14.5410856095
 20
12.2030932539
 30
0.0
 10
14.5405992524
 20
12.2066602771
 30
0.0
 10
14.5400187731
 20
12.2101329775
 30
0.0
 10
14.5393469103
 20
12.2134950094
 30
0.0
 10
14.5385868564
 20
12.2167304889
 30
0.0
 10
14.5377422229
 20
12.2198242697
 30
0.0
 10
14.5368170094
 20
12.2227616504
 30
0.0
 10
14.536133144
 20
12.2246514574
 30
0.0
 10
14.5357773195
 20
12.225566258
 30
0.0
  0
SPLINE
  5
3A8
100
AcDbEntity
  8
LAYER_FEATURE
100
AcDbSpline
 62
7
  6
CONTINUOUS
 70
0
 71
3
 72
15
 73
11
 74
0
 42
0.0000001
 43
0.0000001
 44
0.0000000001
 40
0.0
 40
0.0
 40
0.0
 40
0.0
 40
0.1465765314
 40
0.2871879465
 40
0.4216383184
 40
0.5498307952
 40
0.6717115787
 40
0.7872899407
 40
0.8966666676
 40
1.0
 40
1.0
 40
1.0
 40
1.0
 10
14.5357773195
 20
12.225566258
 30
0.0
 10
14.5354842912
 20
12.226319614
 30
0.0
 10
14.5348844391
 20
12.2277858565
 30
0.0
 10
14.5339218548
 20
12.2299031592
 30
0.0
 10
14.5329172673
 20
12.2318879872
 30
0.0
 10
14.531873467
 20
12.2337348087
 30
0.0
 10
14.5307932829
 20
12.2354386984
 30
0.0
 10
14.5296794744
 20
12.2369950804
 30
0.0
 10
14.5285350894
 20
12.2383995378
 30
0.0
 10
14.5277314495
 20
12.2392558368
 30
0.0
 10
14.5273250185
 20
12.2396552811
 30
0.0
  0
SPLINE
  5
3A9
100
AcDbEntity
  8
LAYER_FEATURE
100
AcDbSpline
 62
7
  6
CONTINUOUS
 70
0
 71
3
 72
13
 73
9
 74
0
 42
0.0000001
 43
0.0000001
 44
0.0000000001
 40
0.0
 40
0.0
 40
0.0
 40
0.0
 40
0.2767118049
 40
0.53301777
 40
0.6546517621
 40
0.7726021096
 40
0.8874878809
 40
1.0
 40
1.0
 40
1.0
 40
1.0
 10
14.5273250185
 20
12.2396552811
 30
0.0
 10
14.5266794937
 20
12.2402897089
 30
0.0
 10
14.5253707942
 20
12.2414483132
 30
0.0
 10
14.5235939199
 20
12.2426564708
 30
0.0
 10
14.5221571563
 20
12.2434123406
 30
0.0
 10
14.5210904355
 20
12.2438700194
 30
0.0
 10
14.5200175098
 20
12.2442274857
 30
0.0
 10
14.519292785
 20
12.24440001
 30
0.0
 10
14.5189312437
 20
12.2444687397
 30
0.0
  0
SPLINE
  5
3AA
100
AcDbEntity
  8
LAYER_FEATURE
100
AcDbSpline
 62
7
  6
CONTINUOUS
 70
0
 71
3
 72
11
 73
7
 74
0
 42
0.0000001
 43
0.0000001
 44
0.0000000001
 40
0.0
 40
0.0
 40
0.0
 40
0.0
 40
0.2667840712
 40
0.5195484191
 40
0.7623596121
 40
1.0
 40
1.0
 40
1.0
 40
1.0
 10
14.5106768777
 20
12.2448523611
 30
0.0
 10
14.5107843475
 20
12.2447813292
 30
0.0
 10
14.511001999
 20
12.2446549865
 30
0.0
 10
14.5113435282
 20
12.2445143631
 30
0.0
 10
14.5116886505
 20
12.2444294716
 30
0.0
 10
14.511921064
 20
12.2444104724
 30
0.0
 10
14.5120358141
 20
12.2444104698
 30
0.0
  0
SPLINE
  5
3AB
100
AcDbEntity
  8
LAYER_FEATURE
100
AcDbSpline
 62
7
  6
CONTINUOUS
 70
0
 71
3
 72
21
 73
17
 74
0
 42
0.0000001
 43
0.0000001
 44
0.0000000001
 40
0.0
 40
0.0
 40
0.0
 40
0.0
 40
0.1613751757
 40
0.2394782755
 40
0.3154991505
 40
0.4602959904
 40
0.5286485937
 40
0.5940396741
 40
0.6563084898
 40
0.7153282227
 40
0.771009708
 40
0.8233093074
 40
0.8722377792
 40
0.9178729547
 40
0.960379461
 40
1.0
 40
1.0
 40
1.0
 40
1.0
 10
14.5045593818
 20
12.2602542241
 30
0.0
 10
14.504657917
 20
12.2593458981
 30
0.0
 10
14.5048399466
 20
12.2580013729
 30
0.0
 10
14.5051576111
 20
12.2562433566
 30
0.0
 10
14.5055097242
 20
12.2545878155
 30
0.0
 10
14.5059267788
 20
12.2530029822
 30
0.0
 10
14.5064145051
 20
12.2515029278
 30
0.0
 10
14.5068005388
 20
12.2504621031
 30
0.0
 10
14.5072121841
 20
12.2494882214
 30
0.0
 10
14.5076476993
 20
12.2485853695
 30
0.0
 10
14.5081052693
 20
12.2477573384
 30
0.0
 10
14.5085830347
 20
12.2470075973
 30
0.0
 10
14.5090790254
 20
12.2463392497
 30
0.0
 10
14.5095914022
 20
12.2457550452
 30
0.0
 10
14.5101181136
 20
12.2452576086
 30
0.0
 10
14.5104897406
 20
12.244976049
 30
0.0
 10
14.5106768777
 20
12.2448523611
 30
0.0
  0
SPLINE
  5
3AC
100
AcDbEntity
  8
LAYER_FEATURE
100
AcDbSpline
 62
7
  6
CONTINUOUS
 70
0
 71
3
 72
17
 73
13
 74
0
 42
0.0000001
 43
0.0000001
 44
0.0000000001
 40
0.0
 40
0.0
 40
0.0
 40
0.0
 40
0.0482150816
 40
0.0991179238
 40
0.1525901529
 40
0.2085101307
 40
0.3270475632
 40
0.453312293
 40
0.5856313436
 40
0.7221637857
 40
0.8609537098
 40
1.0
 40
1.0
 40
1.0
 40
1.0
 10
14.5057757997
 20
12.309202798
 30
0.0
 10
14.5056213412
 20
12.3089085907
 30
0.0
 10
14.5053212292
 20
12.3082945187
 30
0.0
 10
14.5049071639
 20
12.3073274524
 30
0.0
 10
14.5045185304
 20
12.3062929684
 30
0.0
 10
14.5040269819
 20
12.3048006317
 30
0.0
 10
14.5034922797
 20
12.302796307
 30
0.0
 10
14.5029865365
 20
12.3002453765
 30
0.0
 10
14.5026135654
 20
12.2975465264
 30
0.0
 10
14.5023798315
 20
12.2947455772
 30
0.0
 10
14.5022893731
 20
12.2918900935
 30
0.0
 10
14.5023258042
 20
12.2899746699
 30
0.0
 10
14.5023687154
 20
12.2890173538
 30
0.0
  0
LINE
  5
3AD
100
AcDbEntity
  8
LAYER_FEATURE
100
AcDbLine
 62
7
  6
CONTINUOUS
 10
14.5065950091
 20
12.310492457
 11
14.5057757997
 21
12.309202798
  0
LINE
  5
3AE
100
AcDbEntity
  8
LAYER_FEATURE
100
AcDbLine
 62
7
  6
CONTINUOUS
 10
14.5128179824
 20
12.3178924884
 11
14.5065950091
 21
12.310492457
  0
SPLINE
  5
3AF
100
AcDbEntity
  8
LAYER_FEATURE
100
AcDbSpline
 62
7
  6
CONTINUOUS
 70
0
 71
3
 72
9
 73
5
 74
0
 42
0.0000001
 43
0.0000001
 44
0.0000000001
 40
0.0
 40
0.0
 40
0.0
 40
0.0
 40
0.48151189
 40
1.0
 40
1.0
 40
1.0
 40
1.0
 10
14.5128179824
 20
12.3178924884
 30
0.0
 10
14.5134881399
 20
12.3186315267
 30
0.0
 10
14.5148034162
 20
12.3202366142
 30
0.0
 10
14.5159805475
 20
12.3219442846
 30
0.0
 10
14.5165592681
 20
12.3228493264
 30
0.0
  0
SPLINE
  5
3B0
100
AcDbEntity
  8
LAYER_FEATURE
100
AcDbSpline
 62
7
  6
CONTINUOUS
 70
0
 71
3
 72
15
 73
11
 74
0
 42
0.0000001
 43
0.0000001
 44
0.0000000001
 40
0.0
 40
0.0
 40
0.0
 40
0.0
 40
0.1031561657
 40
0.213055699
 40
0.3295430471
 40
0.4523814036
 40
0.5812535286
 40
0.7157769469
 40
0.8555223871
 40
1.0
 40
1.0
 40
1.0
 40
1.0
 10
14.5165592681
 20
12.3228493264
 30
0.0
 10
14.5170498095
 20
12.3236164675
 30
0.0
 10
14.518005872
 20
12.3252378713
 30
0.0
 10
14.5193277735
 20
12.3278307338
 30
0.0
 10
14.5205773356
 20
12.3306502781
 30
0.0
 10
14.5217486844
 20
12.3336832019
 30
0.0
 10
14.5228363405
 20
12.3369154313
 30
0.0
 10
14.523835217
 20
12.3403318517
 30
0.0
 10
14.5247405427
 20
12.3439163598
 30
0.0
 10
14.52527073
 20
12.3463691244
 30
0.0
 10
14.5255202151
 20
12.347619801
 30
0.0
  0
SPLINE
  5
3B1
100
AcDbEntity
  8
LAYER_FEATURE
100
AcDbSpline
 62
7
  6
CONTINUOUS
 70
0
 71
3
 72
20
 73
16
 74
0
 42
0.0000001
 43
0.0000001
 44
0.0000000001
 40
0.0
 40
0.0
 40
0.0
 40
0.0
 40
0.0601646373
 40
0.1218144354
 40
0.1847070741
 40
0.2486020268
 40
0.378368394
 40
0.5090558349
 40
0.638568724
 40
0.7022435143
 40
0.7648570697
 40
0.8261669237
 40
0.8859382656
 40
0.9439537562
 40
1.0
 40
1.0
 40
1.0
 40
1.0
 10
14.5255202151
 20
12.347619801
 30
0.0
 10
14.5257472906
 20
12.3487581374
 30
0.0
 10
14.5261691241
 20
12.3510706271
 30
0.0
 10
14.5267005043
 20
12.3545948693
 30
0.0
 10
14.5271364819
 20
12.3582047197
 30
0.0
 10
14.5275900688
 20
12.3631341614
 30
0.0
 10
14.5279040543
 20
12.3693873859
 30
0.0
 10
14.5278797802
 20
12.3769143657
 30
0.0
 10
14.5275253583
 20
12.3831562983
 30
0.0
 10
14.5270396291
 20
12.3880680941
 30
0.0
 10
14.5265802964
 20
12.391658724
 30
0.0
 10
14.5260261394
 20
12.3951597215
 30
0.0
 10
14.5253797854
 20
12.3985546776
 30
0.0
 10
14.5246442948
 20
12.4018274384
 30
0.0
 10
14.5240866177
 20
12.4039568117
 30
0.0
 10
14.5237925745
 20
12.4049973713
 30
0.0
  0
SPLINE
  5
3B2
100
AcDbEntity
  8
LAYER_FEATURE
100
AcDbSpline
 62
7
  6
CONTINUOUS
 70
0
 71
3
 72
15
 73
11
 74
0
 42
0.0000001
 43
0.0000001
 44
0.0000000001
 40
0.0
 40
0.0
 40
0.0
 40
0.0
 40
0.1424938684
 40
0.2804067015
 40
0.413464244
 40
0.5414694007
 40
0.6642441287
 40
0.7816453905
 40
0.8935874056
 40
1.0
 40
1.0
 40
1.0
 40
1.0
 10
14.5237925745
 20
12.4049973713
 30
0.0
 10
14.5235479777
 20
12.4058629501
 30
0.0
 10
14.5230423721
 20
12.4075595534
 30
0.0
 10
14.5222203526
 20
12.4100371073
 30
0.0
 10
14.5213488328
 20
12.4124005141
 30
0.0
 10
14.5204302651
 20
12.4146431593
 30
0.0
 10
14.5194671886
 20
12.4167589986
 30
0.0
 10
14.5184621465
 20
12.4187423088
 30
0.0
 10
14.5174179358
 20
12.4205875129
 30
0.0
 10
14.5166788224
 20
12.4217518539
 30
0.0
 10
14.5163026168
 20
12.4223083354
 30
0.0
  0
SPLINE
  5
3B3
100
AcDbEntity
  8
LAYER_FEATURE
100
AcDbSpline
 62
7
  6
CONTINUOUS
 70
0
 71
3
 72
15
 73
11
 74
0
 42
0.0000001
 43
0.0000001
 44
0.0000000001
 40
0.0
 40
0.0
 40
0.0
 40
0.0
 40
0.1492953938
 40
0.2909152913
 40
0.4250355807
 40
0.5519982344
 40
0.6722695747
 40
0.786468109
 40
0.895395693
 40
1.0
 40
1.0
 40
1.0
 40
1.0
 10
14.5163026168
 20
12.4223083354
 30
0.0
 10
14.5158827804
 20
12.4229293553
 30
0.0
 10
14.5150326519
 20
12.4241183034
 30
0.0
 10
14.5136890065
 20
12.4257780943
 30
0.0
 10
14.5123138427
 20
12.4272627297
 30
0.0
 10
14.5109104719
 20
12.4285683027
 30
0.0
 10
14.5094821304
 20
12.4296915025
 30
0.0
 10
14.5080318909
 20
12.4306291975
 30
0.0
 10
14.5065634586
 20
12.4313783661
 30
0.0
 10
14.5055573163
 20
12.431756993
 30
0.0
 10
14.5050553713
 20
12.4319116225
 30
0.0
  0
LINE
  5
3B4
100
AcDbEntity
  8
LAYER_FEATURE
100
AcDbLine
 62
7
  6
CONTINUOUS
 10
14.5001760403
 20
12.4341292077
 11
14.5015379858
 21
12.4331284078
  0
SPLINE
  5
3B5
100
AcDbEntity
  8
LAYER_FEATURE
100
AcDbSpline
 62
7
  6
CONTINUOUS
 70
0
 71
3
 72
19
 73
15
 74
0
 42
0.0000001
 43
0.0000001
 44
0.0000000001
 40
0.0
 40
0.0
 40
0.0
 40
0.0
 40
0.1519106735
 40
0.2996833083
 40
0.4412530096
 40
0.5747106645
 40
0.6378772052
 40
0.6984165759
 40
0.7561730093
 40
0.8110183144
 40
0.8628560603
 40
0.9116293455
 40
0.9573337687
 40
1.0
 40
1.0
 40
1.0
 40
1.0
 10
14.4950721185
 20
12.4517989267
 30
0.0
 10
14.4951144854
 20
12.4508537548
 30
0.0
 10
14.495245545
 20
12.4489908958
 30
0.0
 10
14.4955843669
 20
12.4462623189
 30
0.0
 10
14.4960577762
 20
12.4436704387
 30
0.0
 10
14.4965665167
 20
12.4416246228
 30
0.0
 10
14.4970384118
 20
12.440093708
 30
0.0
 10
14.4974137392
 20
12.4390273327
 30
0.0
 10
14.497815332
 20
12.438026163
 30
0.0
 10
14.4982415246
 20
12.43709443
 30
0.0
 10
14.4986904824
 20
12.4362360458
 30
0.0
 10
14.49916041
 20
12.4354545573
 30
0.0
 10
14.4996493332
 20
12.4347533529
 30
0.0
 10
14.4999984461
 20
12.4343268777
 30
0.0
 10
14.5001760403
 20
12.4341292077
 30
0.0
  0
SPLINE
  5
3B6
100
AcDbEntity
  8
LAYER_FEATURE
100
AcDbSpline
 62
7
  6
CONTINUOUS
 70
0
 71
3
 72
19
 73
15
 74
0
 42
0.0000001
 43
0.0000001
 44
0.0000000001
 40
0.0
 40
0.0
 40
0.0
 40
0.0
 40
0.0443452705
 40
0.0916643456
 40
0.1419267782
 40
0.1950801186
 40
0.2510289727
 40
0.3096459933
 40
0.3707785275
 40
0.4342515375
 40
0.5674084647
 40
0.7073967867
 40
0.8522787016
 40
1.0
 40
1.0
 40
1.0
 40
1.0
 10
14.4992554316
 20
12.4996562114
 30
0.0
 10
14.4990840991
 20
12.499426531
 30
0.0
 10
14.4987485592
 20
12.4989377006
 30
0.0
 10
14.4982807022
 20
12.4981482958
 30
0.0
 10
14.4978339543
 20
12.4972822206
 30
0.0
 10
14.4974102148
 20
12.4963432254
 30
0.0
 10
14.497011208
 20
12.4953352142
 30
0.0
 10
14.4966386666
 20
12.4942624414
 30
0.0
 10
14.4962941472
 20
12.4931294556
 30
0.0
 10
14.4958673433
 20
12.4915191809
 30
0.0
 10
14.4954177026
 20
12.4893893935
 30
0.0
 10
14.4950175823
 20
12.4867166185
 30
0.0
 10
14.494755584
 20
12.4839323758
 30
0.0
 10
14.4946764249
 20
12.4820423504
 30
0.0
 10
14.4946606281
 20
12.481087954
 30
0.0
  0
LINE
  5
3B7
100
AcDbEntity
  8
LAYER_FEATURE
100
AcDbLine
 62
7
  6
CONTINUOUS
 10
14.5001431192
 20
12.5006009053
 11
14.4992554316
 21
12.4996562114
  0
SPLINE
  5
3B8
100
AcDbEntity
  8
LAYER_FEATURE
100
AcDbSpline
 62
7
  6
CONTINUOUS
 70
0
 71
3
 72
9
 73
5
 74
0
 42
0.0000001
 43
0.0000001
 44
0.0000000001
 40
0.0
 40
0.0
 40
0.0
 40
0.0
 40
0.2446471296
 40
1.0
 40
1.0
 40
1.0
 40
1.0
 10
14.5067402757
 20
12.50540998
 30
0.0
 10
14.5061823784
 20
12.5050463797
 30
0.0
 10
14.503922149
 20
12.5035293071
 30
0.0
 10
14.5017428126
 20
12.5018925459
 30
0.0
 10
14.5001431192
 20
12.5006009053
 30
0.0
  0
SPLINE
  5
3B9
100
AcDbEntity
  8
LAYER_FEATURE
100
AcDbSpline
 62
7
  6
CONTINUOUS
 70
0
 71
3
 72
9
 73
5
 74
0
 42
0.0000001
 43
0.0000001
 44
0.0000000001
 40
0.0
 40
0.0
 40
0.0
 40
0.0
 40
0.4810626832
 40
1.0
 40
1.0
 40
1.0
 40
1.0
 10
14.5067402757
 20
12.50540998
 30
0.0
 10
14.5074458377
 20
12.5058698181
 30
0.0
 10
14.5088463421
 20
12.5069292796
 30
0.0
 10
14.5101125922
 20
12.5081434093
 30
0.0
 10
14.510737463
 20
12.5088028674
 30
0.0
  0
SPLINE
  5
3BA
100
AcDbEntity
  8
LAYER_FEATURE
100
AcDbSpline
 62
7
  6
CONTINUOUS
 70
0
 71
3
 72
15
 73
11
 74
0
 42
0.0000001
 43
0.0000001
 44
0.0000000001
 40
0.0
 40
0.0
 40
0.0
 40
0.0
 40
0.0989760229
 40
0.2054295676
 40
0.31950861
 40
0.4412106413
 40
0.5703985963
 40
0.7068263992
 40
0.8501662695
 40
1.0
 40
1.0
 40
1.0
 40
1.0
 10
14.510737463
 20
12.5088028674
 30
0.0
 10
14.5112707299
 20
12.5093656512
 30
0.0
 10
14.5123190047
 20
12.5105900415
 30
0.0
 10
14.5137832503
 20
12.5126226705
 30
0.0
 10
14.5151892816
 20
12.5149076583
 30
0.0
 10
14.5165306511
 20
12.5174342391
 30
0.0
 10
14.5178012989
 20
12.5201908674
 30
0.0
 10
14.5189953804
 20
12.5231647679
 30
0.0
 10
14.5201072599
 20
12.5263420171
 30
0.0
 10
14.5207761907
 20
12.5285396716
 30
0.0
 10
14.5210970647
 20
12.5296686462
 30
0.0
  0
SPLINE
  5
3BB
100
AcDbEntity
  8
LAYER_FEATURE
100
AcDbSpline
 62
7
  6
CONTINUOUS
 70
0
 71
3
 72
20
 73
16
 74
0
 42
0.0000001
 43
0.0000001
 44
0.0000000001
 40
0.0
 40
0.0
 40
0.0
 40
0.0
 40
0.05597362
 40
0.1139247747
 40
0.1736406544
 40
0.2349043927
 40
0.2974815692
 40
0.3611300207
 40
0.4906211582
 40
0.6213287257
 40
0.7511568099
 40
0.8150978022
 40
0.8780462381
 40
0.9397612293
 40
1.0
 40
1.0
 40
1.0
 40
1.0
 10
14.5210970647
 20
12.5296686462
 30
0.0
 10
14.5213922477
 20
12.5307072281
 30
0.0
 10
14.5219522442
 20
12.5328328615
 30
0.0
 10
14.522691221
 20
12.5361004266
 30
0.0
 10
14.5233411927
 20
12.539490814
 30
0.0
 10
14.5238990814
 20
12.5429878917
 30
0.0
 10
14.5243622426
 20
12.5465752696
 30
0.0
 10
14.5248532505
 20
12.5514840282
 30
0.0
 10
14.5252143184
 20
12.5577239384
 30
0.0
 10
14.5252465765
 20
12.5652507187
 30
0.0
 10
14.5249392476
 20
12.5715056335
 30
0.0
 10
14.5244909583
 20
12.5764378487
 30
0.0
 10
14.5240588331
 20
12.5800507594
 30
0.0
 10
14.5235312137
 20
12.5835787347
 30
0.0
 10
14.5231118843
 20
12.5858939878
 30
0.0
 10
14.5228860469
 20
12.5870338193
 30
0.0
  0
SPLINE
  5
3BC
100
AcDbEntity
  8
LAYER_FEATURE
100
AcDbSpline
 62
7
  6
CONTINUOUS
 70
0
 71
3
 72
14
 73
10
 74
0
 42
0.0000001
 43
0.0000001
 44
0.0000000001
 40
0.0
 40
0.0
 40
0.0
 40
0.0
 40
0.2736139022
 40
0.4051268428
 40
0.5327543589
 40
0.6562577444
 40
0.7754192493
 40
0.8900612199
 40
1.0
 40
1.0
 40
1.0
 40
1.0
 10
14.5228860469
 20
12.5870338193
 30
0.0
 10
14.5225113788
 20
12.5889248191
 30
0.0
 10
14.5218890124
 20
12.5917122449
 30
0.0
 10
14.5209201474
 20
12.5953389786
 30
0.0
 10
14.5201492023
 20
12.5979227718
 30
0.0
 10
14.5193266136
 20
12.6003990631
 30
0.0
 10
14.5184545545
 20
12.6027611495
 30
0.0
 10
14.5175354714
 20
12.605002385
 30
0.0
 10
14.5168791046
 20
12.6064426805
 30
0.0
 10
14.5165428601
 20
12.6071404712
 30
0.0
  0
SPLINE
  5
3BD
100
AcDbEntity
  8
LAYER_FEATURE
100
AcDbSpline
 62
7
  6
CONTINUOUS
 70
0
 71
3
 72
15
 73
11
 74
0
 42
0.0000001
 43
0.0000001
 44
0.0000000001
 40
0.0
 40
0.0
 40
0.0
 40
0.0
 40
0.1478554768
 40
0.2891305675
 40
0.4237355516
 40
0.5516906049
 40
0.6730768997
 40
0.7880584928
 40
0.8969123286
 40
1.0
 40
1.0
 40
1.0
 40
1.0
 10
14.5165428601
 20
12.6071404712
 30
0.0
 10
14.5161645409
 20
12.6079255773
 30
0.0
 10
14.5153944048
 20
12.6094465147
 30
0.0
 10
14.514168983
 20
12.6116238229
 30
0.0
 10
14.5129022514
 20
12.6136403033
 30
0.0
 10
14.5115973992
 20
12.6154907885
 30
0.0
 10
14.5102576086
 20
12.6171707577
 30
0.0
 10
14.5088859297
 20
12.6186760347
 30
0.0
 10
14.5074857788
 20
12.6200025829
 30
0.0
 10
14.506510199
 20
12.620785868
 30
0.0
 10
14.5060191042
 20
12.6211436922
 30
0.0
  0
LINE
  5
3BE
100
AcDbEntity
  8
LAYER_FEATURE
100
AcDbLine
 62
7
  6
CONTINUOUS
 10
14.5013349377
 20
12.6252940666
 11
14.5026191482
 21
12.6237584768
  0
SPLINE
  5
3BF
100
AcDbEntity
  8
LAYER_FEATURE
100
AcDbSpline
 62
7
  6
CONTINUOUS
 70
0
 71
3
 72
18
 73
14
 74
0
 42
0.0000001
 43
0.0000001
 44
0.0000000001
 40
0.0
 40
0.0
 40
0.0
 40
0.0
 40
0.1429547147
 40
0.2845046791
 40
0.4226201082
 40
0.5553471749
 40
0.6808819913
 40
0.7404537304
 40
0.797650819
 40
0.8523183812
 40
0.9043270191
 40
0.9535822081
 40
1.0
 40
1.0
 40
1.0
 40
1.0
 10
14.4973702656
 20
12.6447965545
 30
0.0
 10
14.4973543941
 20
12.6438376405
 30
0.0
 10
14.4973713508
 20
12.6419280738
 30
0.0
 10
14.4975411176
 20
12.6390967166
 30
0.0
 10
14.4978522227
 20
12.6363462284
 30
0.0
 10
14.4982993031
 20
12.633723425
 30
0.0
 10
14.4987868583
 20
12.631645872
 30
0.0
 10
14.4992426155
 20
12.6300851798
 30
0.0
 10
14.4996069888
 20
12.6289939764
 30
0.0
 10
14.4999982584
 20
12.6279662125
 30
0.0
 10
14.5004148279
 20
12.6270061799
 30
0.0
 10
14.5008549079
 20
12.6261180398
 30
0.0
 10
14.5011722244
 20
12.6255595798
 30
0.0
 10
14.5013349377
 20
12.6252940666
 30
0.0
  0
SPLINE
  5
3C0
100
AcDbEntity
  8
LAYER_FEATURE
100
AcDbSpline
 62
7
  6
CONTINUOUS
 70
0
 71
3
 72
20
 73
16
 74
0
 42
0.0000001
 43
0.0000001
 44
0.0000000001
 40
0.0
 40
0.0
 40
0.0
 40
0.0
 40
0.0408714783
 40
0.0847628982
 40
0.1318033734
 40
0.1820662912
 40
0.2355567108
 40
0.2922276015
 40
0.3519897816
 40
0.4147182315
 40
0.4802579842
 40
0.5484267052
 40
0.6918004404
 40
0.8430119758
 40
1.0
 40
1.0
 40
1.0
 40
1.0
 10
14.5044174667
 20
12.6903841447
 30
0.0
 10
14.5042339378
 20
12.6902258476
 30
0.0
 10
14.5038713384
 20
12.689876309
 30
0.0
 10
14.5033606074
 20
12.6892835045
 30
0.0
 10
14.502866345
 20
12.6886066845
 30
0.0
 10
14.5023905817
 20
12.6878488106
 30
0.0
 10
14.5019351587
 20
12.6870129947
 30
0.0
 10
14.5015019988
 20
12.686102718
 30
0.0
 10
14.5010928935
 20
12.685121813
 30
0.0
 10
14.5007095657
 20
12.6840744178
 30
0.0
 10
14.5003536539
 20
12.6829649514
 30
0.0
 10
14.4999102422
 20
12.6813825102
 30
0.0
 10
14.4994389026
 20
12.6792819387
 30
0.0
 10
14.4990118985
 20
12.6766370286
 30
0.0
 10
14.4988211767
 20
12.6748183409
 30
0.0
 10
14.4987480835
 20
12.6738902864
 30
0.0
  0
LINE
  5
3C1
100
AcDbEntity
  8
LAYER_FEATURE
100
AcDbLine
 62
7
  6
CONTINUOUS
 10
14.5053517747
 20
12.6909606122
 11
14.5044174667
 21
12.6903841447
  0
SPLINE
  5
3C2
100
AcDbEntity
  8
LAYER_FEATURE
100
AcDbSpline
 62
7
  6
CONTINUOUS
 70
0
 71
3
 72
10
 73
6
 74
0
 42
0.0000001
 43
0.0000001
 44
0.0000000001
 40
0.0
 40
0.0
 40
0.0
 40
0.0
 40
0.2405072436
 40
0.4865489558
 40
1.0
 40
1.0
 40
1.0
 40
1.0
 10
14.5121606707
 20
12.6930603146
 30
0.0
 10
14.5125135734
 20
12.6931434389
 30
0.0
 10
14.5132205139
 20
12.6933430306
 30
0.0
 10
14.5146332526
 20
12.6938724719
 30
0.0
 10
14.5156542568
 20
12.6944031169
 30
0.0
 10
14.5163153354
 20
12.6948057074
 30
0.0
  0
SPLINE
  5
3C3
100
AcDbEntity
  8
LAYER_FEATURE
100
AcDbSpline
 62
7
  6
CONTINUOUS
 70
0
 71
3
 72
15
 73
11
 74
0
 42
0.0000001
 43
0.0000001
 44
0.0000000001
 40
0.0
 40
0.0
 40
0.0
 40
0.0
 40
0.0963504401
 40
0.1999896879
 40
0.3116768086
 40
0.4318899409
 40
0.5608644731
 40
0.6986395264
 40
0.8451038222
 40
1.0
 40
1.0
 40
1.0
 40
1.0
 10
14.5163153354
 20
12.6948057074
 30
0.0
 10
14.5168746811
 20
12.6951463435
 30
0.0
 10
14.5179867756
 20
12.6959356864
 30
0.0
 10
14.5195608352
 20
12.6973593603
 30
0.0
 10
14.5210910486
 20
12.6990551651
 30
0.0
 10
14.522570805
 20
12.7010147832
 30
0.0
 10
14.523993966
 20
12.7032293202
 30
0.0
 10
14.5253542867
 20
12.7056886261
 30
0.0
 10
14.5266455482
 20
12.7083813123
 30
0.0
 10
14.5274350162
 20
12.7102724832
 30
0.0
 10
14.5278185042
 20
12.7112530056
 30
0.0
  0
SPLINE
  5
3C4
100
AcDbEntity
  8
LAYER_FEATURE
100
AcDbSpline
 62
7
  6
CONTINUOUS
 70
0
 71
3
 72
19
 73
15
 74
0
 42
0.0000001
 43
0.0000001
 44
0.0000000001
 40
0.0
 40
0.0
 40
0.0
 40
0.0
 40
0.0518373256
 40
0.1061054079
 40
0.1626311516
 40
0.2212297807
 40
0.2816934007
 40
0.3438007578
 40
0.4073173026
 40
0.4719979697
 40
0.6038188364
 40
0.7371819256
 40
0.8699486946
 40
1.0
 40
1.0
 40
1.0
 40
1.0
 10
14.5278185042
 20
12.7112530056
 30
0.0
 10
14.5281753418
 20
12.7121653872
 30
0.0
 10
14.5288612858
 20
12.7140505584
 30
0.0
 10
14.5297896259
 20
12.7169814121
 30
0.0
 10
14.5306375536
 20
12.720069231
 30
0.0
 10
14.5314010538
 20
12.7232993423
 30
0.0
 10
14.5320764988
 20
12.7266566261
 30
0.0
 10
14.5326606794
 20
12.7301252213
 30
0.0
 10
14.5331508395
 20
12.7336888021
 30
0.0
 10
14.5336791342
 20
12.738575005
 30
0.0
 10
14.5340872059
 20
12.7447992147
 30
0.0
 10
14.5341759835
 20
12.7523231229
 30
0.0
 10
14.5338651225
 20
12.7598075731
 30
0.0
 10
14.5333879871
 20
12.7647547699
 30
0.0
 10
14.5330800584
 20
12.7671932606
 30
0.0
  0
SPLINE
  5
3C5
100
AcDbEntity
  8
LAYER_FEATURE
100
AcDbSpline
 62
7
  6
CONTINUOUS
 70
0
 71
3
 72
12
 73
8
 74
0
 42
0.0000001
 43
0.0000001
 44
0.0000000001
 40
0.0
 40
0.0
 40
0.0
 40
0.0
 40
0.2673005474
 40
0.5244891592
 40
0.7693677627
 40
0.8865874068
 40
1.0
 40
1.0
 40
1.0
 40
1.0
 10
14.5330800584
 20
12.7671932606
 30
0.0
 10
14.5328232356
 20
12.769227043
 30
0.0
 10
14.5322320568
 20
12.7732073755
 30
0.0
 10
14.5310894443
 20
12.778998202
 30
0.0
 10
14.5299303547
 20
12.7836066747
 30
0.0
 10
14.5288864445
 20
12.7871012334
 30
0.0
 10
14.5283281356
 20
12.7887799163
 30
0.0
 10
14.5280398328
 20
12.7896005078
 30
0.0
  0
SPLINE
  5
3C6
100
AcDbEntity
  8
LAYER_FEATURE
100
AcDbSpline
 62
7
  6
CONTINUOUS
 70
0
 71
3
 72
15
 73
11
 74
0
 42
0.0000001
 43
0.0000001
 44
0.0000000001
 40
0.0
 40
0.0
 40
0.0
 40
0.0
 40
0.1442726692
 40
0.2833127602
 40
0.4169097741
 40
0.5449338268
 40
0.6672829084
 40
0.783899095
 40
0.8947913469
 40
1.0
 40
1.0
 40
1.0
 40
1.0
 10
14.5280398328
 20
12.7896005078
 30
0.0
 10
14.5277125932
 20
12.7905319243
 30
0.0
 10
14.527041484
 20
12.792351146
 30
0.0
 10
14.5259636398
 20
12.7949931413
 30
0.0
 10
14.5248353469
 20
12.7974925929
 30
0.0
 10
14.5236595088
 20
12.7998430777
 30
0.0
 10
14.5224390855
 20
12.8020387977
 30
0.0
 10
14.5211770018
 20
12.8040743104
 30
0.0
 10
14.5198764693
 20
12.8059443311
 30
0.0
 10
14.5189621342
 20
12.8071079363
 30
0.0
 10
14.5184986964
 20
12.8076588569
 30
0.0
  0
LINE
  5
3C7
100
AcDbEntity
  8
LAYER_FEATURE
100
AcDbLine
 62
7
  6
CONTINUOUS
 10
14.5141250341
 20
12.8136398246
 11
14.5152998881
 21
12.8116072561
  0
SPLINE
  5
3C8
100
AcDbEntity
  8
LAYER_FEATURE
100
AcDbSpline
 62
7
  6
CONTINUOUS
 70
0
 71
3
 72
17
 73
13
 74
0
 42
0.0000001
 43
0.0000001
 44
0.0000000001
 40
0.0
 40
0.0
 40
0.0
 40
0.0
 40
0.1345866426
 40
0.2702004585
 40
0.4048819483
 40
0.5366834641
 40
0.6637354933
 40
0.7842950269
 40
0.8416521055
 40
0.8968202508
 40
0.94965289
 40
1.0
 40
1.0
 40
1.0
 40
1.0
 10
14.511397235
 20
12.8344948653
 30
0.0
 10
14.5113224907
 20
12.833545846
 30
0.0
 10
14.5112228936
 20
12.8316362505
 30
0.0
 10
14.511219354
 20
12.8287712803
 30
0.0
 10
14.5113603956
 20
12.8259294033
 30
0.0
 10
14.5116435918
 20
12.8231589387
 30
0.0
 10
14.5120640284
 20
12.8205069818
 30
0.0
 10
14.5125300946
 20
12.8183991219
 30
0.0
 10
14.5129694418
 20
12.8168097662
 30
0.0
 10
14.5133225968
 20
12.8156944313
 30
0.0
 10
14.5137033121
 20
12.814640775
 30
0.0
 10
14.5139812898
 20
12.8139656398
 30
0.0
 10
14.5141250341
 20
12.8136398246
 30
0.0
  0
SPLINE
  5
3C9
100
AcDbEntity
  8
LAYER_FEATURE
100
AcDbSpline
 62
7
  6
CONTINUOUS
 70
0
 71
3
 72
21
 73
17
 74
0
 42
0.0000001
 43
0.0000001
 44
0.0000000001
 40
0.0
 40
0.0
 40
0.0
 40
0.0
 40
0.0386879981
 40
0.0799023173
 40
0.1240618869
 40
0.1714786388
 40
0.2223498051
 40
0.2767813641
 40
0.3348048115
 40
0.3963900774
 40
0.4614567534
 40
0.5298800171
 40
0.6015006666
 40
0.6761288962
 40
0.8334869504
 40
1.0
 40
1.0
 40
1.0
 40
1.0
 10
14.5211347987
 20
12.8766902434
 30
0.0
 10
14.5209453753
 20
12.8766082656
 30
0.0
 10
14.5205664921
 20
12.8764094065
 30
0.0
 10
14.5200238911
 20
12.8760277636
 30
0.0
 10
14.5194931445
 20
12.8755564921
 30
0.0
 10
14.5189763259
 20
12.8749979025
 30
0.0
 10
14.5184752311
 20
12.8743543721
 30
0.0
 10
14.5179918404
 20
12.8736285677
 30
0.0
 10
14.517528056
 20
12.8728235223
 30
0.0
 10
14.5170857643
 20
12.8719425925
 30
0.0
 10
14.5166668291
 20
12.8709894587
 30
0.0
 10
14.5162729899
 20
12.8699681448
 30
0.0
 10
14.5159059123
 20
12.8688829538
 30
0.0
 10
14.5154461845
 20
12.8673294624
 30
0.0
 10
14.5149534046
 20
12.8652596151
 30
0.0
 10
14.5146579857
 20
12.8635560646
 30
0.0
 10
14.5145304347
 20
12.8626769175
 30
0.0
  0
SPLINE
  5
3CA
100
AcDbEntity
  8
LAYER_FEATURE
100
AcDbSpline
 62
7
  6
CONTINUOUS
 70
0
 71
3
 72
15
 73
11
 74
0
 42
0.0000001
 43
0.0000001
 44
0.0000000001
 40
0.0
 40
0.0
 40
0.0
 40
0.0
 40
0.1003879117
 40
0.2063901579
 40
0.318995899
 40
0.4389461338
 40
0.5667650135
 40
0.7027828605
 40
0.8471878888
 40
1.0
 40
1.0
 40
1.0
 40
1.0
 10
14.5351382238
 20
12.8768761839
 30
0.0
 10
14.5356158446
 20
12.8770718442
 30
0.0
 10
14.5365714029
 20
12.8775409801
 30
0.0
 10
14.5379496724
 20
12.8784359514
 30
0.0
 10
14.5393032714
 20
12.8795350588
 30
0.0
 10
14.5406278434
 20
12.8808340396
 30
0.0
 10
14.5419195272
 20
12.8823283483
 30
0.0
 10
14.5431743882
 20
12.8840129459
 30
0.0
 10
14.544388347
 20
12.8858821124
 30
0.0
 10
14.5451465529
 20
12.8872098904
 30
0.0
 10
14.5455190292
 20
12.8879016697
 30
0.0
  0
SPLINE
  5
3CB
100
AcDbEntity
  8
LAYER_FEATURE
100
AcDbSpline
 62
7
  6
CONTINUOUS
 70
0
 71
3
 72
21
 73
17
 74
0
 42
0.0000001
 43
0.0000001
 44
0.0000000001
 40
0.0
 40
0.0
 40
0.0
 40
0.0
 40
0.0477251293
 40
0.0982767774
 40
0.1515409471
 40
0.2073803442
 40
0.2656260049
 40
0.3260877424
 40
0.3885553459
 40
0.4528020207
 40
0.5185870149
 40
0.5856579691
 40
0.6537530602
 40
0.7226030419
 40
0.8614535047
 40
1.0
 40
1.0
 40
1.0
 40
1.0
 10
14.5455190292
 20
12.8879016697
 30
0.0
 10
14.5459294583
 20
12.8886639365
 30
0.0
 10
14.5467260179
 20
12.8902601191
 30
0.0
 10
14.5478209481
 20
12.8927827911
 30
0.0
 10
14.5488459753
 20
12.8954925849
 30
0.0
 10
14.5497962607
 20
12.8983766499
 30
0.0
 10
14.5506673268
 20
12.9014215669
 30
0.0
 10
14.5514550542
 20
12.9046130028
 30
0.0
 10
14.5521557087
 20
12.9079359491
 30
0.0
 10
14.5527659672
 20
12.9113747446
 30
0.0
 10
14.5532829327
 20
12.9149131723
 30
0.0
 10
14.5537041422
 20
12.9185345265
 30
0.0
 10
14.5540276085
 20
12.9222217319
 30
0.0
 10
14.5543272579
 20
12.9272162438
 30
0.0
 10
14.5544485849
 20
12.9334991475
 30
0.0
 10
14.5542777339
 20
12.9385310568
 30
0.0
 10
14.5541235987
 20
12.9410395719
 30
0.0
  0
SPLINE
  5
3CC
100
AcDbEntity
  8
LAYER_FEATURE
100
AcDbSpline
 62
7
  6
CONTINUOUS
 70
0
 71
3
 72
11
 73
7
 74
0
 42
0.0000001
 43
0.0000001
 44
0.0000000001
 40
0.0
 40
0.0
 40
0.0
 40
0.0
 40
0.26143473
 40
0.5167589682
 40
0.7636674916
 40
1.0
 40
1.0
 40
1.0
 40
1.0
 10
14.5541235987
 20
12.9410395719
 30
0.0
 10
14.5539928854
 20
12.9431669011
 30
0.0
 10
14.5536475755
 20
12.9473670734
 30
0.0
 10
14.5528696604
 20
12.953546075
 30
0.0
 10
14.5518450586
 20
12.9594815451
 30
0.0
 10
14.5509837814
 20
12.9633280263
 30
0.0
 10
14.5505104414
 20
12.9651956735
 30
0.0
  0
SPLINE
  5
3CD
100
AcDbEntity
  8
LAYER_FEATURE
100
AcDbSpline
 62
7
  6
CONTINUOUS
 70
0
 71
3
 72
15
 73
11
 74
0
 42
0.0000001
 43
0.0000001
 44
0.0000000001
 40
0.0
 40
0.0
 40
0.0
 40
0.0
 40
0.140330864
 40
0.2767073039
 40
0.4088640136
 40
0.5366006977
 40
0.6597284473
 40
0.7780835681
 40
0.891546307
 40
1.0
 40
1.0
 40
1.0
 40
1.0
 10
14.5505104414
 20
12.9651956735
 30
0.0
 10
14.5502428716
 20
12.9662514175
 30
0.0
 10
14.5496883
 20
12.9683264485
 30
0.0
 10
14.548784352
 20
12.9713686399
 30
0.0
 10
14.5478219244
 20
12.974290167
 30
0.0
 10
14.5468035141
 20
12.9770834985
 30
0.0
 10
14.5457317189
 20
12.9797416868
 30
0.0
 10
14.5446091612
 20
12.9822580974
 30
0.0
 10
14.5434387257
 20
12.9846262224
 30
0.0
 10
14.5426096074
 20
12.9861366361
 30
0.0
 10
14.5421868588
 20
12.9868644942
 30
0.0
  0
LINE
  5
3CE
100
AcDbEntity
  8
LAYER_FEATURE
100
AcDbLine
 62
7
  6
CONTINUOUS
 10
14.5382313949
 20
12.9945287839
 11
14.5392679635
 21
12.9920492855
  0
SPLINE
  5
3CF
100
AcDbEntity
  8
LAYER_FEATURE
100
AcDbSpline
 62
7
  6
CONTINUOUS
 70
0
 71
3
 72
15
 73
11
 74
0
 42
0.0000001
 43
0.0000001
 44
0.0000000001
 40
0.0
 40
0.0
 40
0.0
 40
0.0
 40
0.1266842458
 40
0.256612755
 40
0.3879231593
 40
0.5187075883
 40
0.6470755312
 40
0.7711979476
 40
0.8893541802
 40
1.0
 40
1.0
 40
1.0
 40
1.0
 10
14.5368076363
 20
13.0162228572
 30
0.0
 10
14.5366748066
 20
13.0153073269
 30
0.0
 10
14.5364591059
 20
13.0134447367
 30
0.0
 10
14.536282351
 20
13.0106162434
 30
0.0
 10
14.5362497954
 20
13.0077524162
 30
0.0
 10
14.5363620411
 20
13.0049020175
 30
0.0
 10
14.5366171232
 20
13.0021134807
 30
0.0
 10
14.5370106283
 20
12.9994340764
 30
0.0
 10
14.5375356614
 20
12.9969093172
 30
0.0
 10
14.5379839043
 20
12.9952979419
 30
0.0
 10
14.5382313949
 20
12.9945287839
 30
0.0
  0
SPLINE
  5
3D0
100
AcDbEntity
  8
LAYER_FEATURE
100
AcDbSpline
 62
7
  6
CONTINUOUS
 70
0
 71
3
 72
22
 73
18
 74
0
 42
0.0000001
 43
0.0000001
 44
0.0000000001
 40
0.0
 40
0.0
 40
0.0
 40
0.0
 40
0.0396658262
 40
0.0804039621
 40
0.1230363466
 40
0.1682696345
 40
0.2166513469
 40
0.268580632
 40
0.3243262329
 40
0.3840465658
 40
0.4478098027
 40
0.5156071704
 40
0.5873698644
 40
0.6629776514
 40
0.7422619021
 40
0.825023475
 40
1.0
 40
1.0
 40
1.0
 40
1.0
 10
14.5489957914
 20
13.0539870329
 30
0.0
 10
14.548808049
 20
13.0539822685
 30
0.0
 10
14.5484275953
 20
13.0539401133
 30
0.0
 10
14.5478646609
 20
13.053781498
 30
0.0
 10
14.547308437
 20
13.053528541
 30
0.0
 10
14.5467615119
 20
13.0531832104
 30
0.0
 10
14.5462257731
 20
13.0527475434
 30
0.0
 10
14.5457031639
 20
13.0522236136
 30
0.0
 10
14.5451955517
 20
13.0516137478
 30
0.0
 10
14.5447048424
 20
13.0509205138
 30
0.0
 10
14.5442329908
 20
13.050146779
 30
0.0
 10
14.5437818774
 20
13.0492957799
 30
0.0
 10
14.5433533767
 20
13.0483710617
 30
0.0
 10
14.5429493053
 20
13.04737652
 30
0.0
 10
14.5425713193
 20
13.046316348
 30
0.0
 10
14.5420955298
 20
13.0447929414
 30
0.0
 10
14.5417968605
 20
13.0436084397
 30
0.0
 10
14.541619068
 20
13.0427992941
 30
0.0
  0
SPLINE
  5
3D1
100
AcDbEntity
  8
LAYER_FEATURE
100
AcDbSpline
 62
7
  6
CONTINUOUS
 70
0
 71
3
 72
22
 73
18
 74
0
 42
0.0000001
 43
0.0000001
 44
0.0000000001
 40
0.0
 40
0.0
 40
0.0
 40
0.0
 40
0.0437178528
 40
0.0905421103
 40
0.1404569833
 40
0.1934029834
 40
0.2492737874
 40
0.3079290345
 40
0.3691978782
 40
0.4328839728
 40
0.4987692811
 40
0.5666172942
 40
0.6361758117
 40
0.70717945
 40
0.7793527787
 40
0.8524092532
 40
1.0
 40
1.0
 40
1.0
 40
1.0
 10
14.5737627943
 20
13.0552649622
 30
0.0
 10
14.5742169296
 20
13.0558559928
 30
0.0
 10
14.5751056769
 20
13.0571203824
 30
0.0
 10
14.5763407615
 20
13.0591738781
 30
0.0
 10
14.5775179426
 20
13.0614398611
 30
0.0
 10
14.5786317395
 20
13.0639076158
 30
0.0
 10
14.579677016
 20
13.0665657984
 30
0.0
 10
14.5806488764
 20
13.0694019763
 30
0.0
 10
14.5815427475
 20
13.0724028834
 30
0.0
 10
14.5823544075
 20
13.0755544288
 30
0.0
 10
14.5830800123
 20
13.0788417903
 30
0.0
 10
14.5837161178
 20
13.0822494838
 30
0.0
 10
14.5842597008
 20
13.0857614454
 30
0.0
 10
14.5847081766
 20
13.0893610943
 30
0.0
 10
14.5850594203
 20
13.0930314678
 30
0.0
 10
14.5853969479
 20
13.098012843
 30
0.0
 10
14.5854979338
 20
13.1017757693
 30
0.0
 10
14.5854985059
 20
13.1042920799
 30
0.0
  0
SPLINE
  5
3D2
100
AcDbEntity
  8
LAYER_FEATURE
100
AcDbSpline
 62
7
  6
CONTINUOUS
 70
0
 71
3
 72
11
 73
7
 74
0
 42
0.0000001
 43
0.0000001
 44
0.0000000001
 40
0.0
 40
0.0
 40
0.0
 40
0.0
 40
0.2559080077
 40
0.5094309831
 40
0.758219191
 40
1.0
 40
1.0
 40
1.0
 40
1.0
 10
14.5854985059
 20
13.1042920799
 30
0.0
 10
14.5854989989
 20
13.1064609729
 30
0.0
 10
14.5854119428
 20
13.1107790871
 30
0.0
 10
14.5850180642
 20
13.1171949332
 30
0.0
 10
14.5843655743
 20
13.1234693537
 30
0.0
 10
14.5837523556
 20
13.1275833518
 30
0.0
 10
14.5834013848
 20
13.1296022327
 30
0.0
  0
SPLINE
  5
3D3
100
AcDbEntity
  8
LAYER_FEATURE
100
AcDbSpline
 62
7
  6
CONTINUOUS
 70
0
 71
3
 72
13
 73
9
 74
0
 42
0.0000001
 43
0.0000001
 44
0.0000000001
 40
0.0
 40
0.0
 40
0.0
 40
0.0
 40
0.2703464037
 40
0.5283453994
 40
0.6521218788
 40
0.7721148761
 40
0.8881397432
 40
1.0
 40
1.0
 40
1.0
 40
1.0
 10
14.5834013848
 20
13.1296022327
 30
0.0
 10
14.5830040841
 20
13.1318876158
 30
0.0
 10
14.5821278315
 20
13.1363374312
 30
0.0
 10
14.5807764105
 20
13.141770009
 30
0.0
 10
14.5795636949
 20
13.1459015577
 30
0.0
 10
14.5786079489
 20
13.1488375527
 30
0.0
 10
14.5775959362
 20
13.151646177
 30
0.0
 10
14.5768719253
 20
13.1534630298
 30
0.0
 10
14.5765003103
 20
13.1543479667
 30
0.0
  0
LINE
  5
3D4
100
AcDbEntity
  8
LAYER_FEATURE
100
AcDbLine
 62
7
  6
CONTINUOUS
 10
14.5730604413
 20
13.1635068581
 11
14.5739332009
 21
13.1606414831
  0
SPLINE
  5
3D5
100
AcDbEntity
  8
LAYER_FEATURE
100
AcDbSpline
 62
7
  6
CONTINUOUS
 70
0
 71
3
 72
15
 73
11
 74
0
 42
0.0000001
 43
0.0000001
 44
0.0000000001
 40
0.0
 40
0.0
 40
0.0
 40
0.0
 40
0.1190698683
 40
0.2434515614
 40
0.3714088513
 40
0.5011027403
 40
0.6306542661
 40
0.7581880323
 40
0.88187589
 40
1.0
 40
1.0
 40
1.0
 40
1.0
 10
14.5729757809
 20
13.1855057839
 30
0.0
 10
14.5727870291
 20
13.1846467621
 30
0.0
 10
14.5724585099
 20
13.1828774218
 30
0.0
 10
14.5721129653
 20
13.1801545399
 30
0.0
 10
14.5719076271
 20
13.1773388079
 30
0.0
 10
14.57184611
 20
13.1744781541
 30
0.0
 10
14.571929471
 20
13.1716211796
 30
0.0
 10
14.5721562736
 20
13.1688164169
 30
0.0
 10
14.5725225287
 20
13.1661116015
 30
0.0
 10
14.572864873
 20
13.164357187
 30
0.0
 10
14.5730604413
 20
13.1635068581
 30
0.0
  0
SPLINE
  5
3D6
100
AcDbEntity
  8
LAYER_FEATURE
100
AcDbSpline
 62
7
  6
CONTINUOUS
 70
0
 71
3
 72
81
 73
77
 74
0
 42
0.0000001
 43
0.0000001
 44
0.0000000001
 40
0.0
 40
0.0
 40
0.0
 40
0.0
 40
0.0172108471
 40
0.0348110932
 40
0.0527817551
 40
0.0711029968
 40
0.0897539262
 40
0.1087128366
 40
0.1279572212
 40
0.1474638719
 40
0.1672089423
 40
0.1871680192
 40
0.2073161883
 40
0.227628099
 40
0.2480780268
 40
0.2686399358
 40
0.2892875389
 40
0.3099943583
 40
0.3307337848
 40
0.3514791371
 40
0.372203721
 40
0.392880888
 40
0.4134840946
 40
0.4339869617
 40
0.4543633344
 40
0.4745873424
 40
0.4946334615
 40
0.5144765758
 40
0.5340920415
 40
0.5534557526
 40
0.5725442082
 40
0.5913345831
 40
0.6098048008
 40
0.6279336106
 40
0.6457006699
 40
0.6630866312
 40
0.6800732365
 40
0.6966434203
 40
0.712781422
 40
0.7284729109
 40
0.7437051258
 40
0.7584670321
 40
0.7727495007
 40
0.7865455119
 40
0.7998503895
 40
0.8126620706
 40
0.8249814156
 40
0.8368125643
 40
0.8481633415
 40
0.8590457122
 40
0.8694762822
 40
0.8794768295
 40
0.8890748369
 40
0.8983039779
 40
0.9072044813
 40
0.9115469158
 40
0.9158253569
 40
0.920046681
 40
0.9242181421
 40
0.9283473287
 40
0.9324421328
 40
0.9365106974
 40
0.9405613645
 40
0.9446026141
 40
0.9486429998
 40
0.9526910816
 40
0.9567553606
 40
0.96084421
 40
0.96496582
 40
0.9691281336
 40
0.9733388089
 40
0.9776051641
 40
0.9819341608
 40
0.9863323613
 40
0.9908059302
 40
1.0
 40
1.0
 40
1.0
 40
1.0
 10
14.5862255635
 20
13.3003951615
 30
0.0
 10
14.5821864212
 20
13.287324492
 30
0.0
 10
14.574318023
 20
13.2607934205
 30
0.0
 10
14.5632564028
 20
13.2203197792
 30
0.0
 10
14.5528162339
 20
13.1787706875
 30
0.0
 10
14.5430134329
 20
13.1362093769
 30
0.0
 10
14.5338628605
 20
13.0927001744
 30
0.0
 10
14.5253784114
 20
13.0483090224
 30
0.0
 10
14.5175729695
 20
13.0031031539
 30
0.0
 10
14.5104583876
 20
12.9571510661
 30
0.0
 10
14.5040454717
 20
12.9105223894
 30
0.0
 10
14.4983439623
 20
12.863287789
 30
0.0
 10
14.49336252
 20
12.8155188543
 30
0.0
 10
14.4891087119
 20
12.7672879896
 30
0.0
 10
14.4855890002
 20
12.718668304
 30
0.0
 10
14.4828087319
 20
12.6697334993
 30
0.0
 10
14.4807721307
 20
12.6205577577
 30
0.0
 10
14.4794822908
 20
12.5712156289
 30
0.0
 10
14.4789411717
 20
12.5217819159
 30
0.0
 10
14.4791495958
 20
12.4723315615
 30
0.0
 10
14.4801072462
 20
12.422939534
 30
0.0
 10
14.4818126681
 20
12.3736807125
 30
0.0
 10
14.4842632705
 20
12.3246297733
 30
0.0
 10
14.4874553302
 20
12.2758610756
 30
0.0
 10
14.491383998
 20
12.2274485485
 30
0.0
 10
14.4960433057
 20
12.1794655779
 30
0.0
 10
14.5014261754
 20
12.1319848948
 30
0.0
 10
14.5075244302
 20
12.085078464
 30
0.0
 10
14.5143288072
 20
12.0388173741
 30
0.0
 10
14.5218289716
 20
11.9932717287
 30
0.0
 10
14.5300135328
 20
11.9485105393
 30
0.0
 10
14.5388700623
 20
11.9046016189
 30
0.0
 10
14.5483851131
 20
11.8616114779
 30
0.0
 10
14.5585442414
 20
11.8196052219
 30
0.0
 10
14.5693320295
 20
11.7786464505
 30
0.0
 10
14.5807321112
 20
11.7387971594
 30
0.0
 10
14.5927271986
 20
11.7001176435
 30
0.0
 10
14.6052991119
 20
11.6626664031
 30
0.0
 10
14.6184288102
 20
11.626500052
 30
0.0
 10
14.6320964268
 20
11.5916732289
 30
0.0
 10
14.6462813056
 20
11.5582385122
 30
0.0
 10
14.6609620422
 20
11.526246337
 30
0.0
 10
14.6761165281
 20
11.4957449177
 30
0.0
 10
14.6917219992
 20
11.4667801746
 30
0.0
 10
14.7077550905
 20
11.4393956679
 30
0.0
 10
14.7241918946
 20
11.4136325396
 30
0.0
 10
14.7410080271
 20
11.3895294673
 30
0.0
 10
14.7581786949
 20
11.3671226339
 30
0.0
 10
14.7756787711
 20
11.3464457172
 30
0.0
 10
14.7934828492
 20
11.3275299115
 30
0.0
 10
14.8115653385
 20
11.3104039617
 30
0.0
 10
14.8299003314
 20
11.2950943072
 30
0.0
 10
14.8484620977
 20
11.2816249912
 30
0.0
 10
14.8672230889
 20
11.2700185
 30
0.0
 10
14.8831327444
 20
11.2618481029
 30
0.0
 10
14.8959094547
 20
11.256295455
 30
0.0
 10
14.9054445331
 20
11.2526407549
 30
0.0
 10
14.915006138
 20
11.2494637949
 30
0.0
 10
14.9245907372
 20
11.2467657407
 30
0.0
 10
14.9341946042
 20
11.2445478095
 30
0.0
 10
14.943814007
 20
11.242810906
 30
0.0
 10
14.9534451879
 20
11.2415558022
 30
0.0
 10
14.9630843624
 20
11.2407830437
 30
0.0
 10
14.9727277303
 20
11.2404929515
 30
0.0
 10
14.9823714819
 20
11.2406856901
 30
0.0
 10
14.9920118099
 20
11.2413611201
 30
0.0
 10
15.0016449048
 20
11.2425190154
 30
0.0
 10
15.0112669915
 20
11.2441587868
 30
0.0
 10
15.0208742859
 20
11.2462798181
 30
0.0
 10
15.0304630758
 20
11.2488811008
 30
0.0
 10
15.0400296177
 20
11.2519616328
 30
0.0
 10
15.0495702905
 20
11.2555200365
 30
0.0
 10
15.0590813407
 20
11.2595548932
 30
0.0
 10
15.0685594724
 20
11.2640646422
 30
0.0
 10
15.0812621124
 20
11.2707684595
 30
0.0
 10
15.0905575968
 20
11.2764196749
 30
0.0
 10
15.0966598183
 20
11.2804411483
 30
0.0
  0
SPLINE
  5
3D7
100
AcDbEntity
  8
LAYER_FEATURE
100
AcDbSpline
 62
7
  6
CONTINUOUS
 70
0
 71
3
 72
49
 73
45
 74
0
 42
0.0000001
 43
0.0000001
 44
0.0000000001
 40
0.0
 40
0.0
 40
0.0
 40
0.0
 40
0.0471744804
 40
0.0932548856
 40
0.1382037877
 40
0.1819883529
 40
0.2245784907
 40
0.265948305
 40
0.3060760303
 40
0.3449445885
 40
0.3825420284
 40
0.4188620765
 40
0.4539047484
 40
0.4876770484
 40
0.5201937614
 40
0.5514783397
 40
0.5815638823
 40
0.6104941893
 40
0.6383248618
 40
0.6651243788
 40
0.6909750579
 40
0.7159737661
 40
0.7281903768
 40
0.7402371316
 40
0.7521302562
 40
0.7638868078
 40
0.7755246206
 40
0.7870622457
 40
0.7985188385
 40
0.8099140823
 40
0.8212680489
 40
0.8326010895
 40
0.8439336922
 40
0.8552863495
 40
0.8666794172
 40
0.8781329898
 40
0.8896667575
 40
0.9012999147
 40
0.9130510268
 40
0.9249379691
 40
0.9369778325
 40
0.9491868695
 40
0.9741685619
 40
1.0
 40
1.0
 40
1.0
 40
1.0
 10
14.5862255635
 20
13.3003951615
 30
0.0
 10
14.5898723794
 20
13.3121962619
 30
0.0
 10
14.5973219462
 20
13.3354513645
 30
0.0
 10
14.6091106006
 20
13.3696663106
 30
0.0
 10
14.6213706463
 20
13.402770697
 30
0.0
 10
14.6340860959
 20
13.4347215243
 30
0.0
 10
14.6472406278
 20
13.4654777317
 30
0.0
 10
14.6608172491
 20
13.4949996396
 30
0.0
 10
14.6747985068
 20
13.5232492514
 30
0.0
 10
14.6891664427
 20
13.5501902176
 30
0.0
 10
14.7039026549
 20
13.5757879074
 30
0.0
 10
14.7189883237
 20
13.6000094455
 30
0.0
 10
14.7344042583
 20
13.6228237443
 30
0.0
 10
14.7501309382
 20
13.6442015301
 30
0.0
 10
14.7661485571
 20
13.6641153577
 30
0.0
 10
14.7824370697
 20
13.6825396146
 30
0.0
 10
14.7989762213
 20
13.6994505024
 30
0.0
 10
14.8157456094
 20
13.7148260171
 30
0.0
 10
14.8327245715
 20
13.7286458562
 30
0.0
 10
14.8498925632
 20
13.740891513
 30
0.0
 10
14.8672276452
 20
13.7515456471
 30
0.0
 10
14.8819083071
 20
13.7591433369
 30
0.0
 10
14.8936968808
 20
13.7643846807
 30
0.0
 10
14.9024978304
 20
13.7678799373
 30
0.0
 10
14.9113222789
 20
13.7709679031
 30
0.0
 10
14.9201674757
 20
13.7736475787
 30
0.0
 10
14.929030496
 20
13.775917958
 30
0.0
 10
14.9379084099
 20
13.7777783046
 30
0.0
 10
14.9467982933
 20
13.7792278561
 30
0.0
 10
14.9556971719
 20
13.7802661832
 30
0.0
 10
14.9646020863
 20
13.7808928196
 30
0.0
 10
14.9735100483
 20
13.7811075974
 30
0.0
 10
14.9824180753
 20
13.7809104102
 30
0.0
 10
14.9913231777
 20
13.7803013189
 30
0.0
 10
15.0002223804
 20
13.7792805959
 30
0.0
 10
15.0091126997
 20
13.7778485364
 30
0.0
 10
15.0179911947
 20
13.7760057545
 30
0.0
 10
15.0268549011
 20
13.7737528216
 30
0.0
 10
15.0357009237
 20
13.7710906172
 30
0.0
 10
15.0445263179
 20
13.7680200478
 30
0.0
 10
15.0533283151
 20
13.7645421454
 30
0.0
 10
15.0651183158
 20
13.7593241341
 30
0.0
 10
15.0798005696
 20
13.7517558667
 30
0.0
 10
15.091156699
 20
13.7448000092
 30
0.0
 10
15.0968019983
 20
13.7410750855
 30
0.0
  0
SPLINE
  5
3D8
100
AcDbEntity
  8
LAYER_FEATURE
100
AcDbSpline
 62
7
  6
CONTINUOUS
 70
0
 71
3
 72
76
 73
72
 74
0
 42
0.0000001
 43
0.0000001
 44
0.0000000001
 40
0.0
 40
0.0
 40
0.0
 40
0.0
 40
0.0163579319
 40
0.0330507458
 40
0.0500637514
 40
0.0673820247
 40
0.0849896778
 40
0.1028703205
 40
0.1210069566
 40
0.1393820792
 40
0.1579777039
 40
0.1767754155
 40
0.1957564115
 40
0.2149015422
 40
0.2341913514
 40
0.2536061154
 40
0.2731258816
 40
0.292730506
 40
0.3123996917
 40
0.3321130259
 40
0.3518500166
 40
0.3715901299
 40
0.391312826
 40
0.4109975959
 40
0.4306239989
 40
0.450171699
 40
0.4696205022
 40
0.4889503939
 40
0.5081415766
 40
0.5271745082
 40
0.5460299411
 40
0.5646889628
 40
0.5831330367
 40
0.601344044
 40
0.6193043266
 40
0.636996733
 40
0.6544046645
 40
0.6715121261
 40
0.6883037794
 40
0.7047649988
 40
0.7208819308
 40
0.7366415595
 40
0.7520317768
 40
0.7670414605
 40
0.7816605603
 40
0.7958801947
 40
0.8096927578
 40
0.8230920391
 40
0.836073359
 40
0.8486337234
 40
0.8607719989
 40
0.8724891115
 40
0.8837882728
 40
0.8946752324
 40
0.9051585573
 40
0.9152499392
 40
0.9249645208
 40
0.9343212306
 40
0.943343106
 40
0.9520575736
 40
0.9604966434
 40
0.9646249637
 40
0.9686985657
 40
0.9727227351
 40
0.976703008
 40
0.9806451669
 40
0.9845552064
 40
0.9884393115
 40
0.9923038239
 40
0.996155205
 40
1.0
 40
1.0
 40
1.0
 40
1.0
 10
14.5220524861
 20
13.3593025996
 30
0.0
 10
14.518153934
 20
13.3466868803
 30
0.0
 10
14.5105379859
 20
13.3211158078
 30
0.0
 10
14.4997571667
 20
13.2821657762
 30
0.0
 10
14.4895136261
 20
13.2422701137
 30
0.0
 10
14.47981998
 20
13.2014780391
 30
0.0
 10
14.4706881122
 20
13.1598393318
 30
0.0
 10
14.4621292299
 20
13.1174050714
 30
0.0
 10
14.4541538431
 20
13.0742272224
 30
0.0
 10
14.4467717435
 20
13.0303586991
 30
0.0
 10
14.4399919935
 20
12.9858532606
 30
0.0
 10
14.4338229162
 20
12.9407654536
 30
0.0
 10
14.4282720863
 20
12.8951505418
 30
0.0
 10
14.42334632
 20
12.8490644378
 30
0.0
 10
14.4190516667
 20
12.8025636349
 30
0.0
 10
14.4153934015
 20
12.7557051369
 30
0.0
 10
14.4123760191
 20
12.7085463889
 30
0.0
 10
14.4100032235
 20
12.6611452063
 30
0.0
 10
14.4082779274
 20
12.613559703
 30
0.0
 10
14.4072022491
 20
12.5658482195
 30
0.0
 10
14.4067775094
 20
12.5180692511
 30
0.0
 10
14.4070042306
 20
12.4702813763
 30
0.0
 10
14.4078821351
 20
12.4225431847
 30
0.0
 10
14.4094101469
 20
12.3749132051
 30
0.0
 10
14.4115863881
 20
12.327449833
 30
0.0
 10
14.4144081845
 20
12.2802112583
 30
0.0
 10
14.4178720702
 20
12.2332553937
 30
0.0
 10
14.421973791
 20
12.1866398041
 30
0.0
 10
14.4267083103
 20
12.1404216353
 30
0.0
 10
14.4320698148
 20
12.0946575444
 30
0.0
 10
14.4380517228
 20
12.049403629
 30
0.0
 10
14.4446466877
 20
12.0047153572
 30
0.0
 10
14.4518466102
 20
11.960647499
 30
0.0
 10
14.4596426495
 20
11.9172540593
 30
0.0
 10
14.4680252343
 20
11.8745882114
 30
0.0
 10
14.4769840747
 20
11.8327022316
 30
0.0
 10
14.4865081752
 20
11.7916474343
 30
0.0
 10
14.49658585
 20
11.7514741074
 30
0.0
 10
14.5072047333
 20
11.7122314484
 30
0.0
 10
14.518351798
 20
11.6739675023
 30
0.0
 10
14.530013375
 20
11.6367291035
 30
0.0
 10
14.5421751705
 20
11.6005618175
 30
0.0
 10
14.554822286
 20
11.5655098838
 30
0.0
 10
14.5679392393
 20
11.5316161599
 30
0.0
 10
14.581509988
 20
11.4989220674
 30
0.0
 10
14.5955179494
 20
11.4674675367
 30
0.0
 10
14.6099460284
 20
11.4372909574
 30
0.0
 10
14.6247766477
 20
11.4084291332
 30
0.0
 10
14.6399917772
 20
11.380917238
 30
0.0
 10
14.6555729675
 20
11.3547887759
 30
0.0
 10
14.6715013846
 20
11.3300755448
 30
0.0
 10
14.6877578499
 20
11.3068076074
 30
0.0
 10
14.7043228769
 20
11.2850132651
 30
0.0
 10
14.7211767117
 20
11.2647190466
 30
0.0
 10
14.7382993788
 20
11.2459497121
 30
0.0
 10
14.7556707039
 20
11.2287282732
 30
0.0
 10
14.7732703676
 20
11.2130760148
 30
0.0
 10
14.7910777888
 20
11.1990125861
 30
0.0
 10
14.8090724979
 20
11.1865559076
 30
0.0
 10
14.8272326147
 20
11.1757227557
 30
0.0
 10
14.8425995598
 20
11.1680037973
 30
0.0
 10
14.8549357466
 20
11.1626804138
 30
0.0
 10
14.8641471526
 20
11.1591303948
 30
0.0
 10
14.873381751
 20
11.1559952314
 30
0.0
 10
14.8826368484
 20
11.1532759701
 30
0.0
 10
14.8919095077
 20
11.1509734673
 30
0.0
 10
14.9011968617
 20
11.1490885368
 30
0.0
 10
14.9104959729
 20
11.1476218165
 30
0.0
 10
14.9198039771
 20
11.1465737721
 30
0.0
 10
14.9291176924
 20
11.1459448354
 30
0.0
 10
14.9353310601
 20
11.1458049956
 30
0.0
 10
14.9384346341
 20
11.1458049934
 30
0.0
  0
SPLINE
  5
3D9
100
AcDbEntity
  8
LAYER_FEATURE
100
AcDbSpline
 62
7
  6
CONTINUOUS
 70
0
 71
3
 72
11
 73
7
 74
0
 42
0.0000001
 43
0.0000001
 44
0.0000000001
 40
0.0
 40
0.0
 40
0.0
 40
0.0
 40
0.2358656178
 40
0.4776768359
 40
0.7309036611
 40
1.0
 40
1.0
 40
1.0
 40
1.0
 10
14.816961844
 20
13.6723625685
 30
0.0
 10
14.8167672962
 20
13.6723625653
 30
0.0
 10
14.8163724774
 20
13.6723277162
 30
0.0
 10
14.8157872875
 20
13.6721721212
 30
0.0
 10
14.815209369
 20
13.6719147849
 30
0.0
 10
14.8148433445
 20
13.6716847773
 30
0.0
 10
14.8146628211
 20
13.6715556404
 30
0.0
  0
SPLINE
  5
3DA
100
AcDbEntity
  8
LAYER_FEATURE
100
AcDbSpline
 62
7
  6
CONTINUOUS
 70
0
 71
3
 72
40
 73
36
 74
0
 42
0.0000001
 43
0.0000001
 44
0.0000000001
 40
0.0
 40
0.0
 40
0.0
 40
0.0
 40
0.0443811761
 40
0.0879667189
 40
0.1307332029
 40
0.1726614841
 40
0.2137326642
 40
0.2539296131
 40
0.2932370229
 40
0.3316413449
 40
0.3691310598
 40
0.4056967752
 40
0.441331383
 40
0.4760302937
 40
0.509791621
 40
0.5426163875
 40
0.5745088051
 40
0.6054765696
 40
0.6355311271
 40
0.6646880103
 40
0.6929672319
 40
0.7203936264
 40
0.7469972224
 40
0.7728136579
 40
0.7978845423
 40
0.8101562346
 40
0.8222600509
 40
0.8459899725
 40
0.8691376712
 40
0.8917708202
 40
0.9139634704
 40
0.9357955978
 40
0.957352356
 40
0.978723069
 40
1.0
 40
1.0
 40
1.0
 40
1.0
 10
15.6469331475
 20
13.3593025996
 30
0.0
 10
15.6500037383
 20
13.3692390352
 30
0.0
 10
15.6562489853
 20
13.3888850638
 30
0.0
 10
15.6660215747
 20
13.4179214224
 30
0.0
 10
15.6761081889
 20
13.4462409306
 30
0.0
 10
15.6865007069
 20
13.4738209245
 30
0.0
 10
15.6971910095
 20
13.5006398307
 30
0.0
 10
15.7081706306
 20
13.5266764422
 30
0.0
 10
15.7194309062
 20
13.5519102213
 30
0.0
 10
15.7309629786
 20
13.5763212737
 30
0.0
 10
15.7427577473
 20
13.5998903654
 30
0.0
 10
15.7548059299
 20
13.6225989301
 30
0.0
 10
15.7670980741
 20
13.6444290744
 30
0.0
 10
15.7796245243
 20
13.6653636183
 30
0.0
 10
15.7923754574
 20
13.6853860955
 30
0.0
 10
15.8053409127
 20
13.7044807464
 30
0.0
 10
15.8185107812
 20
13.7226325443
 30
0.0
 10
15.8318747982
 20
13.7398272205
 30
0.0
 10
15.8454225955
 20
13.756051237
 30
0.0
 10
15.8591437068
 20
13.771291786
 30
0.0
 10
15.8730275442
 20
13.7855368403
 30
0.0
 10
15.8870634061
 20
13.7987750921
 30
0.0
 10
15.9012406305
 20
13.8109960199
 30
0.0
 10
15.9155480685
 20
13.8221895838
 30
0.0
 10
15.92765593
 20
13.8307140863
 30
0.0
 10
15.9373929713
 20
13.8369973262
 30
0.0
 10
15.9470302919
 20
13.8428474904
 30
0.0
 10
15.9591438786
 20
13.8495200501
 30
0.0
 10
15.9738624928
 20
13.856520795
 30
0.0
 10
15.9886556764
 20
13.8624560039
 30
0.0
 10
16.0035114199
 20
13.8673200157
 30
0.0
 10
16.0184176533
 20
13.8711082196
 30
0.0
 10
16.0333623111
 20
13.8738168722
 30
0.0
 10
16.0483317985
 20
13.8754432016
 30
0.0
 10
16.0583293664
 20
13.8758049811
 30
0.0
 10
16.0633152954
 20
13.8758049852
 30
0.0
  0
SPLINE
  5
3DB
100
AcDbEntity
  8
LAYER_FEATURE
100
AcDbSpline
 62
7
  6
CONTINUOUS
 70
0
 71
3
 72
109
 73
105
 74
0
 42
0.0000001
 43
0.0000001
 44
0.0000000001
 40
0.0
 40
0.0
 40
0.0
 40
0.0
 40
0.0087235226
 40
0.0173113291
 40
0.0257596675
 40
0.0340656357
 40
0.0422263841
 40
0.0502391633
 40
0.0581015052
 40
0.0658111654
 40
0.0733661285
 40
0.0807646492
 40
0.088005248
 40
0.0950867483
 40
0.1020082858
 40
0.108769329
 40
0.1153697191
 40
0.1218096757
 40
0.1280898434
 40
0.1342113176
 40
0.140175671
 40
0.145985009
 40
0.151641989
 40
0.1571498751
 40
0.1625125805
 40
0.1677347003
 40
0.1728215733
 40
0.1777793069
 40
0.182614822
 40
0.1873358872
 40
0.1919511269
 40
0.196470042
 40
0.2009029882
 40
0.2052611461
 40
0.2095564685
 40
0.2138015889
 40
0.2180097189
 40
0.2221945094
 40
0.2263698962
 40
0.2305499325
 40
0.2347486137
 40
0.2389797053
 40
0.2432565825
 40
0.247592091
 40
0.2519984216
 40
0.2564870257
 40
0.2610685444
 40
0.2657527661
 40
0.2705486177
 40
0.2754641514
 40
0.2805065731
 40
0.2856822654
 40
0.2909968159
 40
0.296455074
 40
0.3020611745
 40
0.3078185956
 40
0.3137302011
 40
0.3197982706
 40
0.3260245599
 40
0.3324103194
 40
0.3389563395
 40
0.3456629879
 40
0.3525302224
 40
0.35955764
 40
0.3667444867
 40
0.3740896841
 40
0.3815918606
 40
0.3892493516
 40
0.3970602373
 40
0.4050223472
 40
0.4131332738
 40
0.4213904
 40
0.4297908923
 40
0.4383317291
 40
0.4470097057
 40
0.4558214381
 40
0.4647633882
 40
0.4738318551
 40
0.4923324497
 40
0.5112912728
 40
0.5306739944
 40
0.5504445343
 40
0.5705652632
 40
0.5909971943
 40
0.6117001645
 40
0.6326330068
 40
0.6537537156
 40
0.6750196092
 40
0.6963874894
 40
0.7178137981
 40
0.7392547715
 40
0.7606665941
 40
0.7820055533
 40
0.8032281927
 40
0.8242914675
 40
0.8451529017
 40
0.8657707491
 40
0.8861041559
 40
0.9061133288
 40
0.9257597092
 40
0.945006156
 40
0.9638171637
 40
0.9821589485
 40
1.0
 40
1.0
 40
1.0
 40
1.0
 10
15.640575214
 20
13.3003951615
 30
0.0
 10
15.6430715905
 20
13.308473439
 30
0.0
 10
15.6481386612
 20
13.3244696301
 30
0.0
 10
15.6560265367
 20
13.3481591618
 30
0.0
 10
15.664138414
 20
13.3713446901
 30
0.0
 10
15.6724692896
 20
13.3940119797
 30
0.0
 10
15.6810141772
 20
13.4161475894
 30
0.0
 10
15.6897679859
 20
13.4377381883
 30
0.0
 10
15.6987254074
 20
13.4587707765
 30
0.0
 10
15.7078810661
 20
13.4792327219
 30
0.0
 10
15.7172294812
 20
13.4991117253
 30
0.0
 10
15.7267650051
 20
13.518395854
 30
0.0
 10
15.7364819502
 20
13.5370735131
 30
0.0
 10
15.746374469
 20
13.5551334971
 30
0.0
 10
15.756436632
 20
13.5725649674
 30
0.0
 10
15.7666624436
 20
13.5893574493
 30
0.0
 10
15.7770457528
 20
13.6055008874
 30
0.0
 10
15.7875803934
 20
13.6209855807
 30
0.0
 10
15.7982600734
 20
13.6358022464
 30
0.0
 10
15.8090784231
 20
13.6499420059
 30
0.0
 10
15.8200290517
 20
13.6633963485
 30
0.0
 10
15.8311054279
 20
13.6761572218
 30
0.0
 10
15.8423010255
 20
13.6882169339
 30
0.0
 10
15.8536092345
 20
13.699568217
 30
0.0
 10
15.8650233691
 20
13.7102042349
 30
0.0
 10
15.8765367555
 20
13.720118495
 30
0.0
 10
15.8881425961
 20
13.7293049818
 30
0.0
 10
15.8998340933
 20
13.7377580292
 30
0.0
 10
15.9116043865
 20
13.7454723686
 30
0.0
 10
15.9234465175
 20
13.7524431843
 30
0.0
 10
15.9353535168
 20
13.7586659644
 30
0.0
 10
15.9473182741
 20
13.764136691
 30
0.0
 10
15.9593336142
 20
13.7688517142
 30
0.0
 10
15.9713922585
 20
13.7728077834
 30
0.0
 10
15.9834867821
 20
13.7760021931
 30
0.0
 10
15.9956096813
 20
13.7784325967
 30
0.0
 10
16.0077533135
 20
13.7800972504
 30
0.0
 10
16.0199099587
 20
13.7809949273
 30
0.0
 10
16.0320718327
 20
13.781124899
 30
0.0
 10
16.044231123
 20
13.7804871371
 30
0.0
 10
16.0563800305
 20
13.7790820671
 30
0.0
 10
16.0685108055
 20
13.7769107571
 30
0.0
 10
16.0806157922
 20
13.7739748319
 30
0.0
 10
16.0926874126
 20
13.7702763493
 30
0.0
 10
16.1047182412
 20
13.7658179793
 30
0.0
 10
16.116700938
 20
13.7606027496
 30
0.0
 10
16.1286282822
 20
13.7546341624
 30
0.0
 10
16.1404931786
 20
13.7479161713
 30
0.0
 10
16.152288565
 20
13.7404530479
 30
0.0
 10
16.1640075168
 20
13.7322495608
 30
0.0
 10
16.1756431334
 20
13.72331081
 30
0.0
 10
16.1871885702
 20
13.7136422999
 30
0.0
 10
16.1986370801
 20
13.7032499796
 30
0.0
 10
16.2099818953
 20
13.6921401279
 30
0.0
 10
16.2212163638
 20
13.680319494
 30
0.0
 10
16.232333856
 20
13.6677952019
 30
0.0
 10
16.2433277768
 20
13.6545747705
 30
0.0
 10
16.2541916516
 20
13.6406661704
 30
0.0
 10
16.2649189958
 20
13.6260777255
 30
0.0
 10
16.2755034474
 20
13.6108182014
 30
0.0
 10
16.2859387091
 20
13.5948967556
 30
0.0
 10
16.2962185229
 20
13.5783229218
 30
0.0
 10
16.3063367853
 20
13.561106664
 30
0.0
 10
16.3162874139
 20
13.5432582984
 30
0.0
 10
16.3260644561
 20
13.5247885416
 30
0.0
 10
16.3356620691
 20
13.5057084892
 30
0.0
 10
16.3450744599
 20
13.4860295853
 30
0.0
 10
16.3542960133
 20
13.4657636646
 30
0.0
 10
16.3633211703
 20
13.4449228964
 30
0.0
 10
16.3721445028
 20
13.4235198043
 30
0.0
 10
16.3807607305
 20
13.4015672616
 30
0.0
 10
16.3891646363
 20
13.3790784563
 30
0.0
 10
16.3973511923
 20
13.35606692
 30
0.0
 10
16.405315462
 20
13.3325464906
 30
0.0
 10
16.4130526396
 20
13.30853131
 30
0.0
 10
16.4205580882
 20
13.2840358436
 30
0.0
 10
16.4278272855
 20
13.2590747804
 30
0.0
 10
16.4372611873
 20
13.224966489
 30
0.0
 10
16.448417998
 20
13.1812659469
 30
0.0
 10
16.4607088522
 20
13.1275552096
 30
0.0
 10
16.4719601446
 20
13.0723604738
 30
0.0
 10
16.4821446961
 20
13.015814684
 30
0.0
 10
16.4912379417
 20
12.9580537172
 30
0.0
 10
16.4992179331
 20
12.8992165114
 30
0.0
 10
16.5060654061
 20
12.8394445933
 30
0.0
 10
16.511763824
 20
12.778881769
 30
0.0
 10
16.5162994249
 20
12.717673766
 30
0.0
 10
16.5196612626
 20
12.6559678805
 30
0.0
 10
16.5218412199
 20
12.593912617
 30
0.0
 10
16.5228340316
 20
12.5316573274
 30
0.0
 10
16.5226372942
 20
12.4693518493
 30
0.0
 10
16.5212514857
 20
12.4071461426
 30
0.0
 10
16.5186799565
 20
12.3451899243
 30
0.0
 10
16.5149289165
 20
12.2836323062
 30
0.0
 10
16.5100074206
 20
12.2226214331
 30
0.0
 10
16.5039273481
 20
12.1623041221
 30
0.0
 10
16.4967033855
 20
12.102825504
 30
0.0
 10
16.488352975
 20
12.0443286696
 30
0.0
 10
16.4788962754
 20
11.9869543277
 30
0.0
 10
16.4683561015
 20
11.9308404441
 30
0.0
 10
16.4567579022
 20
11.8761219477
 30
0.0
 10
16.4441296132
 20
11.8229302414
 30
0.0
 10
16.4305018576
 20
11.7713935654
 30
0.0
 10
16.4206298704
 20
11.7377362426
 30
0.0
 10
16.415524366
 20
11.7212148243
 30
0.0
  0
ENDSEC
  0
SECTION
  2
OBJECTS
  0
DICTIONARY
  5
C
100
AcDbDictionary
280
0
281
1
  3
ACAD_GROUP
350
D
  3
ACAD_MLINESTYLE
350
17
  3
ACAD_LAYOUT
350
1A
  3
ACAD_PLOTSETTINGS
350
19
  3
ACAD_PLOTSTYLENAME
350
E
  0
DICTIONARY
  5
D
102
{ACAD_REACTORS
330
C
102
}
100
AcDbDictionary
280
0
281
1
  0
ACDBDICTIONARYWDFLT
  5
E
102
{ACAD_REACTORS
330
C
102
}
100
AcDbDictionary
281
1
  3
Normal
350
F
100
AcDbDictionaryWithDefault
340
F
  0
DICTIONARY
  5
17
102
{ACAD_REACTORS
330
C
102
}
100
AcDbDictionary
280
0
281
1
  3
Standard
350
18
  0
DICTIONARY
  5
19
102
{ACAD_REACTORS
330
C
102
}
100
AcDbDictionary
281
1
  0
DICTIONARY
  5
1A
102
{ACAD_REACTORS
330
C
102
}
100
AcDbDictionary
281
1
  3
Model
350
3DC
  3
Layout1
350
3DD
  0
ACDBPLACEHOLDER
  5
F
102
{ACAD_REACTORS
330
E
102
}
  0
MLINESTYLE
  5
18
102
{ACAD_REACTORS
330
17
102
}
100
AcDbMlineStyle
  2
STANDARD
 70
0
  3

 62
256
 51
90.0
 52
90.0
 71
2
 49
0.5
 62
256
  6
BYLAYER
 49
-0.5
 62
256
  6
BYLAYER
  0
LAYOUT
  5
3DC
102
{ACAD_REACTORS
330
1A
102
}
100
AcDbPlotSettings
  1

  2
none_device
  4
ANSI_C_(22.00_x_17.00_Inches)
  6

 40
0.0
 41
0.0
 42
0.0
 43
0.0
 44
558.8
 45
431.8
 46
0.0
 47
0.0
 48
0.0
 49
0.0
140
0.0
141
0.0
142
1.0
143
1.0
 70
1024
 72
0
 73
0
 74
0
  7

 75
0
147
1.0
148
0.0
149
0.0
100
AcDbLayout
  1
Model
 70
0
 71
0
 10
0.0
 20
0.0
 11
22.0
 21
17.0
 12
0.0
 22
0.0
 32
0.0
 14
0.0
 24
0.0
 34
0.0
 15
0.0
 25
0.0
 35
0.0
146
0.0
 13
0.0
 23
0.0
 33
0.0
 16
1.0
 26
0.0
 36
0.0
 17
0.0
 27
1.0
 37
0.0
 76
0
330
222
345
0
346
0
  0
LAYOUT
  5
3DD
102
{ACAD_REACTORS
330
1A
102
}
100
AcDbPlotSettings
  1

  2
none_device
  4
ANSI_C_(22.00_x_17.00_Inches)
  6

 40
0.0
 41
0.0
 42
0.0
 43
0.0
 44
558.8
 45
431.8
 46
0.0
 47
0.0
 48
0.0
 49
0.0
140
0.0
141
0.0
142
1.0
143
1.0
 70
0
 72
0
 73
0
 74
0
  7

 75
0
147
1.0
148
0.0
149
0.0
100
AcDbLayout
  1
Layout1
 70
0
 71
1
 10
0.0
 20
0.0
 11
22.0
 21
17.0
 12
0.0
 22
0.0
 32
0.0
 14
0.0
 24
0.0
 34
0.0
 15
0.0
 25
0.0
 35
0.0
146
0.0
 13
0.0
 23
0.0
 33
0.0
 16
1.0
 26
0.0
 36
0.0
 17
0.0
 27
1.0
 37
0.0
 76
0
330
223
345
0
346
0
  0
ENDSEC
  0
EOF