999
DXF file: _cgs_temp_output.dxf
999
Pro/ENGINEER 2016360 by Parametric Technology Corporation
  0
SECTION
  2
HEADER
  9
$ACADVER
  1
AC1021
  9
$DWGCODEPAGE
  3
ANSI_1252
  9
$EXTMAX
 10
22.0
 20
17.0
 30
0.0
  9
$EXTMIN
 10
0.0
 20
0.0
 30
0.0
  9
$LIMMIN
 10
0.0
 20
0.0
  9
$LIMMAX
 10
22.0
 20
17.0
  9
$VIEWCTR
 10
11.0
 20
8.5
  9
$VIEWSIZE
 40
17.0
  9
$CLAYER
  8
0
  9
$LTSCALE
 40
1.21
  9
$CELTYPE
  6
BYLAYER
  9
$DIMSCALE
 40
1.0
  9
$DIMASZ
 40
0.1875
  9
$DIMEXO
 40
0.0625
  9
$DIMDLI
 40
0.836
  9
$DIMEXE
 40
0.125
  9
$DIMCEN
 40
0.198
  9
$DIMLFAC
 40
1.0
  9
$DIMBLK
  1
_CLOSED
  9
$DIMALT
 70
0
  9
$DIMALTF
 40
25.4
  9
$DIMTXT
 40
0.15625
  9
$DIMTOL
 70
0
  9
$DIMLIM
 70
0
  9
$DIMTFAC
 40
1.0
  9
$DIMGAP
 40
0.09
  9
$DIMDSEP
 70
46
  9
$AUNITS
 70
0
  9
$PDMODE
 70
3
  9
$PDSIZE
 40
0.3125
  9
$HANDSEED
  5
3C8
  9
$TILEMODE
 70
1
  9
$MEASUREMENT
 70
0
  9
$INSUNITS
 70
1
  0
ENDSEC
  0
SECTION
  2
CLASSES
  0
CLASS
  1
ACDBDICTIONARYWDFLT
  2
AcDbDictionaryWithDefault
  3
AutoCAD 2000
 90
0
 91
1
280
0
281
0
  0
CLASS
  1
ACDBPLACEHOLDER
  2
AcDbPlaceHolder
  3
AutoCAD 2000
 90
0
 91
1
280
0
281
0
  0
CLASS
  1
LAYOUT
  2
AcDbLayout
  3
AutoCAD 2000
 90
0
 91
0
280
0
281
0
  0
ENDSEC
  0
SECTION
  2
TABLES
  0
TABLE
  2
VPORT
  5
8
100
AcDbSymbolTable
 70
2
  0
VPORT
  5
1F4
100
AcDbSymbolTableRecord
100
AcDbViewportTableRecord
  2
*ACTIVE
 70
0
 10
0.0
 20
0.0
 11
1.0
 21
1.0
 12
11.0
 22
8.5
 13
0.0
 23
0.0
 14
1.0
 24
1.0
 15
0.0
 25
0.0
 16
0.0
 26
0.0
 36
1.0
 17
0.0
 27
0.0
 37
0.0
 40
17.0
 41
1.2941176471
 42
50.0
 43
0.0
 44
0.0
 50
0.0
 51
0.0
 71
0
 72
100
 73
1
 74
1
 75
0
 76
0
 77
0
 78
0
  0
ENDTAB
  0
TABLE
  2
LTYPE
  5
5
100
AcDbSymbolTable
 70
6
  0
LTYPE
  5
14
100
AcDbSymbolTableRecord
100
AcDbLinetypeTableRecord
  2
BYBLOCK
 70
0
  3

 72
65
 73
0
 40
0.0
  0
LTYPE
  5
15
100
AcDbSymbolTableRecord
100
AcDbLinetypeTableRecord
  2
BYLAYER
 70
0
  3

 72
65
 73
0
 40
0.0
  0
LTYPE
  5
16
100
AcDbSymbolTableRecord
100
AcDbLinetypeTableRecord
  2
CONTINUOUS
 70
64
  3
Solid line
 72
65
 73
0
 40
0.0
  0
LTYPE
  5
1F5
100
AcDbSymbolTableRecord
100
AcDbLinetypeTableRecord
  2
CENTER
 70
64
  3
____ _ ____ _ ____ _ ____ _ ____ _ ____ _ ____
 72
65
 73
4
 40
0.6
 49
0.375
 74
0
 49
-0.075
 74
0
 49
0.075
 74
0
 49
-0.075
 74
0
  0
LTYPE
  5
1F6
100
AcDbSymbolTableRecord
100
AcDbLinetypeTableRecord
  2
HIDDEN
 70
64
  3
- - - - - - - - - - - - - - - - - - - -
 72
65
 73
2
 40
0.2
 49
0.1
 74
0
 49
-0.1
 74
0
  0
LTYPE
  5
1F7
100
AcDbSymbolTableRecord
100
AcDbLinetypeTableRecord
  2
PHANTOM
 70
64
  3
_____ _ _ _____ _ _ _____ _ _ _____
 72
65
 73
6
 40
0.8
 49
0.45
 74
0
 49
-0.05
 74
0
 49
0.1
 74
0
 49
-0.05
 74
0
 49
0.1
 74
0
 49
-0.05
 74
0
  0
LTYPE
  5
1F8
100
AcDbSymbolTableRecord
100
AcDbLinetypeTableRecord
  2
DOT
 70
64
  3
. . . . . . . . . . . . . . . . . . . .
 72
65
 73
2
 40
0.2
 49
0.1
 74
0
 49
-0.1
 74
0
  0
LTYPE
  5
1F9
100
AcDbSymbolTableRecord
100
AcDbLinetypeTableRecord
  2
DASHED
 70
64
  3
- - - - - - - - - - - - - - - - - - - -
 72
65
 73
2
 40
0.2
 49
0.1
 74
0
 49
-0.1
 74
0
  0
ENDTAB
  0
TABLE
  2
LAYER
  5
2
100
AcDbSymbolTable
 70
36
  0
LAYER
  5
10
100
AcDbSymbolTableRecord
100
AcDbLayerTableRecord
  2
0
 70
0
 62
7
  6
CONTINUOUS
370
-3
390
F
  0
LAYER
  5
1FA
100
AcDbSymbolTableRecord
100
AcDbLayerTableRecord
  2
DEFAULT_1
 70
0
 62
7
  6
CENTER
370
-3
390
F
  0
LAYER
  5
1FB
100
AcDbSymbolTableRecord
100
AcDbLayerTableRecord
  2
DEFAULT_2
 70
0
 62
8
  6
HIDDEN
370
-3
390
F
  0
LAYER
  5
1FC
100
AcDbSymbolTableRecord
100
AcDbLayerTableRecord
  2
DEFAULT_3
 70
0
 62
7
  6
PHANTOM
370
-3
390
F
  0
LAYER
  5
1FD
100
AcDbSymbolTableRecord
100
AcDbLayerTableRecord
  2
01_ALL_DTM_PLN
 70
0
 62
7
  6
CONTINUOUS
370
-3
390
F
  0
LAYER
  5
1FE
100
AcDbSymbolTableRecord
100
AcDbLayerTableRecord
  2
01__ASM_ALL_DTM_PLN
 70
0
 62
7
  6
CONTINUOUS
370
-3
390
F
  0
LAYER
  5
1FF
100
AcDbSymbolTableRecord
100
AcDbLayerTableRecord
  2
01__ASM_DEF_DTM_PLN
 70
0
 62
7
  6
CONTINUOUS
370
-3
390
F
  0
LAYER
  5
200
100
AcDbSymbolTableRecord
100
AcDbLayerTableRecord
  2
01___PRT_ALL_DTM_PLN
 70
0
 62
7
  6
CONTINUOUS
370
-3
390
F
  0
LAYER
  5
201
100
AcDbSymbolTableRecord
100
AcDbLayerTableRecord
  2
01___PRT_DEF_DTM_PLN
 70
0
 62
7
  6
CONTINUOUS
370
-3
390
F
  0
LAYER
  5
202
100
AcDbSymbolTableRecord
100
AcDbLayerTableRecord
  2
02_ALL_AXES
 70
0
 62
7
  6
CONTINUOUS
370
-3
390
F
  0
LAYER
  5
203
100
AcDbSymbolTableRecord
100
AcDbLayerTableRecord
  2
02__ASM_ALL_AXES
 70
0
 62
7
  6
CONTINUOUS
370
-3
390
F
  0
LAYER
  5
204
100
AcDbSymbolTableRecord
100
AcDbLayerTableRecord
  2
02___PRT_ALL_AXES
 70
0
 62
7
  6
CONTINUOUS
370
-3
390
F
  0
LAYER
  5
205
100
AcDbSymbolTableRecord
100
AcDbLayerTableRecord
  2
03_ALL_CURVES
 70
0
 62
7
  6
CONTINUOUS
370
-3
390
F
  0
LAYER
  5
206
100
AcDbSymbolTableRecord
100
AcDbLayerTableRecord
  2
03__ASM_ALL_CURVES
 70
0
 62
7
  6
CONTINUOUS
370
-3
390
F
  0
LAYER
  5
207
100
AcDbSymbolTableRecord
100
AcDbLayerTableRecord
  2
03___PRT_ALL_CURVES
 70
0
 62
7
  6
CONTINUOUS
370
-3
390
F
  0
LAYER
  5
208
100
AcDbSymbolTableRecord
100
AcDbLayerTableRecord
  2
04_ALL_DTM_PNT
 70
0
 62
7
  6
CONTINUOUS
370
-3
390
F
  0
LAYER
  5
209
100
AcDbSymbolTableRecord
100
AcDbLayerTableRecord
  2
04__ASM_ALL_DTM_PNT
 70
0
 62
7
  6
CONTINUOUS
370
-3
390
F
  0
LAYER
  5
20A
100
AcDbSymbolTableRecord
100
AcDbLayerTableRecord
  2
04___PRT_ALL_DTM_PNT
 70
0
 62
7
  6
CONTINUOUS
370
-3
390
F
  0
LAYER
  5
20B
100
AcDbSymbolTableRecord
100
AcDbLayerTableRecord
  2
05_ALL_DTM_CSYS
 70
0
 62
7
  6
CONTINUOUS
370
-3
390
F
  0
LAYER
  5
20C
100
AcDbSymbolTableRecord
100
AcDbLayerTableRecord
  2
05__ASM_ALL_DTM_CSYS
 70
0
 62
7
  6
CONTINUOUS
370
-3
390
F
  0
LAYER
  5
20D
100
AcDbSymbolTableRecord
100
AcDbLayerTableRecord
  2
05__ASM_DEF_DTM_CSYS
 70
0
 62
7
  6
CONTINUOUS
370
-3
390
F
  0
LAYER
  5
20E
100
AcDbSymbolTableRecord
100
AcDbLayerTableRecord
  2
05___PRT_ALL_DTM_CSYS
 70
0
 62
7
  6
CONTINUOUS
370
-3
390
F
  0
LAYER
  5
20F
100
AcDbSymbolTableRecord
100
AcDbLayerTableRecord
  2
05___PRT_DEF_DTM_CSYS
 70
0
 62
7
  6
CONTINUOUS
370
-3
390
F
  0
LAYER
  5
210
100
AcDbSymbolTableRecord
100
AcDbLayerTableRecord
  2
06_ALL_SURFS
 70
0
 62
7
  6
CONTINUOUS
370
-3
390
F
  0
LAYER
  5
211
100
AcDbSymbolTableRecord
100
AcDbLayerTableRecord
  2
06__ASM_ALL_SURFS
 70
0
 62
7
  6
CONTINUOUS
370
-3
390
F
  0
LAYER
  5
212
100
AcDbSymbolTableRecord
100
AcDbLayerTableRecord
  2
06___PRT_ALL_SURFS
 70
0
 62
7
  6
CONTINUOUS
370
-3
390
F
  0
LAYER
  5
213
100
AcDbSymbolTableRecord
100
AcDbLayerTableRecord
  2
07__ASM_ALL_SKELETONS
 70
0
 62
7
  6
CONTINUOUS
370
-3
390
F
  0
LAYER
  5
214
100
AcDbSymbolTableRecord
100
AcDbLayerTableRecord
  2
LAYER_AXIS
 70
0
 62
7
  6
CONTINUOUS
370
-3
390
F
  0
LAYER
  5
215
100
AcDbSymbolTableRecord
100
AcDbLayerTableRecord
  2
LAYER_CHAMFER_FEAT
 70
0
 62
7
  6
CONTINUOUS
370
-3
390
F
  0
LAYER
  5
216
100
AcDbSymbolTableRecord
100
AcDbLayerTableRecord
  2
LAYER_CUT_FEAT
 70
0
 62
7
  6
CONTINUOUS
370
-3
390
F
  0
LAYER
  5
217
100
AcDbSymbolTableRecord
100
AcDbLayerTableRecord
  2
LAYER_DIM
 70
0
 62
7
  6
CONTINUOUS
370
-3
390
F
  0
LAYER
  5
218
100
AcDbSymbolTableRecord
100
AcDbLayerTableRecord
  2
LAYER_FEATURE
 70
0
 62
7
  6
CONTINUOUS
370
-3
390
F
  0
LAYER
  5
219
100
AcDbSymbolTableRecord
100
AcDbLayerTableRecord
  2
LAYER_GEOM_FEAT
 70
0
 62
7
  6
CONTINUOUS
370
-3
390
F
  0
LAYER
  5
21A
100
AcDbSymbolTableRecord
100
AcDbLayerTableRecord
  2
LAYER_NOGEOM_FEAT
 70
0
 62
7
  6
CONTINUOUS
370
-3
390
F
  0
LAYER
  5
21B
100
AcDbSymbolTableRecord
100
AcDbLayerTableRecord
  2
LAYER_PARAMETER_DIM
 70
0
 62
7
  6
CONTINUOUS
370
-3
390
F
  0
LAYER
  5
21C
100
AcDbSymbolTableRecord
100
AcDbLayerTableRecord
  2
LAYER_PROTRUSION_FEAT
 70
0
 62
7
  6
CONTINUOUS
370
-3
390
F
  0
LAYER
  5
21D
100
AcDbSymbolTableRecord
100
AcDbLayerTableRecord
  2
LAYER_ROUND_FEAT
 70
0
 62
7
  6
CONTINUOUS
370
-3
390
F
  0
ENDTAB
  0
TABLE
  2
STYLE
  5
3
100
AcDbSymbolTable
 70
1
  0
STYLE
  5
11
100
AcDbSymbolTableRecord
100
AcDbTextStyleTableRecord
  2
STANDARD
 70
0
 40
0.0
 41
0.8
 50
0.0
 71
0
 42
0.2
  3
txt
  4

  0
STYLE
  5
21E
100
AcDbSymbolTableRecord
100
AcDbTextStyleTableRecord
  2
TEXTSTYLE_1
 70
0
 40
0.0
 41
0.8
 50
0.0
 71
0
 42
0.2
  3
gdt
  4

  0
ENDTAB
  0
TABLE
  2
VIEW
  5
6
100
AcDbSymbolTable
 70
0
  0
ENDTAB
  0
TABLE
  2
UCS
  5
7
100
AcDbSymbolTable
 70
0
  0
ENDTAB
  0
TABLE
  2
APPID
  5
9
100
AcDbSymbolTable
 70
1
  0
APPID
  5
21F
100
AcDbSymbolTableRecord
100
AcDbRegAppTableRecord
  2
ACAD
 70
0
  0
ENDTAB
  0
TABLE
  2
BLOCK_RECORD
  5
1
100
AcDbSymbolTable
 70
0
  0
BLOCK_RECORD
  5
220
100
AcDbSymbolTableRecord
100
AcDbBlockTableRecord
  2
*Model_Space
  0
BLOCK_RECORD
  5
221
100
AcDbSymbolTableRecord
100
AcDbBlockTableRecord
  2
*Paper_Space
  0
ENDTAB
  0
TABLE
  2
DIMSTYLE
  5
A
100
AcDbSymbolTable
 70
1
100
AcDbDimStyleTable
 71
0
  0
DIMSTYLE
105
222
100
AcDbSymbolTableRecord
100
AcDbDimStyleTableRecord
  2
STANDARD
 70
0
  3

  4

 40
1.0
 41
0.1875
 42
0.0625
 43
0.38
 44
0.125
 45
0.0
 46
0.0
 47
0.0001
 48
0.0001
140
0.15625
141
0.09
142
0.0
143
25.4
144
1.0
145
0.0
146
1.0
147
0.09
 71
0.0
 72
0.0
 73
1
 74
1
 75
0
 76
0
 77
0
 78
4
 79
1
170
0
171
3
172
0
173
0
174
0
175
0
176
0
177
0
178
0
270
2
179
4
271
4
272
4
273
2
274
2
275
0
280
0
281
0
282
0
283
1
284
4
285
0
286
0
287
3
288
0
340
11
278
46
  0
ENDTAB
  0
ENDSEC
  0
SECTION
  2
BLOCKS
  0
BLOCK
  5
20
100
AcDbEntity
  8
0
100
AcDbBlockBegin
  2
*Model_Space
 70
0
 10
0.0
 20
0.0
 30
0.0
  3
*Model_Space
  1

  0
ENDBLK
  5
21
100
AcDbEntity
  8
0
100
AcDbBlockEnd
  0
BLOCK
  5
1C
100
AcDbEntity
  8
0
100
AcDbBlockBegin
  2
*Paper_Space
 70
0
 10
0.0
 20
0.0
 30
0.0
  3
*Paper_Space
  1

  0
ENDBLK
  5
1D
100
AcDbEntity
  8
0
100
AcDbBlockEnd
  0
ENDSEC
  0
SECTION
  2
ENTITIES
  0
MTEXT
  5
223
100
AcDbEntity
  8
0
100
AcDbMText
 62
7
  6
CONTINUOUS
  7
STANDARD
 71
1
 72
1
 10
15.9560215477
 20
0.9479130325
 30
0.0
 11
1.0
 21
0.0
 31
0.0
 44
0.9
  1
SCALE: 1:1.000
 40
0.3
 41
3.36
  0
LINE
  5
224
100
AcDbEntity
  8
0
100
AcDbLine
 62
7
  6
CONTINUOUS
 10
0.0
 20
0.0
 11
0.0
 21
17.0
  0
LINE
  5
225
100
AcDbEntity
  8
0
100
AcDbLine
 62
7
  6
CONTINUOUS
 10
0.0
 20
0.0
 11
22.0
 21
0.0
  0
LINE
  5
226
100
AcDbEntity
  8
0
100
AcDbLine
 62
7
  6
CONTINUOUS
 10
0.0
 20
17.0
 11
22.0
 21
17.0
  0
LINE
  5
227
100
AcDbEntity
  8
0
100
AcDbLine
 62
7
  6
CONTINUOUS
 10
22.0
 20
0.0
 11
22.0
 21
17.0
  0
LINE
  5
228
100
AcDbEntity
  8
LAYER_FEATURE
100
AcDbLine
 62
7
  6
CONTINUOUS
 10
6.5343672762
 20
4.3301198968
 11
6.4696551916
 21
4.3301198968
  0
LINE
  5
229
100
AcDbEntity
  8
LAYER_FEATURE
100
AcDbLine
 62
7
  6
CONTINUOUS
 10
5.2763672762
 20
4.3301198968
 11
5.3410793607
 21
4.3301198968
  0
LINE
  5
22A
100
AcDbEntity
  8
0
100
AcDbLine
 62
7
  6
CONTINUOUS
 10
5.3653672762
 20
4.4177180621
 11
6.4453672762
 21
4.4177180621
  0
LINE
  5
22B
100
AcDbEntity
  8
LAYER_FEATURE
100
AcDbLine
 62
7
  6
CONTINUOUS
 10
5.3653672762
 20
4.4177538672
 11
6.4453672762
 21
4.4177538672
  0
LINE
  5
22C
100
AcDbEntity
  8
LAYER_FEATURE
100
AcDbLine
 62
7
  6
CONTINUOUS
 10
5.3653672762
 20
4.4200567336
 11
6.4453672762
 21
4.4200567336
  0
LINE
  5
22D
100
AcDbEntity
  8
0
100
AcDbLine
 62
7
  6
CONTINUOUS
 10
5.3653672762
 20
4.4483584768
 11
6.4453672762
 21
4.4483584768
  0
LINE
  5
22E
100
AcDbEntity
  8
LAYER_FEATURE
100
AcDbLine
 62
7
  6
CONTINUOUS
 10
5.3653672762
 20
4.4489458347
 11
6.4453672762
 21
4.4489458347
  0
LINE
  5
22F
100
AcDbEntity
  8
LAYER_FEATURE
100
AcDbLine
 62
7
  6
CONTINUOUS
 10
5.3653672762
 20
4.4557844625
 11
6.4453672762
 21
4.4557844625
  0
LINE
  5
230
100
AcDbEntity
  8
0
100
AcDbLine
 62
7
  6
CONTINUOUS
 10
5.3653672762
 20
4.510895361
 11
6.4453672762
 21
4.510895361
  0
LINE
  5
231
100
AcDbEntity
  8
LAYER_FEATURE
100
AcDbLine
 62
7
  6
CONTINUOUS
 10
5.3653672762
 20
4.5126848841
 11
6.4453672762
 21
4.5126848841
  0
LINE
  5
232
100
AcDbEntity
  8
LAYER_FEATURE
100
AcDbLine
 62
7
  6
CONTINUOUS
 10
5.3653672762
 20
4.5238514851
 11
6.4453672762
 21
4.5238514851
  0
LINE
  5
233
100
AcDbEntity
  8
0
100
AcDbLine
 62
7
  6
CONTINUOUS
 10
5.3653672762
 20
4.6034285632
 11
6.4453672762
 21
4.6034285632
  0
LINE
  5
234
100
AcDbEntity
  8
LAYER_FEATURE
100
AcDbLine
 62
7
  6
CONTINUOUS
 10
5.3653672762
 20
4.6070343366
 11
6.4453672762
 21
4.6070343366
  0
LINE
  5
235
100
AcDbEntity
  8
LAYER_FEATURE
100
AcDbLine
 62
7
  6
CONTINUOUS
 10
5.3653672762
 20
4.6221896192
 11
6.4453672762
 21
4.6221896192
  0
LINE
  5
236
100
AcDbEntity
  8
02___PRT_ALL_AXES
100
AcDbLine
 62
7
  6
CONTINUOUS
 10
5.2653672762
 20
4.6381198968
 11
5.2653672762
 21
6.4021198968
  0
LINE
  5
237
100
AcDbEntity
  8
LAYER_FEATURE
100
AcDbLine
 62
7
  6
CONTINUOUS
 10
5.2763672762
 20
6.7101198968
 11
5.2763672762
 21
4.3301198968
  0
LINE
  5
238
100
AcDbEntity
  8
LAYER_FEATURE
100
AcDbLine
 62
7
  6
CONTINUOUS
 10
5.3410793607
 20
6.7101198968
 11
5.3410793607
 21
4.3301198968
  0
LINE
  5
239
100
AcDbEntity
  8
02___PRT_ALL_AXES
100
AcDbLine
 62
7
  6
CONTINUOUS
 10
6.5453672762
 20
4.6751198968
 11
6.9323672762
 21
4.6751198968
  0
LINE
  5
23A
100
AcDbEntity
  8
0
100
AcDbLine
 62
7
  6
CONTINUOUS
 10
5.3653672762
 20
4.7231465089
 11
6.4453672762
 21
4.7231465089
  0
LINE
  5
23B
100
AcDbEntity
  8
LAYER_FEATURE
100
AcDbLine
 62
7
  6
CONTINUOUS
 10
5.3653672762
 20
4.7291274318
 11
6.4453672762
 21
4.7291274318
  0
LINE
  5
23C
100
AcDbEntity
  8
LAYER_FEATURE
100
AcDbLine
 62
7
  6
CONTINUOUS
 10
5.3653672762
 20
4.7478109104
 11
6.4453672762
 21
4.7478109104
  0
LINE
  5
23D
100
AcDbEntity
  8
LAYER_FEATURE
100
AcDbLine
 62
7
  6
CONTINUOUS
 10
6.5343672762
 20
4.6401586262
 11
6.5453672762
 21
4.6381198968
  0
LINE
  5
23E
100
AcDbEntity
  8
LAYER_FEATURE
100
AcDbLine
 62
7
  6
CONTINUOUS
 10
5.3653672762
 20
6.6500051966
 11
5.3653672762
 21
4.390234597
  0
LINE
  5
23F
100
AcDbEntity
  8
LAYER_FEATURE
100
AcDbLine
 62
7
  6
CONTINUOUS
 10
5.2653672762
 20
4.6381198968
 11
5.2763672762
 21
4.6401586262
  0
LINE
  5
240
100
AcDbEntity
  8
0
100
AcDbLine
 62
7
  6
CONTINUOUS
 10
5.3653672762
 20
4.8664116287
 11
6.4453672762
 21
4.8664116287
  0
LINE
  5
241
100
AcDbEntity
  8
LAYER_FEATURE
100
AcDbLine
 62
7
  6
CONTINUOUS
 10
5.3653672762
 20
4.8752544327
 11
6.4453672762
 21
4.8752544327
  0
LINE
  5
242
100
AcDbEntity
  8
LAYER_FEATURE
100
AcDbLine
 62
7
  6
CONTINUOUS
 10
5.3653672762
 20
4.8968984194
 11
6.4453672762
 21
4.8968984194
  0
LINE
  5
243
100
AcDbEntity
  8
LAYER_FEATURE
100
AcDbLine
 62
7
  6
CONTINUOUS
 10
6.4453672762
 20
5.0288708847
 11
5.3653672762
 21
5.0288708847
  0
LINE
  5
244
100
AcDbEntity
  8
LAYER_FEATURE
100
AcDbLine
 62
7
  6
CONTINUOUS
 10
5.3653672762
 20
5.0409753445
 11
6.4453672762
 21
5.0409753445
  0
LINE
  5
245
100
AcDbEntity
  8
LAYER_FEATURE
100
AcDbLine
 62
7
  6
CONTINUOUS
 10
5.3653672762
 20
5.0649221976
 11
6.4453672762
 21
5.0649221976
  0
LINE
  5
246
100
AcDbEntity
  8
LAYER_FEATURE
100
AcDbLine
 62
7
  6
CONTINUOUS
 10
5.3410793607
 20
4.3301198968
 11
5.3653672762
 21
4.390234597
  0
LINE
  5
247
100
AcDbEntity
  8
0
100
AcDbLine
 62
7
  6
CONTINUOUS
 10
5.3653672762
 20
5.2057095724
 11
6.4453672762
 21
5.2057095724
  0
LINE
  5
248
100
AcDbEntity
  8
LAYER_FEATURE
100
AcDbLine
 62
7
  6
CONTINUOUS
 10
5.3653672762
 20
5.2212548211
 11
6.4453672762
 21
5.2212548211
  0
LINE
  5
249
100
AcDbEntity
  8
LAYER_FEATURE
100
AcDbLine
 62
7
  6
CONTINUOUS
 10
5.3410793607
 20
6.7101198968
 11
5.3653672762
 21
6.6500051966
  0
LINE
  5
24A
100
AcDbEntity
  8
LAYER_FEATURE
100
AcDbLine
 62
7
  6
CONTINUOUS
 10
5.3653672762
 20
5.2467769275
 11
6.4453672762
 21
5.2467769275
  0
LINE
  5
24B
100
AcDbEntity
  8
LAYER_FEATURE
100
AcDbLine
 62
7
  6
CONTINUOUS
 10
6.4696551916
 20
6.7101198968
 11
6.4453672762
 21
6.6500051966
  0
LINE
  5
24C
100
AcDbEntity
  8
LAYER_FEATURE
100
AcDbLine
 62
7
  6
CONTINUOUS
 10
5.3653672762
 20
5.4106151617
 11
6.4453672762
 21
5.4106151617
  0
LINE
  5
24D
100
AcDbEntity
  8
LAYER_FEATURE
100
AcDbLine
 62
7
  6
CONTINUOUS
 10
6.4696551916
 20
4.3301198968
 11
6.4453672762
 21
4.390234597
  0
LINE
  5
24E
100
AcDbEntity
  8
LAYER_FEATURE
100
AcDbLine
 62
7
  6
CONTINUOUS
 10
5.3653672762
 20
5.4369370452
 11
6.4453672762
 21
5.4369370452
  0
LINE
  5
24F
100
AcDbEntity
  8
LAYER_FEATURE
100
AcDbLine
 62
7
  6
CONTINUOUS
 10
5.3653672762
 20
5.6033027483
 11
6.4453672762
 21
5.6033027483
  0
LINE
  5
250
100
AcDbEntity
  8
LAYER_FEATURE
100
AcDbLine
 62
7
  6
CONTINUOUS
 10
5.3653672762
 20
5.6296246318
 11
6.4453672762
 21
5.6296246318
  0
LINE
  5
251
100
AcDbEntity
  8
LAYER_FEATURE
100
AcDbLine
 62
7
  6
CONTINUOUS
 10
5.3653672762
 20
5.793462866
 11
6.4453672762
 21
5.793462866
  0
LINE
  5
252
100
AcDbEntity
  8
LAYER_FEATURE
100
AcDbLine
 62
7
  6
CONTINUOUS
 10
5.3653672762
 20
5.8189849725
 11
6.4453672762
 21
5.8189849725
  0
LINE
  5
253
100
AcDbEntity
  8
LAYER_FEATURE
100
AcDbLine
 62
7
  6
CONTINUOUS
 10
6.4453672762
 20
6.6500051966
 11
6.4453672762
 21
4.390234597
  0
LINE
  5
254
100
AcDbEntity
  8
LAYER_FEATURE
100
AcDbLine
 62
7
  6
CONTINUOUS
 10
6.4696551916
 20
6.7101198968
 11
6.4696551916
 21
4.3301198968
  0
LINE
  5
255
100
AcDbEntity
  8
LAYER_FEATURE
100
AcDbLine
 62
7
  6
CONTINUOUS
 10
6.5343672762
 20
6.7101198968
 11
6.5343672762
 21
4.3301198968
  0
LINE
  5
256
100
AcDbEntity
  8
LAYER_FEATURE
100
AcDbLine
 62
7
  6
CONTINUOUS
 10
6.4453672762
 20
5.8345301946
 11
5.3653672762
 21
5.8345301946
  0
LINE
  5
257
100
AcDbEntity
  8
02___PRT_ALL_AXES
100
AcDbLine
 62
7
  6
CONTINUOUS
 10
6.5453672762
 20
4.6381198968
 11
6.5453672762
 21
6.4021198968
  0
LINE
  5
258
100
AcDbEntity
  8
LAYER_FEATURE
100
AcDbLine
 62
7
  6
CONTINUOUS
 10
5.3653672762
 20
5.9753175959
 11
6.4453672762
 21
5.9753175959
  0
LINE
  5
259
100
AcDbEntity
  8
LAYER_FEATURE
100
AcDbLine
 62
7
  6
CONTINUOUS
 10
5.3653672762
 20
5.999264449
 11
6.4453672762
 21
5.999264449
  0
LINE
  5
25A
100
AcDbEntity
  8
LAYER_FEATURE
100
AcDbLine
 62
7
  6
CONTINUOUS
 10
6.4453672762
 20
6.0113689088
 11
5.3653672762
 21
6.0113689088
  0
LINE
  5
25B
100
AcDbEntity
  8
LAYER_FEATURE
100
AcDbLine
 62
7
  6
CONTINUOUS
 10
5.3653672762
 20
6.1433413741
 11
6.4453672762
 21
6.1433413741
  0
LINE
  5
25C
100
AcDbEntity
  8
LAYER_FEATURE
100
AcDbLine
 62
7
  6
CONTINUOUS
 10
5.3653672762
 20
6.1649853608
 11
6.4453672762
 21
6.1649853608
  0
LINE
  5
25D
100
AcDbEntity
  8
0
100
AcDbLine
 62
7
  6
CONTINUOUS
 10
5.3653672762
 20
6.1738281648
 11
6.4453672762
 21
6.1738281648
  0
LINE
  5
25E
100
AcDbEntity
  8
LAYER_FEATURE
100
AcDbLine
 62
7
  6
CONTINUOUS
 10
6.5343672762
 20
6.4000811673
 11
6.5453672762
 21
6.4021198968
  0
LINE
  5
25F
100
AcDbEntity
  8
LAYER_FEATURE
100
AcDbLine
 62
7
  6
CONTINUOUS
 10
5.3653672762
 20
6.2924288831
 11
6.4453672762
 21
6.2924288831
  0
LINE
  5
260
100
AcDbEntity
  8
LAYER_FEATURE
100
AcDbLine
 62
7
  6
CONTINUOUS
 10
5.3653672762
 20
6.3111123617
 11
6.4453672762
 21
6.3111123617
  0
LINE
  5
261
100
AcDbEntity
  8
0
100
AcDbLine
 62
7
  6
CONTINUOUS
 10
5.3653672762
 20
6.3170932846
 11
6.4453672762
 21
6.3170932846
  0
LINE
  5
262
100
AcDbEntity
  8
LAYER_FEATURE
100
AcDbLine
 62
7
  6
CONTINUOUS
 10
5.2653672762
 20
6.4021198968
 11
5.2763672762
 21
6.4000811673
  0
LINE
  5
263
100
AcDbEntity
  8
LAYER_CHAMFER_FEAT
100
AcDbLine
 62
7
  6
CONTINUOUS
 10
6.9323672762
 20
6.3651198968
 11
6.9323672762
 21
4.6751198968
  0
LINE
  5
264
100
AcDbEntity
  8
LAYER_CHAMFER_FEAT
100
AcDbLine
 62
7
  6
CONTINUOUS
 10
6.9953672762
 20
6.3021198968
 11
6.9953672762
 21
4.7381198968
  0
LINE
  5
265
100
AcDbEntity
  8
02___PRT_ALL_AXES
100
AcDbLine
 62
7
  6
CONTINUOUS
 10
6.5453672762
 20
6.3651198968
 11
6.9323672762
 21
6.3651198968
  0
LINE
  5
266
100
AcDbEntity
  8
LAYER_FEATURE
100
AcDbLine
 62
7
  6
CONTINUOUS
 10
5.3653672762
 20
6.4180501743
 11
6.4453672762
 21
6.4180501743
  0
LINE
  5
267
100
AcDbEntity
  8
LAYER_FEATURE
100
AcDbLine
 62
7
  6
CONTINUOUS
 10
5.3653672762
 20
6.4332054569
 11
6.4453672762
 21
6.4332054569
  0
LINE
  5
268
100
AcDbEntity
  8
0
100
AcDbLine
 62
7
  6
CONTINUOUS
 10
5.3653672762
 20
6.4368112303
 11
6.4453672762
 21
6.4368112303
  0
LINE
  5
269
100
AcDbEntity
  8
LAYER_FEATURE
100
AcDbLine
 62
7
  6
CONTINUOUS
 10
5.3653672762
 20
6.5163883084
 11
6.4453672762
 21
6.5163883084
  0
LINE
  5
26A
100
AcDbEntity
  8
LAYER_FEATURE
100
AcDbLine
 62
7
  6
CONTINUOUS
 10
5.3653672762
 20
6.5275549094
 11
6.4453672762
 21
6.5275549094
  0
LINE
  5
26B
100
AcDbEntity
  8
0
100
AcDbLine
 62
7
  6
CONTINUOUS
 10
5.3653672762
 20
6.5293444325
 11
6.4453672762
 21
6.5293444325
  0
LINE
  5
26C
100
AcDbEntity
  8
LAYER_FEATURE
100
AcDbLine
 62
7
  6
CONTINUOUS
 10
5.3653672762
 20
6.584455331
 11
6.4453672762
 21
6.584455331
  0
LINE
  5
26D
100
AcDbEntity
  8
LAYER_FEATURE
100
AcDbLine
 62
7
  6
CONTINUOUS
 10
5.3653672762
 20
6.5912939588
 11
6.4453672762
 21
6.5912939588
  0
LINE
  5
26E
100
AcDbEntity
  8
LAYER_CUT_FEAT
100
AcDbLine
 62
7
  6
CONTINUOUS
 10
5.3653672762
 20
6.5918813167
 11
6.4453672762
 21
6.5918813167
  0
LINE
  5
26F
100
AcDbEntity
  8
LAYER_CHAMFER_FEAT
100
AcDbLine
 62
7
  6
CONTINUOUS
 10
6.9323672762
 20
4.6751198968
 11
6.9953672762
 21
4.7381198968
  0
LINE
  5
270
100
AcDbEntity
  8
LAYER_FEATURE
100
AcDbLine
 62
7
  6
CONTINUOUS
 10
5.3653672762
 20
6.6201830599
 11
6.4453672762
 21
6.6201830599
  0
LINE
  5
271
100
AcDbEntity
  8
LAYER_FEATURE
100
AcDbLine
 62
7
  6
CONTINUOUS
 10
6.4453672762
 20
6.6224859264
 11
5.3653672762
 21
6.6224859264
  0
LINE
  5
272
100
AcDbEntity
  8
0
100
AcDbLine
 62
7
  6
CONTINUOUS
 10
5.3653672762
 20
6.6225217315
 11
6.4453672762
 21
6.6225217315
  0
LINE
  5
273
100
AcDbEntity
  8
LAYER_FEATURE
100
AcDbLine
 62
7
  6
CONTINUOUS
 10
6.5343672762
 20
6.7101198968
 11
6.4696551916
 21
6.7101198968
  0
LINE
  5
274
100
AcDbEntity
  8
LAYER_FEATURE
100
AcDbLine
 62
7
  6
CONTINUOUS
 10
5.2763672762
 20
6.7101198968
 11
5.3410793607
 21
6.7101198968
  0
LINE
  5
275
100
AcDbEntity
  8
LAYER_CHAMFER_FEAT
100
AcDbLine
 62
7
  6
CONTINUOUS
 10
6.9323672762
 20
6.3651198968
 11
6.9953672762
 21
6.3021198968
  0
LINE
  5
276
100
AcDbEntity
  8
LAYER_FEATURE
100
AcDbLine
 62
7
  6
CONTINUOUS
 10
5.2168720839
 20
11.4100477814
 11
5.2815841684
 21
11.4100477814
  0
LINE
  5
277
100
AcDbEntity
  8
LAYER_FEATURE
100
AcDbLine
 62
7
  6
CONTINUOUS
 10
6.4101599993
 20
11.4100477814
 11
6.4748720839
 21
11.4100477814
  0
LINE
  5
278
100
AcDbEntity
  8
0
100
AcDbLine
 62
7
  6
CONTINUOUS
 10
5.3058720839
 20
11.4976459467
 11
6.3858720839
 21
11.4976459467
  0
LINE
  5
279
100
AcDbEntity
  8
LAYER_FEATURE
100
AcDbLine
 62
7
  6
CONTINUOUS
 10
5.3058720839
 20
11.4976817518
 11
6.3858720839
 21
11.4976817518
  0
LINE
  5
27A
100
AcDbEntity
  8
LAYER_FEATURE
100
AcDbLine
 62
7
  6
CONTINUOUS
 10
5.3058720839
 20
11.4999846182
 11
6.3858720839
 21
11.4999846182
  0
LINE
  5
27B
100
AcDbEntity
  8
0
100
AcDbLine
 62
7
  6
CONTINUOUS
 10
5.3058720839
 20
11.5282863614
 11
6.3858720839
 21
11.5282863614
  0
LINE
  5
27C
100
AcDbEntity
  8
LAYER_FEATURE
100
AcDbLine
 62
7
  6
CONTINUOUS
 10
5.3058720839
 20
11.5288737193
 11
6.3858720839
 21
11.5288737193
  0
LINE
  5
27D
100
AcDbEntity
  8
LAYER_FEATURE
100
AcDbLine
 62
7
  6
CONTINUOUS
 10
5.3058720839
 20
11.5357123472
 11
6.3858720839
 21
11.5357123472
  0
LINE
  5
27E
100
AcDbEntity
  8
0
100
AcDbLine
 62
7
  6
CONTINUOUS
 10
5.3058720839
 20
11.5908232456
 11
6.3858720839
 21
11.5908232456
  0
LINE
  5
27F
100
AcDbEntity
  8
LAYER_FEATURE
100
AcDbLine
 62
7
  6
CONTINUOUS
 10
5.3058720839
 20
11.5926127687
 11
6.3858720839
 21
11.5926127687
  0
LINE
  5
280
100
AcDbEntity
  8
LAYER_FEATURE
100
AcDbLine
 62
7
  6
CONTINUOUS
 10
5.3058720839
 20
11.6037793697
 11
6.3858720839
 21
11.6037793697
  0
LINE
  5
281
100
AcDbEntity
  8
0
100
AcDbLine
 62
7
  6
CONTINUOUS
 10
5.3058720839
 20
11.6833564478
 11
6.3858720839
 21
11.6833564478
  0
LINE
  5
282
100
AcDbEntity
  8
LAYER_FEATURE
100
AcDbLine
 62
7
  6
CONTINUOUS
 10
5.3058720839
 20
11.6869622212
 11
6.3858720839
 21
11.6869622212
  0
LINE
  5
283
100
AcDbEntity
  8
LAYER_FEATURE
100
AcDbLine
 62
7
  6
CONTINUOUS
 10
5.3058720839
 20
11.7021175038
 11
6.3858720839
 21
11.7021175038
  0
LINE
  5
284
100
AcDbEntity
  8
02___PRT_ALL_AXES
100
AcDbLine
 62
7
  6
CONTINUOUS
 10
5.2058720839
 20
11.7180477814
 11
5.2058720839
 21
13.4820477814
  0
LINE
  5
285
100
AcDbEntity
  8
LAYER_FEATURE
100
AcDbLine
 62
7
  6
CONTINUOUS
 10
5.2168720839
 20
11.4100477814
 11
5.2168720839
 21
13.7900477814
  0
LINE
  5
286
100
AcDbEntity
  8
LAYER_FEATURE
100
AcDbLine
 62
7
  6
CONTINUOUS
 10
5.2815841684
 20
11.4100477814
 11
5.2815841684
 21
13.7900477814
  0
LINE
  5
287
100
AcDbEntity
  8
LAYER_CHAMFER_FEAT
100
AcDbLine
 62
7
  6
CONTINUOUS
 10
6.4858720839
 20
11.7550477814
 11
6.8728720839
 21
11.7550477814
  0
LINE
  5
288
100
AcDbEntity
  8
0
100
AcDbLine
 62
7
  6
CONTINUOUS
 10
5.3058720839
 20
11.8030743935
 11
6.3858720839
 21
11.8030743935
  0
LINE
  5
289
100
AcDbEntity
  8
LAYER_FEATURE
100
AcDbLine
 62
7
  6
CONTINUOUS
 10
5.3058720839
 20
11.8090553164
 11
6.3858720839
 21
11.8090553164
  0
LINE
  5
28A
100
AcDbEntity
  8
LAYER_FEATURE
100
AcDbLine
 62
7
  6
CONTINUOUS
 10
5.3058720839
 20
11.827738795
 11
6.3858720839
 21
11.827738795
  0
LINE
  5
28B
100
AcDbEntity
  8
02___PRT_ALL_AXES
100
AcDbLine
 62
7
  6
CONTINUOUS
 10
6.4858720839
 20
11.7180477814
 11
6.4748720839
 21
11.7200865109
  0
LINE
  5
28C
100
AcDbEntity
  8
LAYER_FEATURE
100
AcDbLine
 62
7
  6
CONTINUOUS
 10
5.3058720839
 20
11.4701624816
 11
5.3058720839
 21
13.7299330812
  0
LINE
  5
28D
100
AcDbEntity
  8
02___PRT_ALL_AXES
100
AcDbLine
 62
7
  6
CONTINUOUS
 10
5.2168720839
 20
11.7200865109
 11
5.2058720839
 21
11.7180477814
  0
LINE
  5
28E
100
AcDbEntity
  8
0
100
AcDbLine
 62
7
  6
CONTINUOUS
 10
5.3058720839
 20
11.9463395134
 11
6.3858720839
 21
11.9463395134
  0
LINE
  5
28F
100
AcDbEntity
  8
LAYER_FEATURE
100
AcDbLine
 62
7
  6
CONTINUOUS
 10
5.3058720839
 20
11.9551823174
 11
6.3858720839
 21
11.9551823174
  0
LINE
  5
290
100
AcDbEntity
  8
LAYER_FEATURE
100
AcDbLine
 62
7
  6
CONTINUOUS
 10
5.3058720839
 20
11.976826304
 11
6.3858720839
 21
11.976826304
  0
LINE
  5
291
100
AcDbEntity
  8
LAYER_FEATURE
100
AcDbLine
 62
7
  6
CONTINUOUS
 10
6.3858720839
 20
12.1087987693
 11
5.3058720839
 21
12.1087987693
  0
LINE
  5
292
100
AcDbEntity
  8
LAYER_FEATURE
100
AcDbLine
 62
7
  6
CONTINUOUS
 10
5.3058720839
 20
12.1209032291
 11
6.3858720839
 21
12.1209032291
  0
LINE
  5
293
100
AcDbEntity
  8
LAYER_FEATURE
100
AcDbLine
 62
7
  6
CONTINUOUS
 10
5.3058720839
 20
12.1448500822
 11
6.3858720839
 21
12.1448500822
  0
LINE
  5
294
100
AcDbEntity
  8
LAYER_FEATURE
100
AcDbLine
 62
7
  6
CONTINUOUS
 10
5.2815841684
 20
11.4100477814
 11
5.3058720839
 21
11.4701624816
  0
LINE
  5
295
100
AcDbEntity
  8
0
100
AcDbLine
 62
7
  6
CONTINUOUS
 10
5.3058720839
 20
12.285637457
 11
6.3858720839
 21
12.285637457
  0
LINE
  5
296
100
AcDbEntity
  8
LAYER_FEATURE
100
AcDbLine
 62
7
  6
CONTINUOUS
 10
5.3058720839
 20
12.3011827057
 11
6.3858720839
 21
12.3011827057
  0
LINE
  5
297
100
AcDbEntity
  8
LAYER_FEATURE
100
AcDbLine
 62
7
  6
CONTINUOUS
 10
5.2815841684
 20
13.7900477814
 11
5.3058720839
 21
13.7299330812
  0
LINE
  5
298
100
AcDbEntity
  8
LAYER_FEATURE
100
AcDbLine
 62
7
  6
CONTINUOUS
 10
5.3058720839
 20
12.3267048121
 11
6.3858720839
 21
12.3267048121
  0
LINE
  5
299
100
AcDbEntity
  8
LAYER_FEATURE
100
AcDbLine
 62
7
  6
CONTINUOUS
 10
6.3858720839
 20
13.7299330812
 11
6.4101599993
 21
13.7900477814
  0
LINE
  5
29A
100
AcDbEntity
  8
LAYER_FEATURE
100
AcDbLine
 62
7
  6
CONTINUOUS
 10
5.3058720839
 20
12.4905430463
 11
6.3858720839
 21
12.4905430463
  0
LINE
  5
29B
100
AcDbEntity
  8
LAYER_FEATURE
100
AcDbLine
 62
7
  6
CONTINUOUS
 10
6.3858720839
 20
11.4701624816
 11
6.4101599993
 21
11.4100477814
  0
LINE
  5
29C
100
AcDbEntity
  8
LAYER_FEATURE
100
AcDbLine
 62
7
  6
CONTINUOUS
 10
6.3858720839
 20
12.5168649299
 11
5.3058720839
 21
12.5168649299
  0
LINE
  5
29D
100
AcDbEntity
  8
LAYER_FEATURE
100
AcDbLine
 62
7
  6
CONTINUOUS
 10
6.3858720839
 20
12.6832306329
 11
5.3058720839
 21
12.6832306329
  0
LINE
  5
29E
100
AcDbEntity
  8
LAYER_FEATURE
100
AcDbLine
 62
7
  6
CONTINUOUS
 10
5.3058720839
 20
12.7095525164
 11
6.3858720839
 21
12.7095525164
  0
LINE
  5
29F
100
AcDbEntity
  8
LAYER_FEATURE
100
AcDbLine
 62
7
  6
CONTINUOUS
 10
5.3058720839
 20
12.8733907506
 11
6.3858720839
 21
12.8733907506
  0
LINE
  5
2A0
100
AcDbEntity
  8
LAYER_FEATURE
100
AcDbLine
 62
7
  6
CONTINUOUS
 10
5.3058720839
 20
12.8989128571
 11
6.3858720839
 21
12.8989128571
  0
LINE
  5
2A1
100
AcDbEntity
  8
LAYER_FEATURE
100
AcDbLine
 62
7
  6
CONTINUOUS
 10
6.3858720839
 20
11.4701625549
 11
6.3858720839
 21
13.7299330078
  0
LINE
  5
2A2
100
AcDbEntity
  8
LAYER_FEATURE
100
AcDbLine
 62
7
  6
CONTINUOUS
 10
6.4101599993
 20
11.4100477814
 11
6.4101599993
 21
13.7900477814
  0
LINE
  5
2A3
100
AcDbEntity
  8
LAYER_FEATURE
100
AcDbLine
 62
7
  6
CONTINUOUS
 10
6.4748720839
 20
11.4100477814
 11
6.4748720839
 21
13.7900477814
  0
LINE
  5
2A4
100
AcDbEntity
  8
LAYER_FEATURE
100
AcDbLine
 62
7
  6
CONTINUOUS
 10
6.3858720839
 20
12.9144580792
 11
5.3058720839
 21
12.9144580792
  0
LINE
  5
2A5
100
AcDbEntity
  8
02___PRT_ALL_AXES
100
AcDbLine
 62
7
  6
CONTINUOUS
 10
6.4858720839
 20
11.7180477814
 11
6.4858720839
 21
13.4820477814
  0
LINE
  5
2A6
100
AcDbEntity
  8
LAYER_FEATURE
100
AcDbLine
 62
7
  6
CONTINUOUS
 10
5.3058720839
 20
13.0552454805
 11
6.3858720839
 21
13.0552454805
  0
LINE
  5
2A7
100
AcDbEntity
  8
LAYER_FEATURE
100
AcDbLine
 62
7
  6
CONTINUOUS
 10
5.3058720839
 20
13.0791923336
 11
6.3858720839
 21
13.0791923336
  0
LINE
  5
2A8
100
AcDbEntity
  8
LAYER_FEATURE
100
AcDbLine
 62
7
  6
CONTINUOUS
 10
6.3858720839
 20
13.0912967934
 11
5.3058720839
 21
13.0912967934
  0
LINE
  5
2A9
100
AcDbEntity
  8
LAYER_FEATURE
100
AcDbLine
 62
7
  6
CONTINUOUS
 10
5.3058720839
 20
13.2232692587
 11
6.3858720839
 21
13.2232692587
  0
LINE
  5
2AA
100
AcDbEntity
  8
LAYER_FEATURE
100
AcDbLine
 62
7
  6
CONTINUOUS
 10
5.3058720839
 20
13.2449132454
 11
6.3858720839
 21
13.2449132454
  0
LINE
  5
2AB
100
AcDbEntity
  8
0
100
AcDbLine
 62
7
  6
CONTINUOUS
 10
5.3058720839
 20
13.2537560494
 11
6.3858720839
 21
13.2537560494
  0
LINE
  5
2AC
100
AcDbEntity
  8
02___PRT_ALL_AXES
100
AcDbLine
 62
7
  6
CONTINUOUS
 10
6.4858720839
 20
13.4820477814
 11
6.4748720839
 21
13.4800090519
  0
LINE
  5
2AD
100
AcDbEntity
  8
LAYER_FEATURE
100
AcDbLine
 62
7
  6
CONTINUOUS
 10
5.3058720839
 20
13.3723567677
 11
6.3858720839
 21
13.3723567677
  0
LINE
  5
2AE
100
AcDbEntity
  8
LAYER_FEATURE
100
AcDbLine
 62
7
  6
CONTINUOUS
 10
5.3058720839
 20
13.3910402463
 11
6.3858720839
 21
13.3910402463
  0
LINE
  5
2AF
100
AcDbEntity
  8
0
100
AcDbLine
 62
7
  6
CONTINUOUS
 10
5.3058720839
 20
13.3970211693
 11
6.3858720839
 21
13.3970211693
  0
LINE
  5
2B0
100
AcDbEntity
  8
02___PRT_ALL_AXES
100
AcDbLine
 62
7
  6
CONTINUOUS
 10
5.2168720839
 20
13.4800090519
 11
5.2058720839
 21
13.4820477814
  0
LINE
  5
2B1
100
AcDbEntity
  8
LAYER_CHAMFER_FEAT
100
AcDbLine
 62
7
  6
CONTINUOUS
 10
6.8728720839
 20
13.4450477814
 11
6.8728720839
 21
11.7550477814
  0
LINE
  5
2B2
100
AcDbEntity
  8
LAYER_CHAMFER_FEAT
100
AcDbLine
 62
7
  6
CONTINUOUS
 10
6.9358720839
 20
13.3820477814
 11
6.9358720839
 21
11.8180477814
  0
LINE
  5
2B3
100
AcDbEntity
  8
LAYER_CHAMFER_FEAT
100
AcDbLine
 62
7
  6
CONTINUOUS
 10
6.4858720839
 20
13.4450477814
 11
6.8728720839
 21
13.4450477814
  0
LINE
  5
2B4
100
AcDbEntity
  8
LAYER_FEATURE
100
AcDbLine
 62
7
  6
CONTINUOUS
 10
5.3058720839
 20
13.4979780589
 11
6.3858720839
 21
13.4979780589
  0
LINE
  5
2B5
100
AcDbEntity
  8
LAYER_FEATURE
100
AcDbLine
 62
7
  6
CONTINUOUS
 10
5.3058720839
 20
13.5131333415
 11
6.3858720839
 21
13.5131333415
  0
LINE
  5
2B6
100
AcDbEntity
  8
0
100
AcDbLine
 62
7
  6
CONTINUOUS
 10
5.3058720839
 20
13.5167391149
 11
6.3858720839
 21
13.5167391149
  0
LINE
  5
2B7
100
AcDbEntity
  8
LAYER_FEATURE
100
AcDbLine
 62
7
  6
CONTINUOUS
 10
5.3058720839
 20
13.596316193
 11
6.3858720839
 21
13.596316193
  0
LINE
  5
2B8
100
AcDbEntity
  8
LAYER_FEATURE
100
AcDbLine
 62
7
  6
CONTINUOUS
 10
5.3058720839
 20
13.607482794
 11
6.3858720839
 21
13.607482794
  0
LINE
  5
2B9
100
AcDbEntity
  8
0
100
AcDbLine
 62
7
  6
CONTINUOUS
 10
5.3058720839
 20
13.6092723171
 11
6.3858720839
 21
13.6092723171
  0
LINE
  5
2BA
100
AcDbEntity
  8
LAYER_FEATURE
100
AcDbLine
 62
7
  6
CONTINUOUS
 10
5.3058720839
 20
13.6643832156
 11
6.3858720839
 21
13.6643832156
  0
LINE
  5
2BB
100
AcDbEntity
  8
LAYER_FEATURE
100
AcDbLine
 62
7
  6
CONTINUOUS
 10
5.3058720839
 20
13.6712218434
 11
6.3858720839
 21
13.6712218434
  0
LINE
  5
2BC
100
AcDbEntity
  8
0
100
AcDbLine
 62
7
  6
CONTINUOUS
 10
5.3058720839
 20
13.6718092014
 11
6.3858720839
 21
13.6718092014
  0
LINE
  5
2BD
100
AcDbEntity
  8
LAYER_CHAMFER_FEAT
100
AcDbLine
 62
7
  6
CONTINUOUS
 10
6.9358720839
 20
11.8180477814
 11
6.8728720839
 21
11.7550477814
  0
LINE
  5
2BE
100
AcDbEntity
  8
LAYER_FEATURE
100
AcDbLine
 62
7
  6
CONTINUOUS
 10
5.3058720839
 20
13.7001109446
 11
6.3858720839
 21
13.7001109446
  0
LINE
  5
2BF
100
AcDbEntity
  8
LAYER_FEATURE
100
AcDbLine
 62
7
  6
CONTINUOUS
 10
5.3058720839
 20
13.702413811
 11
6.3858720839
 21
13.702413811
  0
LINE
  5
2C0
100
AcDbEntity
  8
0
100
AcDbLine
 62
7
  6
CONTINUOUS
 10
5.3058720839
 20
13.7024496161
 11
6.3858720839
 21
13.7024496161
  0
LINE
  5
2C1
100
AcDbEntity
  8
LAYER_FEATURE
100
AcDbLine
 62
7
  6
CONTINUOUS
 10
5.2168720839
 20
13.7900477814
 11
5.2815841684
 21
13.7900477814
  0
LINE
  5
2C2
100
AcDbEntity
  8
LAYER_FEATURE
100
AcDbLine
 62
7
  6
CONTINUOUS
 10
6.4101599993
 20
13.7900477814
 11
6.4748720839
 21
13.7900477814
  0
LINE
  5
2C3
100
AcDbEntity
  8
LAYER_CHAMFER_FEAT
100
AcDbLine
 62
7
  6
CONTINUOUS
 10
6.9358720839
 20
13.3820477814
 11
6.8728720839
 21
13.4450477814
  0
LINE
  5
2C4
100
AcDbEntity
  8
LAYER_FEATURE
100
AcDbLine
 62
7
  6
CONTINUOUS
 10
14.7589018858
 20
11.3208049929
 11
14.8185056628
 21
11.3208049929
  0
LINE
  5
2C5
100
AcDbEntity
  8
LAYER_FEATURE
100
AcDbLine
 62
7
  6
CONTINUOUS
 10
15.8579928394
 20
11.3208049929
 11
15.9175966163
 21
11.3208049929
  0
LINE
  5
2C6
100
AcDbEntity
  8
0
100
AcDbLine
 62
7
  6
CONTINUOUS
 10
14.8204832213
 20
11.4065675243
 11
15.6854040156
 21
11.4065675243
  0
LINE
  5
2C7
100
AcDbEntity
  8
LAYER_FEATURE
100
AcDbLine
 62
7
  6
CONTINUOUS
 10
14.8202285982
 20
11.4065772429
 11
15.6853942208
 21
11.4065772429
  0
LINE
  5
2C8
100
AcDbEntity
  8
LAYER_FEATURE
100
AcDbLine
 62
7
  6
CONTINUOUS
 10
14.8099576926
 20
11.4081598201
 11
15.6837992462
 21
11.4081598201
  0
LINE
  5
2C9
100
AcDbEntity
  8
LAYER_FEATURE
100
AcDbLine
 62
7
  6
CONTINUOUS
 10
14.8202285982
 20
11.4065772429
 11
14.8204832213
 21
11.406567594
  0
LINE
  5
2CA
100
AcDbEntity
  8
0
100
AcDbLine
 62
7
  6
CONTINUOUS
 10
14.7476102082
 20
11.4321027658
 11
15.6624335032
 21
11.4321027658
  0
LINE
  5
2CB
100
AcDbEntity
  8
LAYER_FEATURE
100
AcDbLine
 62
7
  6
CONTINUOUS
 10
14.7458724314
 20
11.4325601069
 11
15.6620641297
 21
11.4325601069
  0
LINE
  5
2CC
100
AcDbEntity
  8
LAYER_FEATURE
100
AcDbLine
 62
7
  6
CONTINUOUS
 10
14.7358645806
 20
11.4386986105
 11
15.6571063409
 21
11.4386986105
  0
LINE
  5
2CD
100
AcDbEntity
  8
0
100
AcDbLine
 62
7
  6
CONTINUOUS
 10
14.6775710386
 20
11.4897453698
 11
15.6201335262
 21
11.4897453698
  0
LINE
  5
2CE
100
AcDbEntity
  8
LAYER_FEATURE
100
AcDbLine
 62
7
  6
CONTINUOUS
 10
14.6744029094
 20
11.4913048962
 11
15.6190966071
 21
11.4913048962
  0
LINE
  5
2CF
100
AcDbEntity
  8
LAYER_FEATURE
100
AcDbLine
 62
7
  6
CONTINUOUS
 10
14.6649621969
 20
11.5018128108
 11
15.6124280477
 21
11.5018128108
  0
LINE
  5
2D0
100
AcDbEntity
  8
LAYER_FEATURE
100
AcDbLine
 62
7
  6
CONTINUOUS
 10
14.6397516399
 20
13.4104559666
 11
14.6397714329
 21
13.4105691104
  0
LINE
  5
2D1
100
AcDbEntity
  8
LAYER_FEATURE
100
AcDbLine
 62
7
  6
CONTINUOUS
 10
14.6397498221
 20
13.4104580699
 11
14.6397714329
 21
13.4105691104
  0
LINE
  5
2D2
100
AcDbEntity
  8
0
100
AcDbLine
 62
7
  6
CONTINUOUS
 10
14.6124938172
 20
11.5777438949
 11
15.5703953766
 21
11.5777438949
  0
LINE
  5
2D3
100
AcDbEntity
  8
LAYER_FEATURE
100
AcDbLine
 62
7
  6
CONTINUOUS
 10
14.6079915977
 20
11.58102668
 11
15.5688127607
 21
11.58102668
  0
LINE
  5
2D4
100
AcDbEntity
  8
LAYER_FEATURE
100
AcDbLine
 62
7
  6
CONTINUOUS
 10
14.5994048748
 20
11.595584728
 11
15.5619569006
 21
11.595584728
  0
LINE
  5
2D5
100
AcDbEntity
  8
02___PRT_ALL_AXES
100
AcDbLine
 62
7
  6
CONTINUOUS
 10
15.9277282872
 20
11.6658049929
 11
16.2841788919
 21
11.6658049929
  0
LINE
  5
2D6
100
AcDbEntity
  8
0
100
AcDbLine
 62
7
  6
CONTINUOUS
 10
14.5543558823
 20
11.6934245504
 11
15.5213274757
 21
11.6934245504
  0
LINE
  5
2D7
100
AcDbEntity
  8
LAYER_FEATURE
100
AcDbLine
 62
7
  6
CONTINUOUS
 10
14.5486563702
 20
11.6989993074
 11
15.5192681284
 21
11.6989993074
  0
LINE
  5
2D8
100
AcDbEntity
  8
LAYER_FEATURE
100
AcDbLine
 62
7
  6
CONTINUOUS
 10
14.5411845401
 20
11.7171651498
 11
15.5127812424
 21
11.7171651498
  0
LINE
  5
2D9
100
AcDbEntity
  8
02___PRT_ALL_AXES
100
AcDbLine
 62
7
  6
CONTINUOUS
 10
15.9008141835
 20
11.6315170365
 11
15.8685114351
 21
11.6380371547
  0
LINE
  5
2DA
100
AcDbEntity
  8
0
100
AcDbLine
 62
7
  6
CONTINUOUS
 10
14.5049237258
 20
11.8332724382
 11
15.4771257508
 21
11.8332724382
  0
LINE
  5
2DB
100
AcDbEntity
  8
LAYER_FEATURE
100
AcDbLine
 62
7
  6
CONTINUOUS
 10
14.4982000978
 20
11.8416382397
 11
15.4749068879
 21
11.8416382397
  0
LINE
  5
2DC
100
AcDbEntity
  8
LAYER_FEATURE
100
AcDbLine
 62
7
  6
CONTINUOUS
 10
14.4920701883
 20
11.8628599166
 11
15.4693229188
 21
11.8628599166
  0
LINE
  5
2DD
100
AcDbEntity
  8
0
100
AcDbLine
 62
7
  6
CONTINUOUS
 10
14.4656993187
 20
11.9930383509
 11
15.4408065279
 21
11.9930383509
  0
LINE
  5
2DE
100
AcDbEntity
  8
LAYER_FEATURE
100
AcDbLine
 62
7
  6
CONTINUOUS
 10
14.4581558689
 20
12.0046094652
 11
15.4387026871
 21
12.0046094652
  0
LINE
  5
2DF
100
AcDbEntity
  8
LAYER_FEATURE
100
AcDbLine
 62
7
  6
CONTINUOUS
 10
14.4535541342
 20
12.0282421668
 11
15.4344058285
 21
12.0282421668
  0
LINE
  5
2E0
100
AcDbEntity
  8
0
100
AcDbLine
 62
7
  6
CONTINUOUS
 10
14.4374175576
 20
12.1679543943
 11
15.4142664651
 21
12.1679543943
  0
LINE
  5
2E1
100
AcDbEntity
  8
LAYER_FEATURE
100
AcDbLine
 62
7
  6
CONTINUOUS
 10
14.429740407
 20
12.1829611856
 11
15.4126131362
 21
12.1829611856
  0
LINE
  5
2E2
100
AcDbEntity
  8
LAYER_FEATURE
100
AcDbLine
 62
7
  6
CONTINUOUS
 10
14.4268066685
 20
12.2082868442
 11
15.4098229565
 21
12.2082868442
  0
LINE
  5
2E3
100
AcDbEntity
  8
LAYER_FEATURE
100
AcDbLine
 62
7
  6
CONTINUOUS
 10
14.4138171017
 20
12.3712742743
 11
15.3978741435
 21
12.3712742743
  0
LINE
  5
2E4
100
AcDbEntity
  8
LAYER_FEATURE
100
AcDbLine
 62
7
  6
CONTINUOUS
 10
14.4126404994
 20
12.3975233824
 11
15.3966975413
 21
12.3975233824
  0
LINE
  5
2E5
100
AcDbEntity
  8
LAYER_FEATURE
100
AcDbLine
 62
7
  6
CONTINUOUS
 10
14.4108697744
 20
12.5638269332
 11
15.3951384323
 21
12.5638269332
  0
LINE
  5
2E6
100
AcDbEntity
  8
LAYER_FEATURE
100
AcDbLine
 62
7
  6
CONTINUOUS
 10
14.4114860589
 20
12.5902019251
 11
15.3956187843
 21
12.5902019251
  0
LINE
  5
2E7
100
AcDbEntity
  8
LAYER_FEATURE
100
AcDbLine
 62
7
  6
CONTINUOUS
 10
14.4209879782
 20
12.7547685473
 11
15.4045237069
 21
12.7547685473
  0
LINE
  5
2E8
100
AcDbEntity
  8
LAYER_FEATURE
100
AcDbLine
 62
7
  6
CONTINUOUS
 10
14.4233784241
 20
12.7804680322
 11
15.4066479752
 21
12.7804680322
  0
LINE
  5
2E9
100
AcDbEntity
  8
0
100
AcDbLine
 62
7
  6
CONTINUOUS
 10
14.4339883009
 20
12.7966472593
 11
15.4082425981
 21
12.7966472593
  0
LINE
  5
2EA
100
AcDbEntity
  8
LAYER_FEATURE
100
AcDbLine
 62
7
  6
CONTINUOUS
 10
14.4438642767
 20
12.9382974523
 11
15.4256195692
 21
12.9382974523
  0
LINE
  5
2EB
100
AcDbEntity
  8
LAYER_FEATURE
100
AcDbLine
 62
7
  6
CONTINUOUS
 10
14.4479562513
 20
12.9625405642
 11
15.4292777864
 21
12.9625405642
  0
LINE
  5
2EC
100
AcDbEntity
  8
LAYER_FEATURE
100
AcDbLine
 62
7
  6
CONTINUOUS
 10
14.4556252004
 20
12.9751827704
 11
14.4554761904
 21
12.9751775445
  0
LINE
  5
2ED
100
AcDbEntity
  8
LAYER_CUT_FEAT
100
AcDbLine
 62
7
  6
CONTINUOUS
 10
14.4556252004
 20
12.9751827747
 11
15.4314116546
 21
12.9751827747
  0
LINE
  5
2EE
100
AcDbEntity
  8
LAYER_FEATURE
100
AcDbLine
 62
7
  6
CONTINUOUS
 10
14.478803585
 20
13.1088372152
 11
15.4574599459
 21
13.1088372152
  0
LINE
  5
2EF
100
AcDbEntity
  8
LAYER_FEATURE
100
AcDbLine
 62
7
  6
CONTINUOUS
 10
15.4624890625
 20
13.1308873396
 11
14.4844727559
 21
13.1308873396
  0
LINE
  5
2F0
100
AcDbEntity
  8
0
100
AcDbLine
 62
7
  6
CONTINUOUS
 10
14.491476463
 20
13.1402169768
 11
15.464777722
 21
13.1402169768
  0
LINE
  5
2F1
100
AcDbEntity
  8
02___PRT_ALL_AXES
100
AcDbLine
 62
7
  6
CONTINUOUS
 10
15.9008141835
 20
13.3900929493
 11
15.8685114351
 21
13.3835728311
  0
LINE
  5
2F2
100
AcDbEntity
  8
LAYER_FEATURE
100
AcDbLine
 62
7
  6
CONTINUOUS
 10
15.4984338015
 20
13.2612060716
 11
14.52474429
 21
13.2612060716
  0
LINE
  5
2F3
100
AcDbEntity
  8
LAYER_FEATURE
100
AcDbLine
 62
7
  6
CONTINUOUS
 10
14.5318184022
 20
13.2803932266
 11
15.5046123234
 21
13.2803932266
  0
LINE
  5
2F4
100
AcDbEntity
  8
0
100
AcDbLine
 62
7
  6
CONTINUOUS
 10
14.5378589147
 20
13.2867922845
 11
15.5066729061
 21
13.2867922845
  0
LINE
  5
2F5
100
AcDbEntity
  8
02___PRT_ALL_AXES
100
AcDbLine
 62
7
  6
CONTINUOUS
 10
15.9277282872
 20
13.3558049929
 11
16.2841788919
 21
13.3558049929
  0
LINE
  5
2F6
100
AcDbEntity
  8
LAYER_FEATURE
100
AcDbLine
 62
7
  6
CONTINUOUS
 10
14.5802905065
 20
13.390774371
 11
15.5460369068
 21
13.390774371
  0
LINE
  5
2F7
100
AcDbEntity
  8
LAYER_FEATURE
100
AcDbLine
 62
7
  6
CONTINUOUS
 10
14.5885546168
 20
13.4065155645
 11
15.5530435883
 21
13.4065155645
  0
LINE
  5
2F8
100
AcDbEntity
  8
0
100
AcDbLine
 62
7
  6
CONTINUOUS
 10
14.5934483968
 20
13.4104580699
 11
15.5547984666
 21
13.4104580699
  0
LINE
  5
2F9
100
AcDbEntity
  8
LAYER_FEATURE
100
AcDbLine
 62
7
  6
CONTINUOUS
 10
14.643754491
 20
13.4936052461
 11
15.5968703854
 21
13.4936052461
  0
LINE
  5
2FA
100
AcDbEntity
  8
LAYER_FEATURE
100
AcDbLine
 62
7
  6
CONTINUOUS
 10
14.6529574985
 20
13.50542219
 11
15.6036267809
 21
13.50542219
  0
LINE
  5
2FB
100
AcDbEntity
  8
0
100
AcDbLine
 62
7
  6
CONTINUOUS
 10
14.6565558509
 20
13.5074568106
 11
15.6047900852
 21
13.5074568106
  0
LINE
  5
2FC
100
AcDbEntity
  8
LAYER_FEATURE
100
AcDbLine
 62
7
  6
CONTINUOUS
 10
14.7132079223
 20
13.5665742329
 11
15.6443859021
 21
13.5665742329
  0
LINE
  5
2FD
100
AcDbEntity
  8
LAYER_FEATURE
100
AcDbLine
 62
7
  6
CONTINUOUS
 10
14.7230701983
 20
13.5741078753
 11
15.6500613021
 21
13.5741078753
  0
LINE
  5
2FE
100
AcDbEntity
  8
0
100
AcDbLine
 62
7
  6
CONTINUOUS
 10
14.7252637891
 20
13.5748412491
 11
15.6506137825
 21
13.5748412491
  0
LINE
  5
2FF
100
AcDbEntity
  8
LAYER_FEATURE
100
AcDbLine
 62
7
  6
CONTINUOUS
 10
14.7865404931
 20
13.6074642055
 11
15.678324316
 21
13.6074642055
  0
LINE
  5
300
100
AcDbEntity
  8
LAYER_FEATURE
100
AcDbLine
 62
7
  6
CONTINUOUS
 10
14.7967623773
 20
13.6104856405
 11
15.6811343119
 21
13.6104856405
  0
LINE
  5
301
100
AcDbEntity
  8
0
100
AcDbLine
 62
7
  6
CONTINUOUS
 10
14.7974845553
 20
13.6105639432
 11
15.681207135
 21
13.6105639432
  0
LINE
  5
302
100
AcDbEntity
  8
0
100
AcDbLine
 62
7
  6
CONTINUOUS
 10
14.8612694073
 20
13.6150424615
 11
15.6853722482
 21
13.6150424615
  0
LINE
  5
303
100
AcDbEntity
  8
LAYER_CHAMFER_FEAT
100
AcDbLine
 62
7
  6
CONTINUOUS
 10
16.423302594
 20
11.7450438685
 11
16.4709569002
 21
11.802136118
  0
LINE
  5
304
100
AcDbEntity
  8
LAYER_FEATURE
100
AcDbLine
 62
7
  6
CONTINUOUS
 10
14.7974845553
 20
13.6105639363
 11
14.7967623773
 21
13.6104856405
  0
LINE
  5
305
100
AcDbEntity
  8
LAYER_FEATURE
100
AcDbLine
 62
7
  6
CONTINUOUS
 10
14.7589018858
 20
13.7008049929
 11
14.8185056628
 21
13.7008049929
  0
LINE
  5
306
100
AcDbEntity
  8
LAYER_FEATURE
100
AcDbLine
 62
7
  6
CONTINUOUS
 10
15.8579928394
 20
13.7008049929
 11
15.9175966163
 21
13.7008049929
  0
LINE
  5
307
100
AcDbEntity
  8
LAYER_CHAMFER_FEAT
100
AcDbLine
 62
7
  6
CONTINUOUS
 10
16.423302594
 20
13.2765661173
 11
16.4709569002
 21
13.2194738678
  0
CIRCLE
  5
308
100
AcDbEntity
  8
LAYER_FEATURE
100
AcDbCircle
 62
7
  6
CONTINUOUS
 10
15.5603552569
 20
5.4606247044
 40
1.19
  0
CIRCLE
  5
309
100
AcDbEntity
  8
LAYER_FEATURE
100
AcDbCircle
 62
7
  6
CONTINUOUS
 10
15.5603552569
 20
5.4606247044
 40
1.1298852998
  0
CIRCLE
  5
30A
100
AcDbEntity
  8
02___PRT_ALL_AXES
100
AcDbCircle
 62
7
  6
CONTINUOUS
 10
15.5603552569
 20
5.4606247044
 40
0.882
  0
CIRCLE
  5
30B
100
AcDbEntity
  8
LAYER_CHAMFER_FEAT
100
AcDbCircle
 62
7
  6
CONTINUOUS
 10
15.5603552569
 20
5.4606247044
 40
0.845
  0
CIRCLE
  5
30C
100
AcDbEntity
  8
LAYER_CHAMFER_FEAT
100
AcDbCircle
 62
7
  6
CONTINUOUS
 10
15.5603552569
 20
5.4606247044
 40
0.782
  0
CIRCLE
  5
30D
100
AcDbEntity
  8
02___PRT_ALL_AXES
100
AcDbCircle
 62
7
  6
CONTINUOUS
 10
15.5603552569
 20
5.4606247044
 40
0.25
  0
ARC
  5
30E
100
AcDbEntity
  8
LAYER_FEATURE
100
AcDbCircle
 62
7
  6
CONTINUOUS
 10
15.6284090444
 20
12.1537341531
 40
1.1716013048
100
AcDbArc
 50
201.8776554301
 51
202.8382578148
  0
ARC
  5
30F
100
AcDbEntity
  8
LAYER_FEATURE
100
AcDbCircle
 62
7
  6
CONTINUOUS
 10
15.5356956727
 20
11.4659439828
 40
0.8061315836
100
AcDbArc
 50
179.3148552629
 51
180.566535624
  0
ARC
  5
310
100
AcDbEntity
  8
LAYER_FEATURE
100
AcDbCircle
 62
7
  6
CONTINUOUS
 10
15.4316420932
 20
11.478494196
 40
0.7728590502
100
AcDbArc
 50
175.3669420562
 51
176.6551933271
  0
ARC
  5
311
100
AcDbEntity
  8
LAYER_FEATURE
100
AcDbCircle
 62
7
  6
CONTINUOUS
 10
15.571837768
 20
11.4850446822
 40
0.7717398642
100
AcDbArc
 50
183.9337818521
 51
184.5108023836
  0
ARC
  5
312
100
AcDbEntity
  8
LAYER_FEATURE
100
AcDbCircle
 62
7
  6
CONTINUOUS
 10
15.2472996165
 20
11.967918872
 40
0.747261876
100
AcDbArc
 50
209.8852535048
 51
211.1812096209
  0
ARC
  5
313
100
AcDbEntity
  8
LAYER_FEATURE
100
AcDbCircle
 62
7
  6
CONTINUOUS
 10
15.2749098399
 20
11.5306205093
 40
0.6845757518
100
AcDbArc
 50
171.1680452734
 51
172.5658142859
  0
ARC
  5
314
100
AcDbEntity
  8
LAYER_FEATURE
100
AcDbCircle
 62
7
  6
CONTINUOUS
 10
15.0854550688
 20
11.6264011468
 40
0.5580228337
100
AcDbArc
 50
166.4519470476
 51
168.0550201253
  0
ARC
  5
315
100
AcDbEntity
  8
LAYER_FEATURE
100
AcDbCircle
 62
7
  6
CONTINUOUS
 10
14.9944150375
 20
11.7883109411
 40
0.4366009079
100
AcDbArc
 50
221.0108099323
 51
222.8646639848
  0
ARC
  5
316
100
AcDbEntity
  8
LAYER_FEATURE
100
AcDbCircle
 62
7
  6
CONTINUOUS
 10
14.8894624812
 20
11.7648709494
 40
0.4159915062
100
AcDbArc
 50
160.837422966
 51
162.7889190102
  0
ARC
  5
317
100
AcDbEntity
  8
LAYER_FEATURE
100
AcDbCircle
 62
7
  6
CONTINUOUS
 10
14.713075991
 20
11.9395295166
 40
0.2816431281
100
AcDbArc
 50
153.7194048092
 51
156.2527239764
  0
ARC
  5
318
100
AcDbEntity
  8
LAYER_FEATURE
100
AcDbCircle
 62
7
  6
CONTINUOUS
 10
14.8718151627
 20
11.6491169936
 40
0.2505163802
100
AcDbArc
 50
237.133638818
 51
239.8190526141
  0
ARC
  5
319
100
AcDbEntity
  8
LAYER_FEATURE
100
AcDbCircle
 62
7
  6
CONTINUOUS
 10
14.5335363242
 20
11.4779308618
 40
0.1960994503
100
AcDbArc
 50
359.3141381243
 51
2.4710425665
  0
ARC
  5
31A
100
AcDbEntity
  8
LAYER_FEATURE
100
AcDbCircle
 62
7
  6
CONTINUOUS
 10
14.4700995895
 20
11.5563717525
 40
0.1918320445
100
AcDbArc
 50
355.3802537338
 51
358.5848447595
  0
ARC
  5
31B
100
AcDbEntity
  8
LAYER_FEATURE
100
AcDbCircle
 62
7
  6
CONTINUOUS
 10
14.4268477511
 20
11.6622952458
 40
0.1736477497
100
AcDbArc
 50
351.1995296328
 51
354.6242238699
  0
ARC
  5
31C
100
AcDbEntity
  8
LAYER_FEATURE
100
AcDbCircle
 62
7
  6
CONTINUOUS
 10
14.8414414969
 20
11.5783689969
 40
0.173096487
100
AcDbArc
 50
259.520374576
 51
262.9607320031
  0
ARC
  5
31D
100
AcDbEntity
  8
LAYER_FEATURE
100
AcDbCircle
 62
7
  6
CONTINUOUS
 10
14.5761947886
 20
12.1391531428
 40
0.1729558565
100
AcDbArc
 50
144.082385252
 51
147.5919241621
  0
ARC
  5
31E
100
AcDbEntity
  8
LAYER_FEATURE
100
AcDbCircle
 62
7
  6
CONTINUOUS
 10
14.5734461626
 20
11.4796362846
 40
0.156153195
100
AcDbArc
 50
2.4772267153
 51
3.7142905064
  0
ARC
  5
31F
100
AcDbEntity
  8
LAYER_FEATURE
100
AcDbCircle
 62
7
  6
CONTINUOUS
 10
14.4021173853
 20
11.790915719
 40
0.1448395372
100
AcDbArc
 50
346.5083058119
 51
350.3735081239
  0
ARC
  5
320
100
AcDbEntity
  8
LAYER_FEATURE
100
AcDbCircle
 62
7
  6
CONTINUOUS
 10
14.4285309206
 20
12.4009098799
 40
0.0486148657
100
AcDbArc
 50
261.060210688
 51
265.0937546056
  0
ARC
  5
321
100
AcDbEntity
  8
LAYER_FEATURE
100
AcDbCircle
 62
7
  6
CONTINUOUS
 10
14.6956660386
 20
11.5215096949
 40
0.0356270067
100
AcDbArc
 50
176.6582374083
 51
180.621085208
  0
ARC
  5
322
100
AcDbEntity
  8
LAYER_FEATURE
100
AcDbCircle
 62
7
  6
CONTINUOUS
 10
14.76504452
 20
11.4583199372
 40
0.0354427196
100
AcDbArc
 50
180.5606087234
 51
184.5285222113
  0
ARC
  5
323
100
AcDbEntity
  8
LAYER_FEATURE
100
AcDbCircle
 62
7
  6
CONTINUOUS
 10
14.6289346809
 20
11.6149173301
 40
0.0331236362
100
AcDbArc
 50
172.5784055582
 51
176.7478552277
  0
ARC
  5
324
100
AcDbEntity
  8
LAYER_FEATURE
100
AcDbCircle
 62
7
  6
CONTINUOUS
 10
14.8349948733
 20
11.426903127
 40
0.0326066631
100
AcDbArc
 50
184.4915738448
 51
188.6772113929
  0
ARC
  5
325
100
AcDbEntity
  8
LAYER_FEATURE
100
AcDbCircle
 62
7
  6
CONTINUOUS
 10
15.7578136399
 20
12.8174833828
 40
1.3104769537
100
AcDbArc
 50
159.3145253119
 51
160.2086219522
  0
ARC
  5
326
100
AcDbEntity
  8
LAYER_FEATURE
100
AcDbCircle
 62
7
  6
CONTINUOUS
 10
15.3459576162
 20
12.9988398551
 40
0.8601504448
100
AcDbArc
 50
151.7084331143
 51
152.8927145723
  0
ARC
  5
327
100
AcDbEntity
  8
LAYER_FEATURE
100
AcDbCircle
 62
7
  6
CONTINUOUS
 10
15.5829291932
 20
13.5699211256
 40
0.8037779578
100
AcDbArc
 50
178.6341841933
 51
179.2560710803
  0
ARC
  5
328
100
AcDbEntity
  8
LAYER_FEATURE
100
AcDbCircle
 62
7
  6
CONTINUOUS
 10
15.4970308592
 20
13.5802866748
 40
0.7904076265
100
AcDbArc
 50
182.538721663
 51
183.1673859334
  0
ARC
  5
329
100
AcDbEntity
  8
LAYER_FEATURE
100
AcDbCircle
 62
7
  6
CONTINUOUS
 10
15.3533906206
 20
13.5523632964
 40
0.7186473076
100
AcDbArc
 50
186.5778339052
 51
187.2474459678
  0
ARC
  5
32A
100
AcDbEntity
  8
LAYER_FEATURE
100
AcDbCircle
 62
7
  6
CONTINUOUS
 10
15.1688761805
 20
13.480414602
 40
0.6022419166
100
AcDbArc
 50
190.9847652574
 51
191.7378193515
  0
ARC
  5
32B
100
AcDbEntity
  8
LAYER_FEATURE
100
AcDbCircle
 62
7
  6
CONTINUOUS
 10
15.0537048513
 20
13.1838290045
 40
0.5138293664
100
AcDbArc
 50
141.2535280113
 51
142.9237265516
  0
ARC
  5
32C
100
AcDbEntity
  8
LAYER_FEATURE
100
AcDbCircle
 62
7
  6
CONTINUOUS
 10
14.9647292005
 20
13.3622767958
 40
0.4587892061
100
AcDbArc
 50
196.0668682895
 51
196.9718116044
  0
ARC
  5
32D
100
AcDbEntity
  8
LAYER_FEATURE
100
AcDbCircle
 62
7
  6
CONTINUOUS
 10
14.7788800208
 20
13.2056762174
 40
0.3233937241
100
AcDbArc
 50
202.3055756297
 51
203.4445025504
  0
ARC
  5
32E
100
AcDbEntity
  8
LAYER_FEATURE
100
AcDbCircle
 62
7
  6
CONTINUOUS
 10
14.8955592164
 20
13.338080689
 40
0.292337637
100
AcDbArc
 50
126.1593900958
 51
128.5919269985
  0
ARC
  5
32F
100
AcDbEntity
  8
LAYER_FEATURE
100
AcDbCircle
 62
7
  6
CONTINUOUS
 10
14.6230531181
 20
13.0170275819
 40
0.2048437768
100
AcDbArc
 50
210.4614933078
 51
212.0050405946
  0
ARC
  5
330
100
AcDbEntity
  8
LAYER_FEATURE
100
AcDbCircle
 62
7
  6
CONTINUOUS
 10
14.585492786
 20
13.5828660089
 40
0.1937424463
100
AcDbArc
 50
357.6256212772
 51
359.2580132364
  0
ARC
  5
331
100
AcDbEntity
  8
LAYER_FEATURE
100
AcDbCircle
 62
7
  6
CONTINUOUS
 10
14.515174823
 20
13.5259320644
 40
0.1929513833
100
AcDbArc
 50
354.5039555384
 51
3.1736002922
  0
ARC
  5
332
100
AcDbEntity
  8
LAYER_FEATURE
100
AcDbCircle
 62
7
  6
CONTINUOUS
 10
14.8442831586
 20
13.4309153661
 40
0.1857517379
100
AcDbArc
 50
104.8227447329
 51
108.1110268576
  0
ARC
  5
333
100
AcDbEntity
  8
LAYER_FEATURE
100
AcDbCircle
 62
7
  6
CONTINUOUS
 10
14.3742223869
 20
13.1841380356
 40
0.157901508
100
AcDbArc
 50
358.3819233726
 51
4.2931978496
  0
ARC
  5
334
100
AcDbEntity
  8
LAYER_FEATURE
100
AcDbCircle
 62
7
  6
CONTINUOUS
 10
14.4267266629
 20
13.3223025932
 40
0.1559868874
100
AcDbArc
 50
354.4526598833
 51
0.4122885225
  0
ARC
  5
335
100
AcDbEntity
  8
LAYER_FEATURE
100
AcDbCircle
 62
7
  6
CONTINUOUS
 10
14.5140230975
 20
12.81065377
 40
0.1191239563
100
AcDbArc
 50
221.8340827457
 51
224.0489877456
  0
ARC
  5
336
100
AcDbEntity
  8
LAYER_FEATURE
100
AcDbCircle
 62
7
  6
CONTINUOUS
 10
14.4527293275
 20
12.6009624728
 40
0.068663703
100
AcDbArc
 50
238.3277284293
 51
241.5267778477
  0
ARC
  5
337
100
AcDbEntity
  8
LAYER_FEATURE
100
AcDbCircle
 62
7
  6
CONTINUOUS
 10
14.4339887446
 20
12.7489737263
 40
0.0476735331
100
AcDbArc
 50
90.0005332376
 51
93.7336939008
  0
ARC
  5
338
100
AcDbEntity
  8
LAYER_FEATURE
100
AcDbCircle
 62
7
  6
CONTINUOUS
 10
14.7431721285
 20
13.5468590392
 40
0.0358081351
100
AcDbArc
 50
176.7114417861
 51
182.5339372347
  0
ARC
  5
339
100
AcDbEntity
  8
LAYER_FEATURE
100
AcDbCircle
 62
7
  6
CONTINUOUS
 10
14.6739521753
 20
13.4739774464
 40
0.0347021986
100
AcDbArc
 50
180.5689243011
 51
186.5146830119
  0
ARC
  5
33A
100
AcDbEntity
  8
LAYER_FEATURE
100
AcDbCircle
 62
7
  6
CONTINUOUS
 10
14.813551752
 20
13.5882964208
 40
0.0341811314
100
AcDbArc
 50
172.6806935173
 51
178.6868271348
  0
ARC
  5
33B
100
AcDbEntity
  8
LAYER_FEATURE
100
AcDbCircle
 62
7
  6
CONTINUOUS
 10
14.4385535822
 20
12.808791621
 40
0.0123365386
100
AcDbArc
 50
279.9334211682
 51
285.9739744467
  0
ARC
  5
33C
100
AcDbEntity
  8
LAYER_FEATURE
100
AcDbCircle
 62
7
  6
CONTINUOUS
 10
16.9652690865
 20
12.4895110079
 40
2.5539926543
100
AcDbArc
 50
186.3217476442
 51
186.8937002825
  0
ARC
  5
33D
100
AcDbEntity
  8
LAYER_FEATURE
100
AcDbCircle
 62
7
  6
CONTINUOUS
 10
16.5691608697
 20
12.4279265044
 40
2.1530302899
100
AcDbArc
 50
190.6983341791
 51
191.3390554156
  0
ARC
  5
33E
100
AcDbEntity
  8
LAYER_FEATURE
100
AcDbCircle
 62
7
  6
CONTINUOUS
 10
16.0941207834
 20
12.3141181982
 40
1.6643918247
100
AcDbArc
 50
195.7312235873
 51
196.4916398453
  0
ARC
  5
33F
100
AcDbEntity
  8
LAYER_FEATURE
100
AcDbCircle
 62
7
  6
CONTINUOUS
 10
17.235313825
 20
12.511024972
 40
2.8249375643
100
AcDbArc
 50
178.393911615
 51
178.9290008551
  0
ARC
  5
340
100
AcDbEntity
  8
LAYER_FEATURE
100
AcDbCircle
 62
7
  6
CONTINUOUS
 10
17.2036624323
 20
12.5094785216
 40
2.7932664361
100
AcDbArc
 50
182.2970510658
 51
182.8360182019
  0
ARC
  5
341
100
AcDbEntity
  8
LAYER_FEATURE
100
AcDbCircle
 62
7
  6
CONTINUOUS
 10
17.0536376306
 20
12.5228527074
 40
2.6428448969
100
AcDbArc
 50
174.4061242794
 51
174.9656856758
  0
ARC
  5
342
100
AcDbEntity
  8
LAYER_FEATURE
100
AcDbCircle
 62
7
  6
CONTINUOUS
 10
16.6961967032
 20
12.5705950344
 40
2.2821495191
100
AcDbArc
 50
170.1107645072
 51
170.7280257326
  0
ARC
  5
343
100
AcDbEntity
  8
LAYER_FEATURE
100
AcDbCircle
 62
7
  6
CONTINUOUS
 10
16.2349752673
 20
12.6690726368
 40
1.8103954988
100
AcDbArc
 50
165.2210519145
 51
165.9415992747
  0
SPLINE
  5
344
100
AcDbEntity
  8
LAYER_CHAMFER_FEAT
100
AcDbSpline
 62
7
  6
CONTINUOUS
 70
0
 71
3
 72
60
 73
56
 74
0
 42
0.0000001
 43
0.0000001
 44
0.0000000001
 40
0.0
 40
0.0
 40
0.0
 40
0.0
 40
0.010161397
 40
0.0206685928
 40
0.0315252899
 40
0.0427335077
 40
0.0542937101
 40
0.0662049654
 40
0.0784650761
 40
0.0910706631
 40
0.1040172762
 40
0.1172994955
 40
0.1309109883
 40
0.1448445801
 40
0.1590923373
 40
0.1736456096
 40
0.1884950725
 40
0.203630797
 40
0.2190422857
 40
0.2347184966
 40
0.2506479022
 40
0.2668185229
 40
0.2832179425
 40
0.2998333555
 40
0.3166516001
 40
0.3336591721
 40
0.3681859762
 40
0.4033009534
 40
0.4388867715
 40
0.474823233
 40
0.5109880434
 40
0.5472575502
 40
0.5835074852
 40
0.619613695
 40
0.6554528766
 40
0.6909033107
 40
0.7258456214
 40
0.7430901585
 40
0.7601643646
 40
0.7770543202
 40
0.7937464113
 40
0.810227345
 40
0.8264841733
 40
0.8425043395
 40
0.8582757002
 40
0.8737865472
 40
0.8890256598
 40
0.9039823408
 40
0.9186464346
 40
0.9330083834
 40
0.9470593174
 40
0.960790984
 40
0.9741958578
 40
0.9872677029
 40
1.0
 40
1.0
 40
1.0
 40
1.0
 10
16.4709569002
 20
11.8021361182
 30
0.0
 10
16.4739307384
 20
11.8056989233
 30
0.0
 10
16.4798299287
 20
11.8130718829
 30
0.0
 10
16.4883920996
 20
11.8246511208
 30
0.0
 10
16.4968063933
 20
11.8369224873
 30
0.0
 10
16.5050642323
 20
11.8498734328
 30
0.0
 10
16.5131574719
 20
11.8634910225
 30
0.0
 10
16.5210780216
 20
11.877761566
 30
0.0
 10
16.528817941
 20
11.8926707502
 30
0.0
 10
16.5363694785
 20
11.9082035871
 30
0.0
 10
16.5437250621
 20
11.9243444549
 30
0.0
 10
16.5508772797
 20
11.9410771258
 30
0.0
 10
16.5578189321
 20
11.9583847586
 30
0.0
 10
16.5645430411
 20
11.9762499196
 30
0.0
 10
16.5710428164
 20
11.9946546183
 30
0.0
 10
16.577311693
 20
12.013580312
 30
0.0
 10
16.5833433615
 20
12.0330079174
 30
0.0
 10
16.5891317268
 20
12.0529178492
 30
0.0
 10
16.5946709285
 20
12.0732900331
 30
0.0
 10
16.599955388
 20
12.0941039147
 30
0.0
 10
16.6049797657
 20
12.1153384962
 30
0.0
 10
16.6097389671
 20
12.1369723553
 30
0.0
 10
16.6142281966
 20
12.1589836606
 30
0.0
 10
16.6184429154
 20
12.1813501831
 30
0.0
 10
16.6223788705
 20
12.2040493985
 30
0.0
 10
16.6272741126
 20
12.2348815184
 30
0.0
 10
16.6326589744
 20
12.2740926837
 30
0.0
 10
16.6379199793
 20
12.3218679703
 30
0.0
 10
16.6419906778
 20
12.3704054573
 30
0.0
 10
16.6448545738
 20
12.4195091576
 30
0.0
 10
16.6465000259
 20
12.4689811142
 30
0.0
 10
16.646920384
 20
12.5186217653
 30
0.0
 10
16.6461139354
 20
12.5682308916
 30
0.0
 10
16.6440839385
 20
12.6176083721
 30
0.0
 10
16.6408386527
 20
12.6665551244
 30
0.0
 10
16.6363912132
 20
12.7148735001
 30
0.0
 10
16.6316779171
 20
12.75462524
 30
0.0
 10
16.6273126028
 20
12.7859557549
 30
0.0
 10
16.6237650838
 20
12.8090735524
 30
0.0
 10
16.6199334156
 20
12.831890138
 30
0.0
 10
16.6158214663
 20
12.8543825292
 30
0.0
 10
16.6114334007
 20
12.8765280108
 30
0.0
 10
16.6067736365
 20
12.8983042311
 30
0.0
 10
16.601846895
 20
12.9196892156
 30
0.0
 10
16.5966581627
 20
12.9406613882
 30
0.0
 10
16.591212667
 20
12.9611995848
 30
0.0
 10
16.5855159139
 20
12.9812830893
 30
0.0
 10
16.5795736694
 20
13.0008916503
 30
0.0
 10
16.5733919218
 20
13.020005489
 30
0.0
 10
16.566976908
 20
13.0386053444
 30
0.0
 10
16.5603351098
 20
13.0566724713
 30
0.0
 10
16.5534732407
 20
13.0741886255
 30
0.0
 10
16.5463981483
 20
13.0911363395
 30
0.0
 10
16.5391170588
 20
13.1074982221
 30
0.0
 10
16.5340633505
 20
13.1181463363
 30
0.0
 10
16.5315015994
 20
13.1233666362
 30
0.0
  0
SPLINE
  5
345
100
AcDbEntity
  8
02___PRT_ALL_AXES
100
AcDbSpline
 62
7
  6
CONTINUOUS
 70
0
 71
3
 72
21
 73
17
 74
0
 42
0.0000001
 43
0.0000001
 44
0.0000000001
 40
0.0
 40
0.0
 40
0.0
 40
0.0
 40
0.1392354072
 40
0.2722843343
 40
0.3367755659
 40
0.4000618031
 40
0.4622774212
 40
0.5235660692
 40
0.58408006
 40
0.6439792629
 40
0.7034298265
 40
0.762602653
 40
0.8216716291
 40
0.8808117872
 40
0.9401973875
 40
1.0
 40
1.0
 40
1.0
 40
1.0
 10
16.0259352672
 20
11.6656276437
 30
0.0
 10
16.0210028009
 20
11.6618482232
 30
0.0
 10
16.0110590378
 20
11.6548347909
 30
0.0
 10
15.9980336582
 20
11.6472886782
 30
0.0
 10
15.9875552605
 20
11.6422090231
 30
0.0
 10
15.9797444976
 20
11.6388992572
 30
0.0
 10
15.9719052292
 20
11.6360522924
 30
0.0
 10
15.9640415071
 20
11.633669792
 30
0.0
 10
15.9561576359
 20
11.6317532036
 30
0.0
 10
15.9482579171
 20
11.6303037231
 30
0.0
 10
15.9403467204
 20
11.6293222804
 30
0.0
 10
15.9324284481
 20
11.6288094741
 30
0.0
 10
15.9245075566
 20
11.6287656824
 30
0.0
 10
15.9165884013
 20
11.6291908845
 30
0.0
 10
15.9086757575
 20
11.6300848182
 30
0.0
 10
15.903430361
 20
11.6309889751
 30
0.0
 10
15.9008141835
 20
11.6315170368
 30
0.0
  0
SPLINE
  5
346
100
AcDbEntity
  8
LAYER_CHAMFER_FEAT
100
AcDbSpline
 62
7
  6
CONTINUOUS
 70
0
 71
3
 72
23
 73
19
 74
0
 42
0.0000001
 43
0.0000001
 44
0.0000000001
 40
0.0
 40
0.0
 40
0.0
 40
0.0
 40
0.0756512531
 40
0.1491004477
 40
0.2204005837
 40
0.2896161559
 40
0.3568243523
 40
0.4221155295
 40
0.4855943087
 40
0.5473801274
 40
0.6076076484
 40
0.666427196
 40
0.7240043199
 40
0.7805193815
 40
0.8361662976
 40
0.8911507673
 40
0.9456880448
 40
1.0
 40
1.0
 40
1.0
 40
1.0
 10
16.4233025936
 20
13.2765661153
 30
0.0
 10
16.4206302237
 20
13.2797677427
 30
0.0
 10
16.4152538962
 20
13.2859876398
 30
0.0
 10
16.4069709988
 20
13.2948804203
 30
0.0
 10
16.3985958818
 20
13.3031905584
 30
0.0
 10
16.3901346895
 20
13.3109116544
 30
0.0
 10
16.3815935472
 20
13.3180379817
 30
0.0
 10
16.3729785848
 20
13.3245640833
 30
0.0
 10
16.3642960295
 20
13.3304849624
 30
0.0
 10
16.3555521662
 20
13.3357960139
 30
0.0
 10
16.3467533154
 20
13.3404929575
 30
0.0
 10
16.3379059547
 20
13.3445720206
 30
0.0
 10
16.3290166099
 20
13.3480297205
 30
0.0
 10
16.3200919637
 20
13.3508630816
 30
0.0
 10
16.3111388814
 20
13.3530695855
 30
0.0
 10
16.3021641538
 20
13.3546471309
 30
0.0
 10
16.2931754657
 20
13.3555943067
 30
0.0
 10
16.2871729058
 20
13.3558049816
 30
0.0
 10
16.2841788919
 20
13.3558049871
 30
0.0
  0
SPLINE
  5
347
100
AcDbEntity
  8
02___PRT_ALL_AXES
100
AcDbSpline
 62
7
  6
CONTINUOUS
 70
0
 71
3
 72
22
 73
18
 74
0
 42
0.0000001
 43
0.0000001
 44
0.0000000001
 40
0.0
 40
0.0
 40
0.0
 40
0.0
 40
0.0597868897
 40
0.119156464
 40
0.1782808332
 40
0.237334747
 40
0.2964937378
 40
0.3559321975
 40
0.4158214573
 40
0.4763281148
 40
0.5376124016
 40
0.5998269523
 40
0.6631157338
 40
0.7276132721
 40
0.793444252
 40
0.8607230933
 40
1.0
 40
1.0
 40
1.0
 40
1.0
 10
15.9008141836
 20
13.3900929431
 30
0.0
 10
15.9034344453
 20
13.3906218244
 30
0.0
 10
15.9086880565
 20
13.3915271889
 30
0.0
 10
15.9166131622
 20
13.3924213867
 30
0.0
 10
15.9245447799
 20
13.3928454603
 30
0.0
 10
15.932478121
 20
13.3927989844
 30
0.0
 10
15.9404088081
 20
13.392282091
 30
0.0
 10
15.9483323567
 20
13.3912950318
 30
0.0
 10
15.9562443533
 20
13.3898385124
 30
0.0
 10
15.9641404
 20
13.3879134041
 30
0.0
 10
15.9720161709
 20
13.3855209434
 30
0.0
 10
15.979867379
 20
13.3826625823
 30
0.0
 10
15.9876898176
 20
13.3793400195
 30
0.0
 10
15.9954792635
 20
13.375555275
 30
0.0
 10
16.0032318465
 20
13.3713103192
 30
0.0
 10
16.013632317
 20
13.3649680015
 30
0.0
 10
16.021186201
 20
13.3596290732
 30
0.0
 10
16.0261252801
 20
13.3558366009
 30
0.0
  0
SPLINE
  5
348
100
AcDbEntity
  8
LAYER_CHAMFER_FEAT
100
AcDbSpline
 62
7
  6
CONTINUOUS
 70
0
 71
3
 72
23
 73
19
 74
0
 42
0.0000001
 43
0.0000001
 44
0.0000000001
 40
0.0
 40
0.0
 40
0.0
 40
0.0
 40
0.0543119539
 40
0.1088492237
 40
0.1638337081
 40
0.2194806048
 40
0.2759956757
 40
0.3335728064
 40
0.3923923246
 40
0.4526198861
 40
0.5144056648
 40
0.5778844617
 40
0.6431756499
 40
0.7103838039
 40
0.7795994317
 40
0.8508995144
 40
0.9243487347
 40
1.0
 40
1.0
 40
1.0
 40
1.0
 10
16.2841788919
 20
11.6658049987
 30
0.0
 10
16.2871729058
 20
11.6658049932
 30
0.0
 10
16.293175464
 20
11.6660156998
 30
0.0
 10
16.3021641572
 20
11.6669628313
 30
0.0
 10
16.3111388767
 20
11.6685404223
 30
0.0
 10
16.3200919671
 20
11.6707468905
 30
0.0
 10
16.32901661
 20
11.6735802664
 30
0.0
 10
16.3379059492
 20
11.6770379758
 30
0.0
 10
16.3467533249
 20
11.6811170109
 30
0.0
 10
16.3555521555
 20
11.6858139891
 30
0.0
 10
16.3642960367
 20
11.6911250124
 30
0.0
 10
16.3729785841
 20
11.6970459039
 30
0.0
 10
16.3815935403
 20
11.7035720113
 30
0.0
 10
16.3901347015
 20
11.7106983192
 30
0.0
 10
16.3985958686
 20
11.7184194397
 30
0.0
 10
16.4069710084
 20
11.7267295569
 30
0.0
 10
16.4152538916
 20
11.7356223501
 30
0.0
 10
16.4206302278
 20
11.7418422426
 30
0.0
 10
16.4233025928
 20
11.745043875
 30
0.0
  0
SPLINE
  5
349
100
AcDbEntity
  8
LAYER_FEATURE
100
AcDbSpline
 62
7
  6
CONTINUOUS
 70
0
 71
3
 72
23
 73
19
 74
0
 42
0.0000001
 43
0.0000001
 44
0.0000000001
 40
0.0
 40
0.0
 40
0.0
 40
0.0
 40
0.0558555744
 40
0.1118882625
 40
0.1682731162
 40
0.2251811459
 40
0.2827775131
 40
0.3412200593
 40
0.4006579355
 40
0.4612308154
 40
0.5230681238
 40
0.5862887478
 40
0.6510009618
 40
0.7173023594
 40
0.7852803412
 40
0.8550122079
 40
0.9265658213
 40
1.0
 40
1.0
 40
1.0
 40
1.0
 10
14.8185056628
 20
13.7008049925
 30
0.0
 10
14.8221899036
 20
13.7008049899
 30
0.0
 10
14.829572053
 20
13.7005786522
 30
0.0
 10
14.8406311578
 20
13.6995609473
 30
0.0
 10
14.8516773614
 20
13.6978655573
 30
0.0
 10
14.8627035177
 20
13.6954936436
 30
0.0
 10
14.8737032707
 20
13.6924468652
 30
0.0
 10
14.8846701292
 20
13.6887271838
 30
0.0
 10
14.8955977948
 20
13.6843370961
 30
0.0
 10
14.9064799989
 20
13.6792793448
 30
0.0
 10
14.9173105938
 20
13.6735571111
 30
0.0
 10
14.9280835043
 20
13.6671739015
 30
0.0
 10
14.9387926885
 20
13.6601335181
 30
0.0
 10
14.9494322292
 20
13.6524401808
 30
0.0
 10
14.9599961679
 20
13.6440983514
 30
0.0
 10
14.9704787159
 20
13.6351128678
 30
0.0
 10
14.9808738878
 20
13.6254890397
 30
0.0
 10
14.9876527989
 20
13.618739961
 30
0.0
 10
14.9910267565
 20
13.6152646034
 30
0.0
  0
SPLINE
  5
34A
100
AcDbEntity
  8
LAYER_FEATURE
100
AcDbSpline
 62
7
  6
CONTINUOUS
 70
0
 71
3
 72
23
 73
19
 74
0
 42
0.0000001
 43
0.0000001
 44
0.0000000001
 40
0.0
 40
0.0
 40
0.0
 40
0.0
 40
0.055853583
 40
0.1118843386
 40
0.1682673841
 40
0.2251737717
 40
0.2827687334
 40
0.34121014
 40
0.4006471915
 40
0.4612196078
 40
0.5230568144
 40
0.5862777626
 40
0.6509907004
 40
0.7172932672
 40
0.7852728616
 40
0.8550067701
 40
0.9265628975
 40
1.0
 40
1.0
 40
1.0
 40
1.0
 10
14.8185056628
 20
11.3208049933
 30
0.0
 10
14.822190598
 20
11.3208049907
 30
0.0
 10
14.8295741435
 20
11.3210314259
 30
0.0
 10
14.8406353364
 20
11.3220495006
 30
0.0
 10
14.8516836165
 20
11.3237455467
 30
0.0
 10
14.8627118434
 20
11.3261183412
 30
0.0
 10
14.8737136456
 20
11.3291662784
 30
0.0
 10
14.8846825382
 20
11.3328873559
 30
0.0
 10
14.8956122165
 20
11.3372790897
 30
0.0
 10
14.9064964003
 20
11.3423387484
 30
0.0
 10
14.9173289573
 20
11.3480631141
 30
0.0
 10
14.9281037835
 20
11.3544487211
 30
0.0
 10
14.9388148596
 20
11.3614917231
 30
0.0
 10
14.9494562469
 20
11.3691879253
 30
0.0
 10
14.9600219884
 20
11.377532854
 30
0.0
 10
14.9705063033
 20
11.3865216574
 30
0.0
 10
14.9809031774
 20
11.3961490474
 30
0.0
 10
14.9876831715
 20
11.402900586
 30
0.0
 10
14.9910576572
 20
11.4063772127
 30
0.0
  0
SPLINE
  5
34B
100
AcDbEntity
  8
LAYER_FEATURE
100
AcDbSpline
 62
7
  6
CONTINUOUS
 70
0
 71
3
 72
39
 73
35
 74
0
 42
0.0000001
 43
0.0000001
 44
0.0000000001
 40
0.0
 40
0.0
 40
0.0
 40
0.0
 40
0.0225745588
 40
0.0452241239
 40
0.0680227785
 40
0.0910428251
 40
0.1143539811
 40
0.1380227092
 40
0.1621117011
 40
0.1866794286
 40
0.2117799406
 40
0.2374626835
 40
0.2637724701
 40
0.2907495858
 40
0.3184298255
 40
0.346844752
 40
0.3760218538
 40
0.4059847519
 40
0.4367535088
 40
0.4683447513
 40
0.5007719922
 40
0.5340458111
 40
0.5681740227
 40
0.6031619658
 40
0.6390125665
 40
0.6757265894
 40
0.7133027725
 40
0.7517379085
 40
0.7910270799
 40
0.8311636646
 40
0.8721395123
 40
0.9139450456
 40
0.9565692767
 40
1.0
 40
1.0
 40
1.0
 40
1.0
 10
15.9175966163
 20
13.7008049862
 30
0.0
 10
15.9213682053
 20
13.7008049825
 30
0.0
 10
15.928926045
 20
13.7005677769
 30
0.0
 10
15.9402476346
 20
13.6995011023
 30
0.0
 10
15.9515553492
 20
13.6977242406
 30
0.0
 10
15.9628415104
 20
13.6952384339
 30
0.0
 10
15.9740992791
 20
13.692045482
 30
0.0
 10
15.9853217282
 20
13.6881476495
 30
0.0
 10
15.9965020598
 20
13.6835475536
 30
0.0
 10
16.00763361
 20
13.6782483292
 30
0.0
 10
16.0187097737
 20
13.6722534045
 30
0.0
 10
16.0297240438
 20
13.6655666245
 30
0.0
 10
16.0406700075
 20
13.6581922234
 30
0.0
 10
16.0515412608
 20
13.6501347286
 30
0.0
 10
16.0623315205
 20
13.6413991179
 30
0.0
 10
16.073034503
 20
13.6319906701
 30
0.0
 10
16.0836439825
 20
13.6219150506
 30
0.0
 10
16.0941538125
 20
13.6111783219
 30
0.0
 10
16.1045578279
 20
13.5997868617
 30
0.0
 10
16.1148499835
 20
13.5877474814
 30
0.0
 10
16.1250242419
 20
13.5750673269
 30
0.0
 10
16.1350746227
 20
13.5617539207
 30
0.0
 10
16.1449952505
 20
13.5478151834
 30
0.0
 10
16.1547802467
 20
13.5332593609
 30
0.0
 10
16.1644238686
 20
13.5180951051
 30
0.0
 10
16.1739204149
 20
13.502331408
 30
0.0
 10
16.1832642518
 20
13.4859776147
 30
0.0
 10
16.1924498814
 20
13.4690434465
 30
0.0
 10
16.2014718256
 20
13.4515389409
 30
0.0
 10
16.2103247556
 20
13.4334745003
 30
0.0
 10
16.2190034164
 20
13.414860859
 30
0.0
 10
16.227502638
 20
13.3957090483
 30
0.0
 10
16.2358173787
 20
13.3760305331
 30
0.0
 10
16.2411845588
 20
13.3626916129
 30
0.0
 10
16.2438376829
 20
13.3559379731
 30
0.0
  0
SPLINE
  5
34C
100
AcDbEntity
  8
LAYER_FEATURE
100
AcDbSpline
 62
7
  6
CONTINUOUS
 70
0
 71
3
 72
39
 73
35
 74
0
 42
0.0000001
 43
0.0000001
 44
0.0000000001
 40
0.0
 40
0.0
 40
0.0
 40
0.0
 40
0.0225731583
 40
0.0452213398
 40
0.068018652
 40
0.0910374028
 40
0.1143473369
 40
0.138014928
 40
0.1621028669
 40
0.1866696623
 40
0.211769341
 40
0.237451376
 40
0.2637605853
 40
0.29073723
 40
0.3184171496
 40
0.3468318661
 40
0.3760088867
 40
0.4059718396
 40
0.436740745
 40
0.4683322782
 40
0.5007599052
 40
0.5340342131
 40
0.5681630311
 40
0.6031516445
 40
0.6390030277
 40
0.6757179005
 40
0.7132949971
 40
0.7517311323
 40
0.7910213294
 40
0.8311590094
 40
0.8721359895
 40
0.9139426712
 40
0.956568077
 40
1.0
 40
1.0
 40
1.0
 40
1.0
 10
15.9175966163
 20
11.3208049996
 30
0.0
 10
15.9213687883
 20
11.3208049959
 30
0.0
 10
15.9289277998
 20
11.3210422983
 30
0.0
 10
15.9402511447
 20
11.322109271
 30
0.0
 10
15.9515606
 20
11.3238867141
 30
0.0
 10
15.9628485006
 20
11.3263732677
 30
0.0
 10
15.9741079904
 20
11.3295672123
 30
0.0
 10
15.9853321385
 20
11.3334662615
 30
0.0
 10
15.9965141663
 20
11.3380677504
 30
0.0
 10
16.0076473666
 20
11.3433686294
 30
0.0
 10
16.0187251745
 20
11.3493653805
 30
0.0
 10
16.0297410532
 20
11.3560542103
 30
0.0
 10
16.0406885827
 20
11.3634308795
 30
0.0
 10
16.0515613943
 20
11.3714908117
 30
0.0
 10
16.0623531441
 20
11.3802290969
 30
0.0
 10
16.0730575988
 20
11.3896403908
 30
0.0
 10
16.0836685044
 20
11.3997190552
 30
0.0
 10
16.0941796978
 20
11.4104590322
 30
0.0
 10
16.1045850605
 20
11.4218539002
 30
0.0
 10
16.1148784803
 20
11.4338968958
 30
0.0
 10
16.1250539684
 20
11.4465808285
 30
0.0
 10
16.1351055253
 20
11.4598981851
 30
0.0
 10
16.145027249
 20
11.4738410538
 30
0.0
 10
16.154813313
 20
11.4884011512
 30
0.0
 10
16.16445791
 20
11.5035698569
 30
0.0
 10
16.1739553789
 20
11.5193381489
 30
0.0
 10
16.1833000787
 20
11.5356966803
 30
0.0
 10
16.192486476
 20
11.5526357385
 30
0.0
 10
16.2015091472
 20
11.5701452554
 30
0.0
 10
16.2103627056
 20
11.5882148468
 30
0.0
 10
16.2190419247
 20
11.6068337591
 30
0.0
 10
16.2275416391
 20
11.6259909489
 30
0.0
 10
16.2358567657
 20
11.6456749642
 30
0.0
 10
16.2412241735
 20
11.6590175779
 30
0.0
 10
16.2438773867
 20
11.665773087
 30
0.0
  0
SPLINE
  5
34D
100
AcDbEntity
  8
02___PRT_ALL_AXES
100
AcDbSpline
 62
7
  6
CONTINUOUS
 70
0
 71
3
 72
24
 73
20
 74
0
 42
0.0000001
 43
0.0000001
 44
0.0000000001
 40
0.0
 40
0.0
 40
0.0
 40
0.0
 40
0.0478952917
 40
0.0962574104
 40
0.1455367247
 40
0.1961529582
 40
0.2484846146
 40
0.3028630291
 40
0.3309152477
 40
0.3595806569
 40
0.4188500353
 40
0.4808691877
 40
0.5457839904
 40
0.6137024867
 40
0.6846995377
 40
0.7588199428
 40
0.836082018
 40
0.9164862998
 40
1.0
 40
1.0
 40
1.0
 40
1.0
 10
16.3422057345
 20
12.2608049941
 30
0.0
 10
16.3408436403
 20
12.2608049894
 30
0.0
 10
16.3381039269
 20
12.2609531873
 30
0.0
 10
16.3340113647
 20
12.2616182416
 30
0.0
 10
16.3299351459
 20
12.262724503
 30
0.0
 10
16.3258836887
 20
12.264269023
 30
0.0
 10
16.3218642559
 20
12.2662478949
 30
0.0
 10
16.3185813354
 20
12.2682345716
 30
0.0
 10
16.3159795205
 20
12.2700280967
 30
0.0
 10
16.3133367799
 20
12.2720032375
 30
0.0
 10
16.3100649711
 20
12.2747444964
 30
0.0
 10
16.3062399665
 20
12.2784116184
 30
0.0
 10
16.3024793215
 20
12.2824859241
 30
0.0
 10
16.2987894157
 20
12.2869601086
 30
0.0
 10
16.2951763748
 20
12.2918264029
 30
0.0
 10
16.2916463414
 20
12.2970763183
 30
0.0
 10
16.2882052597
 20
12.3027008468
 30
0.0
 10
16.2848591928
 20
12.3086900354
 30
0.0
 10
16.2827354629
 20
12.3128411114
 30
0.0
 10
16.2816891537
 20
12.3149732655
 30
0.0
  0
SPLINE
  5
34E
100
AcDbEntity
  8
LAYER_CHAMFER_FEAT
100
AcDbSpline
 62
7
  6
CONTINUOUS
 70
0
 71
3
 72
15
 73
11
 74
0
 42
0.0000001
 43
0.0000001
 44
0.0000000001
 40
0.0
 40
0.0
 40
0.0
 40
0.0
 40
0.1375052764
 40
0.2714668394
 40
0.4018487804
 40
0.5286395206
 40
0.6518353036
 40
0.7714433907
 40
0.8874859632
 40
1.0
 40
1.0
 40
1.0
 40
1.0
 10
16.5315015994
 20
13.1233666362
 30
0.0
 10
16.5292026941
 20
13.1280513128
 30
0.0
 10
16.524555389
 20
13.1372471184
 30
0.0
 10
16.517337839
 20
13.1506830935
 30
0.0
 10
16.5099700429
 20
13.1635711819
 30
0.0
 10
16.5024584242
 20
13.1759001389
 30
0.0
 10
16.4948093226
 20
13.1876596041
 30
0.0
 10
16.4870291315
 20
13.1988395659
 30
0.0
 10
16.4791245989
 20
13.2094302851
 30
0.0
 10
16.4736930654
 20
13.2161958078
 30
0.0
 10
16.4709569001
 20
13.2194738672
 30
0.0
  0
SPLINE
  5
34F
100
AcDbEntity
  8
02___PRT_ALL_AXES
100
AcDbSpline
 62
7
  6
CONTINUOUS
 70
0
 71
3
 72
58
 73
54
 74
0
 42
0.0000001
 43
0.0000001
 44
0.0000000001
 40
0.0
 40
0.0
 40
0.0
 40
0.0
 40
0.0139505261
 40
0.0283504425
 40
0.0431883946
 40
0.0584536912
 40
0.074133404
 40
0.090213095
 40
0.1066772429
 40
0.1235091231
 40
0.1406909814
 40
0.1582040819
 40
0.1941433005
 40
0.2311624272
 40
0.2690849108
 40
0.3077257187
 40
0.3468932933
 40
0.3863913996
 40
0.4260209017
 40
0.4655815193
 40
0.5048735739
 40
0.5436997279
 40
0.581866769
 40
0.6191874363
 40
0.6554823069
 40
0.6731924159
 40
0.690583434
 40
0.7076360759
 40
0.7243319492
 40
0.7406536959
 40
0.7565850041
 40
0.7721107579
 40
0.7872171706
 40
0.801891829
 40
0.8161239215
 40
0.8299043642
 40
0.8432259315
 40
0.8560835659
 40
0.8684745347
 40
0.8803987025
 40
0.8918589295
 40
0.9028613249
 40
0.9134157031
 40
0.9235360654
 40
0.9332409921
 40
0.9425542197
 40
0.9515050903
 40
0.9601288935
 40
0.9684671686
 40
0.9765676165
 40
0.9844836967
 40
0.9922738192
 40
1.0
 40
1.0
 40
1.0
 40
1.0
 10
16.2816891537
 20
12.3149732655
 30
0.0
 10
16.280691612
 20
12.3170060416
 30
0.0
 10
16.2787300466
 20
12.3211695814
 30
0.0
 10
16.2759293215
 20
12.327596774
 30
0.0
 10
16.2732271732
 20
12.3342967001
 30
0.0
 10
16.2706276793
 20
12.3412592003
 30
0.0
 10
16.2681346287
 20
12.3484740512
 30
0.0
 10
16.2657517694
 20
12.3559305331
 30
0.0
 10
16.2634826449
 20
12.3636175556
 30
0.0
 10
16.2613306189
 20
12.3715236886
 30
0.0
 10
16.2592989031
 20
12.3796372088
 30
0.0
 10
16.2567324046
 20
12.3908116972
 30
0.0
 10
16.2538544113
 20
12.40521526
 30
0.0
 10
16.2509531485
 20
12.4229806994
 30
0.0
 10
16.2485925192
 20
12.4412681653
 30
0.0
 10
16.2467866542
 20
12.4599688692
 30
0.0
 10
16.2455463697
 20
12.4789717642
 30
0.0
 10
16.2448791043
 20
12.4981638961
 30
0.0
 10
16.244788864
 20
12.5174311812
 30
0.0
 10
16.2452761791
 20
12.5366590722
 30
0.0
 10
16.2463381278
 20
12.5557332678
 30
0.0
 10
16.2479683554
 20
12.5745403795
 30
0.0
 10
16.2501570896
 20
12.5929687123
 30
0.0
 10
16.2528912141
 20
12.6109086303
 30
0.0
 10
16.255632397
 20
12.6254798473
 30
0.0
 10
16.2580922134
 20
12.6368048491
 30
0.0
 10
16.2600472286
 20
12.6450417923
 30
0.0
 10
16.2621244521
 20
12.6530788552
 30
0.0
 10
16.2643208252
 20
12.6609041074
 30
0.0
 10
16.2666330446
 20
12.6685059146
 30
0.0
 10
16.2690576845
 20
12.6758729777
 30
0.0
 10
16.2715911404
 20
12.6829943519
 30
0.0
 10
16.274229623
 20
12.689859472
 30
0.0
 10
16.2769692383
 20
12.6964581448
 30
0.0
 10
16.2798059128
 20
12.7027805913
 30
0.0
 10
16.2827354328
 20
12.708817453
 30
0.0
 10
16.2857535
 20
12.7145597843
 30
0.0
 10
16.2888556459
 20
12.7199991074
 30
0.0
 10
16.2920373184
 20
12.7251273919
 30
0.0
 10
16.2952938948
 20
12.7299370565
 30
0.0
 10
16.2986206149
 20
12.7344210257
 30
0.0
 10
16.3020126954
 20
12.7385726736
 30
0.0
 10
16.3054652924
 20
12.7423858456
 30
0.0
 10
16.3089734775
 20
12.7458548911
 30
0.0
 10
16.3125323388
 20
12.7489745655
 30
0.0
 10
16.3161368893
 20
12.7517400846
 30
0.0
 10
16.3197820758
 20
12.7541470997
 30
0.0
 10
16.3234627926
 20
12.7561915903
 30
0.0
 10
16.3271737526
 20
12.757869994
 30
0.0
 10
16.3309094238
 20
12.7591791538
 30
0.0
 10
16.3346641782
 20
12.7601163454
 30
0.0
 10
16.3384314247
 20
12.7606795599
 30
0.0
 10
16.3409516775
 20
12.7608049874
 30
0.0
 10
16.3422057345
 20
12.7608049917
 30
0.0
  0
SPLINE
  5
350
100
AcDbEntity
  8
LAYER_FEATURE
100
AcDbSpline
 62
7
  6
CONTINUOUS
 70
0
 71
3
 72
40
 73
36
 74
0
 42
0.0000001
 43
0.0000001
 44
0.0000000001
 40
0.0
 40
0.0
 40
0.0
 40
0.0
 40
0.0443811139
 40
0.0879667349
 40
0.1307332134
 40
0.1726614725
 40
0.2137326659
 40
0.2539296163
 40
0.2932370197
 40
0.331641343
 40
0.369131063
 40
0.4056967748
 40
0.4413313788
 40
0.4760302962
 40
0.5097916243
 40
0.5426163818
 40
0.5745088053
 40
0.6054765756
 40
0.6355311223
 40
0.6646880074
 40
0.692967238
 40
0.7203936252
 40
0.746997217
 40
0.7728136618
 40
0.7978845448
 40
0.8101562374
 40
0.8222600457
 40
0.8459899735
 40
0.8691376753
 40
0.8917708177
 40
0.9139634692
 40
0.9357956004
 40
0.9573523562
 40
0.9787230683
 40
1.0
 40
1.0
 40
1.0
 40
1.0
 10
14.3959020645
 20
13.2505208551
 30
0.0
 10
14.3985789861
 20
13.2591833766
 30
0.0
 10
14.4040235631
 20
13.2763106861
 30
0.0
 10
14.4125432547
 20
13.3016244375
 30
0.0
 10
14.4213367155
 20
13.3263132497
 30
0.0
 10
14.4303968624
 20
13.3503573427
 30
0.0
 10
14.4397166108
 20
13.373737927
 30
0.0
 10
14.4492885859
 20
13.3964365141
 30
0.0
 10
14.4591052407
 20
13.4184351906
 30
0.0
 10
14.4691588421
 20
13.4397166209
 30
0.0
 10
14.4794414565
 20
13.4602640372
 30
0.0
 10
14.4899450031
 20
13.4800612454
 30
0.0
 10
14.500661235
 20
13.4990926509
 30
0.0
 10
14.5115817245
 20
13.517343283
 30
0.0
 10
14.5226979211
 20
13.5347987768
 30
0.0
 10
14.5340011473
 20
13.5514453889
 30
0.0
 10
14.5454825659
 20
13.5672700375
 30
0.0
 10
14.5571332413
 20
13.5822602732
 30
0.0
 10
14.5689441522
 20
13.5964042778
 30
0.0
 10
14.5809061446
 20
13.6096909118
 30
0.0
 10
14.5930099941
 20
13.6221096869
 30
0.0
 10
14.6052463938
 20
13.6336507189
 30
0.0
 10
14.6176060299
 20
13.6443048544
 30
0.0
 10
14.6300791697
 20
13.6540633619
 30
0.0
 10
14.6406347487
 20
13.6614949716
 30
0.0
 10
14.6491234456
 20
13.6669726738
 30
0.0
 10
14.6575252241
 20
13.6720727968
 30
0.0
 10
14.6680857763
 20
13.6778899182
 30
0.0
 10
14.6809173874
 20
13.6839931379
 30
0.0
 10
14.6938140166
 20
13.6891674024
 30
0.0
 10
14.7067651747
 20
13.6934078282
 30
0.0
 10
14.7197603489
 20
13.6967103833
 30
0.0
 10
14.7327890289
 20
13.699071756
 30
0.0
 10
14.7458393506
 20
13.7004895688
 30
0.0
 10
14.7545551784
 20
13.7008049956
 30
0.0
 10
14.7589018858
 20
13.7008049925
 30
0.0
  0
SPLINE
  5
351
100
AcDbEntity
  8
LAYER_FEATURE
100
AcDbSpline
 62
7
  6
CONTINUOUS
 70
0
 71
3
 72
76
 73
72
 74
0
 42
0.0000001
 43
0.0000001
 44
0.0000000001
 40
0.0
 40
0.0
 40
0.0
 40
0.0
 40
0.0163579391
 40
0.0330507417
 40
0.0500637526
 40
0.0673820244
 40
0.084989678
 40
0.1028703208
 40
0.1210069567
 40
0.139382079
 40
0.1579777035
 40
0.1767754153
 40
0.1957564115
 40
0.2149015424
 40
0.2341913517
 40
0.2536061156
 40
0.2731258815
 40
0.2927305059
 40
0.3123996917
 40
0.332113026
 40
0.3518500167
 40
0.3715901299
 40
0.3913128258
 40
0.4109975959
 40
0.4306239992
 40
0.4501716995
 40
0.4696205027
 40
0.488950394
 40
0.5081415762
 40
0.5271745075
 40
0.5460299407
 40
0.5646889633
 40
0.583133038
 40
0.6013440452
 40
0.619304327
 40
0.6369967322
 40
0.6544046631
 40
0.6715121251
 40
0.6883037798
 40
0.7047650006
 40
0.7208819329
 40
0.7366415605
 40
0.7520317762
 40
0.7670414586
 40
0.7816605585
 40
0.7958801945
 40
0.8096927595
 40
0.8230920417
 40
0.8360733608
 40
0.8486337234
 40
0.8607719972
 40
0.8724891095
 40
0.8837882721
 40
0.8946752333
 40
0.9051585595
 40
0.9152499414
 40
0.9249645215
 40
0.9343212298
 40
0.9433431047
 40
0.9520575728
 40
0.9604966435
 40
0.964624963
 40
0.9686985664
 40
0.9727227343
 40
0.9767030087
 40
0.9806451665
 40
0.9845552067
 40
0.9884393115
 40
0.9923038238
 40
0.996155205
 40
1.0
 40
1.0
 40
1.0
 40
1.0
 10
15.4949930181
 20
13.2505208551
 30
0.0
 10
15.4915942788
 20
13.239522531
 30
0.0
 10
15.4849547344
 20
13.2172298042
 30
0.0
 10
15.4755560726
 20
13.1832733651
 30
0.0
 10
15.4666258064
 20
13.1484925366
 30
0.0
 10
15.4581749358
 20
13.1129302119
 30
0.0
 10
15.4502138206
 20
13.076629801
 30
0.0
 10
15.4427522313
 20
13.03963583
 30
0.0
 10
15.4357993298
 20
13.001993603
 30
0.0
 10
15.429363652
 20
12.9637492501
 30
0.0
 10
15.4234531003
 20
12.9249496374
 30
0.0
 10
15.4180749305
 20
12.8856423182
 30
0.0
 10
15.4132357462
 20
12.8458754715
 30
0.0
 10
15.4089414894
 20
12.8056978419
 30
0.0
 10
15.4051974334
 20
12.7651586802
 30
0.0
 10
15.4020081764
 20
12.7243076823
 30
0.0
 10
15.3993776359
 20
12.6831949281
 30
0.0
 10
15.3973090435
 20
12.6418708204
 30
0.0
 10
15.3958049394
 20
12.6003860225
 30
0.0
 10
15.3948671696
 20
12.5587913957
 30
0.0
 10
15.3944968853
 20
12.517137936
 30
0.0
 10
15.3946945408
 20
12.4754767119
 30
0.0
 10
15.3954598938
 20
12.4338588014
 30
0.0
 10
15.3967920045
 20
12.3923352292
 30
0.0
 10
15.398689238
 20
12.3509569043
 30
0.0
 10
15.4011492653
 20
12.3097745567
 30
0.0
 10
15.4041690642
 20
12.268838675
 30
0.0
 10
15.4077449252
 20
12.2281994439
 30
0.0
 10
15.4118724566
 20
12.1879066824
 30
0.0
 10
15.4165465896
 20
12.148009783
 30
0.0
 10
15.4217615845
 20
12.1085576508
 30
0.0
 10
15.4275110383
 20
12.0695986427
 30
0.0
 10
15.4337878922
 20
12.0311805086
 30
0.0
 10
15.4405844402
 20
11.9933503306
 30
0.0
 10
15.4478923366
 20
11.9561544651
 30
0.0
 10
15.4557026099
 20
11.9196384851
 30
0.0
 10
15.4640056733
 20
11.8838471246
 30
0.0
 10
15.4727913373
 20
11.8488242232
 30
0.0
 10
15.4820488226
 20
11.8146126712
 30
0.0
 10
15.4917667742
 20
11.7812543563
 30
0.0
 10
15.5019332771
 20
11.7487901107
 30
0.0
 10
15.5125358699
 20
11.7172596586
 30
0.0
 10
15.5235615627
 20
11.6867015663
 30
0.0
 10
15.5349968572
 20
11.6571531945
 30
0.0
 10
15.5468277658
 20
11.6286506518
 30
0.0
 10
15.5590398325
 20
11.6012287495
 30
0.0
 10
15.5716181555
 20
11.574920958
 30
0.0
 10
15.5845474121
 20
11.5497593655
 30
0.0
 10
15.5978118854
 20
11.5257746384
 30
0.0
 10
15.6113954894
 20
11.5029959839
 30
0.0
 10
15.6252818038
 20
11.4814511205
 30
0.0
 10
15.639454107
 20
11.4611662527
 30
0.0
 10
15.6538954108
 20
11.4421660532
 30
0.0
 10
15.6685884957
 20
11.4244736522
 30
0.0
 10
15.6835159478
 20
11.4081106386
 30
0.0
 10
15.6986601801
 20
11.3930970768
 30
0.0
 10
15.7140034785
 20
11.3794515233
 30
0.0
 10
15.729527899
 20
11.3671911049
 30
0.0
 10
15.7452155939
 20
11.356331438
 30
0.0
 10
15.7610474909
 20
11.3468871521
 30
0.0
 10
15.774444309
 20
11.340157789
 30
0.0
 10
15.7851989415
 20
11.3355169081
 30
0.0
 10
15.7932293883
 20
11.3324219954
 30
0.0
 10
15.8012800754
 20
11.329688808
 30
0.0
 10
15.8093486108
 20
11.327318135
 30
0.0
 10
15.8174324762
 20
11.3253108551
 30
0.0
 10
15.8255291386
 20
11.3236675616
 30
0.0
 10
15.8336360581
 20
11.32238889
 30
0.0
 10
15.8417507287
 20
11.3214752185
 30
0.0
 10
15.8498703768
 20
11.3209268935
 30
0.0
 10
15.8552871595
 20
11.3208050022
 30
0.0
 10
15.8579928394
 20
11.3208049996
 30
0.0
  0
SPLINE
  5
352
100
AcDbEntity
  8
LAYER_FEATURE
100
AcDbSpline
 62
7
  6
CONTINUOUS
 70
0
 71
3
 72
76
 73
72
 74
0
 42
0.0000001
 43
0.0000001
 44
0.0000000001
 40
0.0
 40
0.0
 40
0.0
 40
0.0
 40
0.0163579319
 40
0.0330507458
 40
0.0500637514
 40
0.0673820247
 40
0.0849896778
 40
0.1028703205
 40
0.1210069566
 40
0.1393820792
 40
0.1579777039
 40
0.1767754155
 40
0.1957564115
 40
0.2149015422
 40
0.2341913514
 40
0.2536061154
 40
0.2731258816
 40
0.292730506
 40
0.3123996917
 40
0.3321130259
 40
0.3518500166
 40
0.3715901299
 40
0.391312826
 40
0.4109975959
 40
0.4306239989
 40
0.450171699
 40
0.4696205022
 40
0.4889503939
 40
0.5081415766
 40
0.5271745082
 40
0.5460299411
 40
0.5646889628
 40
0.5831330367
 40
0.601344044
 40
0.6193043266
 40
0.636996733
 40
0.6544046645
 40
0.6715121261
 40
0.6883037794
 40
0.7047649988
 40
0.7208819308
 40
0.7366415595
 40
0.7520317768
 40
0.7670414605
 40
0.7816605603
 40
0.7958801947
 40
0.8096927578
 40
0.8230920391
 40
0.836073359
 40
0.8486337234
 40
0.8607719989
 40
0.8724891115
 40
0.8837882728
 40
0.8946752324
 40
0.9051585573
 40
0.9152499392
 40
0.9249645208
 40
0.9343212306
 40
0.943343106
 40
0.9520575736
 40
0.9604966434
 40
0.9646249637
 40
0.9686985657
 40
0.9727227351
 40
0.976703008
 40
0.9806451669
 40
0.9845552064
 40
0.9884393115
 40
0.9923038239
 40
0.996155205
 40
1.0
 40
1.0
 40
1.0
 40
1.0
 10
14.3959020645
 20
13.2505208551
 30
0.0
 10
14.3925033268
 20
13.2395225358
 30
0.0
 10
14.3858637823
 20
13.2172298059
 30
0.0
 10
14.3764651194
 20
13.183273368
 30
0.0
 10
14.3675348532
 20
13.1484925341
 30
0.0
 10
14.3590839823
 20
13.1129302126
 30
0.0
 10
14.3511228667
 20
13.0766298012
 30
0.0
 10
14.3436612771
 20
13.0396358306
 30
0.0
 10
14.3367083758
 20
13.0019936032
 30
0.0
 10
14.3302726992
 20
12.9637492496
 30
0.0
 10
14.3243621479
 20
12.9249496366
 30
0.0
 10
14.318983978
 20
12.8856423176
 30
0.0
 10
14.3141447929
 20
12.8458754714
 30
0.0
 10
14.3098505351
 20
12.8056978423
 30
0.0
 10
14.3061064784
 20
12.7651586808
 30
0.0
 10
14.3029172216
 20
12.7243076826
 30
0.0
 10
14.300286683
 20
12.6831949279
 30
0.0
 10
14.298218092
 20
12.64187082
 30
0.0
 10
14.2967139877
 20
12.6003860223
 30
0.0
 10
14.2957762168
 20
12.5587913956
 30
0.0
 10
14.295405931
 20
12.517137936
 30
0.0
 10
14.2956035853
 20
12.4754767118
 30
0.0
 10
14.296368938
 20
12.4338588011
 30
0.0
 10
14.2977010508
 20
12.3923352292
 30
0.0
 10
14.2995982867
 20
12.3509569048
 30
0.0
 10
14.3020583144
 20
12.3097745576
 30
0.0
 10
14.3050781122
 20
12.2688386757
 30
0.0
 10
14.3086539714
 20
12.2281994437
 30
0.0
 10
14.312781501
 20
12.1879066812
 30
0.0
 10
14.3174556331
 20
12.1480097814
 30
0.0
 10
14.3226706298
 20
12.10855765
 30
0.0
 10
14.3284200864
 20
12.0695986439
 30
0.0
 10
14.3346969419
 20
12.0311805111
 30
0.0
 10
14.341493489
 20
11.9933503328
 30
0.0
 10
14.3488013834
 20
11.9561544655
 30
0.0
 10
14.3566116546
 20
11.9196384831
 30
0.0
 10
14.3649147166
 20
11.8838471213
 30
0.0
 10
14.3737003818
 20
11.848824221
 30
0.0
 10
14.3829578698
 20
11.814612672
 30
0.0
 10
14.3926758237
 20
11.78125436
 30
0.0
 10
14.4028423266
 20
11.748790115
 30
0.0
 10
14.4134449175
 20
11.7172596605
 30
0.0
 10
14.424470608
 20
11.6867015644
 30
0.0
 10
14.4359059007
 20
11.6571531897
 30
0.0
 10
14.4477368097
 20
11.6286506476
 30
0.0
 10
14.4599488787
 20
11.601228749
 30
0.0
 10
14.472527204
 20
11.574920962
 30
0.0
 10
14.4854564618
 20
11.5497593716
 30
0.0
 10
14.4987209337
 20
11.5257746425
 30
0.0
 10
14.5123045355
 20
11.5029959832
 30
0.0
 10
14.5261908478
 20
11.4814511151
 30
0.0
 10
14.5403631509
 20
11.4611662466
 30
0.0
 10
14.5548044565
 20
11.4421660507
 30
0.0
 10
14.5694975432
 20
11.4244736551
 30
0.0
 10
14.5844249966
 20
11.4081106455
 30
0.0
 10
14.5995692288
 20
11.3930970834
 30
0.0
 10
14.6149125253
 20
11.3794515248
 30
0.0
 10
14.6304369438
 20
11.3671910998
 30
0.0
 10
14.6461246389
 20
11.3563314313
 30
0.0
 10
14.6619565356
 20
11.3468871451
 30
0.0
 10
14.6753533596
 20
11.3401577967
 30
0.0
 10
14.6861079839
 20
11.3355168983
 30
0.0
 10
14.6941384405
 20
11.3324220099
 30
0.0
 10
14.7021891159
 20
11.3296887906
 30
0.0
 10
14.7102576624
 20
11.3273181525
 30
0.0
 10
14.7183415193
 20
11.3253108424
 30
0.0
 10
14.7264381869
 20
11.3236675696
 30
0.0
 10
14.7345451043
 20
11.3223888904
 30
0.0
 10
14.7426597746
 20
11.3214752107
 30
0.0
 10
14.7507794239
 20
11.3209269068
 30
0.0
 10
14.756196206
 20
11.3208049953
 30
0.0
 10
14.7589018858
 20
11.3208049933
 30
0.0
  0
SPLINE
  5
353
100
AcDbEntity
  8
LAYER_FEATURE
100
AcDbSpline
 62
7
  6
CONTINUOUS
 70
0
 71
3
 72
40
 73
36
 74
0
 42
0.0000001
 43
0.0000001
 44
0.0000000001
 40
0.0
 40
0.0
 40
0.0
 40
0.0
 40
0.0443811459
 40
0.087966727
 40
0.1307332077
 40
0.1726614786
 40
0.2137326651
 40
0.2539296147
 40
0.2932370217
 40
0.3316413439
 40
0.3691310612
 40
0.405696776
 40
0.4413313808
 40
0.4760302945
 40
0.5097916238
 40
0.542616385
 40
0.5745088043
 40
0.6054765731
 40
0.6355311261
 40
0.6646880078
 40
0.6929672345
 40
0.7203936285
 40
0.7469972191
 40
0.7728136586
 40
0.7978845461
 40
0.8101562346
 40
0.8222600486
 40
0.8459899713
 40
0.8691376742
 40
0.8917708204
 40
0.9139634688
 40
0.9357955988
 40
0.9573523573
 40
0.9787230689
 40
1.0
 40
1.0
 40
1.0
 40
1.0
 10
15.4949930181
 20
13.2505208551
 30
0.0
 10
15.4976699416
 20
13.2591833829
 30
0.0
 10
15.5031145172
 20
13.2763106911
 30
0.0
 10
15.5116342097
 20
13.301624441
 30
0.0
 10
15.5204276693
 20
13.326313248
 30
0.0
 10
15.5294878146
 20
13.3503573431
 30
0.0
 10
15.5388075645
 20
13.3737379277
 30
0.0
 10
15.5483795407
 20
13.3964365134
 30
0.0
 10
15.558196193
 20
13.4184351914
 30
0.0
 10
15.5682497949
 20
13.4397166215
 30
0.0
 10
15.5785324118
 20
13.4602640363
 30
0.0
 10
15.5890359558
 20
13.4800612461
 30
0.0
 10
15.5997521869
 20
13.4990926522
 30
0.0
 10
15.6106726797
 20
13.5173432819
 30
0.0
 10
15.6217888754
 20
13.5347987764
 30
0.0
 10
15.633092098
 20
13.5514453912
 30
0.0
 10
15.6445735202
 20
13.5672700368
 30
0.0
 10
15.6562241977
 20
13.5822602709
 30
0.0
 10
15.6680351021
 20
13.5964042814
 30
0.0
 10
15.6799970978
 20
13.6096909122
 30
0.0
 10
15.6921009517
 20
13.6221096826
 30
0.0
 10
15.7043373442
 20
13.6336507227
 30
0.0
 10
15.7166969814
 20
13.6443048576
 30
0.0
 10
15.7291701286
 20
13.6540633542
 30
0.0
 10
15.739725697
 20
13.6614949778
 30
0.0
 10
15.7482144035
 20
13.6669726672
 30
0.0
 10
15.7566161715
 20
13.6720728062
 30
0.0
 10
15.7671767337
 20
13.6778899112
 30
0.0
 10
15.7800083418
 20
13.6839931353
 30
0.0
 10
15.7929049671
 20
13.6891674114
 30
0.0
 10
15.8058561293
 20
13.6934078256
 30
0.0
 10
15.818851304
 20
13.6967103745
 30
0.0
 10
15.8318799807
 20
13.6990717673
 30
0.0
 10
15.8449303045
 20
13.7004895689
 30
0.0
 10
15.853646132
 20
13.7008049905
 30
0.0
 10
15.8579928394
 20
13.7008049862
 30
0.0
  0
SPLINE
  5
354
100
AcDbEntity
  8
LAYER_FEATURE
100
AcDbSpline
 62
7
  6
CONTINUOUS
 70
0
 71
3
 72
15
 73
11
 74
0
 42
0.0000001
 43
0.0000001
 44
0.0000000001
 40
0.0
 40
0.0
 40
0.0
 40
0.0
 40
0.099418335
 40
0.2019590425
 40
0.3104077595
 40
0.4270057815
 40
0.5533956041
 40
0.6906612339
 40
0.8394546579
 40
1.0
 40
1.0
 40
1.0
 40
1.0
 10
14.5934483968
 20
13.4104580696
 30
0.0
 10
14.5932305408
 20
13.410458072
 30
0.0
 10
14.592786848
 20
13.410414075
 30
0.0
 10
14.5921316275
 20
13.410218374
 30
0.0
 10
14.5914868398
 20
13.4098955862
 30
0.0
 10
14.590856249
 20
13.4094491747
 30
0.0
 10
14.5902425998
 20
13.4088825919
 30
0.0
 10
14.5896485986
 20
13.4081993717
 30
0.0
 10
14.5890771706
 20
13.4074034535
 30
0.0
 10
14.5887264063
 20
13.4068225733
 30
0.0
 10
14.5885546168
 20
13.4065155645
 30
0.0
  0
SPLINE
  5
355
100
AcDbEntity
  8
LAYER_FEATURE
100
AcDbSpline
 62
7
  6
CONTINUOUS
 70
0
 71
3
 72
15
 73
11
 74
0
 42
0.0000001
 43
0.0000001
 44
0.0000000001
 40
0.0
 40
0.0
 40
0.0
 40
0.0
 40
0.1089943256
 40
0.2197529217
 40
0.3339392947
 40
0.453032283
 40
0.5782821752
 40
0.7107115691
 40
0.8511138089
 40
1.0
 40
1.0
 40
1.0
 40
1.0
 10
14.6565558509
 20
13.5074568059
 30
0.0
 10
14.6564008216
 20
13.5074568086
 30
0.0
 10
14.6560878298
 20
13.507434859
 30
0.0
 10
14.655621729
 20
13.5073365671
 30
0.0
 10
14.6551589837
 20
13.507173387
 30
0.0
 10
14.6547011695
 20
13.5069461669
 30
0.0
 10
14.6542495422
 20
13.5066558567
 30
0.0
 10
14.653805265
 20
13.5063034913
 30
0.0
 10
14.6533695726
 20
13.5058902409
 30
0.0
 10
14.653093841
 20
13.5055842309
 30
0.0
 10
14.6529574985
 20
13.50542219
 30
0.0
  0
SPLINE
  5
356
100
AcDbEntity
  8
LAYER_FEATURE
100
AcDbSpline
 62
7
  6
CONTINUOUS
 70
0
 71
3
 72
11
 73
7
 74
0
 42
0.0000001
 43
0.0000001
 44
0.0000000001
 40
0.0
 40
0.0
 40
0.0
 40
0.0
 40
0.2370170274
 40
0.4794724791
 40
0.7324097257
 40
1.0
 40
1.0
 40
1.0
 40
1.0
 10
14.7252637891
 20
13.5748412411
 30
0.0
 10
14.7250784246
 20
13.5748412388
 30
0.0
 10
14.7247027307
 20
13.5748096703
 30
0.0
 10
14.7241451927
 20
13.5746685898
 30
0.0
 10
14.723593846
 20
13.5744350312
 30
0.0
 10
14.7232432388
 20
13.5742255741
 30
0.0
 10
14.7230701983
 20
13.5741078753
 30
0.0
  0
SPLINE
  5
357
100
AcDbEntity
  8
LAYER_FEATURE
100
AcDbSpline
 62
7
  6
CONTINUOUS
 70
0
 71
3
 72
17
 73
13
 74
0
 42
0.0000001
 43
0.0000001
 44
0.0000000001
 40
0.0
 40
0.0
 40
0.0
 40
0.0
 40
0.0484983185
 40
0.0974413444
 40
0.1472480613
 40
0.1983203397
 40
0.3055859422
 40
0.4217357582
 40
0.5484448373
 40
0.6867650897
 40
0.8372374997
 40
1.0
 40
1.0
 40
1.0
 40
1.0
 10
14.8612694073
 20
13.615042453
 30
0.0
 10
14.8611535853
 20
13.6150424482
 30
0.0
 10
14.8609207009
 20
13.6150302785
 30
0.0
 10
14.8605727256
 20
13.6149756778
 30
0.0
 10
14.8602260411
 20
13.6148847873
 30
0.0
 10
14.8597589323
 20
13.614712868
 30
0.0
 10
14.8591778838
 20
13.6144018389
 30
0.0
 10
14.8585094024
 20
13.6138949918
 30
0.0
 10
14.8578611114
 20
13.6132527544
 30
0.0
 10
14.8572364576
 20
13.6124795912
 30
0.0
 10
14.8566387903
 20
13.6115804515
 30
0.0
 10
14.8562747562
 20
13.6109260596
 30
0.0
 10
14.8560970087
 20
13.6105803771
 30
0.0
  0
SPLINE
  5
358
100
AcDbEntity
  8
02___PRT_ALL_AXES
100
AcDbSpline
 62
7
  6
CONTINUOUS
 70
0
 71
3
 72
39
 73
35
 74
0
 42
0.0000001
 43
0.0000001
 44
0.0000000001
 40
0.0
 40
0.0
 40
0.0
 40
0.0
 40
0.0431151641
 40
0.0855277556
 40
0.1272174794
 40
0.1681687462
 40
0.208366344
 40
0.2477956236
 40
0.2864435364
 40
0.3242983226
 40
0.3613495599
 40
0.397588375
 40
0.4330074455
 40
0.4676012263
 40
0.501365982
 40
0.5342999594
 40
0.5664035894
 40
0.5976795454
 40
0.6281330518
 40
0.6577719951
 40
0.6866071531
 40
0.7146524909
 40
0.7419252919
 40
0.7684465281
 40
0.7942410506
 40
0.8193378452
 40
0.8437703466
 40
0.8675765552
 40
0.8907993
 40
0.9134862995
 40
0.9356901667
 40
0.9574683657
 40
0.9788829057
 40
1.0
 40
1.0
 40
1.0
 40
1.0
 10
15.6586813609
 20
13.0590649849
 30
0.0
 10
15.6604939032
 20
13.0649303741
 30
0.0
 10
15.6641753321
 20
13.0765392598
 30
0.0
 10
15.6699156178
 20
13.0937205979
 30
0.0
 10
15.6758257534
 20
13.1105180534
 30
0.0
 10
15.6819017472
 20
13.1269203388
 30
0.0
 10
15.6881396193
 20
13.142916817
 30
0.0
 10
15.6945353087
 20
13.1584969499
 30
0.0
 10
15.7010845674
 20
13.1736504756
 30
0.0
 10
15.7077831019
 20
13.1883674363
 30
0.0
 10
15.7146265218
 20
13.2026381579
 30
0.0
 10
15.7216103069
 20
13.2164532706
 30
0.0
 10
15.7287299072
 20
13.2298036862
 30
0.0
 10
15.7359806294
 20
13.2426806495
 30
0.0
 10
15.743357734
 20
13.2550757034
 30
0.0
 10
15.7508564096
 20
13.2669807056
 30
0.0
 10
15.7584717295
 20
13.2783878604
 30
0.0
 10
15.766198763
 20
13.2892896642
 30
0.0
 10
15.7740324573
 20
13.2996789778
 30
0.0
 10
15.7819677288
 20
13.309548981
 30
0.0
 10
15.7899994545
 20
13.3188931762
 30
0.0
 10
15.79812241
 20
13.3277054426
 30
0.0
 10
15.8063313911
 20
13.3359799448
 30
0.0
 10
15.8146210961
 20
13.3437112278
 30
0.0
 10
15.8229862021
 20
13.350894158
 30
0.0
 10
15.8314213675
 20
13.3575239061
 30
0.0
 10
15.8399211546
 20
13.3635960348
 30
0.0
 10
15.8484801411
 20
13.3691063605
 30
0.0
 10
15.8570928023
 20
13.3740510784
 30
0.0
 10
15.8657535746
 20
13.3784267061
 30
0.0
 10
15.8744567943
 20
13.3822300344
 30
0.0
 10
15.8831968363
 20
13.3854583232
 30
0.0
 10
15.8919674037
 20
13.3881089697
 30
0.0
 10
15.8978668114
 20
13.3894980368
 30
0.0
 10
15.9008141836
 20
13.3900929431
 30
0.0
  0
SPLINE
  5
359
100
AcDbEntity
  8
LAYER_CHAMFER_FEAT
100
AcDbSpline
 62
7
  6
CONTINUOUS
 70
0
 71
3
 72
94
 73
90
 74
0
 42
0.0000001
 43
0.0000001
 44
0.0000000001
 40
0.0
 40
0.0
 40
0.0
 40
0.0
 40
0.005764708
 40
0.0113895671
 40
0.0168772086
 40
0.0222307838
 40
0.0274539491
 40
0.0325509451
 40
0.0375265816
 40
0.0423863109
 40
0.0517806643
 40
0.056331853
 40
0.0607955193
 40
0.0651804401
 40
0.0694960541
 40
0.0737523945
 40
0.077960054
 40
0.0821300894
 40
0.0862739437
 40
0.0904033276
 40
0.0945301073
 40
0.0986661762
 40
0.1028233278
 40
0.1070131372
 40
0.1112468413
 40
0.115535248
 40
0.1198886414
 40
0.1243167287
 40
0.1288285779
 40
0.1381340794
 40
0.1429449587
 40
0.1478691655
 40
0.1529124247
 40
0.1580798224
 40
0.1633758454
 40
0.1688044016
 40
0.1743688593
 40
0.1800720739
 40
0.1859164223
 40
0.1919038327
 40
0.1980358122
 40
0.2043134786
 40
0.2107375793
 40
0.217308525
 40
0.2240263999
 40
0.2308909973
 40
0.2379018209
 40
0.2450581229
 40
0.2523588973
 40
0.25980292
 40
0.2751141482
 40
0.2909784363
 40
0.3073788775
 40
0.3242959549
 40
0.3417078117
 40
0.3595904884
 40
0.3779181323
 40
0.3966631869
 40
0.4157965633
 40
0.4352877992
 40
0.4551052057
 40
0.4752160064
 40
0.4955864692
 40
0.5161820331
 40
0.5369674301
 40
0.5579068041
 40
0.5789638272
 40
0.6001018141
 40
0.6212838349
 40
0.6424728274
 40
0.6636317082
 40
0.6847234846
 40
0.7057113662
 40
0.7265588774
 40
0.7472299713
 40
0.7676891449
 40
0.7879015574
 40
0.8078331504
 40
0.8274507733
 40
0.8467223124
 40
0.8656168275
 40
0.8841046955
 40
0.9021577645
 40
0.9197495206
 40
0.9368552678
 40
0.9534523363
 40
0.9695202907
 40
0.9850412298
 40
1.0
 40
1.0
 40
1.0
 40
1.0
 10
16.4709569001
 20
13.2194738672
 30
0.0
 10
16.4688928836
 20
13.2219466597
 30
0.0
 10
16.4647442901
 20
13.2267738888
 30
0.0
 10
16.4583809574
 20
13.2337353536
 30
0.0
 10
16.4519573021
 20
13.2403242797
 30
0.0
 10
16.44547671
 20
13.2465372279
 30
0.0
 10
16.4389423545
 20
13.2523709581
 30
0.0
 10
16.4323576934
 20
13.2578224326
 30
0.0
 10
16.4257256585
 20
13.2628889374
 30
0.0
 10
16.4169253511
 20
13.2690568477
 30
0.0
 10
16.4079392863
 20
13.274535343
 30
0.0
 10
16.3987951248
 20
13.2792527689
 30
0.0
 10
16.3919785346
 20
13.2823573888
 30
0.0
 10
16.385135509
 20
13.2850635105
 30
0.0
 10
16.3782694549
 20
13.2873697845
 30
0.0
 10
16.3713839815
 20
13.2892747368
 30
0.0
 10
16.3644827488
 20
13.2907773352
 30
0.0
 10
16.3575694247
 20
13.2918765673
 30
0.0
 10
16.3506477516
 20
13.2925718528
 30
0.0
 10
16.3437214749
 20
13.292862662
 30
0.0
 10
16.3367943726
 20
13.292748906
 30
0.0
 10
16.3298702221
 20
13.2922305656
 30
0.0
 10
16.3229527822
 20
13.2913080522
 30
0.0
 10
16.3160458042
 20
13.2899818552
 30
0.0
 10
16.3091529814
 20
13.2882528652
 30
0.0
 10
16.302277983
 20
13.2861220428
 30
0.0
 10
16.295424454
 20
13.2835907416
 30
0.0
 10
16.2885957981
 20
13.280660252
 30
0.0
 10
16.2794359337
 20
13.2761776606
 30
0.0
 10
16.2704277364
 20
13.2709285179
 30
0.0
 10
16.2616019108
 20
13.2649842165
 30
0.0
 10
16.2549503231
 20
13.2600870766
 30
0.0
 10
16.2483446381
 20
13.2548037922
 30
0.0
 10
16.2417878275
 20
13.2491369617
 30
0.0
 10
16.2352833123
 20
13.2430895792
 30
0.0
 10
16.228834341
 20
13.2366647816
 30
0.0
 10
16.2224441938
 20
13.2298658892
 30
0.0
 10
16.2161161017
 20
13.2226964157
 30
0.0
 10
16.2098532808
 20
13.2151600535
 30
0.0
 10
16.2036589166
 20
13.2072606818
 30
0.0
 10
16.1975361608
 20
13.1990023658
 30
0.0
 10
16.1914881439
 20
13.1903893479
 30
0.0
 10
16.1855179457
 20
13.1814260607
 30
0.0
 10
16.1796286334
 20
13.1721171055
 30
0.0
 10
16.1738232068
 20
13.1624672751
 30
0.0
 10
16.1681046616
 20
13.152481523
 30
0.0
 10
16.1624759082
 20
13.1421649917
 30
0.0
 10
16.1569398691
 20
13.1315229847
 30
0.0
 10
16.151499333
 20
13.12056096
 30
0.0
 10
16.144309109
 20
13.1053835435
 30
0.0
 10
16.1355904259
 20
13.0856398588
 30
0.0
 10
16.1256491654
 20
13.0609813051
 30
0.0
 10
16.1161535434
 20
13.0351896305
 30
0.0
 10
16.1071231498
 20
13.0083179966
 30
0.0
 10
16.0985765565
 20
12.9804215145
 30
0.0
 10
16.0905313842
 20
12.9515575351
 30
0.0
 10
16.0830042272
 20
12.9217854106
 30
0.0
 10
16.0760106225
 20
12.8911663997
 30
0.0
 10
16.0695650122
 20
12.8597635285
 30
0.0
 10
16.063680711
 20
12.8276414592
 30
0.0
 10
16.0583698773
 20
12.7948663531
 30
0.0
 10
16.0536434866
 20
12.7615057321
 30
0.0
 10
16.0495113078
 20
12.7276283362
 30
0.0
 10
16.0459818823
 20
12.6933039809
 30
0.0
 10
16.0430625065
 20
12.6586034106
 30
0.0
 10
16.0407592155
 20
12.6235981518
 30
0.0
 10
16.0390767712
 20
12.5883603639
 30
0.0
 10
16.0380186519
 20
12.5529626893
 30
0.0
 10
16.0375870453
 20
12.5174781024
 30
0.0
 10
16.0377828438
 20
12.4819797582
 30
0.0
 10
16.0386056424
 20
12.44654084
 30
0.0
 10
16.0400537402
 20
12.4112344082
 30
0.0
 10
16.0421241432
 20
12.3761332474
 30
0.0
 10
16.044812571
 20
12.3413097165
 30
0.0
 10
16.0481134658
 20
12.3068355973
 30
0.0
 10
16.0520200035
 20
12.2727819457
 30
0.0
 10
16.056524109
 20
12.2392189433
 30
0.0
 10
16.0616164723
 20
12.2062157517
 30
0.0
 10
16.0672865689
 20
12.1738403672
 30
0.0
 10
16.0735226822
 20
12.1421594791
 30
0.0
 10
16.0803119288
 20
12.1112383291
 30
0.0
 10
16.0876402867
 20
12.0811405747
 30
0.0
 10
16.0954926268
 20
12.0519281527
 30
0.0
 10
16.1038527463
 20
12.0236611532
 30
0.0
 10
16.1127034121
 20
11.9963976724
 30
0.0
 10
16.1220263788
 20
11.9701937532
 30
0.0
 10
16.1318025274
 20
11.945103041
 30
0.0
 10
16.1420115792
 20
11.9211774265
 30
0.0
 10
16.1492277504
 20
11.9057467197
 30
0.0
 10
16.1529098696
 20
11.8982433496
 30
0.0
  0
SPLINE
  5
35A
100
AcDbEntity
  8
LAYER_FEATURE
100
AcDbSpline
 62
7
  6
CONTINUOUS
 70
0
 71
3
 72
68
 73
64
 74
0
 42
0.0000001
 43
0.0000001
 44
0.0000000001
 40
0.0
 40
0.0
 40
0.0
 40
0.0
 40
0.0038535318
 40
0.0077400475
 40
0.0116649517
 40
0.0156334455
 40
0.0237194567
 40
0.0320366582
 40
0.0406180723
 40
0.0494926247
 40
0.054048263
 40
0.0586861851
 40
0.0682178021
 40
0.0781058518
 40
0.0883643741
 40
0.0990043414
 40
0.1100339333
 40
0.1214588052
 40
0.1332823326
 40
0.1455058312
 40
0.1581287516
 40
0.17114885
 40
0.1845623486
 40
0.1983640734
 40
0.2125475762
 40
0.2271052391
 40
0.2420283678
 40
0.2573072823
 40
0.2729313949
 40
0.28888928
 40
0.3051687343
 40
0.3217568346
 40
0.3386399948
 40
0.3558040171
 40
0.3732341382
 40
0.3909150706
 40
0.4088310446
 40
0.4269658508
 40
0.4453028789
 40
0.4638251538
 40
0.4825153693
 40
0.5013559233
 40
0.5203289543
 40
0.5585990256
 40
0.5971796213
 40
0.6359217839
 40
0.6746754791
 40
0.7132905944
 40
0.7516179432
 40
0.770628029
 40
0.7895111686
 40
0.8082494278
 40
0.8268251216
 40
0.8452208486
 40
0.8634195279
 40
0.881404433
 40
0.89915923
 40
0.9166680076
 40
0.9339153231
 40
0.950886276
 40
0.9675663698
 40
0.9839421509
 40
1.0
 40
1.0
 40
1.0
 40
1.0
 10
15.8685114351
 20
11.6380371549
 30
0.0
 10
15.8665897025
 20
11.6384250465
 30
0.0
 10
15.8627457351
 20
11.6392855769
 30
0.0
 10
15.8570115115
 20
11.640820552
 30
0.0
 10
15.851288302
 20
11.6426043019
 30
0.0
 10
15.8436274876
 20
11.6453301527
 30
0.0
 10
15.8340732656
 20
11.6493747056
 30
0.0
 10
15.8227551538
 20
11.6551830507
 30
0.0
 10
15.8115241287
 20
11.661968962
 30
0.0
 10
15.8023292379
 20
11.6683748227
 30
0.0
 10
15.7950305141
 20
11.6739645102
 30
0.0
 10
15.7876390504
 20
11.6799763997
 30
0.0
 10
15.778477306
 20
11.6881020735
 30
0.0
 10
15.7677174375
 20
11.6987033411
 30
0.0
 10
15.757104819
 20
11.7102304403
 30
0.0
 10
15.7466513842
 20
11.722669977
 30
0.0
 10
15.7363686124
 20
11.7360078653
 30
0.0
 10
15.7262679534
 20
11.7502289512
 30
0.0
 10
15.7163606842
 20
11.7653171217
 30
0.0
 10
15.7066579219
 20
11.7812552797
 30
0.0
 10
15.6971705936
 20
11.7980253593
 30
0.0
 10
15.6879094078
 20
11.8156083327
 30
0.0
 10
15.6788848467
 20
11.8339842378
 30
0.0
 10
15.6701071466
 20
11.8531322011
 30
0.0
 10
15.6615862821
 20
11.8730304601
 30
0.0
 10
15.6533319499
 20
11.8936563844
 30
0.0
 10
15.6453535453
 20
11.9149864976
 30
0.0
 10
15.6376601609
 20
11.9369965117
 30
0.0
 10
15.6302605715
 20
11.9596613571
 30
0.0
 10
15.6231632241
 20
11.9829552105
 30
0.0
 10
15.6163762239
 20
12.006851522
 30
0.0
 10
15.6099073176
 20
12.0313230441
 30
0.0
 10
15.6037638944
 20
12.0563418682
 30
0.0
 10
15.5979529742
 20
12.0818794583
 30
0.0
 10
15.5924812011
 20
12.1079066832
 30
0.0
 10
15.587354831
 20
12.1343938467
 30
0.0
 10
15.5825797197
 20
12.161310722
 30
0.0
 10
15.5781613255
 20
12.1886265902
 30
0.0
 10
15.5741047008
 20
12.2163102746
 30
0.0
 10
15.5704144859
 20
12.2443301821
 30
0.0
 10
15.5670949067
 20
12.2726543114
 30
0.0
 10
15.5641497329
 20
12.3012503908
 30
0.0
 10
15.5607169139
 20
12.3398065342
 30
0.0
 10
15.5573902993
 20
12.3884498255
 30
0.0
 10
15.5549466923
 20
12.4472137444
 30
0.0
 10
15.5540513751
 20
12.5062678441
 30
0.0
 10
15.5547084618
 20
12.5653426314
 30
0.0
 10
15.5569149387
 20
12.6241685211
 30
0.0
 10
15.5600447255
 20
12.6728905301
 30
0.0
 10
15.5633211346
 20
12.7115301802
 30
0.0
 10
15.5661506538
 20
12.7402032042
 30
0.0
 10
15.5693556578
 20
12.7686142703
 30
0.0
 10
15.5729325049
 20
12.7967310075
 30
0.0
 10
15.5768771035
 20
12.8245213024
 30
0.0
 10
15.5811849424
 20
12.8519534385
 30
0.0
 10
15.585851093
 20
12.8789961067
 30
0.0
 10
15.5908702211
 20
12.9056184442
 30
0.0
 10
15.5962365898
 20
12.9317900676
 30
0.0
 10
15.6019440697
 20
12.9574811284
 30
0.0
 10
15.6079861327
 20
12.9826622591
 30
0.0
 10
15.6143558825
 20
13.007304894
 30
0.0
 10
15.6210460159
 20
13.0313806541
 30
0.0
 10
15.6257620735
 20
13.0471942515
 30
0.0
 10
15.6281740819
 20
13.0549995137
 30
0.0
  0
SPLINE
  5
35B
100
AcDbEntity
  8
02___PRT_ALL_AXES
100
AcDbSpline
 62
7
  6
CONTINUOUS
 70
0
 71
3
 72
68
 73
64
 74
0
 42
0.0000001
 43
0.0000001
 44
0.0000000001
 40
0.0
 40
0.0
 40
0.0
 40
0.0
 40
0.0038535318
 40
0.0077400475
 40
0.0116649517
 40
0.0156334455
 40
0.0237194567
 40
0.0320366582
 40
0.0406180723
 40
0.0494926247
 40
0.054048263
 40
0.0586861851
 40
0.0682178021
 40
0.0781058518
 40
0.0883643741
 40
0.0990043414
 40
0.1100339333
 40
0.1214588052
 40
0.1332823326
 40
0.1455058312
 40
0.1581287516
 40
0.17114885
 40
0.1845623486
 40
0.1983640734
 40
0.2125475762
 40
0.2271052391
 40
0.2420283678
 40
0.2573072823
 40
0.2729313949
 40
0.28888928
 40
0.3051687343
 40
0.3217568346
 40
0.3386399948
 40
0.3558040171
 40
0.3732341382
 40
0.3909150706
 40
0.4088310446
 40
0.4269658508
 40
0.4453028789
 40
0.4638251538
 40
0.4825153693
 40
0.5013559233
 40
0.5203289543
 40
0.5585990256
 40
0.5971796213
 40
0.6359217839
 40
0.6746754791
 40
0.7132905944
 40
0.7516179432
 40
0.770628029
 40
0.7895111686
 40
0.8082494278
 40
0.8268251216
 40
0.8452208486
 40
0.8634195279
 40
0.881404433
 40
0.89915923
 40
0.9166680076
 40
0.9339153231
 40
0.950886276
 40
0.9675663698
 40
0.9839421509
 40
1.0
 40
1.0
 40
1.0
 40
1.0
 10
15.9008141835
 20
11.6315170368
 30
0.0
 10
15.8988780943
 20
11.6319078262
 30
0.0
 10
15.89500541
 20
11.6327747853
 30
0.0
 10
15.8892283482
 20
11.6343212275
 30
0.0
 10
15.8834623829
 20
11.6361183032
 30
0.0
 10
15.8757443374
 20
11.6388645178
 30
0.0
 10
15.8661187394
 20
11.642939286
 30
0.0
 10
15.8547160743
 20
11.6487910231
 30
0.0
 10
15.8434011465
 20
11.6556276293
 30
0.0
 10
15.8341375641
 20
11.6620813458
 30
0.0
 10
15.8267843143
 20
11.6677127918
 30
0.0
 10
15.8193376318
 20
11.6737695938
 30
0.0
 10
15.8101074434
 20
11.6819559715
 30
0.0
 10
15.799267192
 20
11.6926364371
 30
0.0
 10
15.7885752906
 20
11.7042496509
 30
0.0
 10
15.7780437622
 20
11.7167821187
 30
0.0
 10
15.7676841717
 20
11.7302196492
 30
0.0
 10
15.7575080546
 20
11.7445469755
 30
0.0
 10
15.7475267719
 20
11.759747864
 30
0.0
 10
15.7377515239
 20
11.7758050899
 30
0.0
 10
15.7281933194
 20
11.7927004525
 30
0.0
 10
15.7188629467
 20
11.8104147816
 30
0.0
 10
15.7097709666
 20
11.8289279661
 30
0.0
 10
15.7009276916
 20
11.8482189766
 30
0.0
 10
15.692343171
 20
11.868265888
 30
0.0
 10
15.6840271738
 20
11.8890459008
 30
0.0
 10
15.6759891655
 20
11.9105353631
 30
0.0
 10
15.6682383068
 20
11.9327098058
 30
0.0
 10
15.6607834379
 20
11.9555439716
 30
0.0
 10
15.6536330689
 20
11.9790118446
 30
0.0
 10
15.6467953656
 20
12.0030866764
 30
0.0
 10
15.6402781325
 20
12.027741016
 30
0.0
 10
15.6340888141
 20
12.0529467462
 30
0.0
 10
15.6282344827
 20
12.078675118
 30
0.0
 10
15.6227218321
 20
12.1048967824
 30
0.0
 10
15.6175571648
 20
12.1315818215
 30
0.0
 10
15.6127463804
 20
12.1586997826
 30
0.0
 10
15.608294978
 20
12.1862197173
 30
0.0
 10
15.6042080478
 20
12.214110216
 30
0.0
 10
15.6004902647
 20
12.2423394497
 30
0.0
 10
15.5971458863
 20
12.2708751778
 30
0.0
 10
15.5941787102
 20
12.2996848877
 30
0.0
 10
15.5907202459
 20
12.3385290695
 30
0.0
 10
15.5873687795
 20
12.3875357563
 30
0.0
 10
15.5849069171
 20
12.4467386782
 30
0.0
 10
15.5840049113
 20
12.5062339487
 30
0.0
 10
15.5846669069
 20
12.5657500614
 30
0.0
 10
15.5868898675
 20
12.6250154171
 30
0.0
 10
15.5900430358
 20
12.6741014098
 30
0.0
 10
15.5933439218
 20
12.7130297221
 30
0.0
 10
15.5961945792
 20
12.7419169514
 30
0.0
 10
15.5994235266
 20
12.7705402658
 30
0.0
 10
15.603027095
 20
12.7988670526
 30
0.0
 10
15.6070011622
 20
12.8268649582
 30
0.0
 10
15.6113411833
 20
12.8545020294
 30
0.0
 10
15.6160421929
 20
12.8817467231
 30
0.0
 10
15.621098817
 20
12.908567946
 30
0.0
 10
15.6265052758
 20
12.9349350878
 30
0.0
 10
15.6322553942
 20
12.9608180768
 30
0.0
 10
15.6383425951
 20
12.9861873261
 30
0.0
 10
15.644759931
 20
13.0110140568
 30
0.0
 10
15.6515000438
 20
13.0352696778
 30
0.0
 10
15.6562513332
 20
13.0512014126
 30
0.0
 10
15.6586813609
 20
13.0590649849
 30
0.0
  0
SPLINE
  5
35C
100
AcDbEntity
  8
02___PRT_ALL_AXES
100
AcDbSpline
 62
7
  6
CONTINUOUS
 70
0
 71
3
 72
28
 73
24
 74
0
 42
0.0000001
 43
0.0000001
 44
0.0000000001
 40
0.0
 40
0.0
 40
0.0
 40
0.0
 40
0.0835099858
 40
0.1639061957
 40
0.2411638917
 40
0.3152793558
 40
0.3862714903
 40
0.4541854404
 40
0.519095855
 40
0.5811108629
 40
0.6403762309
 40
0.6970796112
 40
0.7514543965
 40
0.7778611823
 40
0.8037957612
 40
0.8293011294
 40
0.854423187
 40
0.8792107176
 40
0.9037150437
 40
0.9279898382
 40
0.9520906769
 40
0.976074682
 40
1.0
 40
1.0
 40
1.0
 40
1.0
 10
15.7231822439
 20
11.8488937543
 30
0.0
 10
15.7267188501
 20
11.8416869086
 30
0.0
 10
15.7338969778
 20
11.8276563102
 30
0.0
 10
15.7452067609
 20
11.8074128866
 30
0.0
 10
15.7568375039
 20
11.7884021129
 30
0.0
 10
15.7687690536
 20
11.7706573336
 30
0.0
 10
15.7809811195
 20
11.7542092671
 30
0.0
 10
15.7934530285
 20
11.7390865192
 30
0.0
 10
15.8061639344
 20
11.7253154441
 30
0.0
 10
15.8190927199
 20
11.7129202896
 30
0.0
 10
15.8322184438
 20
11.7019230892
 30
0.0
 10
15.8455188604
 20
11.6923444757
 30
0.0
 10
15.8568406843
 20
11.6854931748
 30
0.0
 10
15.8659494704
 20
11.6807677576
 30
0.0
 10
15.8727429376
 20
11.6776227749
 30
0.0
 10
15.8795611502
 20
11.6748441607
 30
0.0
 10
15.8864012509
 20
11.6724332557
 30
0.0
 10
15.893260139
 20
11.6703911705
 30
0.0
 10
15.9001347853
 20
11.6687189966
 30
0.0
 10
15.9070220436
 20
11.6674174903
 30
0.0
 10
15.9139188728
 20
11.6664873976
 30
0.0
 10
15.9208218424
 20
11.6659291192
 30
0.0
 10
15.9254283393
 20
11.6658049975
 30
0.0
 10
15.9277282872
 20
11.6658049999
 30
0.0
  0
SPLINE
  5
35D
100
AcDbEntity
  8
LAYER_CHAMFER_FEAT
100
AcDbSpline
 62
7
  6
CONTINUOUS
 70
0
 71
3
 72
75
 73
71
 74
0
 42
0.0000001
 43
0.0000001
 44
0.0000000001
 40
0.0
 40
0.0
 40
0.0
 40
0.0
 40
0.0038601584
 40
0.0077283485
 40
0.0116125388
 40
0.0155205797
 40
0.0194601386
 40
0.0234386601
 40
0.0274633113
 40
0.0315409492
 40
0.0398790149
 40
0.0485026059
 40
0.0574532448
 40
0.0667662428
 40
0.076470926
 40
0.0865910246
 40
0.0971451438
 40
0.1081472588
 40
0.119607194
 40
0.1315310723
 40
0.1439217209
 40
0.1567790302
 40
0.170100268
 40
0.183880353
 40
0.1981120921
 40
0.2127863855
 40
0.22789241
 40
0.2434177792
 40
0.259348683
 40
0.2756700126
 40
0.2923654727
 40
0.3094176808
 40
0.3268082606
 40
0.3445179292
 40
0.3625265759
 40
0.3808133375
 40
0.3993566676
 40
0.4181344035
 40
0.4371238295
 40
0.4563017403
 40
0.4756445012
 40
0.4951281068
 40
0.5147282381
 40
0.5344203184
 40
0.5541795693
 40
0.5739810654
 40
0.5937997897
 40
0.6136106883
 40
0.6333887242
 40
0.6531089314
 40
0.6727464698
 40
0.69227668
 40
0.71167514
 40
0.7309177198
 40
0.7499806392
 40
0.7688405249
 40
0.7874744704
 40
0.8058600972
 40
0.8239756198
 40
0.8417999107
 40
0.8593125685
 40
0.8764939911
 40
0.8933254522
 40
0.9097891854
 40
0.9258684763
 40
0.9415477505
 40
0.9568127287
 40
0.9716503767
 40
0.9860495014
 40
1.0
 40
1.0
 40
1.0
 40
1.0
 10
16.2841788919
 20
13.3558049871
 30
0.0
 10
16.2820610906
 20
13.355804991
 30
0.0
 10
16.2778203319
 20
13.3556997832
 30
0.0
 10
16.2714644686
 20
13.3552265527
 30
0.0
 10
16.2651133645
 20
13.354438111
 30
0.0
 10
16.2587696911
 20
13.3533347108
 30
0.0
 10
16.2524358057
 20
13.3519169035
 30
0.0
 10
16.2461141872
 20
13.3501852327
 30
0.0
 10
16.239807109
 20
13.3481403884
 30
0.0
 10
16.2313585736
 20
13.3449744928
 30
0.0
 10
16.2208273769
 20
13.3402116013
 30
0.0
 10
16.2083870416
 20
13.3333013359
 30
0.0
 10
16.1960661516
 20
13.3251656209
 30
0.0
 10
16.1838828262
 20
13.3158181519
 30
0.0
 10
16.1718538706
 20
13.3052736463
 30
0.0
 10
16.1599961798
 20
13.2935483011
 30
0.0
 10
16.1483264284
 20
13.2806597571
 30
0.0
 10
16.1368611856
 20
13.2666271968
 30
0.0
 10
16.1256168578
 20
13.251471386
 30
0.0
 10
16.1146096624
 20
13.2352146975
 30
0.0
 10
16.1038555841
 20
13.2178811103
 30
0.0
 10
16.09337033
 20
13.1994961992
 30
0.0
 10
16.0831692856
 20
13.1800871108
 30
0.0
 10
16.0732674766
 20
13.1596825326
 30
0.0
 10
16.0636795317
 20
13.1383126559
 30
0.0
 10
16.0544196442
 20
13.1160091351
 30
0.0
 10
16.045501548
 20
13.092805036
 30
0.0
 10
16.036938489
 20
13.0687347848
 30
0.0
 10
16.0287432006
 20
13.0438341146
 30
0.0
 10
16.0209278797
 20
13.018140011
 30
0.0
 10
16.0135041675
 20
12.9916906557
 30
0.0
 10
16.0064831253
 20
12.9645253705
 30
0.0
 10
15.9998752162
 20
12.9366845563
 30
0.0
 10
15.993690292
 20
12.9082096295
 30
0.0
 10
15.9879375764
 20
12.8791429583
 30
0.0
 10
15.982625651
 20
12.8495277991
 30
0.0
 10
15.9777624415
 20
12.8194082311
 30
0.0
 10
15.9733552063
 20
12.788829091
 30
0.0
 10
15.9694105197
 20
12.7578359062
 30
0.0
 10
15.9659342667
 20
12.726474825
 30
0.0
 10
15.9629316343
 20
12.6947925461
 30
0.0
 10
15.9604071035
 20
12.6628362492
 30
0.0
 10
15.9583644426
 20
12.6306535239
 30
0.0
 10
15.9568067021
 20
12.5982922994
 30
0.0
 10
15.9557362078
 20
12.5658007726
 30
0.0
 10
15.9551545549
 20
12.5332273358
 30
0.0
 10
15.9550626106
 20
12.5006205035
 30
0.0
 10
15.9554605117
 20
12.46802884
 30
0.0
 10
15.9563476648
 20
12.4355008866
 30
0.0
 10
15.9577227468
 20
12.4030850899
 30
0.0
 10
15.9595837079
 20
12.3708297288
 30
0.0
 10
15.9619277696
 20
12.3387828418
 30
0.0
 10
15.9647514317
 20
12.3069921545
 30
0.0
 10
15.9680504797
 20
12.2755050084
 30
0.0
 10
15.9718199901
 20
12.2443682907
 30
0.0
 10
15.9760543387
 20
12.2136283642
 30
0.0
 10
15.9807472084
 20
12.1833309975
 30
0.0
 10
15.985891599
 20
12.1535212955
 30
0.0
 10
15.991479833
 20
12.1242436298
 30
0.0
 10
15.9975035731
 20
12.0955415731
 30
0.0
 10
16.0039538347
 20
12.0674578341
 30
0.0
 10
16.0108209996
 20
12.0400341932
 30
0.0
 10
16.0180948312
 20
12.0133114397
 30
0.0
 10
16.0257644922
 20
11.9873293072
 30
0.0
 10
16.0338185586
 20
11.9621264196
 30
0.0
 10
16.042245038
 20
11.9377401959
 30
0.0
 10
16.0510313905
 20
11.9142069135
 30
0.0
 10
16.0601645931
 20
11.8915613134
 30
0.0
 10
16.0696309694
 20
11.8698373899
 30
0.0
 10
16.0762610795
 20
11.8557646974
 30
0.0
 10
16.0796328486
 20
11.8488937543
 30
0.0
  0
SPLINE
  5
35E
100
AcDbEntity
  8
02___PRT_ALL_AXES
100
AcDbSpline
 62
7
  6
CONTINUOUS
 70
0
 71
3
 72
75
 73
71
 74
0
 42
0.0000001
 43
0.0000001
 44
0.0000000001
 40
0.0
 40
0.0
 40
0.0
 40
0.0
 40
0.0038601585
 40
0.0077283483
 40
0.0116125393
 40
0.015520579
 40
0.0194601393
 40
0.0234386594
 40
0.0274633116
 40
0.0315409493
 40
0.0398790157
 40
0.0485026066
 40
0.0574532448
 40
0.0667662422
 40
0.0764709254
 40
0.0865910245
 40
0.0971451441
 40
0.1081472584
 40
0.1196071927
 40
0.1315310708
 40
0.1439217201
 40
0.1567790309
 40
0.1701002701
 40
0.1838803551
 40
0.1981120922
 40
0.2127863833
 40
0.2278924071
 40
0.2434177775
 40
0.2593486833
 40
0.2756700147
 40
0.2923654748
 40
0.3094176815
 40
0.3268082597
 40
0.3445179275
 40
0.3625265746
 40
0.3808133373
 40
0.3993566684
 40
0.4181344042
 40
0.4371238298
 40
0.4563017402
 40
0.475644501
 40
0.4951281068
 40
0.5147282381
 40
0.5344203185
 40
0.5541795693
 40
0.5739810654
 40
0.5937997898
 40
0.6136106885
 40
0.6333887241
 40
0.6531089311
 40
0.6727464695
 40
0.6922766805
 40
0.711675141
 40
0.7309177209
 40
0.7499806396
 40
0.7688405241
 40
0.7874744688
 40
0.8058600962
 40
0.8239756202
 40
0.8417999124
 40
0.8593125707
 40
0.8764939922
 40
0.8933254517
 40
0.9097891837
 40
0.9258684754
 40
0.9415477516
 40
0.956812725
 40
0.9716503909
 40
0.9860494776
 40
1.0
 40
1.0
 40
1.0
 40
1.0
 10
15.9277282872
 20
13.3558049859
 30
0.0
 10
15.9256104859
 20
13.3558049837
 30
0.0
 10
15.9213697276
 20
13.3556997831
 30
0.0
 10
15.9150138624
 20
13.3552265629
 30
0.0
 10
15.9086627625
 20
13.3544380958
 30
0.0
 10
15.9023190826
 20
13.3533347287
 30
0.0
 10
15.8959852051
 20
13.3519168884
 30
0.0
 10
15.8896635786
 20
13.3501852462
 30
0.0
 10
15.8833565066
 20
13.3481403828
 30
0.0
 10
15.8749079666
 20
13.3449744979
 30
0.0
 10
15.864376774
 20
13.3402115955
 30
0.0
 10
15.8519364372
 20
13.3333013338
 30
0.0
 10
15.8396155468
 20
13.3251656205
 30
0.0
 10
15.8274322209
 20
13.3158181535
 30
0.0
 10
15.8154032653
 20
13.3052736478
 30
0.0
 10
15.803545575
 20
13.2935483015
 30
0.0
 10
15.7918758246
 20
13.2806597566
 30
0.0
 10
15.7804105808
 20
13.2666271978
 30
0.0
 10
15.7691662519
 20
13.251471389
 30
0.0
 10
15.7581590562
 20
13.2352147009
 30
0.0
 10
15.7474049785
 20
13.2178811121
 30
0.0
 10
15.7369197255
 20
13.199496198
 30
0.0
 10
15.7267186827
 20
13.1800871071
 30
0.0
 10
15.7168168744
 20
13.159682529
 30
0.0
 10
15.7072289272
 20
13.1383126559
 30
0.0
 10
15.6979690371
 20
13.116009139
 30
0.0
 10
15.6890509398
 20
13.0928050414
 30
0.0
 10
15.680487882
 20
13.0687347882
 30
0.0
 10
15.6722925959
 20
13.0438341144
 30
0.0
 10
15.6644772777
 20
13.0181400077
 30
0.0
 10
15.6570535659
 20
12.9916906522
 30
0.0
 10
15.6500325215
 20
12.9645253692
 30
0.0
 10
15.6434246101
 20
12.9366845578
 30
0.0
 10
15.6372396843
 20
12.9082096324
 30
0.0
 10
15.6314869688
 20
12.8791429608
 30
0.0
 10
15.6261750454
 20
12.8495277998
 30
0.0
 10
15.6213118385
 20
12.8194082302
 30
0.0
 10
15.6169046033
 20
12.7888290899
 30
0.0
 10
15.6129599155
 20
12.7578359058
 30
0.0
 10
15.6094836614
 20
12.7264748251
 30
0.0
 10
15.6064810286
 20
12.6947925465
 30
0.0
 10
15.6039564981
 20
12.6628362494
 30
0.0
 10
15.601913838
 20
12.6306535239
 30
0.0
 10
15.6003560975
 20
12.5982922994
 30
0.0
 10
15.5992856021
 20
12.5658007727
 30
0.0
 10
15.5987039486
 20
12.5332273358
 30
0.0
 10
15.5986120046
 20
12.5006205034
 30
0.0
 10
15.599009907
 20
12.4680288399
 30
0.0
 10
15.5998970617
 20
12.4355008868
 30
0.0
 10
15.6012721447
 20
12.4030850904
 30
0.0
 10
15.603133104
 20
12.3708297289
 30
0.0
 10
15.6054771627
 20
12.3387828409
 30
0.0
 10
15.6083008233
 20
12.3069921526
 30
0.0
 10
15.6115998721
 20
12.2755050066
 30
0.0
 10
15.6153693849
 20
12.2443682903
 30
0.0
 10
15.6196037362
 20
12.2136283657
 30
0.0
 10
15.6242966073
 20
12.183331
 30
0.0
 10
15.629440996
 20
12.1535212969
 30
0.0
 10
15.6350292273
 20
12.1242436289
 30
0.0
 10
15.6410529656
 20
12.09554157
 30
0.0
 10
15.6475032268
 20
12.0674578304
 30
0.0
 10
15.6543703934
 20
12.0400341912
 30
0.0
 10
15.6616442279
 20
12.0133114407
 30
0.0
 10
15.6693138896
 20
11.9873293096
 30
0.0
 10
15.6773679547
 20
11.9621264206
 30
0.0
 10
15.6857944332
 20
11.9377401978
 30
0.0
 10
15.6945807847
 20
11.9142069061
 30
0.0
 10
15.7037139872
 20
11.8915613207
 30
0.0
 10
15.7131803594
 20
11.8698373931
 30
0.0
 10
15.7198104691
 20
11.8557647091
 30
0.0
 10
15.7231822439
 20
11.8488937543
 30
0.0
  0
LINE
  5
35F
100
AcDbEntity
  8
LAYER_FEATURE
100
AcDbLine
 62
7
  6
CONTINUOUS
 10
14.4782475326
 20
12.9751599211
 11
14.480230736
 21
12.977565252
  0
SPLINE
  5
360
100
AcDbEntity
  8
02___PRT_ALL_AXES
100
AcDbSpline
 62
7
  6
CONTINUOUS
 70
0
 71
3
 72
24
 73
20
 74
0
 42
0.0000001
 43
0.0000001
 44
0.0000000001
 40
0.0
 40
0.0
 40
0.0
 40
0.0
 40
0.0478952917
 40
0.0962574104
 40
0.1455367247
 40
0.1961529582
 40
0.2484846146
 40
0.3028630291
 40
0.3309152477
 40
0.3595806569
 40
0.4188500353
 40
0.4808691877
 40
0.5457839904
 40
0.6137024867
 40
0.6846995377
 40
0.7588199428
 40
0.836082018
 40
0.9164862998
 40
1.0
 40
1.0
 40
1.0
 40
1.0
 10
16.3422057345
 20
12.7608049917
 30
0.0
 10
16.3435678287
 20
12.7608049964
 30
0.0
 10
16.3463075421
 20
12.7606567985
 30
0.0
 10
16.3504001043
 20
12.7599917442
 30
0.0
 10
16.3544763232
 20
12.7588854828
 30
0.0
 10
16.3585277803
 20
12.7573409629
 30
0.0
 10
16.3625472132
 20
12.7553620909
 30
0.0
 10
16.3658301337
 20
12.7533754142
 30
0.0
 10
16.3684319485
 20
12.7515818891
 30
0.0
 10
16.3710746892
 20
12.7496067483
 30
0.0
 10
16.3743464979
 20
12.7468654894
 30
0.0
 10
16.3781715026
 20
12.7431983674
 30
0.0
 10
16.3819321476
 20
12.7391240618
 30
0.0
 10
16.3856220534
 20
12.7346498772
 30
0.0
 10
16.3892350942
 20
12.7297835829
 30
0.0
 10
16.3927651276
 20
12.7245336675
 30
0.0
 10
16.3962062094
 20
12.718909139
 30
0.0
 10
16.3995522763
 20
12.7129199505
 30
0.0
 10
16.4016760061
 20
12.7087688744
 30
0.0
 10
16.4027223154
 20
12.7066367203
 30
0.0
  0
SPLINE
  5
361
100
AcDbEntity
  8
LAYER_CHAMFER_FEAT
100
AcDbSpline
 62
7
  6
CONTINUOUS
 70
0
 71
3
 72
28
 73
24
 74
0
 42
0.0000001
 43
0.0000001
 44
0.0000000001
 40
0.0
 40
0.0
 40
0.0
 40
0.0
 40
0.0835098736
 40
0.163906257
 40
0.2411638575
 40
0.3152793555
 40
0.3862714757
 40
0.4541854298
 40
0.5190958453
 40
0.581110857
 40
0.6403762297
 40
0.697079615
 40
0.7514544048
 40
0.777861172
 40
0.8037957703
 40
0.82930112
 40
0.8544231944
 40
0.879210711
 40
0.9037150481
 40
0.9279898347
 40
0.9520906784
 40
0.9760746809
 40
1.0
 40
1.0
 40
1.0
 40
1.0
 10
16.0796328486
 20
11.8488937543
 30
0.0
 10
16.08316945
 20
11.8416869183
 30
0.0
 10
16.0903475829
 20
11.8276563161
 30
0.0
 10
16.1016573593
 20
11.8074128925
 30
0.0
 10
16.1132881141
 20
11.7884021135
 30
0.0
 10
16.1252196569
 20
11.7706573385
 30
0.0
 10
16.1374317263
 20
11.7542092719
 30
0.0
 10
16.1499036338
 20
11.7390865241
 30
0.0
 10
16.1626145398
 20
11.725315448
 30
0.0
 10
16.175543325
 20
11.7129202923
 30
0.0
 10
16.1886690477
 20
11.7019230877
 30
0.0
 10
16.201969467
 20
11.6923444778
 30
0.0
 10
16.2132912797
 20
11.6854931566
 30
0.0
 10
16.2224000841
 20
11.6807677753
 30
0.0
 10
16.2291935327
 20
11.6776227554
 30
0.0
 10
16.236011764
 20
11.6748441836
 30
0.0
 10
16.2428518474
 20
11.6724332337
 30
0.0
 10
16.2497107503
 20
11.6703911935
 30
0.0
 10
16.2565853849
 20
11.668718977
 30
0.0
 10
16.2634726516
 20
11.6674175092
 30
0.0
 10
16.2703694755
 20
11.6664873846
 30
0.0
 10
16.2772724479
 20
11.6659291288
 30
0.0
 10
16.2818789439
 20
11.6658050029
 30
0.0
 10
16.2841788919
 20
11.6658049987
 30
0.0
  0
SPLINE
  5
362
100
AcDbEntity
  8
LAYER_CHAMFER_FEAT
100
AcDbSpline
 62
7
  6
CONTINUOUS
 70
0
 71
3
 72
46
 73
42
 74
0
 42
0.0000001
 43
0.0000001
 44
0.0000000001
 40
0.0
 40
0.0
 40
0.0
 40
0.0
 40
0.0439484753
 40
0.0865523783
 40
0.1277991488
 40
0.167685339
 40
0.2062121687
 40
0.243388348
 40
0.2792304043
 40
0.3137634438
 40
0.3470221995
 40
0.3790520335
 40
0.4099099437
 40
0.4396655776
 40
0.4684021639
 40
0.4962172394
 40
0.5232229396
 40
0.5495457703
 40
0.5624971719
 40
0.5753313855
 40
0.5880676953
 40
0.6007259527
 40
0.6133264835
 40
0.6258899499
 40
0.6384372503
 40
0.6509893792
 40
0.6635673048
 40
0.6761918305
 40
0.6888834784
 40
0.7016623739
 40
0.7145481124
 40
0.7275597028
 40
0.7540276
 40
0.7812086974
 40
0.8092262465
 40
0.8381890103
 40
0.8681911923
 40
0.89931285
 40
0.9316206253
 40
0.9651687324
 40
1.0
 40
1.0
 40
1.0
 40
1.0
 10
16.1529098696
 20
11.8982433496
 30
0.0
 10
16.1556200511
 20
11.8927205803
 30
0.0
 10
16.1611082623
 20
11.8819170714
 30
0.0
 10
16.1696839533
 20
11.8662141042
 30
0.0
 10
16.1784663127
 20
11.8512813929
 30
0.0
 10
16.1874447379
 20
11.8371369484
 30
0.0
 10
16.1966087967
 20
11.8237974444
 30
0.0
 10
16.2059477025
 20
11.8112787571
 30
0.0
 10
16.2154505647
 20
11.7995957446
 30
0.0
 10
16.2251063726
 20
11.7887623191
 30
0.0
 10
16.2349040037
 20
11.7787914391
 30
0.0
 10
16.2448322231
 20
11.7696950931
 30
0.0
 10
16.2548797059
 20
11.7614843537
 30
0.0
 10
16.265035041
 20
11.7541694079
 30
0.0
 10
16.2752866269
 20
11.7477596018
 30
0.0
 10
16.285622838
 20
11.7422633629
 30
0.0
 10
16.2960310688
 20
11.7376884181
 30
0.0
 10
16.3048030234
 20
11.7346325369
 30
0.0
 10
16.3118289618
 20
11.7326660672
 30
0.0
 10
16.3170799157
 20
11.7314321251
 30
0.0
 10
16.3223385362
 20
11.7304318176
 30
0.0
 10
16.3276033083
 20
11.7296654644
 30
0.0
 10
16.3328725801
 20
11.7291332713
 30
0.0
 10
16.3381447409
 20
11.7288354697
 30
0.0
 10
16.3434181557
 20
11.728772143
 30
0.0
 10
16.3486911969
 20
11.7289432801
 30
0.0
 10
16.3539622313
 20
11.7293488887
 30
0.0
 10
16.3592296332
 20
11.7299887723
 30
0.0
 10
16.3644917875
 20
11.7308627373
 30
0.0
 10
16.3697470467
 20
11.731970513
 30
0.0
 10
16.3749939077
 20
11.7333117177
 30
0.0
 10
16.3820154101
 20
11.7354223547
 30
0.0
 10
16.3907791737
 20
11.7386583236
 30
0.0
 10
16.4011718359
 20
11.7434456916
 30
0.0
 10
16.4114896699
 20
11.7491526869
 30
0.0
 10
16.4217201523
 20
11.7557713676
 30
0.0
 10
16.4318517204
 20
11.7632931115
 30
0.0
 10
16.441872778
 20
11.7717083851
 30
0.0
 10
16.4517720056
 20
11.7810068571
 30
0.0
 10
16.4615378769
 20
11.791176962
 30
0.0
 10
16.4678325652
 20
11.7983930104
 30
0.0
 10
16.4709569002
 20
11.8021361182
 30
0.0
  0
SPLINE
  5
363
100
AcDbEntity
  8
02___PRT_ALL_AXES
100
AcDbSpline
 62
7
  6
CONTINUOUS
 70
0
 71
3
 72
58
 73
54
 74
0
 42
0.0000001
 43
0.0000001
 44
0.0000000001
 40
0.0
 40
0.0
 40
0.0
 40
0.0
 40
0.0139505261
 40
0.0283504425
 40
0.0431883946
 40
0.0584536912
 40
0.074133404
 40
0.090213095
 40
0.1066772429
 40
0.1235091231
 40
0.1406909814
 40
0.1582040819
 40
0.1941433005
 40
0.2311624272
 40
0.2690849108
 40
0.3077257187
 40
0.3468932933
 40
0.3863913996
 40
0.4260209017
 40
0.4655815193
 40
0.5048735739
 40
0.5436997279
 40
0.581866769
 40
0.6191874363
 40
0.6554823069
 40
0.6731924159
 40
0.690583434
 40
0.7076360759
 40
0.7243319492
 40
0.7406536959
 40
0.7565850041
 40
0.7721107579
 40
0.7872171706
 40
0.801891829
 40
0.8161239215
 40
0.8299043642
 40
0.8432259315
 40
0.8560835659
 40
0.8684745347
 40
0.8803987025
 40
0.8918589295
 40
0.9028613249
 40
0.9134157031
 40
0.9235360654
 40
0.9332409921
 40
0.9425542197
 40
0.9515050903
 40
0.9601288935
 40
0.9684671686
 40
0.9765676165
 40
0.9844836967
 40
0.9922738192
 40
1.0
 40
1.0
 40
1.0
 40
1.0
 10
16.4027223154
 20
12.7066367203
 30
0.0
 10
16.403719857
 20
12.7046039442
 30
0.0
 10
16.4056814224
 20
12.7004404045
 30
0.0
 10
16.4084821475
 20
12.6940132119
 30
0.0
 10
16.4111842958
 20
12.6873132858
 30
0.0
 10
16.4137837897
 20
12.6803507856
 30
0.0
 10
16.4162768403
 20
12.6731359347
 30
0.0
 10
16.4186596996
 20
12.6656794527
 30
0.0
 10
16.4209288242
 20
12.6579924302
 30
0.0
 10
16.4230808501
 20
12.6500862972
 30
0.0
 10
16.425112566
 20
12.641972777
 30
0.0
 10
16.4276790644
 20
12.6307982886
 30
0.0
 10
16.4305570578
 20
12.6163947258
 30
0.0
 10
16.4334583205
 20
12.5986292864
 30
0.0
 10
16.4358189499
 20
12.5803418205
 30
0.0
 10
16.4376248148
 20
12.5616411166
 30
0.0
 10
16.4388650993
 20
12.5426382216
 30
0.0
 10
16.4395323647
 20
12.5234460897
 30
0.0
 10
16.439622605
 20
12.5041788046
 30
0.0
 10
16.4391352899
 20
12.4849509136
 30
0.0
 10
16.4380733412
 20
12.465876718
 30
0.0
 10
16.4364431136
 20
12.4470696063
 30
0.0
 10
16.4342543794
 20
12.4286412735
 30
0.0
 10
16.4315202549
 20
12.4107013556
 30
0.0
 10
16.428779072
 20
12.3961301385
 30
0.0
 10
16.4263192556
 20
12.3848051367
 30
0.0
 10
16.4243642404
 20
12.3765681935
 30
0.0
 10
16.4222870169
 20
12.3685311306
 30
0.0
 10
16.4200906439
 20
12.3607058784
 30
0.0
 10
16.4177784245
 20
12.3531040712
 30
0.0
 10
16.4153537846
 20
12.3457370081
 30
0.0
 10
16.4128203286
 20
12.3386156339
 30
0.0
 10
16.410181846
 20
12.3317505138
 30
0.0
 10
16.4074422308
 20
12.325151841
 30
0.0
 10
16.4046055562
 20
12.3188293945
 30
0.0
 10
16.4016760362
 20
12.3127925328
 30
0.0
 10
16.398657969
 20
12.3070502015
 30
0.0
 10
16.3955558231
 20
12.3016108784
 30
0.0
 10
16.3923741506
 20
12.2964825939
 30
0.0
 10
16.3891175742
 20
12.2916729294
 30
0.0
 10
16.3857908541
 20
12.2871889601
 30
0.0
 10
16.3823987736
 20
12.2830373122
 30
0.0
 10
16.3789461766
 20
12.2792241402
 30
0.0
 10
16.3754379915
 20
12.2757550947
 30
0.0
 10
16.3718791302
 20
12.2726354204
 30
0.0
 10
16.3682745797
 20
12.2698699012
 30
0.0
 10
16.3646293933
 20
12.2674628861
 30
0.0
 10
16.3609486764
 20
12.2654183955
 30
0.0
 10
16.3572377164
 20
12.2637399918
 30
0.0
 10
16.3535020453
 20
12.2624308321
 30
0.0
 10
16.3497472908
 20
12.2614936405
 30
0.0
 10
16.3459800444
 20
12.2609304259
 30
0.0
 10
16.3434597916
 20
12.2608049984
 30
0.0
 10
16.3422057345
 20
12.2608049941
 30
0.0
  0
SPLINE
  5
364
100
AcDbEntity
  8
LAYER_FEATURE
100
AcDbSpline
 62
7
  6
CONTINUOUS
 70
0
 71
3
 72
40
 73
36
 74
0
 42
0.0000001
 43
0.0000001
 44
0.0000000001
 40
0.0
 40
0.0
 40
0.0
 40
0.0
 40
0.0443811139
 40
0.0879667349
 40
0.1307332134
 40
0.1726614725
 40
0.2137326659
 40
0.2539296163
 40
0.2932370197
 40
0.331641343
 40
0.369131063
 40
0.4056967748
 40
0.4413313788
 40
0.4760302962
 40
0.5097916243
 40
0.5426163818
 40
0.5745088053
 40
0.6054765756
 40
0.6355311223
 40
0.6646880074
 40
0.692967238
 40
0.7203936252
 40
0.746997217
 40
0.7728136618
 40
0.7978845448
 40
0.8101562374
 40
0.8222600457
 40
0.8459899735
 40
0.8691376753
 40
0.8917708177
 40
0.9139634692
 40
0.9357956004
 40
0.9573523562
 40
0.9787230683
 40
1.0
 40
1.0
 40
1.0
 40
1.0
 10
14.4555058415
 20
13.2505208551
 30
0.0
 10
14.4581827631
 20
13.2591833766
 30
0.0
 10
14.46362734
 20
13.2763106861
 30
0.0
 10
14.4721470316
 20
13.3016244375
 30
0.0
 10
14.4809404925
 20
13.3263132497
 30
0.0
 10
14.4900006393
 20
13.3503573427
 30
0.0
 10
14.4993203877
 20
13.373737927
 30
0.0
 10
14.5088923629
 20
13.3964365141
 30
0.0
 10
14.5187090176
 20
13.4184351906
 30
0.0
 10
14.5287626191
 20
13.4397166209
 30
0.0
 10
14.5390452334
 20
13.4602640372
 30
0.0
 10
14.54954878
 20
13.4800612454
 30
0.0
 10
14.5602650119
 20
13.4990926509
 30
0.0
 10
14.5711855014
 20
13.517343283
 30
0.0
 10
14.582301698
 20
13.5347987768
 30
0.0
 10
14.5936049242
 20
13.5514453889
 30
0.0
 10
14.6050863428
 20
13.5672700375
 30
0.0
 10
14.6167370182
 20
13.5822602732
 30
0.0
 10
14.6285479291
 20
13.5964042778
 30
0.0
 10
14.6405099215
 20
13.6096909118
 30
0.0
 10
14.652613771
 20
13.6221096869
 30
0.0
 10
14.6648501707
 20
13.6336507189
 30
0.0
 10
14.6772098068
 20
13.6443048544
 30
0.0
 10
14.6896829466
 20
13.6540633619
 30
0.0
 10
14.7002385256
 20
13.6614949716
 30
0.0
 10
14.7087272225
 20
13.6669726738
 30
0.0
 10
14.717129001
 20
13.6720727968
 30
0.0
 10
14.7276895533
 20
13.6778899182
 30
0.0
 10
14.7405211643
 20
13.6839931379
 30
0.0
 10
14.7534177935
 20
13.6891674024
 30
0.0
 10
14.7663689517
 20
13.6934078282
 30
0.0
 10
14.7793641258
 20
13.6967103833
 30
0.0
 10
14.7923928058
 20
13.699071756
 30
0.0
 10
14.8054431275
 20
13.7004895688
 30
0.0
 10
14.8141589553
 20
13.7008049956
 30
0.0
 10
14.8185056628
 20
13.7008049925
 30
0.0
  0
SPLINE
  5
365
100
AcDbEntity
  8
LAYER_FEATURE
100
AcDbSpline
 62
7
  6
CONTINUOUS
 70
0
 71
3
 72
22
 73
18
 74
0
 42
0.0000001
 43
0.0000001
 44
0.0000000001
 40
0.0
 40
0.0
 40
0.0
 40
0.0
 40
0.1739833805
 40
0.2559725577
 40
0.3343865113
 40
0.4090930778
 40
0.4799876605
 40
0.5470129851
 40
0.6101603426
 40
0.6694801241
 40
0.725093855
 40
0.7772063055
 40
0.8261231213
 40
0.8722620981
 40
0.9161646618
 40
0.9584911137
 40
1.0
 40
1.0
 40
1.0
 40
1.0
 10
14.4844727559
 20
13.1308873396
 30
0.0
 10
14.4846626211
 20
13.1315794119
 30
0.0
 10
14.4849736711
 20
13.1325895898
 30
0.0
 10
14.4854541847
 20
13.1338827503
 30
0.0
 10
14.4858289151
 20
13.1347775356
 30
0.0
 10
14.4862237388
 20
13.1356133213
 30
0.0
 10
14.4866373263
 20
13.1363871689
 30
0.0
 10
14.4870682053
 20
13.1370963645
 30
0.0
 10
14.4875149228
 20
13.1377384275
 30
0.0
 10
14.4879759843
 20
13.1383111177
 30
0.0
 10
14.4884498812
 20
13.1388124338
 30
0.0
 10
14.4889351496
 20
13.1392405464
 30
0.0
 10
14.4894302806
 20
13.1395938479
 30
0.0
 10
14.4899337653
 20
13.1398707974
 30
0.0
 10
14.4904439931
 20
13.1400699691
 30
0.0
 10
14.4909588778
 20
13.1401901163
 30
0.0
 10
14.4913052478
 20
13.1402169762
 30
0.0
 10
14.491476463
 20
13.140216977
 30
0.0
  0
SPLINE
  5
366
100
AcDbEntity
  8
LAYER_FEATURE
100
AcDbSpline
 62
7
  6
CONTINUOUS
 70
0
 71
3
 72
18
 73
14
 74
0
 42
0.0000001
 43
0.0000001
 44
0.0000000001
 40
0.0
 40
0.0
 40
0.0
 40
0.0
 40
0.1409280179
 40
0.2796415383
 40
0.4148771306
 40
0.5454215421
 40
0.6701469861
 40
0.7300100721
 40
0.7880467146
 40
0.8441518614
 40
0.8982310324
 40
0.9502028863
 40
1.0
 40
1.0
 40
1.0
 40
1.0
 10
14.5320609326
 20
13.1796793689
 30
0.0
 10
14.5320073595
 20
13.1777723418
 30
0.0
 10
14.5318240296
 20
13.1739899314
 30
0.0
 10
14.5313181403
 20
13.1683948487
 30
0.0
 10
14.5305883105
 20
13.1629660857
 30
0.0
 10
14.5296425885
 20
13.1577630308
 30
0.0
 10
14.5286704548
 20
13.1536069717
 30
0.0
 10
14.5277882068
 20
13.1504427899
 30
0.0
 10
14.5270887778
 20
13.1481930842
 30
0.0
 10
14.5263445408
 20
13.1460404599
 30
0.0
 10
14.5255574793
 20
13.1439907686
 30
0.0
 10
14.5247297931
 20
13.1420496348
 30
0.0
 10
14.5241395418
 20
13.1408042898
 30
0.0
 10
14.5238374356
 20
13.1402016581
 30
0.0
  0
SPLINE
  5
367
100
AcDbEntity
  8
LAYER_FEATURE
100
AcDbSpline
 62
7
  6
CONTINUOUS
 70
0
 71
3
 72
14
 73
10
 74
0
 42
0.0000001
 43
0.0000001
 44
0.0000000001
 40
0.0
 40
0.0
 40
0.0
 40
0.0
 40
0.1141214908
 40
0.2320074509
 40
0.3533422655
 40
0.4778142511
 40
0.6050807951
 40
0.7347825852
 40
1.0
 40
1.0
 40
1.0
 40
1.0
 10
14.5259209611
 20
13.2283556823
 30
0.0
 10
14.5262870842
 20
13.2271561785
 30
0.0
 10
14.5269893429
 20
13.2247045907
 30
0.0
 10
14.527940024
 20
13.2209391302
 30
0.0
 10
14.5288025894
 20
13.2170359382
 30
0.0
 10
14.5295740228
 20
13.2130087723
 30
0.0
 10
14.5302516206
 20
13.2088715444
 30
0.0
 10
14.5310325204
 20
13.2031859326
 30
0.0
 10
14.5314610657
 20
13.1988648997
 30
0.0
 10
14.5316808277
 20
13.1959585962
 30
0.0
  0
LINE
  5
368
100
AcDbEntity
  8
LAYER_FEATURE
100
AcDbLine
 62
7
  6
CONTINUOUS
 10
14.5238605977
 20
13.2353027405
 11
14.5231731375
 21
13.2384834369
  0
SPLINE
  5
369
100
AcDbEntity
  8
LAYER_FEATURE
100
AcDbSpline
 62
7
  6
CONTINUOUS
 70
0
 71
3
 72
17
 73
13
 74
0
 42
0.0000001
 43
0.0000001
 44
0.0000000001
 40
0.0
 40
0.0
 40
0.0
 40
0.0
 40
0.12684014
 40
0.2573076479
 40
0.3893234751
 40
0.5207570051
 40
0.6494964503
 40
0.773506192
 40
0.8331456125
 40
0.8909053417
 40
0.9465900827
 40
1.0
 40
1.0
 40
1.0
 40
1.0
 10
14.5231731375
 20
13.2384834369
 30
0.0
 10
14.5230253672
 20
13.2394435082
 30
0.0
 10
14.5227855196
 20
13.2414007262
 30
0.0
 10
14.5225889602
 20
13.2443771845
 30
0.0
 10
14.5225524275
 20
13.2473951461
 30
0.0
 10
14.5226766589
 20
13.2503975348
 30
0.0
 10
14.5229592423
 20
13.2533276012
 30
0.0
 10
14.523326738
 20
13.2556932267
 30
0.0
 10
14.5236986539
 20
13.2575045042
 30
0.0
 10
14.524009253
 20
13.258793418
 30
0.0
 10
14.5243536137
 20
13.2600242505
 30
0.0
 10
14.5246102016
 20
13.2608196468
 30
0.0
 10
14.52474429
 20
13.2612060716
 30
0.0
  0
SPLINE
  5
36A
100
AcDbEntity
  8
LAYER_FEATURE
100
AcDbSpline
 62
7
  6
CONTINUOUS
 70
0
 71
3
 72
11
 73
7
 74
0
 42
0.0000001
 43
0.0000001
 44
0.0000000001
 40
0.0
 40
0.0
 40
0.0
 40
0.0
 40
0.2333156646
 40
0.4791408913
 40
0.7354389668
 40
1.0
 40
1.0
 40
1.0
 40
1.0
 10
14.5780895309
 20
13.2867829244
 30
0.0
 10
14.5785613231
 20
13.28833344
 30
0.0
 10
14.5794328364
 20
13.2915477943
 30
0.0
 10
14.5805073622
 20
13.2965442375
 30
0.0
 10
14.581375057
 20
13.3018006806
 30
0.0
 10
14.5818037637
 20
13.3053946423
 30
0.0
 10
14.5819830118
 20
13.3072236283
 30
0.0
  0
SPLINE
  5
36B
100
AcDbEntity
  8
LAYER_FEATURE
100
AcDbSpline
 62
7
  6
CONTINUOUS
 70
0
 71
3
 72
13
 73
9
 74
0
 42
0.0000001
 43
0.0000001
 44
0.0000000001
 40
0.0
 40
0.0
 40
0.0
 40
0.0
 40
0.2581866427
 40
0.512869795
 40
0.6379741431
 40
0.7610929637
 40
0.8818860917
 40
1.0
 40
1.0
 40
1.0
 40
1.0
 10
14.5827095119
 20
13.3234250327
 30
0.0
 10
14.5826894411
 20
13.3264115035
 30
0.0
 10
14.5825136835
 20
13.3323438606
 30
0.0
 10
14.5819520983
 20
13.3397050664
 30
0.0
 10
14.581297741
 20
13.3454859611
 30
0.0
 10
14.580711673
 20
13.3497145677
 30
0.0
 10
14.5800295053
 20
13.353846777
 30
0.0
 10
14.5795059217
 20
13.3565606758
 30
0.0
 10
14.5792278994
 20
13.3578983555
 30
0.0
  0
LINE
  5
36C
100
AcDbEntity
  8
LAYER_FEATURE
100
AcDbLine
 62
7
  6
CONTINUOUS
 10
14.5772066782
 20
13.3690975475
 11
14.5776686101
 21
13.3656586229
  0
SPLINE
  5
36D
100
AcDbEntity
  8
LAYER_FEATURE
100
AcDbSpline
 62
7
  6
CONTINUOUS
 70
0
 71
3
 72
18
 73
14
 74
0
 42
0.0000001
 43
0.0000001
 44
0.0000000001
 40
0.0
 40
0.0
 40
0.0
 40
0.0
 40
0.0488197931
 40
0.1003790432
 40
0.1545362291
 40
0.2111420698
 40
0.2700142748
 40
0.3309504185
 40
0.4581091021
 40
0.5907175896
 40
0.7266938111
 40
0.8638564758
 40
1.0
 40
1.0
 40
1.0
 40
1.0
 10
14.5802905065
 20
13.390774371
 30
0.0
 10
14.5801312891
 20
13.3904515093
 30
0.0
 10
14.5798230351
 20
13.389778122
 30
0.0
 10
14.5794009256
 20
13.3887192468
 30
0.0
 10
14.5790081554
 20
13.3875881987
 30
0.0
 10
14.5786466006
 20
13.3863904083
 30
0.0
 10
14.5783179495
 20
13.3851314657
 30
0.0
 10
14.5779201253
 20
13.3833540555
 30
0.0
 10
14.5775191568
 20
13.3810217677
 30
0.0
 10
14.5771954796
 20
13.3781201345
 30
0.0
 10
14.5770290266
 20
13.3751313652
 30
0.0
 10
14.5770229739
 20
13.3721120652
 30
0.0
 10
14.5771269243
 20
13.3700982654
 30
0.0
 10
14.5772066782
 20
13.3690975475
 30
0.0
  0
SPLINE
  5
36E
100
AcDbEntity
  8
LAYER_FEATURE
100
AcDbSpline
 62
7
  6
CONTINUOUS
 70
0
 71
3
 72
10
 73
6
 74
0
 42
0.0000001
 43
0.0000001
 44
0.0000000001
 40
0.0
 40
0.0
 40
0.0
 40
0.0
 40
0.2434041595
 40
0.4918071485
 40
1.0
 40
1.0
 40
1.0
 40
1.0
 10
14.6397714329
 20
13.4105691104
 30
0.0
 10
14.6399908882
 20
13.4118273935
 30
0.0
 10
14.6403959172
 20
13.4143766735
 30
0.0
 10
14.6410709791
 20
13.4195810837
 30
0.0
 10
14.6414180865
 20
13.4235387204
 30
0.0
 10
14.6415824637
 20
13.4262004205
 30
0.0
  0
SPLINE
  5
36F
100
AcDbEntity
  8
LAYER_FEATURE
100
AcDbSpline
 62
7
  6
CONTINUOUS
 70
0
 71
3
 72
11
 73
7
 74
0
 42
0.0000001
 43
0.0000001
 44
0.0000000001
 40
0.0
 40
0.0
 40
0.0
 40
0.0
 40
0.2515000882
 40
0.5039839038
 40
0.7544655374
 40
1.0
 40
1.0
 40
1.0
 40
1.0
 10
14.6415824637
 20
13.4262004205
 30
0.0
 10
14.6417662542
 20
13.4291764728
 30
0.0
 10
14.6419939447
 20
13.4351497681
 30
0.0
 10
14.6419243051
 20
13.4440972741
 30
0.0
 10
14.6414465612
 20
13.4529615023
 30
0.0
 10
14.6408522207
 20
13.4588147994
 30
0.0
 10
14.6404848924
 20
13.4617025256
 30
0.0
  0
SPLINE
  5
370
100
AcDbEntity
  8
LAYER_FEATURE
100
AcDbSpline
 62
7
  6
CONTINUOUS
 70
0
 71
3
 72
19
 73
15
 74
0
 42
0.0000001
 43
0.0000001
 44
0.0000000001
 40
0.0
 40
0.0
 40
0.0
 40
0.0
 40
0.0443176547
 40
0.0917212041
 40
0.1421677806
 40
0.1955855322
 40
0.2518548971
 40
0.3108235256
 40
0.3723124004
 40
0.4361175775
 40
0.5697454982
 40
0.7097426267
 40
0.8539256453
 40
1.0
 40
1.0
 40
1.0
 40
1.0
 10
14.643754491
 20
13.4936052461
 30
0.0
 10
14.6435747778
 20
13.493356791
 30
0.0
 10
14.6432235593
 20
13.4928273946
 30
0.0
 10
14.642736347
 20
13.4919721565
 30
0.0
 10
14.6422732369
 20
13.4910329234
 30
0.0
 10
14.6418364109
 20
13.49001419
 30
0.0
 10
14.6414278859
 20
13.488920665
 30
0.0
 10
14.6410495988
 20
13.4877575009
 30
0.0
 10
14.6407033328
 20
13.4865301685
 30
0.0
 10
14.6402800751
 20
13.4847890424
 30
0.0
 10
14.6398460746
 20
13.4824932081
 30
0.0
 10
14.6394817658
 20
13.4796238185
 30
0.0
 10
14.6392732915
 20
13.4766527094
 30
0.0
 10
14.6392409266
 20
13.4746435175
 30
0.0
 10
14.6392516875
 20
13.4736328731
 30
0.0
  0
SPLINE
  5
371
100
AcDbEntity
  8
LAYER_FEATURE
100
AcDbSpline
 62
7
  6
CONTINUOUS
 70
0
 71
3
 72
20
 73
16
 74
0
 42
0.0000001
 43
0.0000001
 44
0.0000000001
 40
0.0
 40
0.0
 40
0.0
 40
0.0
 40
0.0402746896
 40
0.0836909043
 40
0.1303941597
 40
0.1804598997
 40
0.2338852808
 40
0.290609943
 40
0.3505271688
 40
0.4134893491
 40
0.4793152896
 40
0.5477957675
 40
0.6917447379
 40
0.8432560286
 40
1.0
 40
1.0
 40
1.0
 40
1.0
 10
14.7132079223
 20
13.5665742329
 30
0.0
 10
14.713013723
 20
13.5664093368
 30
0.0
 10
14.7126302309
 20
13.5660426505
 30
0.0
 10
14.7120919378
 20
13.5654163242
 30
0.0
 10
14.7115720718
 20
13.5646967864
 30
0.0
 10
14.7110729835
 20
13.5638875083
 30
0.0
 10
14.7105968502
 20
13.5629921646
 30
0.0
 10
14.7101458626
 20
13.5620149211
 30
0.0
 10
14.7097221194
 20
13.5609603295
 30
0.0
 10
14.7093276143
 20
13.5598333345
 30
0.0
 10
14.7089641889
 20
13.5586392328
 30
0.0
 10
14.708515981
 20
13.5569367555
 30
0.0
 10
14.7080494747
 20
13.5546804277
 30
0.0
 10
14.7076450042
 20
13.5518471508
 30
0.0
 10
14.7074801123
 20
13.5499030164
 30
0.0
 10
14.707422959
 20
13.5489131607
 30
0.0
  0
SPLINE
  5
372
100
AcDbEntity
  8
LAYER_FEATURE
100
AcDbSpline
 62
7
  6
CONTINUOUS
 70
0
 71
3
 72
22
 73
18
 74
0
 42
0.0000001
 43
0.0000001
 44
0.0000000001
 40
0.0
 40
0.0
 40
0.0
 40
0.0
 40
0.0378773338
 40
0.0782509784
 40
0.1216276199
 40
0.1683792074
 40
0.2187399527
 40
0.2728358789
 40
0.3307058497
 40
0.392315531
 40
0.4575713017
 40
0.5263310402
 40
0.5984109546
 40
0.6735930917
 40
0.7516283647
 40
0.8322417199
 40
1.0
 40
1.0
 40
1.0
 40
1.0
 10
14.7865404931
 20
13.6074642055
 30
0.0
 10
14.7863402194
 20
13.6073892074
 30
0.0
 10
14.7859386807
 20
13.6072001799
 30
0.0
 10
14.7853633967
 20
13.6068217925
 30
0.0
 10
14.7848009497
 20
13.6063432896
 30
0.0
 10
14.7842537229
 20
13.6057673467
 30
0.0
 10
14.7837238116
 20
13.6050966935
 30
0.0
 10
14.7832134614
 20
13.6043344539
 30
0.0
 10
14.7827249087
 20
13.6034841325
 30
0.0
 10
14.7822603604
 20
13.6025496601
 30
0.0
 10
14.781821951
 20
13.6015353849
 30
0.0
 10
14.7814117394
 20
13.600446045
 30
0.0
 10
14.7810316574
 20
13.5992867513
 30
0.0
 10
14.7806835066
 20
13.5980629769
 30
0.0
 10
14.7803689321
 20
13.5967804923
 30
0.0
 10
14.7799913187
 20
13.5949764383
 30
0.0
 10
14.77977106
 20
13.5935903427
 30
0.0
 10
14.7796491432
 20
13.592651057
 30
0.0
  0
SPLINE
  5
373
100
AcDbEntity
  8
LAYER_FEATURE
100
AcDbSpline
 62
7
  6
CONTINUOUS
 70
0
 71
3
 72
39
 73
35
 74
0
 42
0.0000001
 43
0.0000001
 44
0.0000000001
 40
0.0
 40
0.0
 40
0.0
 40
0.0
 40
0.0431151641
 40
0.0855277556
 40
0.1272174794
 40
0.1681687462
 40
0.208366344
 40
0.2477956236
 40
0.2864435364
 40
0.3242983226
 40
0.3613495599
 40
0.397588375
 40
0.4330074455
 40
0.4676012263
 40
0.501365982
 40
0.5342999594
 40
0.5664035894
 40
0.5976795454
 40
0.6281330518
 40
0.6577719951
 40
0.6866071531
 40
0.7146524909
 40
0.7419252919
 40
0.7684465281
 40
0.7942410506
 40
0.8193378452
 40
0.8437703466
 40
0.8675765552
 40
0.8907993
 40
0.9134862995
 40
0.9356901667
 40
0.9574683657
 40
0.9788829057
 40
1.0
 40
1.0
 40
1.0
 40
1.0
 10
15.6281740819
 20
13.0549995137
 30
0.0
 10
15.6299731838
 20
13.0608214097
 30
0.0
 10
15.6336273141
 20
13.0723442129
 30
0.0
 10
15.6393250343
 20
13.0893981474
 30
0.0
 10
15.645191345
 20
13.1060710461
 30
0.0
 10
15.6512222838
 20
13.1223517048
 30
0.0
 10
15.6574139007
 20
13.1382295656
 30
0.0
 10
15.6637621647
 20
13.1536941682
 30
0.0
 10
15.6702628592
 20
13.1687353271
 30
0.0
 10
15.6769117225
 20
13.1833431583
 30
0.0
 10
15.6837043969
 20
13.1975080592
 30
0.0
 10
15.6906363957
 20
13.2112207297
 30
0.0
 10
15.6977032025
 20
13.2244721491
 30
0.0
 10
15.704900159
 20
13.2372536267
 30
0.0
 10
15.7122225607
 20
13.2495567686
 30
0.0
 10
15.7196656319
 20
13.2613734925
 30
0.0
 10
15.7272244825
 20
13.2726960606
 30
0.0
 10
15.7348942183
 20
13.2835170251
 30
0.0
 10
15.742669824
 20
13.2938292996
 30
0.0
 10
15.7505462537
 20
13.3036261146
 30
0.0
 10
15.7585184224
 20
13.3129010204
 30
0.0
 10
15.7665811443
 20
13.3216479419
 30
0.0
 10
15.774729254
 20
13.3298610868
 30
0.0
 10
15.7829574889
 20
13.3375350405
 30
0.0
 10
15.7912605657
 20
13.3446647077
 30
0.0
 10
15.7996331826
 20
13.3512452947
 30
0.0
 10
15.8080699418
 20
13.3572723973
 30
0.0
 10
15.8165654615
 20
13.3627418626
 30
0.0
 10
15.8251142578
 20
13.3676499144
 30
0.0
 10
15.8337108086
 20
13.3719930958
 30
0.0
 10
15.8423494919
 20
13.3757682216
 30
0.0
 10
15.8510247245
 20
13.3789725718
 30
0.0
 10
15.8597302563
 20
13.3816035632
 30
0.0
 10
15.8655859185
 20
13.38298233
 30
0.0
 10
15.8685114353
 20
13.383572825
 30
0.0
  0
SPLINE
  5
374
100
AcDbEntity
  8
LAYER_FEATURE
100
AcDbSpline
 62
7
  6
CONTINUOUS
 70
0
 71
3
 72
106
 73
102
 74
0
 42
0.0000001
 43
0.0000001
 44
0.0000000001
 40
0.0
 40
0.0
 40
0.0
 40
0.0
 40
0.0178914695
 40
0.0362592421
 40
0.0550752619
 40
0.0743095103
 40
0.093930503
 40
0.113905322
 40
0.1341998131
 40
0.1547787243
 40
0.1756058497
 40
0.1966441659
 40
0.2178559647
 40
0.2392029822
 40
0.2606465254
 40
0.2821475972
 40
0.3036670197
 40
0.3251655576
 40
0.346604041
 40
0.3679434887
 40
0.3891452315
 40
0.4101710376
 40
0.4309832393
 40
0.451544862
 40
0.471819757
 40
0.491772739
 40
0.5113697281
 40
0.5305778986
 40
0.549365837
 40
0.5677037112
 40
0.5855634529
 40
0.5943059866
 40
0.6029193764
 40
0.6114006978
 40
0.6197471887
 40
0.6279562415
 40
0.6360254194
 40
0.64395247
 40
0.6517353216
 40
0.6593721172
 40
0.6668612
 40
0.6742011534
 40
0.6813907937
 40
0.6884291988
 40
0.6953157241
 40
0.7020500103
 40
0.7086320249
 40
0.7150620568
 40
0.7213407688
 40
0.7274691991
 40
0.7334488048
 40
0.7392814873
 40
0.7449696166
 40
0.7505160819
 40
0.7559243019
 40
0.7611982868
 40
0.7663426488
 40
0.7713626535
 40
0.7762642429
 40
0.7810540597
 40
0.785739478
 40
0.7903285973
 40
0.79483026
 40
0.7992540179
 40
0.8036101123
 40
0.8079094142
 40
0.812163354
 40
0.8163838315
 40
0.8205831008
 40
0.8247736501
 40
0.8289680633
 40
0.8331788812
 40
0.8374184646
 40
0.8416988642
 40
0.8460317023
 40
0.8504280785
 40
0.8548984803
 40
0.8594527358
 40
0.8640999596
 40
0.8688485417
 40
0.8737061356
 40
0.8786796618
 40
0.8837753358
 40
0.8889986734
 40
0.8943545434
 40
0.8998471769
 40
0.9054802221
 40
0.9112567668
 40
0.9171793754
 40
0.9232501322
 40
0.9294706539
 40
0.9358421467
 40
0.9423654061
 40
0.9490408692
 40
0.9558686216
 40
0.962848427
 40
0.9699797535
 40
0.9772617762
 40
0.9846934197
 40
0.9922733474
 40
1.0
 40
1.0
 40
1.0
 40
1.0
 10
15.5505636438
 20
13.2131529583
 30
0.0
 10
15.5462775035
 20
13.1992830032
 30
0.0
 10
15.5379730681
 20
13.1710544973
 30
0.0
 10
15.5264523343
 20
13.1278726326
 30
0.0
 10
15.5157221551
 20
13.083365998
 30
0.0
 10
15.5058057417
 20
13.0376303505
 30
0.0
 10
15.4967243935
 20
12.9907637035
 30
0.0
 10
15.4884976691
 20
12.9428666089
 30
0.0
 10
15.4811432757
 20
12.8940418371
 30
0.0
 10
15.4746770514
 20
12.8443941773
 30
0.0
 10
15.4691129195
 20
12.7940302018
 30
0.0
 10
15.464462862
 20
12.7430580359
 30
0.0
 10
15.4607368932
 20
12.691587122
 30
0.0
 10
15.4579430378
 20
12.6397279817
 30
0.0
 10
15.4560873138
 20
12.587591977
 30
0.0
 10
15.4551737188
 20
12.5352910689
 30
0.0
 10
15.4552042219
 20
12.4829375756
 30
0.0
 10
15.4561787579
 20
12.4306439291
 30
0.0
 10
15.4580952262
 20
12.3785224319
 30
0.0
 10
15.4609494982
 20
12.3266850137
 30
0.0
 10
15.4647354258
 20
12.2752429893
 30
0.0
 10
15.469444855
 20
12.224306818
 30
0.0
 10
15.4750676433
 20
12.1739858637
 30
0.0
 10
15.4815916826
 20
12.1243881589
 30
0.0
 10
15.4890029252
 20
12.0756201676
 30
0.0
 10
15.4972854123
 20
12.0277865561
 30
0.0
 10
15.5064213132
 20
11.9809899562
 30
0.0
 10
15.5163909619
 20
11.9353307713
 30
0.0
 10
15.5271729164
 20
11.8909068467
 30
0.0
 10
15.538743956
 20
11.8478136511
 30
0.0
 10
15.5490954225
 20
11.8128446035
 30
0.0
 10
15.5577617629
 20
11.7856157877
 30
0.0
 10
15.5643967467
 20
11.7657283716
 30
0.0
 10
15.571209397
 20
11.7462412154
 30
0.0
 10
15.5781960552
 20
11.7271647379
 30
0.0
 10
15.5853529759
 20
11.7085091875
 30
0.0
 10
15.5926763233
 20
11.6902845729
 30
0.0
 10
15.6001621462
 20
11.6725006654
 30
0.0
 10
15.6078064634
 20
11.655167014
 30
0.0
 10
15.6156051338
 20
11.6382929008
 30
0.0
 10
15.6235540192
 20
11.621887387
 30
0.0
 10
15.6316488269
 20
11.6059592546
 30
0.0
 10
15.639885243
 20
11.5905170468
 30
0.0
 10
15.6482588588
 20
11.5755690373
 30
0.0
 10
15.6567651808
 20
11.5611232257
 30
0.0
 10
15.6653996987
 20
11.5471873646
 30
0.0
 10
15.6741577617
 20
11.5337688946
 30
0.0
 10
15.6830347487
 20
11.5208750248
 30
0.0
 10
15.692025894
 20
11.5085126361
 30
0.0
 10
15.7011264461
 20
11.4966883639
 30
0.0
 10
15.710331567
 20
11.4854085376
 30
0.0
 10
15.719636369
 20
11.4746791945
 30
0.0
 10
15.7290359609
 20
11.4645061147
 30
0.0
 10
15.7385253387
 20
11.4548947316
 30
0.0
 10
15.7480995493
 20
11.4458502643
 30
0.0
 10
15.757753511
 20
11.4373775616
 30
0.0
 10
15.7674821825
 20
11.429481255
 30
0.0
 10
15.7772804381
 20
11.4221656446
 30
0.0
 10
15.7871431267
 20
11.4154347524
 30
0.0
 10
15.7970650794
 20
11.4092923524
 30
0.0
 10
15.8070410291
 20
11.403741855
 30
0.0
 10
15.8170657269
 20
11.3987864961
 30
0.0
 10
15.8271337915
 20
11.3944290935
 30
0.0
 10
15.8372398382
 20
11.3906722838
 30
0.0
 10
15.8473783674
 20
11.387518309
 30
0.0
 10
15.8575438231
 20
11.3849691204
 30
0.0
 10
15.8677305755
 20
11.3830263541
 30
0.0
 10
15.8779329117
 20
11.3816911996
 30
0.0
 10
15.8881450811
 20
11.3809646028
 30
0.0
 10
15.8983612786
 20
11.3808469593
 30
0.0
 10
15.9085756914
 20
11.3813384181
 30
0.0
 10
15.9187825116
 20
11.3824386071
 30
0.0
 10
15.928975963
 20
11.3841468239
 30
0.0
 10
15.9391503123
 20
11.3864619824
 30
0.0
 10
15.9492999111
 20
11.3893825666
 30
0.0
 10
15.959419148
 20
11.3929068239
 30
0.0
 10
15.9695025378
 20
11.3970325308
 30
0.0
 10
15.9795446128
 20
11.4017572887
 30
0.0
 10
15.9895400254
 20
11.4070782807
 30
0.0
 10
15.9994834557
 20
11.4129924694
 30
0.0
 10
16.0093696456
 20
11.4194965075
 30
0.0
 10
16.0191934098
 20
11.4265867351
 30
0.0
 10
16.0289495496
 20
11.4342592752
 30
0.0
 10
16.0386329847
 20
11.4425098745
 30
0.0
 10
16.0482385824
 20
11.4513340901
 30
0.0
 10
16.0577613283
 20
11.4607271075
 30
0.0
 10
16.0671961851
 20
11.4706838816
 30
0.0
 10
16.0765381788
 20
11.4811990522
 30
0.0
 10
16.0857823894
 20
11.4922669629
 30
0.0
 10
16.0949238892
 20
11.5038817018
 30
0.0
 10
16.1039578751
 20
11.516037017
 30
0.0
 10
16.1128795009
 20
11.5287264281
 30
0.0
 10
16.1216840621
 20
11.5419431163
 30
0.0
 10
16.1303668405
 20
11.5556800208
 30
0.0
 10
16.1389232153
 20
11.5699297805
 30
0.0
 10
16.1473486273
 20
11.5846847602
 30
0.0
 10
16.1556385473
 20
11.5999370692
 30
0.0
 10
16.1637885787
 20
11.6156785153
 30
0.0
 10
16.1717943216
 20
11.6319006981
 30
0.0
 10
16.1796515035
 20
11.6485948417
 30
0.0
 10
16.1847394458
 20
11.6599253899
 30
0.0
 10
16.1872589062
 20
11.6656662651
 30
0.0
  0
SPLINE
  5
375
100
AcDbEntity
  8
LAYER_FEATURE
100
AcDbSpline
 62
7
  6
CONTINUOUS
 70
0
 71
3
 72
76
 73
72
 74
0
 42
0.0000001
 43
0.0000001
 44
0.0000000001
 40
0.0
 40
0.0
 40
0.0
 40
0.0
 40
0.0163579391
 40
0.0330507417
 40
0.0500637526
 40
0.0673820244
 40
0.084989678
 40
0.1028703208
 40
0.1210069567
 40
0.139382079
 40
0.1579777035
 40
0.1767754153
 40
0.1957564115
 40
0.2149015424
 40
0.2341913517
 40
0.2536061156
 40
0.2731258815
 40
0.2927305059
 40
0.3123996917
 40
0.332113026
 40
0.3518500167
 40
0.3715901299
 40
0.3913128258
 40
0.4109975959
 40
0.4306239992
 40
0.4501716995
 40
0.4696205027
 40
0.488950394
 40
0.5081415762
 40
0.5271745075
 40
0.5460299407
 40
0.5646889633
 40
0.583133038
 40
0.6013440452
 40
0.619304327
 40
0.6369967322
 40
0.6544046631
 40
0.6715121251
 40
0.6883037798
 40
0.7047650006
 40
0.7208819329
 40
0.7366415605
 40
0.7520317762
 40
0.7670414586
 40
0.7816605585
 40
0.7958801945
 40
0.8096927595
 40
0.8230920417
 40
0.8360733608
 40
0.8486337234
 40
0.8607719972
 40
0.8724891095
 40
0.8837882721
 40
0.8946752333
 40
0.9051585595
 40
0.9152499414
 40
0.9249645215
 40
0.9343212298
 40
0.9433431047
 40
0.9520575728
 40
0.9604966435
 40
0.964624963
 40
0.9686985664
 40
0.9727227343
 40
0.9767030087
 40
0.9806451665
 40
0.9845552067
 40
0.9884393115
 40
0.9923038238
 40
0.996155205
 40
1.0
 40
1.0
 40
1.0
 40
1.0
 10
15.554596795
 20
13.2505208551
 30
0.0
 10
15.5511980558
 20
13.239522531
 30
0.0
 10
15.5445585114
 20
13.2172298042
 30
0.0
 10
15.5351598495
 20
13.1832733651
 30
0.0
 10
15.5262295833
 20
13.1484925366
 30
0.0
 10
15.5177787127
 20
13.1129302119
 30
0.0
 10
15.5098175975
 20
13.076629801
 30
0.0
 10
15.5023560082
 20
13.03963583
 30
0.0
 10
15.4954031068
 20
13.001993603
 30
0.0
 10
15.4889674289
 20
12.9637492501
 30
0.0
 10
15.4830568772
 20
12.9249496374
 30
0.0
 10
15.4776787075
 20
12.8856423182
 30
0.0
 10
15.4728395231
 20
12.8458754715
 30
0.0
 10
15.4685452663
 20
12.8056978419
 30
0.0
 10
15.4648012103
 20
12.7651586802
 30
0.0
 10
15.4616119534
 20
12.7243076823
 30
0.0
 10
15.4589814128
 20
12.6831949281
 30
0.0
 10
15.4569128205
 20
12.6418708204
 30
0.0
 10
15.4554087164
 20
12.6003860225
 30
0.0
 10
15.4544709465
 20
12.5587913957
 30
0.0
 10
15.4541006622
 20
12.517137936
 30
0.0
 10
15.4542983178
 20
12.4754767119
 30
0.0
 10
15.4550636707
 20
12.4338588014
 30
0.0
 10
15.4563957815
 20
12.3923352292
 30
0.0
 10
15.4582930149
 20
12.3509569043
 30
0.0
 10
15.4607530422
 20
12.3097745567
 30
0.0
 10
15.4637728411
 20
12.268838675
 30
0.0
 10
15.4673487022
 20
12.2281994439
 30
0.0
 10
15.4714762336
 20
12.1879066824
 30
0.0
 10
15.4761503665
 20
12.148009783
 30
0.0
 10
15.4813653615
 20
12.1085576508
 30
0.0
 10
15.4871148152
 20
12.0695986427
 30
0.0
 10
15.4933916691
 20
12.0311805086
 30
0.0
 10
15.5001882171
 20
11.9933503306
 30
0.0
 10
15.5074961135
 20
11.9561544651
 30
0.0
 10
15.5153063868
 20
11.9196384851
 30
0.0
 10
15.5236094503
 20
11.8838471246
 30
0.0
 10
15.5323951143
 20
11.8488242232
 30
0.0
 10
15.5416525996
 20
11.8146126712
 30
0.0
 10
15.5513705511
 20
11.7812543563
 30
0.0
 10
15.5615370541
 20
11.7487901107
 30
0.0
 10
15.5721396468
 20
11.7172596586
 30
0.0
 10
15.5831653396
 20
11.6867015663
 30
0.0
 10
15.5946006341
 20
11.6571531945
 30
0.0
 10
15.6064315427
 20
11.6286506518
 30
0.0
 10
15.6186436094
 20
11.6012287495
 30
0.0
 10
15.6312219325
 20
11.574920958
 30
0.0
 10
15.6441511891
 20
11.5497593655
 30
0.0
 10
15.6574156623
 20
11.5257746384
 30
0.0
 10
15.6709992663
 20
11.5029959839
 30
0.0
 10
15.6848855808
 20
11.4814511205
 30
0.0
 10
15.6990578839
 20
11.4611662527
 30
0.0
 10
15.7134991877
 20
11.4421660532
 30
0.0
 10
15.7281922727
 20
11.4244736522
 30
0.0
 10
15.7431197248
 20
11.4081106386
 30
0.0
 10
15.7582639571
 20
11.3930970768
 30
0.0
 10
15.7736072555
 20
11.3794515233
 30
0.0
 10
15.7891316759
 20
11.3671911049
 30
0.0
 10
15.8048193709
 20
11.356331438
 30
0.0
 10
15.8206512678
 20
11.3468871521
 30
0.0
 10
15.8340480859
 20
11.340157789
 30
0.0
 10
15.8448027185
 20
11.3355169081
 30
0.0
 10
15.8528331653
 20
11.3324219954
 30
0.0
 10
15.8608838524
 20
11.329688808
 30
0.0
 10
15.8689523877
 20
11.327318135
 30
0.0
 10
15.8770362531
 20
11.3253108551
 30
0.0
 10
15.8851329156
 20
11.3236675616
 30
0.0
 10
15.893239835
 20
11.32238889
 30
0.0
 10
15.9013545056
 20
11.3214752185
 30
0.0
 10
15.9094741538
 20
11.3209268935
 30
0.0
 10
15.9148909365
 20
11.3208050022
 30
0.0
 10
15.9175966163
 20
11.3208049996
 30
0.0
  0
SPLINE
  5
376
100
AcDbEntity
  8
LAYER_FEATURE
100
AcDbSpline
 62
7
  6
CONTINUOUS
 70
0
 71
3
 72
22
 73
18
 74
0
 42
0.0000001
 43
0.0000001
 44
0.0000000001
 40
0.0
 40
0.0
 40
0.0
 40
0.0
 40
0.1710558466
 40
0.252812992
 40
0.3316609462
 40
0.4073340786
 40
0.4795972982
 40
0.548252035
 40
0.6131404222
 40
0.6741543192
 40
0.7312441391
 40
0.7844323847
 40
0.8338308664
 40
0.8796583409
 40
0.9222644324
 40
0.9621587356
 40
1.0
 40
1.0
 40
1.0
 40
1.0
 10
14.802761427
 20
11.4219838364
 30
0.0
 10
14.8029026597
 20
11.4210662406
 30
0.0
 10
14.803151319
 20
11.4197155515
 30
0.0
 10
14.8035674063
 20
11.417963934
 30
0.0
 10
14.8039087184
 20
11.416727467
 30
0.0
 10
14.804282306
 20
11.4155543148
 30
0.0
 10
14.8046864093
 20
11.4144499978
 30
0.0
 10
14.8051191201
 20
11.4134197167
 30
0.0
 10
14.8055784139
 20
11.4124682884
 30
0.0
 10
14.8060621555
 20
11.4116001373
 30
0.0
 10
14.8065681565
 20
11.4108192845
 30
0.0
 10
14.8070941843
 20
11.4101293288
 30
0.0
 10
14.80763801
 20
11.4095334555
 30
0.0
 10
14.8081974203
 20
11.40903451
 30
0.0
 10
14.8087703528
 20
11.4086350408
 30
0.0
 10
14.8093543293
 20
11.4083376136
 30
0.0
 10
14.809757628
 20
11.4082062541
 30
0.0
 10
14.8099576926
 20
11.4081598201
 30
0.0
  0
SPLINE
  5
377
100
AcDbEntity
  8
LAYER_FEATURE
100
AcDbSpline
 62
7
  6
CONTINUOUS
 70
0
 71
3
 72
11
 73
7
 74
0
 42
0.0000001
 43
0.0000001
 44
0.0000000001
 40
0.0
 40
0.0
 40
0.0
 40
0.0
 40
0.2615381868
 40
0.5133943785
 40
0.7584442559
 40
1.0
 40
1.0
 40
1.0
 40
1.0
 10
14.7458724314
 20
11.4325601069
 30
0.0
 10
14.7460120605
 20
11.4324858327
 30
0.0
 10
14.7462940587
 20
11.4323542112
 30
0.0
 10
14.7467303787
 20
11.4322093933
 30
0.0
 10
14.7471695288
 20
11.4321222203
 30
0.0
 10
14.747464137
 20
11.4321027633
 30
0.0
 10
14.7476102082
 20
11.4321027663
 30
0.0
  0
SPLINE
  5
378
100
AcDbEntity
  8
LAYER_FEATURE
100
AcDbSpline
 62
7
  6
CONTINUOUS
 70
0
 71
3
 72
22
 73
18
 74
0
 42
0.0000001
 43
0.0000001
 44
0.0000000001
 40
0.0
 40
0.0
 40
0.0
 40
0.0
 40
0.1601980013
 40
0.2380592181
 40
0.3140248954
 40
0.3878087954
 40
0.4591428488
 40
0.5277811773
 40
0.5935014878
 40
0.656110457
 40
0.7154477869
 40
0.7713929444
 40
0.8238739692
 40
0.8728749661
 40
0.9184498699
 40
0.960746104
 40
1.0
 40
1.0
 40
1.0
 40
1.0
 10
14.7297124471
 20
11.4555215446
 30
0.0
 10
14.7297903226
 20
11.4545443965
 30
0.0
 10
14.729945694
 20
11.4530949611
 30
0.0
 10
14.730235705
 20
11.4511952487
 30
0.0
 10
14.7304884801
 20
11.4498253825
 30
0.0
 10
14.7307773326
 20
11.4485035193
 30
0.0
 10
14.7311008922
 20
11.4472359111
 30
0.0
 10
14.7314576182
 20
11.4460285648
 30
0.0
 10
14.7318458168
 20
11.4448871751
 30
0.0
 10
14.7322636412
 20
11.4438171139
 30
0.0
 10
14.7327091328
 20
11.4428234038
 30
0.0
 10
14.7331802165
 20
11.4419106843
 30
0.0
 10
14.7336747266
 20
11.4410831862
 30
0.0
 10
14.7341904284
 20
11.4403447438
 30
0.0
 10
14.7347251446
 20
11.4396987036
 30
0.0
 10
14.7352765116
 20
11.4391482354
 30
0.0
 10
14.7356674351
 20
11.4388358202
 30
0.0
 10
14.7358645806
 20
11.4386986105
 30
0.0
  0
SPLINE
  5
379
100
AcDbEntity
  8
LAYER_FEATURE
100
AcDbSpline
 62
7
  6
CONTINUOUS
 70
0
 71
3
 72
13
 73
9
 74
0
 42
0.0000001
 43
0.0000001
 44
0.0000000001
 40
0.0
 40
0.0
 40
0.0
 40
0.0
 40
0.2823221364
 40
0.5381751772
 40
0.6582845995
 40
0.7744656562
 40
0.8879281866
 40
1.0
 40
1.0
 40
1.0
 40
1.0
 10
14.6744029094
 20
11.4913048962
 30
0.0
 10
14.6746414752
 20
11.4910610661
 30
0.0
 10
14.6751272783
 20
11.4906247548
 30
0.0
 10
14.6758041075
 20
11.490197401
 30
0.0
 10
14.6763509877
 20
11.4899612576
 30
0.0
 10
14.6767558393
 20
11.4898368769
 30
0.0
 10
14.6771628296
 20
11.4897620586
 30
0.0
 10
14.6774356239
 20
11.4897453746
 30
0.0
 10
14.6775710386
 20
11.4897453721
 30
0.0
  0
SPLINE
  5
37A
100
AcDbEntity
  8
LAYER_FEATURE
100
AcDbSpline
 62
7
  6
CONTINUOUS
 70
0
 71
3
 72
19
 73
15
 74
0
 42
0.0000001
 43
0.0000001
 44
0.0000000001
 40
0.0
 40
0.0
 40
0.0
 40
0.0
 40
0.1493406328
 40
0.2957962611
 40
0.4370540517
 40
0.5709441526
 40
0.6345214632
 40
0.6955556744
 40
0.7538567438
 40
0.8092635232
 40
0.8616463252
 40
0.9109141825
 40
0.9570310683
 40
1.0
 40
1.0
 40
1.0
 40
1.0
 10
14.6600411251
 20
11.5211235064
 30
0.0
 10
14.6600518515
 20
11.5201160951
 30
0.0
 10
14.6601263358
 20
11.5181208711
 30
0.0
 10
14.6603971827
 20
11.5151834258
 30
0.0
 10
14.6608214289
 20
11.5123694011
 30
0.0
 10
14.6613039317
 20
11.5101338774
 30
0.0
 10
14.6617643612
 20
11.5084515022
 30
0.0
 10
14.6621361439
 20
11.5072745331
 30
0.0
 10
14.6625385367
 20
11.5061661017
 30
0.0
 10
14.6629696519
 20
11.5051314075
 30
0.0
 10
14.6634274567
 20
11.5041753104
 30
0.0
 10
14.6639098625
 20
11.5033022059
 30
0.0
 10
14.6644146154
 20
11.5025162709
 30
0.0
 10
14.6647772106
 20
11.5020359845
 30
0.0
 10
14.6649621969
 20
11.5018128108
 30
0.0
  0
SPLINE
  5
37B
100
AcDbEntity
  8
LAYER_FEATURE
100
AcDbSpline
 62
7
  6
CONTINUOUS
 70
0
 71
3
 72
11
 73
7
 74
0
 42
0.0000001
 43
0.0000001
 44
0.0000000001
 40
0.0
 40
0.0
 40
0.0
 40
0.0
 40
0.2539244189
 40
0.5068507983
 40
0.7563403348
 40
1.0
 40
1.0
 40
1.0
 40
1.0
 10
14.6618731237
 20
11.5516341518
 30
0.0
 10
14.6619283297
 20
11.553851221
 30
0.0
 10
14.6619461059
 20
11.5582794856
 30
0.0
 10
14.6616980158
 20
11.5648825104
 30
0.0
 10
14.6611781309
 20
11.5713798235
 30
0.0
 10
14.6606463555
 20
11.5756557528
 30
0.0
 10
14.660333912
 20
11.5777607965
 30
0.0
  0
SPLINE
  5
37C
100
AcDbEntity
  8
LAYER_FEATURE
100
AcDbSpline
 62
7
  6
CONTINUOUS
 70
0
 71
3
 72
15
 73
11
 74
0
 42
0.0000001
 43
0.0000001
 44
0.0000000001
 40
0.0
 40
0.0
 40
0.0
 40
0.0
 40
0.1572005994
 40
0.3035048564
 40
0.439264203
 40
0.565223039
 40
0.6824902084
 40
0.7926234962
 40
0.8976493538
 40
1.0
 40
1.0
 40
1.0
 40
1.0
 10
14.6079915977
 20
11.58102668
 30
0.0
 10
14.6081538941
 20
11.5807692486
 30
0.0
 10
14.6084840719
 20
11.5802824888
 30
0.0
 10
14.6090166341
 20
11.5796182581
 30
0.0
 10
14.6095664781
 20
11.5790493505
 30
0.0
 10
14.6101313385
 20
11.5785785934
 30
0.0
 10
14.6107090614
 20
11.5782085029
 30
0.0
 10
14.6112974065
 20
11.577941547
 30
0.0
 10
14.611893357
 20
11.5777800956
 30
0.0
 10
14.6122956791
 20
11.5777439007
 30
0.0
 10
14.6124938172
 20
11.5777439005
 30
0.0
  0
SPLINE
  5
37D
100
AcDbEntity
  8
LAYER_FEATURE
100
AcDbSpline
 62
7
  6
CONTINUOUS
 70
0
 71
3
 72
18
 73
14
 74
0
 42
0.0000001
 43
0.0000001
 44
0.0000000001
 40
0.0
 40
0.0
 40
0.0
 40
0.0
 40
0.1391780304
 40
0.27850155
 40
0.4157327373
 40
0.5486835227
 40
0.6752931747
 40
0.735636682
 40
0.7937164395
 40
0.8493429046
 40
0.9023498757
 40
0.9526077523
 40
1.0
 40
1.0
 40
1.0
 40
1.0
 10
14.5958643887
 20
11.6167964393
 30
0.0
 10
14.5958062369
 20
11.6157892901
 30
0.0
 10
14.5957451376
 20
11.6137703456
 30
0.0
 10
14.5958149152
 20
11.6107563702
 30
0.0
 10
14.5960441862
 20
11.6077953994
 30
0.0
 10
14.5964285601
 20
11.6049434866
 30
0.0
 10
14.5968788024
 20
11.6026669376
 30
0.0
 10
14.5973145487
 20
11.6009447588
 30
0.0
 10
14.5976694152
 20
11.5997337666
 30
0.0
 10
14.5980558345
 20
11.5985884299
 30
0.0
 10
14.5984720104
 20
11.5975140801
 30
0.0
 10
14.5989159586
 20
11.5965158712
 30
0.0
 10
14.5992386882
 20
11.595885375
 30
0.0
 10
14.5994048748
 20
11.595584728
 30
0.0
  0
SPLINE
  5
37E
100
AcDbEntity
  8
LAYER_FEATURE
100
AcDbSpline
 62
7
  6
CONTINUOUS
 70
0
 71
3
 72
15
 73
11
 74
0
 42
0.0000001
 43
0.0000001
 44
0.0000000001
 40
0.0
 40
0.0
 40
0.0
 40
0.0
 40
0.1241753575
 40
0.2495963605
 40
0.3757555124
 40
0.5021519673
 40
0.6282770686
 40
0.7536240825
 40
0.8776977039
 40
1.0
 40
1.0
 40
1.0
 40
1.0
 10
14.5997317395
 20
11.6460266405
 30
0.0
 10
14.5998637603
 20
11.6474217324
 30
0.0
 10
14.6000895001
 20
11.6502298088
 30
0.0
 10
14.6003133734
 20
11.6544648083
 30
0.0
 10
14.6004235649
 20
11.6587293885
 30
0.0
 10
14.6004195755
 20
11.6630033244
 30
0.0
 10
14.6003013995
 20
11.6672664627
 30
0.0
 10
14.6000696225
 20
11.6714987024
 30
0.0
 10
14.5997253238
 20
11.675679971
 30
0.0
 10
14.5994192789
 20
11.6784438927
 30
0.0
 10
14.5992472794
 20
11.6798133205
 30
0.0
  0
SPLINE
  5
37F
100
AcDbEntity
  8
LAYER_FEATURE
100
AcDbSpline
 62
7
  6
CONTINUOUS
 70
0
 71
3
 72
11
 73
7
 74
0
 42
0.0000001
 43
0.0000001
 44
0.0000000001
 40
0.0
 40
0.0
 40
0.0
 40
0.0
 40
0.2597685192
 40
0.5136681466
 40
0.7607082903
 40
1.0
 40
1.0
 40
1.0
 40
1.0
 10
14.5992472794
 20
11.6798133205
 30
0.0
 10
14.5990974993
 20
11.6810058412
 30
0.0
 10
14.5987672336
 20
11.6833598221
 30
0.0
 10
14.5981724613
 20
11.6868293908
 30
0.0
 10
14.597486125
 20
11.690185396
 30
0.0
 10
14.5969607431
 20
11.692373914
 30
0.0
 10
14.5966824537
 20
11.6934455169
 30
0.0
  0
SPLINE
  5
380
100
AcDbEntity
  8
LAYER_FEATURE
100
AcDbSpline
 62
7
  6
CONTINUOUS
 70
0
 71
3
 72
17
 73
13
 74
0
 42
0.0000001
 43
0.0000001
 44
0.0000000001
 40
0.0
 40
0.0
 40
0.0
 40
0.0
 40
0.1666775199
 40
0.3202878877
 40
0.4606748295
 40
0.5881603066
 40
0.7036557312
 40
0.8088500609
 40
0.8584276783
 40
0.9064915042
 40
0.953512166
 40
1.0
 40
1.0
 40
1.0
 40
1.0
 10
14.5486563702
 20
11.6989993074
 30
0.0
 10
14.548843147
 20
11.6985719254
 30
0.0
 10
14.5492286149
 20
11.6977617999
 30
0.0
 10
14.5498719468
 20
11.6966429923
 30
0.0
 10
14.5505526771
 20
11.695677403
 30
0.0
 10
14.5512661259
 20
11.6948726181
 30
0.0
 10
14.5520075954
 20
11.6942352984
 30
0.0
 10
14.5526586808
 20
11.6938413484
 30
0.0
 10
14.5531838714
 20
11.6936236837
 30
0.0
 10
14.5535729452
 20
11.6935089488
 30
0.0
 10
14.553963878
 20
11.6934399375
 30
0.0
 10
14.5542257957
 20
11.6934245508
 30
0.0
 10
14.5543558823
 20
11.6934245531
 30
0.0
  0
SPLINE
  5
381
100
AcDbEntity
  8
LAYER_FEATURE
100
AcDbSpline
 62
7
  6
CONTINUOUS
 70
0
 71
3
 72
17
 73
13
 74
0
 42
0.0000001
 43
0.0000001
 44
0.0000000001
 40
0.0
 40
0.0
 40
0.0
 40
0.0
 40
0.129700943
 40
0.2622382218
 40
0.3954892494
 40
0.5273031325
 40
0.6555719184
 40
0.7782891831
 40
0.8369916398
 40
0.8936331486
 40
0.9480306903
 40
1.0
 40
1.0
 40
1.0
 40
1.0
 10
14.5391322158
 20
11.7396333697
 30
0.0
 10
14.5390055241
 20
11.7386572974
 30
0.0
 10
14.5388079492
 20
11.7366758103
 30
0.0
 10
14.5386744944
 20
11.7336761598
 30
0.0
 10
14.5387017218
 20
11.7306575478
 30
0.0
 10
14.5388891306
 20
11.7276770498
 30
0.0
 10
14.5392330879
 20
11.7247909891
 30
0.0
 10
14.5396505651
 20
11.7224764592
 30
0.0
 10
14.5400611041
 20
11.7207168271
 30
0.0
 10
14.5403985839
 20
11.719473385
 30
0.0
 10
14.5407685364
 20
11.7182926579
 30
0.0
 10
14.5410421421
 20
11.7175329236
 30
0.0
 10
14.5411845401
 20
11.7171651498
 30
0.0
  0
LINE
  5
382
100
AcDbEntity
  8
LAYER_FEATURE
100
AcDbLine
 62
7
  6
CONTINUOUS
 10
14.5395152131
 20
11.7418964146
 11
14.5391322158
 21
11.7396333697
  0
SPLINE
  5
383
100
AcDbEntity
  8
LAYER_FEATURE
100
AcDbSpline
 62
7
  6
CONTINUOUS
 70
0
 71
3
 72
14
 73
10
 74
0
 42
0.0000001
 43
0.0000001
 44
0.0000000001
 40
0.0
 40
0.0
 40
0.0
 40
0.0
 40
0.1197365391
 40
0.2419592132
 40
0.3661864943
 40
0.4919336926
 40
0.6186995538
 40
0.7459755371
 40
1.0
 40
1.0
 40
1.0
 40
1.0
 10
14.5449174112
 20
11.7666949818
 30
0.0
 10
14.5451429719
 20
11.768017083
 30
0.0
 10
14.5455569236
 20
11.7706960396
 30
0.0
 10
14.5460631607
 20
11.7747669896
 30
0.0
 10
14.546459461
 20
11.7789177653
 30
0.0
 10
14.5467439552
 20
11.7831286597
 30
0.0
 10
14.5469152853
 20
11.7873799032
 30
0.0
 10
14.5469916503
 20
11.7930708334
 30
0.0
 10
14.5468780893
 20
11.7973431119
 30
0.0
 10
14.5467250267
 20
11.8001843952
 30
0.0
  0
SPLINE
  5
384
100
AcDbEntity
  8
LAYER_FEATURE
100
AcDbSpline
 62
7
  6
CONTINUOUS
 70
0
 71
3
 72
15
 73
11
 74
0
 42
0.0000001
 43
0.0000001
 44
0.0000000001
 40
0.0
 40
0.0
 40
0.0
 40
0.0
 40
0.1385574608
 40
0.2748245811
 40
0.4079532259
 40
0.537129725
 40
0.66158921
 40
0.7806263931
 40
0.8936101716
 40
1.0
 40
1.0
 40
1.0
 40
1.0
 10
14.5467250267
 20
11.8001843952
 30
0.0
 10
14.5466406603
 20
11.8017504799
 30
0.0
 10
14.546420388
 20
11.8048541954
 30
0.0
 10
14.5459316384
 20
11.8094468973
 30
0.0
 10
14.5452902962
 20
11.8139136657
 30
0.0
 10
14.544501213
 20
11.818220995
 30
0.0
 10
14.5435703663
 20
11.8223366742
 30
0.0
 10
14.5425047587
 20
11.826230054
 30
0.0
 10
14.5413124773
 20
11.829871973
 30
0.0
 10
14.5404106627
 20
11.8321874015
 30
0.0
 10
14.539937557
 20
11.8332948201
 30
0.0
  0
SPLINE
  5
385
100
AcDbEntity
  8
LAYER_FEATURE
100
AcDbSpline
 62
7
  6
CONTINUOUS
 70
0
 71
3
 72
22
 73
18
 74
0
 42
0.0000001
 43
0.0000001
 44
0.0000000001
 40
0.0
 40
0.0
 40
0.0
 40
0.0
 40
0.1727304685
 40
0.2540447631
 40
0.331797348
 40
0.4058923937
 40
0.4762594538
 40
0.5428713608
 40
0.6057479993
 40
0.6649663278
 40
0.7206668248
 40
0.7730697773
 40
0.8224839007
 40
0.8693191071
 40
0.9140916286
 40
0.9574189834
 40
1.0
 40
1.0
 40
1.0
 40
1.0
 10
14.4982000978
 20
11.8416382397
 30
0.0
 10
14.4983925341
 20
11.8410124504
 30
0.0
 10
14.4987043623
 20
11.8401002948
 30
0.0
 10
14.4991791115
 20
11.8389354376
 30
0.0
 10
14.4995462243
 20
11.8381312146
 30
0.0
 10
14.4999303691
 20
11.8373812944
 30
0.0
 10
14.5003303894
 20
11.8366880087
 30
0.0
 10
14.5007450304
 20
11.8360535238
 30
0.0
 10
14.5011730654
 20
11.835479827
 30
0.0
 10
14.5016131951
 20
11.8349686816
 30
0.0
 10
14.5020641865
 20
11.8345217248
 30
0.0
 10
14.5025247441
 20
11.8341403844
 30
0.0
 10
14.5029936193
 20
11.8338260009
 30
0.0
 10
14.503469479
 20
11.8335797898
 30
0.0
 10
14.5039509358
 20
11.8334028729
 30
0.0
 10
14.5044362307
 20
11.8332962709
 30
0.0
 10
14.5047623288
 20
11.8332724411
 30
0.0
 10
14.5049237258
 20
11.8332724383
 30
0.0
  0
SPLINE
  5
386
100
AcDbEntity
  8
LAYER_FEATURE
100
AcDbSpline
 62
7
  6
CONTINUOUS
 70
0
 71
3
 72
15
 73
11
 74
0
 42
0.0000001
 43
0.0000001
 44
0.0000000001
 40
0.0
 40
0.0
 40
0.0
 40
0.0
 40
0.1206976199
 40
0.2466902856
 40
0.3760083295
 40
0.5065791157
 40
0.6362973145
 40
0.7630813283
 40
0.8849309472
 40
1.0
 40
1.0
 40
1.0
 40
1.0
 10
14.4915683846
 20
11.8859019597
 30
0.0
 10
14.4913755009
 20
11.8849871892
 30
0.0
 10
14.4910446971
 20
11.8831037318
 30
0.0
 10
14.4907121432
 20
11.8802088515
 30
0.0
 10
14.4905364778
 20
11.8772235949
 30
0.0
 10
14.4905211459
 20
11.8742044333
 30
0.0
 10
14.4906664164
 20
11.8712083558
 30
0.0
 10
14.4909695066
 20
11.8682918689
 30
0.0
 10
14.4914244962
 20
11.8655100929
 30
0.0
 10
14.4918370495
 20
11.8637201723
 30
0.0
 10
14.4920701883
 20
11.8628599166
 30
0.0
  0
LINE
  5
387
100
AcDbEntity
  8
LAYER_FEATURE
100
AcDbLine
 62
7
  6
CONTINUOUS
 10
14.4920985944
 20
11.8879598389
 11
14.4915683846
 21
11.8859019597
  0
LINE
  5
388
100
AcDbEntity
  8
LAYER_FEATURE
100
AcDbLine
 62
7
  6
CONTINUOUS
 10
14.4965206611
 20
11.9014200588
 11
14.4990956444
 21
11.9099727293
  0
SPLINE
  5
389
100
AcDbEntity
  8
LAYER_FEATURE
100
AcDbSpline
 62
7
  6
CONTINUOUS
 70
0
 71
3
 72
14
 73
10
 74
0
 42
0.0000001
 43
0.0000001
 44
0.0000000001
 40
0.0
 40
0.0
 40
0.0
 40
0.0
 40
0.1152261256
 40
0.2341729471
 40
0.3563996085
 40
0.4814504006
 40
0.6088429103
 40
0.7380772173
 40
1.0
 40
1.0
 40
1.0
 40
1.0
 10
14.4990956444
 20
11.9099727293
 30
0.0
 10
14.4994089745
 20
11.9111810798
 30
0.0
 10
14.5000006216
 20
11.913648695
 30
0.0
 10
14.5007737764
 20
11.9174322435
 30
0.0
 10
14.5014440915
 20
11.9213433954
 30
0.0
 10
14.5020083885
 20
11.9253635877
 30
0.0
 10
14.5024639876
 20
11.9294739639
 30
0.0
 10
14.5029256011
 20
11.9350732246
 30
0.0
 10
14.503099437
 20
11.9393100469
 30
0.0
 10
14.5031404121
 20
11.9421473172
 30
0.0
  0
SPLINE
  5
38A
100
AcDbEntity
  8
LAYER_FEATURE
100
AcDbSpline
 62
7
  6
CONTINUOUS
 70
0
 71
3
 72
22
 73
18
 74
0
 42
0.0000001
 43
0.0000001
 44
0.0000000001
 40
0.0
 40
0.0
 40
0.0
 40
0.0
 40
0.1466409867
 40
0.2194339159
 40
0.2914623258
 40
0.3624228174
 40
0.4320225797
 40
0.499978561
 40
0.5660209974
 40
0.6298960297
 40
0.6913687111
 40
0.7502264833
 40
0.8062830941
 40
0.8593834264
 40
0.9094096977
 40
0.9562871098
 40
1.0
 40
1.0
 40
1.0
 40
1.0
 10
14.5031404121
 20
11.9421473172
 30
0.0
 10
14.5031778281
 20
11.9447381402
 30
0.0
 10
14.503127406
 20
11.9486177412
 30
0.0
 10
14.5028461731
 20
11.9537605446
 30
0.0
 10
14.5025305301
 20
11.9575608074
 30
0.0
 10
14.5021112973
 20
11.9612942385
 30
0.0
 10
14.5015905768
 20
11.9649422453
 30
0.0
 10
14.5009709829
 20
11.968486619
 30
0.0
 10
14.50025563
 20
11.9719096941
 30
0.0
 10
14.4994481093
 20
11.975194425
 30
0.0
 10
14.4985524675
 20
11.9783244802
 30
0.0
 10
14.4975731823
 20
11.9812843241
 30
0.0
 10
14.496515126
 20
11.9840593116
 30
0.0
 10
14.4953835486
 20
11.9866357468
 30
0.0
 10
14.4941839487
 20
11.9890010282
 30
0.0
 10
14.4929222757
 20
11.9911434882
 30
0.0
 10
14.4920118572
 20
11.9924624159
 30
0.0
 10
14.4915461016
 20
11.993078581
 30
0.0
  0
SPLINE
  5
38B
100
AcDbEntity
  8
LAYER_FEATURE
100
AcDbSpline
 62
7
  6
CONTINUOUS
 70
0
 71
3
 72
22
 73
18
 74
0
 42
0.0000001
 43
0.0000001
 44
0.0000000001
 40
0.0
 40
0.0
 40
0.0
 40
0.0
 40
0.1757192814
 40
0.2588437761
 40
0.3384610785
 40
0.4143510425
 40
0.4863313999
 40
0.554267754
 40
0.6180803234
 40
0.6777547868
 40
0.7333562415
 40
0.7850484694
 40
0.8331141602
 40
0.8779769038
 40
0.9202201975
 40
0.9605972607
 40
1.0
 40
1.0
 40
1.0
 40
1.0
 10
14.4581558689
 20
12.0046094652
 30
0.0
 10
14.4583322938
 20
12.0037679551
 30
0.0
 10
14.4586308268
 20
12.0025357067
 30
0.0
 10
14.4591107018
 20
12.0009503106
 30
0.0
 10
14.4594936528
 20
11.9998468765
 30
0.0
 10
14.459904533
 20
11.9988119564
 30
0.0
 10
14.4603415253
 20
11.9978501589
 30
0.0
 10
14.4608026946
 20
11.9969657703
 30
0.0
 10
14.4612860182
 20
11.9961626886
 30
0.0
 10
14.4617894263
 20
11.995444441
 30
0.0
 10
14.4623108504
 20
11.9948141927
 30
0.0
 10
14.4628482072
 20
11.9942747335
 30
0.0
 10
14.4633994712
 20
11.9938285652
 30
0.0
 10
14.4639626078
 20
11.9934780354
 30
0.0
 10
14.4645354978
 20
11.9932253283
 30
0.0
 10
14.4651153499
 20
11.9930725768
 30
0.0
 10
14.4655065187
 20
11.9930383669
 30
0.0
 10
14.4656993187
 20
11.9930383586
 30
0.0
  0
SPLINE
  5
38C
100
AcDbEntity
  8
LAYER_FEATURE
100
AcDbSpline
 62
7
  6
CONTINUOUS
 70
0
 71
3
 72
15
 73
11
 74
0
 42
0.0000001
 43
0.0000001
 44
0.0000000001
 40
0.0
 40
0.0
 40
0.0
 40
0.0
 40
0.1119272108
 40
0.2314442001
 40
0.3567862075
 40
0.4860029502
 40
0.6170340174
 40
0.7477681881
 40
0.8761000429
 40
1.0
 40
1.0
 40
1.0
 40
1.0
 10
14.454618098
 20
12.0511579121
 30
0.0
 10
14.4543632799
 20
12.0503333203
 30
0.0
 10
14.4539064416
 20
12.0486061135
 30
0.0
 10
14.4533850672
 20
12.0459030491
 30
0.0
 10
14.4530119395
 20
12.0430411024
 30
0.0
 10
14.4527943384
 20
12.0400743137
 30
0.0
 10
14.4527364427
 20
12.0370585853
 30
0.0
 10
14.4528394018
 20
12.0340508455
 30
0.0
 10
14.4531011828
 20
12.0311080013
 30
0.0
 10
14.4533846752
 20
12.029182406
 30
0.0
 10
14.4535541342
 20
12.0282421668
 30
0.0
  0
LINE
  5
38D
100
AcDbEntity
  8
LAYER_FEATURE
100
AcDbLine
 62
7
  6
CONTINUOUS
 10
14.4552794103
 20
12.0529480981
 11
14.454618098
 21
12.0511579121
  0
SPLINE
  5
38E
100
AcDbEntity
  8
LAYER_FEATURE
100
AcDbSpline
 62
7
  6
CONTINUOUS
 70
0
 71
3
 72
9
 73
5
 74
0
 42
0.0000001
 43
0.0000001
 44
0.0000000001
 40
0.0
 40
0.0
 40
0.0
 40
0.0
 40
0.4860742555
 40
1.0
 40
1.0
 40
1.0
 40
1.0
 10
14.4605445
 20
12.0642319531
 30
0.0
 10
14.4611126696
 20
12.0653817734
 30
0.0
 10
14.4622116635
 20
12.0677822291
 30
0.0
 10
14.46318637
 20
12.0702353589
 30
0.0
 10
14.4636587103
 20
12.0715064611
 30
0.0
  0
SPLINE
  5
38F
100
AcDbEntity
  8
LAYER_FEATURE
100
AcDbSpline
 62
7
  6
CONTINUOUS
 70
0
 71
3
 72
15
 73
11
 74
0
 42
0.0000001
 43
0.0000001
 44
0.0000000001
 40
0.0
 40
0.0
 40
0.0
 40
0.0
 40
0.1105351205
 40
0.2260337878
 40
0.3461219721
 40
0.4703943873
 40
0.5984052774
 40
0.7296782835
 40
0.8637191513
 40
1.0
 40
1.0
 40
1.0
 40
1.0
 10
14.4636587103
 20
12.0715064611
 30
0.0
 10
14.4640514243
 20
12.0725632828
 30
0.0
 10
14.4648049601
 20
12.0747430393
 30
0.0
 10
14.4658214804
 20
12.078124756
 30
0.0
 10
14.4667453764
 20
12.081677892
 30
0.0
 10
14.4675722683
 20
12.0853856154
 30
0.0
 10
14.4682982186
 20
12.0892305187
 30
0.0
 10
14.4689198129
 20
12.0931945089
 30
0.0
 10
14.4694340587
 20
12.0972588179
 30
0.0
 10
14.4697018556
 20
12.1000034244
 30
0.0
 10
14.469817732
 20
12.1013886148
 30
0.0
  0
SPLINE
  5
390
100
AcDbEntity
  8
LAYER_FEATURE
100
AcDbSpline
 62
7
  6
CONTINUOUS
 70
0
 71
3
 72
23
 73
19
 74
0
 42
0.0000001
 43
0.0000001
 44
0.0000000001
 40
0.0
 40
0.0
 40
0.0
 40
0.0
 40
0.0688096149
 40
0.1382214384
 40
0.207908158
 40
0.2775480123
 40
0.3468150151
 40
0.4153880663
 40
0.4829510648
 40
0.5491964307
 40
0.6138276825
 40
0.6765624615
 40
0.7371357265
 40
0.7953030992
 40
0.8508453618
 40
0.9035714594
 40
0.9533283689
 40
1.0
 40
1.0
 40
1.0
 40
1.0
 10
14.469817732
 20
12.1013886148
 30
0.0
 10
14.469929607
 20
12.1027259726
 30
0.0
 10
14.4701138489
 20
12.1054159414
 30
0.0
 10
14.4702723605
 20
12.1094683227
 30
0.0
 10
14.470313752
 20
12.1135398167
 30
0.0
 10
14.470237821
 20
12.1176079789
 30
0.0
 10
14.4700449673
 20
12.1216505435
 30
0.0
 10
14.4697362687
 20
12.1256453067
 30
0.0
 10
14.469313426
 20
12.1295703634
 30
0.0
 10
14.4687787776
 20
12.1334041887
 30
0.0
 10
14.4681352758
 20
12.1371257724
 30
0.0
 10
14.4673864752
 20
12.1407147378
 30
0.0
 10
14.4665365053
 20
12.1441514534
 30
0.0
 10
14.4655900493
 20
12.1474171665
 30
0.0
 10
14.4645523018
 20
12.150494056
 30
0.0
 10
14.4634289227
 20
12.1533655056
 30
0.0
 10
14.4622260748
 20
12.1560157709
 30
0.0
 10
14.4613468006
 20
12.1576800316
 30
0.0
 10
14.4608932972
 20
12.1584692775
 30
0.0
  0
SPLINE
  5
391
100
AcDbEntity
  8
LAYER_FEATURE
100
AcDbSpline
 62
7
  6
CONTINUOUS
 70
0
 71
3
 72
11
 73
7
 74
0
 42
0.0000001
 43
0.0000001
 44
0.0000000001
 40
0.0
 40
0.0
 40
0.0
 40
0.0
 40
0.2761156652
 40
0.5345390016
 40
0.7755901871
 40
1.0
 40
1.0
 40
1.0
 40
1.0
 10
14.4608932972
 20
12.1584692775
 30
0.0
 10
14.4604676566
 20
12.1592100328
 30
0.0
 10
14.4596009278
 20
12.160620247
 30
0.0
 10
14.4582043439
 20
12.1625744546
 30
0.0
 10
14.4567598796
 20
12.1642895035
 30
0.0
 10
14.4557331625
 20
12.1653034721
 30
0.0
 10
14.4552131375
 20
12.1657635777
 30
0.0
  0
LINE
  5
392
100
AcDbEntity
  8
LAYER_FEATURE
100
AcDbLine
 62
7
  6
CONTINUOUS
 10
14.4552131375
 20
12.1657635777
 11
14.4521506319
 21
12.1680077986
  0
LINE
  5
393
100
AcDbEntity
  8
LAYER_FEATURE
100
AcDbLine
 62
7
  6
CONTINUOUS
 10
14.4366179524
 20
12.1681057905
 11
14.4374175576
 21
12.1679543924
  0
SPLINE
  5
394
100
AcDbEntity
  8
LAYER_FEATURE
100
AcDbSpline
 62
7
  6
CONTINUOUS
 70
0
 71
3
 72
22
 73
18
 74
0
 42
0.0000001
 43
0.0000001
 44
0.0000000001
 40
0.0
 40
0.0
 40
0.0
 40
0.0
 40
0.1676106614
 40
0.24817178
 40
0.3261690281
 40
0.4013270132
 40
0.4733961268
 40
0.5421576806
 40
0.607426891
 40
0.6690603309
 40
0.7269626854
 40
0.7810974328
 40
0.8315006245
 40
0.878294692
 40
0.9217093282
 40
0.9621109775
 40
1.0
 40
1.0
 40
1.0
 40
1.0
 10
14.429740407
 20
12.1829611856
 30
0.0
 10
14.4298614676
 20
12.1820210139
 30
0.0
 10
14.4300804663
 20
12.1806334619
 30
0.0
 10
14.4304563749
 20
12.1788272397
 30
0.0
 10
14.4307697586
 20
12.1775428295
 30
0.0
 10
14.4311167734
 20
12.176316924
 30
0.0
 10
14.4314957791
 20
12.1751553042
 30
0.0
 10
14.4319049791
 20
12.1740634548
 30
0.0
 10
14.4323424459
 20
12.173046499
 30
0.0
 10
14.4328061243
 20
12.1721091884
 30
0.0
 10
14.4332938825
 20
12.1712558852
 30
0.0
 10
14.4338035154
 20
12.1704905348
 30
0.0
 10
14.4343327868
 20
12.1698166562
 30
0.0
 10
14.4348794501
 20
12.1692373862
 30
0.0
 10
14.4354414079
 20
12.1687554645
 30
0.0
 10
14.4360162789
 20
12.1683735731
 30
0.0
 10
14.436417693
 20
12.1681820387
 30
0.0
 10
14.4366179524
 20
12.1681057905
 30
0.0
  0
SPLINE
  5
395
100
AcDbEntity
  8
LAYER_FEATURE
100
AcDbSpline
 62
7
  6
CONTINUOUS
 70
0
 71
3
 72
17
 73
13
 74
0
 42
0.0000001
 43
0.0000001
 44
0.0000000001
 40
0.0
 40
0.0
 40
0.0
 40
0.0
 40
0.050317528
 40
0.1032313574
 40
0.1585778834
 40
0.2161903984
 40
0.3373926861
 40
0.4650956176
 40
0.5973340282
 40
0.7320102629
 40
0.8669549811
 40
1.0
 40
1.0
 40
1.0
 40
1.0
 10
14.429404072
 20
12.2303800085
 30
0.0
 10
14.4292526098
 20
12.2300350974
 30
0.0
 10
14.428960372
 20
12.2293192474
 30
0.0
 10
14.4285623866
 20
12.2282003815
 30
0.0
 10
14.4281952771
 20
12.2270137169
 30
0.0
 10
14.4277416965
 20
12.2253200001
 30
0.0
 10
14.4272681504
 20
12.2230727058
 30
0.0
 10
14.4268549921
 20
12.220247718
 30
0.0
 10
14.426595725
 20
12.2173032613
 30
0.0
 10
14.4264953691
 20
12.2142949512
 30
0.0
 10
14.4265558441
 20
12.2112796403
 30
0.0
 10
14.4267044719
 20
12.2092776285
 30
0.0
 10
14.4268066685
 20
12.2082868442
 30
0.0
  0
LINE
  5
396
100
AcDbEntity
  8
LAYER_FEATURE
100
AcDbLine
 62
7
  6
CONTINUOUS
 10
14.430176393
 20
12.2318481072
 11
14.429404072
 21
12.2303800085
  0
SPLINE
  5
397
100
AcDbEntity
  8
LAYER_FEATURE
100
AcDbSpline
 62
7
  6
CONTINUOUS
 70
0
 71
3
 72
9
 73
5
 74
0
 42
0.0000001
 43
0.0000001
 44
0.0000000001
 40
0.0
 40
0.0
 40
0.0
 40
0.0
 40
0.4828188201
 40
1.0
 40
1.0
 40
1.0
 40
1.0
 10
14.4361245285
 20
12.2406127433
 30
0.0
 10
14.4367657702
 20
12.2414971881
 30
0.0
 10
14.438018088
 20
12.2433846223
 30
0.0
 10
14.4391358909
 20
12.2453538178
 30
0.0
 10
14.4396833423
 20
12.2463880564
 30
0.0
  0
SPLINE
  5
398
100
AcDbEntity
  8
LAYER_FEATURE
100
AcDbSpline
 62
7
  6
CONTINUOUS
 70
0
 71
3
 72
15
 73
11
 74
0
 42
0.0000001
 43
0.0000001
 44
0.0000000001
 40
0.0
 40
0.0
 40
0.0
 40
0.0
 40
0.1056360406
 40
0.2174554352
 40
0.3352043539
 40
0.4585700992
 40
0.5871771907
 40
0.720599773
 40
0.8583773841
 40
1.0
 40
1.0
 40
1.0
 40
1.0
 10
14.4396833423
 20
12.2463880564
 30
0.0
 10
14.4401445517
 20
12.2472593678
 30
0.0
 10
14.441039269
 20
12.2490823144
 30
0.0
 10
14.4422683485
 20
12.2519603487
 30
0.0
 10
14.443417762
 20
12.2550482554
 30
0.0
 10
14.4444820777
 20
12.2583314394
 30
0.0
 10
14.4454562722
 20
12.2617945819
 30
0.0
 10
14.4463357726
 20
12.2654214404
 30
0.0
 10
14.4471163643
 20
12.2691948832
 30
0.0
 10
14.4475628087
 20
12.2717643867
 30
0.0
 10
14.4477694791
 20
12.2730698219
 30
0.0
  0
SPLINE
  5
399
100
AcDbEntity
  8
LAYER_FEATURE
100
AcDbSpline
 62
7
  6
CONTINUOUS
 70
0
 71
3
 72
23
 73
19
 74
0
 42
0.0000001
 43
0.0000001
 44
0.0000000001
 40
0.0
 40
0.0
 40
0.0
 40
0.0
 40
0.0634285574
 40
0.1281395277
 40
0.1938343606
 40
0.2602134778
 40
0.3269675217
 40
0.3937858444
 40
0.4603566965
 40
0.5263704776
 40
0.591522048
 40
0.6555133562
 40
0.7180561193
 40
0.7788744243
 40
0.8377082833
 40
0.8943150211
 40
0.9484776472
 40
1.0
 40
1.0
 40
1.0
 40
1.0
 10
14.4477694791
 20
12.2730698219
 30
0.0
 10
14.4479712428
 20
12.2743442631
 30
0.0
 10
14.4483361771
 20
12.2769258427
 30
0.0
 10
14.4487656409
 20
12.2808461054
 30
0.0
 10
14.4490810728
 20
12.2848374174
 30
0.0
 10
14.4492807478
 20
12.2888777747
 30
0.0
 10
14.4493635461
 20
12.292945069
 30
0.0
 10
14.4493290196
 20
12.2970169575
 30
0.0
 10
14.449177354
 20
12.301071104
 30
0.0
 10
14.4489093892
 20
12.3050852603
 30
0.0
 10
14.4485266049
 20
12.3090374049
 30
0.0
 10
14.4480311187
 20
12.3129058641
 30
0.0
 10
14.4474256674
 20
12.316669431
 30
0.0
 10
14.4467135991
 20
12.3203075011
 30
0.0
 10
14.4458988371
 20
12.323800141
 30
0.0
 10
14.444985874
 20
12.327128341
 30
0.0
 10
14.4439797462
 20
12.3302737897
 30
0.0
 10
14.4432310226
 20
12.3322902102
 30
0.0
 10
14.4428405228
 20
12.3332628564
 30
0.0
  0
SPLINE
  5
39A
100
AcDbEntity
  8
LAYER_FEATURE
100
AcDbSpline
 62
7
  6
CONTINUOUS
 70
0
 71
3
 72
11
 73
7
 74
0
 42
0.0000001
 43
0.0000001
 44
0.0000000001
 40
0.0
 40
0.0
 40
0.0
 40
0.0
 40
0.2719336878
 40
0.5294631829
 40
0.7722090251
 40
1.0
 40
1.0
 40
1.0
 40
1.0
 10
14.4428405228
 20
12.3332628564
 30
0.0
 10
14.442469164
 20
12.334187827
 30
0.0
 10
14.4417060704
 20
12.3359731042
 30
0.0
 10
14.4404632834
 20
12.3385175599
 30
0.0
 10
14.4391579636
 20
12.3408468501
 30
0.0
 10
14.4382197246
 20
12.342295921
 30
0.0
 10
14.4377399112
 20
12.3429792184
 30
0.0
  0
SPLINE
  5
39B
100
AcDbEntity
  8
LAYER_FEATURE
100
AcDbSpline
 62
7
  6
CONTINUOUS
 70
0
 71
3
 72
15
 73
11
 74
0
 42
0.0000001
 43
0.0000001
 44
0.0000000001
 40
0.0
 40
0.0
 40
0.0
 40
0.0
 40
0.1526720184
 40
0.2960362595
 40
0.4304694955
 40
0.5566045467
 40
0.6753146164
 40
0.7877620443
 40
0.8954172805
 40
1.0
 40
1.0
 40
1.0
 40
1.0
 10
14.4377399112
 20
12.3429792184
 30
0.0
 10
14.4372452912
 20
12.3436836017
 30
0.0
 10
14.4362425271
 20
12.3450196395
 30
0.0
 10
14.4346448759
 20
12.3468495616
 30
0.0
 10
14.4330063726
 20
12.3484353945
 30
0.0
 10
14.4313321475
 20
12.3497713245
 30
0.0
 10
14.4296271549
 20
12.3508521118
 30
0.0
 10
14.4278965059
 20
12.351672944
 30
0.0
 10
14.4261466092
 20
12.3522291573
 30
0.0
 10
14.4249605507
 20
12.3524228235
 30
0.0
 10
14.4243731086
 20
12.3524731401
 30
0.0
  0
SPLINE
  5
39C
100
AcDbEntity
  8
LAYER_FEATURE
100
AcDbSpline
 62
7
  6
CONTINUOUS
 70
0
 71
3
 72
11
 73
7
 74
0
 42
0.0000001
 43
0.0000001
 44
0.0000000001
 40
0.0
 40
0.0
 40
0.0
 40
0.0
 40
0.2724046561
 40
0.5275414101
 40
0.7686903052
 40
1.0
 40
1.0
 40
1.0
 40
1.0
 10
14.4195856134
 20
12.353577753
 30
0.0
 10
14.419694073
 20
12.3534849202
 30
0.0
 10
14.4199136634
 20
12.3533157844
 30
0.0
 10
14.4202615226
 20
12.3531103415
 30
0.0
 10
14.4206148242
 20
12.3529634281
 30
0.0
 10
14.4208565886
 20
12.3529044082
 30
0.0
 10
14.4209763435
 20
12.3528855785
 30
0.0
  0
SPLINE
  5
39D
100
AcDbEntity
  8
LAYER_FEATURE
100
AcDbSpline
 62
7
  6
CONTINUOUS
 70
0
 71
3
 72
20
 73
16
 74
0
 42
0.0000001
 43
0.0000001
 44
0.0000000001
 40
0.0
 40
0.0
 40
0.0
 40
0.0
 40
0.1565935482
 40
0.3080037029
 40
0.4519007719
 40
0.5203731928
 40
0.5862024897
 40
0.6491788256
 40
0.7091201951
 40
0.7658779366
 40
0.819343982
 40
0.8694562461
 40
0.9162096839
 40
0.9596769467
 40
1.0
 40
1.0
 40
1.0
 40
1.0
 10
14.4138171017
 20
12.3712742743
 30
0.0
 10
14.4138733417
 20
12.3702839297
 30
0.0
 10
14.4140364633
 20
12.3683385055
 30
0.0
 10
14.4144383213
 20
12.3655027549
 30
0.0
 10
14.4149027151
 20
12.3632437474
 30
0.0
 10
14.4153493055
 20
12.3615386685
 30
0.0
 10
14.4157116222
 20
12.3603423425
 30
0.0
 10
14.416105081
 20
12.3592129335
 30
0.0
 10
14.4165278446
 20
12.3581557502
 30
0.0
 10
14.4169779234
 20
12.3571757502
 30
0.0
 10
14.417453222
 20
12.3562774988
 30
0.0
 10
14.4179515522
 20
12.3554651764
 30
0.0
 10
14.4184707371
 20
12.3547424719
 30
0.0
 10
14.4190084273
 20
12.3541128706
 30
0.0
 10
14.4193915623
 20
12.3537438452
 30
0.0
 10
14.4195856134
 20
12.353577753
 30
0.0
  0
SPLINE
  5
39E
100
AcDbEntity
  8
LAYER_FEATURE
100
AcDbSpline
 62
7
  6
CONTINUOUS
 70
0
 71
3
 72
19
 73
15
 74
0
 42
0.0000001
 43
0.0000001
 44
0.0000000001
 40
0.0
 40
0.0
 40
0.0
 40
0.0
 40
0.0457671404
 40
0.0945270028
 40
0.1461978019
 40
0.2006772256
 40
0.2578212101
 40
0.3174579014
 40
0.3793928847
 40
0.4434102856
 40
0.5767293425
 40
0.7154069824
 40
0.8572539025
 40
1.0
 40
1.0
 40
1.0
 40
1.0
 10
14.4166924218
 20
12.4181226761
 30
0.0
 10
14.4165188308
 20
12.417848799
 30
0.0
 10
14.4161805935
 20
12.4172701073
 30
0.0
 10
14.415713167
 20
12.4163451867
 30
0.0
 10
14.4152716261
 20
12.4153398606
 30
0.0
 10
14.4148580632
 20
12.4142589446
 30
0.0
 10
14.4144744046
 20
12.4131074578
 30
0.0
 10
14.4141224764
 20
12.4118908402
 30
0.0
 10
14.4138039437
 20
12.4106148264
 30
0.0
 10
14.4134206601
 20
12.4088180326
 30
0.0
 10
14.4130384869
 20
12.4064665858
 30
0.0
 10
14.4127379127
 20
12.4035484584
 30
0.0
 10
14.4125952106
 20
12.4005516044
 30
0.0
 10
14.4126072002
 20
12.3985341796
 30
0.0
 10
14.4126404994
 20
12.3975233824
 30
0.0
  0
LINE
  5
39F
100
AcDbEntity
  8
LAYER_FEATURE
100
AcDbLine
 62
7
  6
CONTINUOUS
 10
14.4175522849
 20
12.4192240803
 11
14.4166924218
 21
12.4181226761
  0
LINE
  5
3A0
100
AcDbEntity
  8
LAYER_FEATURE
100
AcDbLine
 62
7
  6
CONTINUOUS
 10
14.4240027353
 20
12.4252031883
 11
14.4175522849
 21
12.4192240803
  0
SPLINE
  5
3A1
100
AcDbEntity
  8
LAYER_FEATURE
100
AcDbSpline
 62
7
  6
CONTINUOUS
 70
0
 71
3
 72
9
 73
5
 74
0
 42
0.0000001
 43
0.0000001
 44
0.0000000001
 40
0.0
 40
0.0
 40
0.0
 40
0.0
 40
0.4808158665
 40
1.0
 40
1.0
 40
1.0
 40
1.0
 10
14.4240027353
 20
12.4252031883
 30
0.0
 10
14.424695543
 20
12.4257895256
 30
0.0
 10
14.426063102
 20
12.4270969909
 30
0.0
 10
14.4272921522
 20
12.4285334919
 30
0.0
 10
14.4278980196
 20
12.4293038266
 30
0.0
  0
SPLINE
  5
3A2
100
AcDbEntity
  8
LAYER_FEATURE
100
AcDbSpline
 62
7
  6
CONTINUOUS
 70
0
 71
3
 72
15
 73
11
 74
0
 42
0.0000001
 43
0.0000001
 44
0.0000000001
 40
0.0
 40
0.0
 40
0.0
 40
0.0
 40
0.1007483541
 40
0.2087123992
 40
0.3238789442
 40
0.4461210205
 40
0.5752058327
 40
0.7108146072
 40
0.8525651022
 40
1.0
 40
1.0
 40
1.0
 40
1.0
 10
14.4278980196
 20
12.4293038266
 30
0.0
 10
14.4284140536
 20
12.429959942
 30
0.0
 10
14.4294244457
 20
12.4313659078
 30
0.0
 10
14.4308294409
 20
12.4336543442
 30
0.0
 10
14.4321698391
 20
12.4361844773
 30
0.0
 10
14.4334394051
 20
12.4389443909
 30
0.0
 10
14.4346322893
 20
12.4419213767
 30
0.0
 10
14.435742952
 20
12.4451015738
 30
0.0
 10
14.4367661155
 20
12.4484700397
 30
0.0
 10
14.4373754478
 20
12.4507879011
 30
0.0
 10
14.4376655785
 20
12.451974492
 30
0.0
  0
SPLINE
  5
3A3
100
AcDbEntity
  8
LAYER_FEATURE
100
AcDbSpline
 62
7
  6
CONTINUOUS
 70
0
 71
3
 72
23
 73
19
 74
0
 42
0.0000001
 43
0.0000001
 44
0.0000000001
 40
0.0
 40
0.0
 40
0.0
 40
0.0
 40
0.0583192155
 40
0.1185328576
 40
0.1803772984
 40
0.2435809278
 40
0.3078566494
 40
0.3729100092
 40
0.4384396607
 40
0.5041405601
 40
0.5697062439
 40
0.6348313348
 40
0.6992140541
 40
0.7625585384
 40
0.8245780708
 40
0.8849957166
 40
0.9435524057
 40
1.0
 40
1.0
 40
1.0
 40
1.0
 10
14.4376655785
 20
12.451974492
 30
0.0
 10
14.4379522038
 20
12.4531467461
 30
0.0
 10
14.4384888371
 20
12.4555407672
 30
0.0
 10
14.4391761386
 20
12.4592101472
 30
0.0
 10
14.4397559772
 20
12.463000318
 30
0.0
 10
14.4402251593
 20
12.4668903909
 30
0.0
 10
14.44058108
 20
12.4708591031
 30
0.0
 10
14.4408217804
 20
12.4748846628
 30
0.0
 10
14.4409459249
 20
12.4789449935
 30
0.0
 10
14.4409528283
 20
12.4830178128
 30
0.0
 10
14.4408424506
 20
12.4870807709
 30
0.0
 10
14.4406154039
 20
12.4911115733
 30
0.0
 10
14.4402729424
 20
12.4950881027
 30
0.0
 10
14.4398169637
 20
12.4989885575
 30
0.0
 10
14.43924998
 20
12.5027915285
 30
0.0
 10
14.4385751335
 20
12.5064762441
 30
0.0
 10
14.4377961452
 20
12.5100224021
 30
0.0
 10
14.4371984977
 20
12.5123266405
 30
0.0
 10
14.4368818646
 20
12.5134509634
 30
0.0
  0
SPLINE
  5
3A4
100
AcDbEntity
  8
LAYER_FEATURE
100
AcDbSpline
 62
7
  6
CONTINUOUS
 70
0
 71
3
 72
11
 73
7
 74
0
 42
0.0000001
 43
0.0000001
 44
0.0000000001
 40
0.0
 40
0.0
 40
0.0
 40
0.0
 40
0.2671359246
 40
0.5232838578
 40
0.7677609574
 40
1.0
 40
1.0
 40
1.0
 40
1.0
 10
14.4368818646
 20
12.5134509634
 30
0.0
 10
14.4365768321
 20
12.5145340943
 30
0.0
 10
14.4359416324
 20
12.5166454587
 30
0.0
 10
14.4348892615
 20
12.5197044397
 30
0.0
 10
14.4337609249
 20
12.5225789433
 30
0.0
 10
14.4329396067
 20
12.5244124709
 30
0.0
 10
14.4325157805
 20
12.5252941604
 30
0.0
  0
SPLINE
  5
3A5
100
AcDbEntity
  8
LAYER_FEATURE
100
AcDbSpline
 62
7
  6
CONTINUOUS
 70
0
 71
3
 72
15
 73
11
 74
0
 42
0.0000001
 43
0.0000001
 44
0.0000000001
 40
0.0
 40
0.0
 40
0.0
 40
0.0
 40
0.1523200293
 40
0.2966395745
 40
0.4328767463
 40
0.5610957482
 40
0.6814768808
 40
0.7943617383
 40
0.9002905425
 40
1.0
 40
1.0
 40
1.0
 40
1.0
 10
14.4325157805
 20
12.5252941604
 30
0.0
 10
14.4320740986
 20
12.526212995
 30
0.0
 10
14.4311727162
 20
12.527983062
 30
0.0
 10
14.4297244206
 20
12.5304939742
 30
0.0
 10
14.4282205883
 20
12.5327816459
 30
0.0
 10
14.4266663051
 20
12.5348381747
 30
0.0
 10
14.4250665254
 20
12.5366565329
 30
0.0
 10
14.4234261587
 20
12.5382305197
 30
0.0
 10
14.4217505524
 20
12.5395541577
 30
0.0
 10
14.4205808549
 20
12.5402864932
 30
0.0
 10
14.4199940456
 20
12.5406043298
 30
0.0
  0
LINE
  5
3A6
100
AcDbEntity
  8
LAYER_FEATURE
100
AcDbLine
 62
7
  6
CONTINUOUS
 10
14.4153539791
 20
12.5438269856
 11
14.4166767748
 21
12.5425251769
  0
SPLINE
  5
3A7
100
AcDbEntity
  8
LAYER_FEATURE
100
AcDbSpline
 62
7
  6
CONTINUOUS
 70
0
 71
3
 72
19
 73
15
 74
0
 42
0.0000001
 43
0.0000001
 44
0.0000000001
 40
0.0
 40
0.0
 40
0.0
 40
0.0
 40
0.1459333144
 40
0.2900177318
 40
0.4299596184
 40
0.5635752515
 40
0.6273898037
 40
0.6888979103
 40
0.747895079
 40
0.8042015866
 40
0.8576641888
 40
0.9081621977
 40
0.9556223566
 40
1.0
 40
1.0
 40
1.0
 40
1.0
 10
14.4108697744
 20
12.5638269332
 30
0.0
 10
14.4108580714
 20
12.5628162162
 30
0.0
 10
14.4108885858
 20
12.5608065492
 30
0.0
 10
14.411094318
 20
12.5578341687
 30
0.0
 10
14.4114559803
 20
12.5549625513
 30
0.0
 10
14.4118878339
 20
12.5526642365
 30
0.0
 10
14.4123094408
 20
12.5509206621
 30
0.0
 10
14.4126545673
 20
12.5496912102
 30
0.0
 10
14.4130317746
 20
12.548525731
 30
0.0
 10
14.4134392841
 20
12.5474297067
 30
0.0
 10
14.4138751635
 20
12.5464083023
 30
0.0
 10
14.4143373992
 20
12.5454662397
 30
0.0
 10
14.414823813
 20
12.5446080274
 30
0.0
 10
14.41517451
 20
12.5440765256
 30
0.0
 10
14.4153539791
 20
12.5438269856
 30
0.0
  0
SPLINE
  5
3A8
100
AcDbEntity
  8
LAYER_FEATURE
100
AcDbSpline
 62
7
  6
CONTINUOUS
 70
0
 71
3
 72
20
 73
16
 74
0
 42
0.0000001
 43
0.0000001
 44
0.0000000001
 40
0.0
 40
0.0
 40
0.0
 40
0.0
 40
0.0414973785
 40
0.0861689854
 40
0.1340840804
 40
0.1852583388
 40
0.239641769
 40
0.297136998
 40
0.3576082934
 40
0.4208854252
 40
0.4867698019
 40
0.5550390932
 40
0.697724395
 40
0.8468201021
 40
1.0
 40
1.0
 40
1.0
 40
1.0
 10
14.4168693845
 20
12.608681449
 30
0.0
 10
14.4166791362
 20
12.6084883538
 30
0.0
 10
14.4163048565
 20
12.6080666176
 30
0.0
 10
14.415781688
 20
12.6073630842
 30
0.0
 10
14.4152788166
 20
12.60656906
 30
0.0
 10
14.4147985582
 20
12.6056883503
 30
0.0
 10
14.4143430623
 20
12.6047249764
 30
0.0
 10
14.4139144517
 20
12.6036834416
 30
0.0
 10
14.4135147402
 20
12.6025686186
 30
0.0
 10
14.4131458186
 20
12.6013857516
 30
0.0
 10
14.4128094162
 20
12.6001404129
 30
0.0
 10
14.4124004261
 20
12.5983785572
 30
0.0
 10
14.411984977
 20
12.5960618054
 30
0.0
 10
14.4116434932
 20
12.5931738592
 30
0.0
 10
14.4115212551
 20
12.5912019189
 30
0.0
 10
14.4114860589
 20
12.5902019251
 30
0.0
  0
LINE
  5
3A9
100
AcDbEntity
  8
LAYER_FEATURE
100
AcDbLine
 62
7
  6
CONTINUOUS
 10
14.4177906633
 20
12.6093826929
 11
14.4168693845
 21
12.608681449
  0
SPLINE
  5
3AA
100
AcDbEntity
  8
LAYER_FEATURE
100
AcDbSpline
 62
7
  6
CONTINUOUS
 70
0
 71
3
 72
9
 73
5
 74
0
 42
0.0000001
 43
0.0000001
 44
0.0000000001
 40
0.0
 40
0.0
 40
0.0
 40
0.0
 40
0.4943249346
 40
1.0
 40
1.0
 40
1.0
 40
1.0
 10
14.4245474348
 20
12.6123946008
 30
0.0
 10
14.4234043924
 20
12.6119694897
 30
0.0
 10
14.4211196202
 20
12.6110337902
 30
0.0
 10
14.4188973474
 20
12.609958538
 30
0.0
 10
14.4177906633
 20
12.6093826929
 30
0.0
  0
SPLINE
  5
3AB
100
AcDbEntity
  8
LAYER_FEATURE
100
AcDbSpline
 62
7
  6
CONTINUOUS
 70
0
 71
3
 72
9
 73
5
 74
0
 42
0.0000001
 43
0.0000001
 44
0.0000000001
 40
0.0
 40
0.0
 40
0.0
 40
0.0
 40
0.4836738627
 40
1.0
 40
1.0
 40
1.0
 40
1.0
 10
14.4245474348
 20
12.6123946008
 30
0.0
 10
14.4252615584
 20
12.6126601918
 30
0.0
 10
14.426693483
 20
12.6133339876
 30
0.0
 10
14.4280110688
 20
12.6142067426
 30
0.0
 10
14.4286608335
 20
12.6146959685
 30
0.0
  0
SPLINE
  5
3AC
100
AcDbEntity
  8
LAYER_FEATURE
100
AcDbSpline
 62
7
  6
CONTINUOUS
 70
0
 71
3
 72
15
 73
11
 74
0
 42
0.0000001
 43
0.0000001
 44
0.0000000001
 40
0.0
 40
0.0
 40
0.0
 40
0.0
 40
0.096908418
 40
0.2013351647
 40
0.3137882225
 40
0.4345457884
 40
0.5636874574
 40
0.7011326125
 40
0.8466787191
 40
1.0
 40
1.0
 40
1.0
 40
1.0
 10
14.4286608335
 20
12.6146959685
 30
0.0
 10
14.4292136892
 20
12.6151122289
 30
0.0
 10
14.4303081793
 20
12.6160503269
 30
0.0
 10
14.4318492009
 20
12.6176816207
 30
0.0
 10
14.4333416375
 20
12.6195790483
 30
0.0
 10
14.4347788867
 20
12.621733537
 30
0.0
 10
14.4361547675
 20
12.6241353326
 30
0.0
 10
14.4374631143
 20
12.6267733951
 30
0.0
 10
14.4386978603
 20
12.629635461
 30
0.0
 10
14.4394493446
 20
12.6316339668
 30
0.0
 10
14.4398130321
 20
12.632666697
 30
0.0
  0
SPLINE
  5
3AD
100
AcDbEntity
  8
LAYER_FEATURE
100
AcDbSpline
 62
7
  6
CONTINUOUS
 70
0
 71
3
 72
23
 73
19
 74
0
 42
0.0000001
 43
0.0000001
 44
0.0000000001
 40
0.0
 40
0.0
 40
0.0
 40
0.0
 40
0.0533606806
 40
0.1091701382
 40
0.1672104543
 40
0.2272470535
 40
0.2890229446
 40
0.3522668938
 40
0.4166944654
 40
0.4820114069
 40
0.5479161073
 40
0.6141021847
 40
0.6802610432
 40
0.7460841486
 40
0.8112662341
 40
0.8755055673
 40
0.9385122702
 40
1.0
 40
1.0
 40
1.0
 40
1.0
 10
14.4398130321
 20
12.632666697
 30
0.0
 10
14.4401769734
 20
12.6337001478
 30
0.0
 10
14.4408712073
 20
12.6358324672
 30
0.0
 10
14.4417953887
 20
12.6391400043
 30
0.0
 10
14.4426219424
 20
12.6426143201
 30
0.0
 10
14.4433463076
 20
12.6462362859
 30
0.0
 10
14.4439644813
 20
12.6499861553
 30
0.0
 10
14.4444730566
 20
12.6538433651
 30
0.0
 10
14.4448692189
 20
12.6577867834
 30
0.0
 10
14.4451507795
 20
12.6617947827
 30
0.0
 10
14.4453161802
 20
12.6658453763
 30
0.0
 10
14.4453645082
 20
12.6699163386
 30
0.0
 10
14.445295495
 20
12.6739853276
 30
0.0
 10
14.4451095273
 20
12.6780300234
 30
0.0
 10
14.444807624
 20
12.6820282092
 30
0.0
 10
14.4443914685
 20
12.6859580141
 30
0.0
 10
14.4438633454
 20
12.6897977742
 30
0.0
 10
14.443432688
 20
12.6923180725
 30
0.0
 10
14.4431983733
 20
12.6935586738
 30
0.0
  0
SPLINE
  5
3AE
100
AcDbEntity
  8
LAYER_FEATURE
100
AcDbSpline
 62
7
  6
CONTINUOUS
 70
0
 71
3
 72
11
 73
7
 74
0
 42
0.0000001
 43
0.0000001
 44
0.0000000001
 40
0.0
 40
0.0
 40
0.0
 40
0.0
 40
0.2625852515
 40
0.5173169261
 40
0.7633728699
 40
1.0
 40
1.0
 40
1.0
 40
1.0
 10
14.4431983733
 20
12.6935586738
 30
0.0
 10
14.4429699227
 20
12.6947682278
 30
0.0
 10
14.4424838816
 20
12.6971445589
 30
0.0
 10
14.4416536842
 20
12.7006261094
 30
0.0
 10
14.440736201
 20
12.703959681
 30
0.0
 10
14.4400550248
 20
12.7061181283
 30
0.0
 10
14.4396994779
 20
12.7071688563
 30
0.0
  0
SPLINE
  5
3AF
100
AcDbEntity
  8
LAYER_FEATURE
100
AcDbSpline
 62
7
  6
CONTINUOUS
 70
0
 71
3
 72
15
 73
11
 74
0
 42
0.0000001
 43
0.0000001
 44
0.0000000001
 40
0.0
 40
0.0
 40
0.0
 40
0.0
 40
0.1479099949
 40
0.289625504
 40
0.4248710206
 40
0.553462947
 40
0.6752694673
 40
0.7902412963
 40
0.8984353432
 40
1.0
 40
1.0
 40
1.0
 40
1.0
 10
14.4396994779
 20
12.7071688563
 30
0.0
 10
14.4393245451
 20
12.7082768743
 30
0.0
 10
14.4385518271
 20
12.7104337488
 30
0.0
 10
14.4372950795
 20
12.713550903
 30
0.0
 10
14.4359688753
 20
12.7164723445
 30
0.0
 10
14.4345778756
 20
12.719187906
 30
0.0
 10
14.4331267618
 20
12.7216882939
 30
0.0
 10
14.4316203897
 20
12.7239650608
 30
0.0
 10
14.4300638871
 20
12.7260101671
 30
0.0
 10
14.4289619876
 20
12.7272530212
 30
0.0
 10
14.4284032774
 20
12.7278300816
 30
0.0
  0
LINE
  5
3B0
100
AcDbEntity
  8
LAYER_FEATURE
100
AcDbLine
 62
7
  6
CONTINUOUS
 10
14.4240516256
 20
12.7330728617
 11
14.4252662944
 21
12.7312009736
  0
SPLINE
  5
3B1
100
AcDbEntity
  8
LAYER_FEATURE
100
AcDbSpline
 62
7
  6
CONTINUOUS
 70
0
 71
3
 72
18
 73
14
 74
0
 42
0.0000001
 43
0.0000001
 44
0.0000000001
 40
0.0
 40
0.0
 40
0.0
 40
0.0
 40
0.136012356
 40
0.2730813437
 40
0.4090028706
 40
0.5415960513
 40
0.6687780342
 40
0.7297396687
 40
0.7886460996
 40
0.8452943835
 40
0.8995015829
 40
0.9511176287
 40
1.0
 40
1.0
 40
1.0
 40
1.0
 10
14.4209879782
 20
12.7547685473
 30
0.0
 10
14.4209072818
 20
12.7537681795
 30
0.0
 10
14.4208014584
 20
12.7517547418
 30
0.0
 10
14.4208047238
 20
12.7487354134
 30
0.0
 10
14.4209684181
 20
12.7457456305
 30
0.0
 10
14.4212894184
 20
12.7428420188
 30
0.0
 10
14.4216882085
 20
12.7405074527
 30
0.0
 10
14.4220843507
 20
12.7387277504
 30
0.0
 10
14.422411833
 20
12.7374667961
 30
0.0
 10
14.4227722757
 20
12.7362667927
 30
0.0
 10
14.4231639958
 20
12.7351333412
 30
0.0
 10
14.4235851219
 20
12.734071884
 30
0.0
 10
14.4238927233
 20
12.7333966704
 30
0.0
 10
14.4240516256
 20
12.7330728617
 30
0.0
  0
SPLINE
  5
3B2
100
AcDbEntity
  8
LAYER_FEATURE
100
AcDbSpline
 62
7
  6
CONTINUOUS
 70
0
 71
3
 72
20
 73
16
 74
0
 42
0.0000001
 43
0.0000001
 44
0.0000000001
 40
0.0
 40
0.0
 40
0.0
 40
0.0
 40
0.0793778145
 40
0.1237449055
 40
0.171552041
 40
0.2229365485
 40
0.2779478999
 40
0.3365651294
 40
0.3987073648
 40
0.4642449581
 40
0.5330080516
 40
0.6047918602
 40
0.6793630027
 40
0.8357851672
 40
1.0
 40
1.0
 40
1.0
 40
1.0
 10
14.4299295832
 20
12.7962662953
 30
0.0
 10
14.4295169619
 20
12.7960494454
 30
0.0
 10
14.4289246001
 20
12.7956113296
 30
0.0
 10
14.4282180704
 20
12.7948926967
 30
0.0
 10
14.427684762
 20
12.7942380467
 30
0.0
 10
14.4271709379
 20
12.7934914891
 30
0.0
 10
14.4266784249
 20
12.7926561407
 30
0.0
 10
14.4262095675
 20
12.7917359524
 30
0.0
 10
14.4257664835
 20
12.790735169
 30
0.0
 10
14.4253512426
 20
12.7896584766
 30
0.0
 10
14.4249658096
 20
12.7885109238
 30
0.0
 10
14.4246119944
 20
12.7872979059
 30
0.0
 10
14.4241777786
 20
12.7855733768
 30
0.0
 10
14.4237295186
 20
12.7832944858
 30
0.0
 10
14.42347964
 20
12.7814270304
 30
0.0
 10
14.4233784241
 20
12.7804680322
 30
0.0
  0
LINE
  5
3B3
100
AcDbEntity
  8
LAYER_FEATURE
100
AcDbLine
 62
7
  6
CONTINUOUS
 10
14.4308842851
 20
12.7965460721
 11
14.4299295832
 21
12.7962662953
  0
SPLINE
  5
3B4
100
AcDbEntity
  8
LAYER_FEATURE
100
AcDbSpline
 62
7
  6
CONTINUOUS
 70
0
 71
3
 72
15
 73
11
 74
0
 42
0.0000001
 43
0.0000001
 44
0.0000000001
 40
0.0
 40
0.0
 40
0.0
 40
0.0
 40
0.0973108245
 40
0.2003417033
 40
0.3106509809
 40
0.4293950737
 40
0.5573563183
 40
0.695002307
 40
0.8425521704
 40
1.0
 40
1.0
 40
1.0
 40
1.0
 10
14.4419486062
 20
12.7969314356
 30
0.0
 10
14.4425131006
 20
12.7970925299
 30
0.0
 10
14.4436486511
 20
12.7975235985
 30
0.0
 10
14.4452861406
 20
12.7984468387
 30
0.0
 10
14.4468907412
 20
12.7996547575
 30
0.0
 10
14.4484556732
 20
12.8011401911
 30
0.0
 10
14.4499750522
 20
12.8028958232
 30
0.0
 10
14.4514427037
 20
12.8049134428
 30
0.0
 10
14.4528522778
 20
12.807183711
 30
0.0
 10
14.4537213745
 20
12.8088068847
 30
0.0
 10
14.4541465905
 20
12.8096561958
 30
0.0
  0
SPLINE
  5
3B5
100
AcDbEntity
  8
LAYER_FEATURE
100
AcDbSpline
 62
7
  6
CONTINUOUS
 70
0
 71
3
 72
23
 73
19
 74
0
 42
0.0000001
 43
0.0000001
 44
0.0000000001
 40
0.0
 40
0.0
 40
0.0
 40
0.0
 40
0.0484791731
 40
0.0998907264
 40
0.1540837488
 40
0.2108775547
 40
0.2700588727
 40
0.3313909346
 40
0.3946157172
 40
0.4594579764
 40
0.5256282342
 40
0.5928257219
 40
0.6607412126
 40
0.729059464
 40
0.79746261
 40
0.8656302784
 40
0.9332484404
 40
1.0
 40
1.0
 40
1.0
 40
1.0
 10
14.4541465905
 20
12.8096561958
 30
0.0
 10
14.4545779025
 20
12.8105176826
 30
0.0
 10
14.4554109106
 20
12.8123210229
 30
0.0
 10
14.4565439243
 20
12.8151671133
 30
0.0
 10
14.4575920524
 20
12.8182207372
 30
0.0
 10
14.4585495264
 20
12.8214651247
 30
0.0
 10
14.4594110959
 20
12.8248826903
 30
0.0
 10
14.460172022
 20
12.8284547485
 30
0.0
 10
14.4608281049
 20
12.8321617777
 30
0.0
 10
14.4613757232
 20
12.8359834795
 30
0.0
 10
14.4618118498
 20
12.839898913
 30
0.0
 10
14.4621340762
 20
12.8438866099
 30
0.0
 10
14.4623406195
 20
12.8479246938
 30
0.0
 10
14.4624303434
 20
12.8519910176
 30
0.0
 10
14.462402741
 20
12.856063244
 30
0.0
 10
14.4622579834
 20
12.8601190854
 30
0.0
 10
14.4619968472
 20
12.8641361822
 30
0.0
 10
14.4617441306
 20
12.8667950127
 30
0.0
 10
14.461598125
 20
12.8681135062
 30
0.0
  0
SPLINE
  5
3B6
100
AcDbEntity
  8
LAYER_FEATURE
100
AcDbSpline
 62
7
  6
CONTINUOUS
 70
0
 71
3
 72
11
 73
7
 74
0
 42
0.0000001
 43
0.0000001
 44
0.0000000001
 40
0.0
 40
0.0
 40
0.0
 40
0.0
 40
0.2584031998
 40
0.5117896516
 40
0.7592709401
 40
1.0
 40
1.0
 40
1.0
 40
1.0
 10
14.461598125
 20
12.8681135062
 30
0.0
 10
14.46145418
 20
12.8694133927
 30
0.0
 10
14.4611341058
 20
12.8719842102
 30
0.0
 10
14.4605513293
 20
12.8757831196
 30
0.0
 10
14.4598725571
 20
12.8794751653
 30
0.0
 10
14.4593501995
 20
12.8818907713
 30
0.0
 10
14.4590727306
 20
12.8830771356
 30
0.0
  0
SPLINE
  5
3B7
100
AcDbEntity
  8
LAYER_FEATURE
100
AcDbSpline
 62
7
  6
CONTINUOUS
 70
0
 71
3
 72
15
 73
11
 74
0
 42
0.0000001
 43
0.0000001
 44
0.0000000001
 40
0.0
 40
0.0
 40
0.0
 40
0.0
 40
0.1427748792
 40
0.28105764
 40
0.4144927577
 40
0.5427902593
 40
0.6656826
 40
0.7829481705
 40
0.8944280444
 40
1.0
 40
1.0
 40
1.0
 40
1.0
 10
14.4590727306
 20
12.8830771356
 30
0.0
 10
14.4587768538
 20
12.8843422057
 30
0.0
 10
14.4581579725
 20
12.8868242199
 30
0.0
 10
14.4571305261
 20
12.8904540078
 30
0.0
 10
14.4560214999
 20
12.8939217528
 30
0.0
 10
14.4548348443
 20
12.8972153058
 30
0.0
 10
14.4535746273
 20
12.9003233042
 30
0.0
 10
14.4522452166
 20
12.9032350932
 30
0.0
 10
14.450851235
 20
12.9059404354
 30
0.0
 10
14.4498546686
 20
12.907647123
 30
0.0
 10
14.4493452936
 20
12.908461636
 30
0.0
  0
LINE
  5
3B8
100
AcDbEntity
  8
LAYER_FEATURE
100
AcDbLine
 62
7
  6
CONTINUOUS
 10
14.4454142794
 20
12.915565241
 11
14.4464839142
 21
12.9131801499
  0
SPLINE
  5
3B9
100
AcDbEntity
  8
LAYER_FEATURE
100
AcDbSpline
 62
7
  6
CONTINUOUS
 70
0
 71
3
 72
17
 73
13
 74
0
 42
0.0000001
 43
0.0000001
 44
0.0000000001
 40
0.0
 40
0.0
 40
0.0
 40
0.0
 40
0.1267160352
 40
0.2570935424
 40
0.3890554613
 40
0.5204721494
 40
0.6492317531
 40
0.7732975058
 40
0.8329776687
 40
0.890786117
 40
0.9465270517
 40
1.0
 40
1.0
 40
1.0
 40
1.0
 10
14.4438642767
 20
12.9382974523
 30
0.0
 10
14.4437155912
 20
12.9373381477
 30
0.0
 10
14.4434739051
 20
12.9353821256
 30
0.0
 10
14.4432745996
 20
12.9324068829
 30
0.0
 10
14.4432352811
 20
12.929389154
 30
0.0
 10
14.443356741
 20
12.9263860111
 30
0.0
 10
14.4436366207
 20
12.9234542181
 30
0.0
 10
14.4440019093
 20
12.9210865196
 30
0.0
 10
14.4443721143
 20
12.9192731088
 30
0.0
 10
14.4446815167
 20
12.9179822939
 30
0.0
 10
14.4450247347
 20
12.9167493533
 30
0.0
 10
14.4452805627
 20
12.9159524538
 30
0.0
 10
14.4454142794
 20
12.915565241
 30
0.0
  0
SPLINE
  5
3BA
100
AcDbEntity
  8
LAYER_FEATURE
100
AcDbSpline
 62
7
  6
CONTINUOUS
 70
0
 71
3
 72
22
 73
18
 74
0
 42
0.0000001
 43
0.0000001
 44
0.0000000001
 40
0.0
 40
0.0
 40
0.0
 40
0.0
 40
0.0384442873
 40
0.0782607288
 40
0.1202879377
 40
0.1652171436
 40
0.2135599865
 40
0.2656698836
 40
0.3217663274
 40
0.3819563033
 40
0.4462558713
 40
0.5146076822
 40
0.5868928739
 40
0.6629424445
 40
0.7425432355
 40
0.8254451904
 40
1.0
 40
1.0
 40
1.0
 40
1.0
 10
14.4554761904
 20
12.9751775445
 30
0.0
 10
14.4552775452
 20
12.975163597
 30
0.0
 10
14.4548749242
 20
12.9750987366
 30
0.0
 10
14.4542829549
 20
12.974896161
 30
0.0
 10
14.4536997035
 20
12.9745893835
 30
0.0
 10
14.4531279615
 20
12.9741808788
 30
0.0
 10
14.4525698457
 20
12.9736730925
 30
0.0
 10
14.4520275343
 20
12.9730686301
 30
0.0
 10
14.4515032205
 20
12.9723703505
 30
0.0
 10
14.4509991347
 20
12.9715814823
 30
0.0
 10
14.4505174995
 20
12.9707056653
 30
0.0
 10
14.4500605166
 20
12.9697469491
 30
0.0
 10
14.4496303011
 20
12.9687097941
 30
0.0
 10
14.4492288708
 20
12.9675990668
 30
0.0
 10
14.4488581071
 20
12.966419978
 30
0.0
 10
14.4483991694
 20
12.9647351587
 30
0.0
 10
14.4481189683
 20
12.9634299635
 30
0.0
 10
14.4479562513
 20
12.9625405642
 30
0.0
  0
SPLINE
  5
3BB
100
AcDbEntity
  8
LAYER_FEATURE
100
AcDbSpline
 62
7
  6
CONTINUOUS
 70
0
 71
3
 72
23
 73
19
 74
0
 42
0.0000001
 43
0.0000001
 44
0.0000000001
 40
0.0
 40
0.0
 40
0.0
 40
0.0
 40
0.0437247912
 40
0.0907314376
 40
0.1409815837
 40
0.1943832332
 40
0.25079377
 40
0.3100320763
 40
0.3718834773
 40
0.4361054951
 40
0.5024321318
 40
0.5705777289
 40
0.6402404924
 40
0.7111054257
 40
0.782848175
 40
0.8551352131
 40
0.927633472
 40
1.0
 40
1.0
 40
1.0
 40
1.0
 10
14.480230736
 20
12.977565252
 30
0.0
 10
14.4807168669
 20
12.9782255544
 30
0.0
 10
14.4816652767
 20
12.9796407435
 30
0.0
 10
14.4829732524
 20
12.981940447
 30
0.0
 10
14.4842113871
 20
12.98448185
 30
0.0
 10
14.4853729622
 20
12.9872510648
 30
0.0
 10
14.486451741
 20
12.9902332698
 30
0.0
 10
14.4874418422
 20
12.9934122687
 30
0.0
 10
14.4883378381
 20
12.9967707826
 30
0.0
 10
14.4891348014
 20
13.0002904892
 30
0.0
 10
14.4898283378
 20
13.0039521538
 30
0.0
 10
14.4904146215
 20
13.0077357362
 30
0.0
 10
14.4908904123
 20
13.0116205065
 30
0.0
 10
14.4912530871
 20
13.0155851763
 30
0.0
 10
14.4915006287
 20
13.0196079784
 30
0.0
 10
14.4916316909
 20
13.0236668998
 30
0.0
 10
14.4916455184
 20
13.0277395697
 30
0.0
 10
14.4915763767
 20
13.0304557286
 30
0.0
 10
14.4915220526
 20
13.0318117001
 30
0.0
  0
SPLINE
  5
3BC
100
AcDbEntity
  8
LAYER_FEATURE
100
AcDbSpline
 62
7
  6
CONTINUOUS
 70
0
 71
3
 72
9
 73
5
 74
0
 42
0.0000001
 43
0.0000001
 44
0.0000000001
 40
0.0
 40
0.0
 40
0.0
 40
0.0
 40
0.5066282192
 40
1.0
 40
1.0
 40
1.0
 40
1.0
 10
14.4915220526
 20
13.0318117001
 30
0.0
 10
14.4914143171
 20
13.0345008611
 30
0.0
 10
14.4910657106
 20
13.0398043185
 30
0.0
 10
14.4904341448
 20
13.0450819843
 30
0.0
 10
14.4900468919
 20
13.0476741142
 30
0.0
  0
SPLINE
  5
3BD
100
AcDbEntity
  8
LAYER_FEATURE
100
AcDbSpline
 62
7
  6
CONTINUOUS
 70
0
 71
3
 72
15
 73
11
 74
0
 42
0.0000001
 43
0.0000001
 44
0.0000000001
 40
0.0
 40
0.0
 40
0.0
 40
0.0
 40
0.1379068133
 40
0.2728168218
 40
0.4043420679
 40
0.5321453581
 40
0.6558970056
 40
0.7752949003
 40
0.8900790737
 40
1.0
 40
1.0
 40
1.0
 40
1.0
 10
14.4900468919
 20
13.0476741142
 30
0.0
 10
14.4898400451
 20
13.0490586714
 30
0.0
 10
14.4893958206
 20
13.0517926175
 30
0.0
 10
14.4886288591
 20
13.0558253956
 30
0.0
 10
14.4877705889
 20
13.0597348598
 30
0.0
 10
14.4868240853
 20
13.0635072719
 30
0.0
 10
14.485792608
 20
13.0671295626
 30
0.0
 10
14.4846797776
 20
13.0705892152
 30
0.0
 10
14.4834894831
 20
13.0738740542
 30
0.0
 10
14.4826278947
 20
13.0759869517
 30
0.0
 10
14.4821837818
 20
13.0770105945
 30
0.0
  0
LINE
  5
3BE
100
AcDbEntity
  8
LAYER_FEATURE
100
AcDbLine
 62
7
  6
CONTINUOUS
 10
14.4787928469
 20
13.0857591851
 11
14.4796849475
 21
13.0829333606
  0
SPLINE
  5
3BF
100
AcDbEntity
  8
LAYER_FEATURE
100
AcDbSpline
 62
7
  6
CONTINUOUS
 70
0
 71
3
 72
15
 73
11
 74
0
 42
0.0000001
 43
0.0000001
 44
0.0000000001
 40
0.0
 40
0.0
 40
0.0
 40
0.0
 40
0.1178146869
 40
0.2416906217
 40
0.3697181945
 40
0.4998593507
 40
0.6300187325
 40
0.7581004752
 40
0.8820649791
 40
1.0
 40
1.0
 40
1.0
 40
1.0
 10
14.478803585
 20
13.1088372152
 30
0.0
 10
14.4785898946
 20
13.1079488335
 30
0.0
 10
14.47821691
 20
13.1061102144
 30
0.0
 10
14.4778212029
 20
13.1032687153
 30
0.0
 10
14.4775800814
 20
13.1003140117
 30
0.0
 10
14.4774982621
 20
13.097301977
 30
0.0
 10
14.4775773008
 20
13.0942894483
 30
0.0
 10
14.4778156956
 20
13.0913332731
 30
0.0
 10
14.4782087826
 20
13.0884893536
 30
0.0
 10
14.4785800179
 20
13.0866487331
 30
0.0
 10
14.4787928469
 20
13.0857591851
 30
0.0
  0
SPLINE
  5
3C0
100
AcDbEntity
  8
LAYER_FEATURE
100
AcDbSpline
 62
7
  6
CONTINUOUS
 70
0
 71
3
 72
83
 73
79
 74
0
 42
0.0000001
 43
0.0000001
 44
0.0000000001
 40
0.0
 40
0.0
 40
0.0
 40
0.0
 40
0.017096907
 40
0.0345750018
 40
0.0524159925
 40
0.0706008395
 40
0.0891094597
 40
0.1079210094
 40
0.1270138749
 40
0.1463657727
 40
0.1659538069
 40
0.1857545362
 40
0.2057440356
 40
0.2258979568
 40
0.2461915874
 40
0.2665999087
 40
0.2870976521
 40
0.3076593561
 40
0.3282594216
 40
0.3488721672
 40
0.3694718844
 40
0.3900328926
 40
0.4105295943
 40
0.4309365302
 40
0.4512284351
 40
0.4713802938
 40
0.4913673985
 40
0.5111654061
 40
0.5307503978
 40
0.5500989389
 40
0.5691881416
 40
0.5879957295
 40
0.6065001043
 40
0.6246804163
 40
0.6425166384
 40
0.6599896453
 40
0.677081298
 40
0.6937745353
 40
0.7100534738
 40
0.7259035181
 40
0.7413114827
 40
0.7562657289
 40
0.7707563193
 40
0.7847751931
 40
0.7983163666
 40
0.8113761633
 40
0.823953477
 40
0.8360500756
 40
0.8476709466
 40
0.85882469
 40
0.8695239554
 40
0.8747089019
 40
0.8797870834
 40
0.8896339475
 40
0.8944108732
 40
0.8990949186
 40
0.9082006984
 40
0.9169927093
 40
0.9212862637
 40
0.9255192666
 40
0.9296984498
 40
0.9338308969
 40
0.9379239969
 40
0.9419854178
 40
0.9460230508
 40
0.9500449654
 40
0.9540593473
 40
0.9580744401
 40
0.9620984817
 40
0.9661396426
 40
0.9702059641
 40
0.9743053051
 40
0.9784452847
 40
0.9826332471
 40
0.9868762109
 40
0.9911808549
 40
0.9955534775
 40
1.0
 40
1.0
 40
1.0
 40
1.0
 10
14.4962139934
 20
13.2131529583
 30
0.0
 10
14.4926774828
 20
13.2017088059
 30
0.0
 10
14.4857852264
 20
13.1784843485
 30
0.0
 10
14.4760855506
 20
13.1430631823
 30
0.0
 10
14.4669212383
 20
13.1067131266
 30
0.0
 10
14.4583058284
 20
13.0694878175
 30
0.0
 10
14.4502519807
 20
13.0314417749
 30
0.0
 10
14.4427715464
 20
12.9926308951
 30
0.0
 10
14.4358755356
 20
12.9531121499
 30
0.0
 10
14.4295740971
 20
12.9129435786
 30
0.0
 10
14.423876507
 20
12.872184176
 30
0.0
 10
14.4187911526
 20
12.8308938128
 30
0.0
 10
14.4143255208
 20
12.7891331442
 30
0.0
 10
14.4104861859
 20
12.7469635211
 30
0.0
 10
14.407278801
 20
12.7044468986
 30
0.0
 10
14.4047080886
 20
12.6616457446
 30
0.0
 10
14.4027778338
 20
12.6186229477
 30
0.0
 10
14.4014908784
 20
12.5754417238
 30
0.0
 10
14.4008491172
 20
12.5321655226
 30
0.0
 10
14.400853495
 20
12.4888579343
 30
0.0
 10
14.4015040051
 20
12.4455825952
 30
0.0
 10
14.4027996897
 20
12.4024030941
 30
0.0
 10
14.404738641
 20
12.3593828781
 30
0.0
 10
14.4073180042
 20
12.3165851591
 30
0.0
 10
14.4105339815
 20
12.2740728202
 30
0.0
 10
14.4143818379
 20
12.2319083231
 30
0.0
 10
14.4188559085
 20
12.1901536154
 30
0.0
 10
14.4239496063
 20
12.1488700393
 30
0.0
 10
14.4296554328
 20
12.1081182405
 30
0.0
 10
14.4359649884
 20
12.0679580783
 30
0.0
 10
14.4428689858
 20
12.0284485366
 30
0.0
 10
14.450357263
 20
11.9896476365
 30
0.0
 10
14.4584187997
 20
11.9516123496
 30
0.0
 10
14.4670417339
 20
11.9143985131
 30
0.0
 10
14.4762133804
 20
11.8780607468
 30
0.0
 10
14.4859202505
 20
11.8426523707
 30
0.0
 10
14.4961480736
 20
11.8082253251
 30
0.0
 10
14.5068818202
 20
11.7748300926
 30
0.0
 10
14.5181057268
 20
11.7425156212
 30
0.0
 10
14.5298033227
 20
11.7113292504
 30
0.0
 10
14.5419574593
 20
11.6813166392
 30
0.0
 10
14.5545503412
 20
11.6525216972
 30
0.0
 10
14.5675635607
 20
11.6249865174
 30
0.0
 10
14.5809781356
 20
11.5987513146
 30
0.0
 10
14.5947745504
 20
11.5738543651
 30
0.0
 10
14.6089327984
 20
11.5503319589
 30
0.0
 10
14.623432446
 20
11.5282183391
 30
0.0
 10
14.6382526352
 20
11.507545723
 30
0.0
 10
14.6533723205
 20
11.488344085
 30
0.0
 10
14.6687696961
 20
11.4706418416
 30
0.0
 10
14.6819496169
 20
11.4570210783
 30
0.0
 10
14.6926154555
 20
11.4469221972
 30
0.0
 10
14.7031343992
 20
11.4375468209
 30
0.0
 10
14.7138643506
 20
11.4288449862
 30
0.0
 10
14.7247980212
 20
11.420876161
 30
0.0
 10
14.7355770478
 20
11.4135906246
 30
0.0
 10
14.7491634642
 20
11.4054533574
 30
0.0
 10
14.7631100055
 20
11.3985392434
 30
0.0
 10
14.7743067754
 20
11.3938561377
 30
0.0
 10
14.7826639717
 20
11.3907819846
 30
0.0
 10
14.7910430996
 20
11.3881200564
 30
0.0
 10
14.7994411391
 20
11.3858712657
 30
0.0
 10
14.807854935
 20
11.3840366421
 30
0.0
 10
14.8162813042
 20
11.3826168566
 30
0.0
 10
14.8247170651
 20
11.3816125775
 30
0.0
 10
14.833158998
 20
11.381024169
 30
0.0
 10
14.8416038839
 20
11.3808519215
 30
0.0
 10
14.8500484907
 20
11.3810958871
 30
0.0
 10
14.8584895911
 20
11.3817559622
 30
0.0
 10
14.8669239594
 20
11.3828318883
 30
0.0
 10
14.8753483944
 20
11.3843231717
 30
0.0
 10
14.8837596936
 20
11.3862292478
 30
0.0
 10
14.8921547073
 20
11.3885492566
 30
0.0
 10
14.9005302709
 20
11.3912823329
 30
0.0
 10
14.908883288
 20
11.394427281
 30
0.0
 10
14.917210677
 20
11.3979829551
 30
0.0
 10
14.9255092486
 20
11.4019477859
 30
0.0
 10
14.9309727243
 20
11.4048375987
 30
0.0
 10
14.9336975034
 20
11.4063476699
 30
0.0
  0
SPLINE
  5
3C1
100
AcDbEntity
  8
LAYER_FEATURE
100
AcDbSpline
 62
7
  6
CONTINUOUS
 70
0
 71
3
 72
48
 73
44
 74
0
 42
0.0000001
 43
0.0000001
 44
0.0000000001
 40
0.0
 40
0.0
 40
0.0
 40
0.0
 40
0.0469112933
 40
0.0927725334
 40
0.1375485298
 40
0.1812086988
 40
0.2237246184
 40
0.2650716818
 40
0.3052289158
 40
0.3441794815
 40
0.3819110458
 40
0.418416232
 40
0.453693138
 40
0.4877459182
 40
0.5205854434
 40
0.5522300438
 40
0.5827063288
 40
0.6120500699
 40
0.64030714
 40
0.6675344676
 40
0.6938009405
 40
0.7191881714
 40
0.7437909969
 40
0.75583384
 40
0.7677222361
 40
0.7794717032
 40
0.791098462
 40
0.8026194231
 40
0.8140520832
 40
0.8254144591
 40
0.8367249913
 40
0.8480024325
 40
0.8592657459
 40
0.8705339804
 40
0.8818261546
 40
0.8931611371
 40
0.904557536
 40
0.9160335787
 40
0.9276070347
 40
0.9392950961
 40
0.9511143339
 40
0.975204439
 40
1.0
 40
1.0
 40
1.0
 40
1.0
 10
14.4962139934
 20
13.2131529583
 30
0.0
 10
14.4993512067
 20
13.2233049842
 30
0.0
 10
14.5057555965
 20
13.2433206681
 30
0.0
 10
14.5158731613
 20
13.2727901729
 30
0.0
 10
14.5263835076
 20
13.3013387464
 30
0.0
 10
14.5372737988
 20
13.3289316931
 30
0.0
 10
14.5485309832
 20
13.3555358839
 30
0.0
 10
14.5601414565
 20
13.3811192158
 30
0.0
 10
14.5720912629
 20
13.4056508999
 30
0.0
 10
14.5843660416
 20
13.4291014191
 30
0.0
 10
14.5969510767
 20
13.451442585
 30
0.0
 10
14.609831321
 20
13.4726475614
 30
0.0
 10
14.6229914249
 20
13.492690892
 30
0.0
 10
14.6364157664
 20
13.5115485229
 30
0.0
 10
14.6500884856
 20
13.5291978183
 30
0.0
 10
14.6639935135
 20
13.545617571
 30
0.0
 10
14.6781146026
 20
13.5607880034
 30
0.0
 10
14.6924353506
 20
13.5746907431
 30
0.0
 10
14.706939239
 20
13.5873088037
 30
0.0
 10
14.7216095332
 20
13.5986265101
 30
0.0
 10
14.7364295837
 20
13.6086295724
 30
0.0
 10
14.7513815726
 20
13.6173046258
 30
0.0
 10
14.7640279253
 20
13.6234612885
 30
0.0
 10
14.7741776683
 20
13.6276906658
 30
0.0
 10
14.7817571241
 20
13.6305023204
 30
0.0
 10
14.7893547886
 20
13.6329749334
 30
0.0
 10
14.7969684753
 20
13.6351076864
 30
0.0
 10
14.8045957983
 20
13.6368999181
 30
0.0
 10
14.8122344234
 20
13.6383510061
 30
0.0
 10
14.8198819816
 20
13.6394604546
 30
0.0
 10
14.8275360915
 20
13.6402279334
 30
0.0
 10
14.8351943733
 20
13.6406531091
 30
0.0
 10
14.8428544296
 20
13.6407359194
 30
0.0
 10
14.850513868
 20
13.6404762639
 30
0.0
 10
14.8581702934
 20
13.6398742761
 30
0.0
 10
14.8658213192
 20
13.6389301539
 30
0.0
 10
14.8734645545
 20
13.6376441861
 30
0.0
 10
14.8810976481
 20
13.6360168645
 30
0.0
 10
14.888718196
 20
13.6340486696
 30
0.0
 10
14.8963239738
 20
13.6317402734
 30
0.0
 10
14.9065057079
 20
13.6281876885
 30
0.0
 10
14.9192040986
 20
13.6228750913
 30
0.0
 10
14.929075026
 20
13.6178326134
 30
0.0
 10
14.9339837053
 20
13.6151034543
 30
0.0
  0
SPLINE
  5
3C2
100
AcDbEntity
  8
LAYER_FEATURE
100
AcDbSpline
 62
7
  6
CONTINUOUS
 70
0
 71
3
 72
76
 73
72
 74
0
 42
0.0000001
 43
0.0000001
 44
0.0000000001
 40
0.0
 40
0.0
 40
0.0
 40
0.0
 40
0.0163579319
 40
0.0330507458
 40
0.0500637514
 40
0.0673820247
 40
0.0849896778
 40
0.1028703205
 40
0.1210069566
 40
0.1393820792
 40
0.1579777039
 40
0.1767754155
 40
0.1957564115
 40
0.2149015422
 40
0.2341913514
 40
0.2536061154
 40
0.2731258816
 40
0.292730506
 40
0.3123996917
 40
0.3321130259
 40
0.3518500166
 40
0.3715901299
 40
0.391312826
 40
0.4109975959
 40
0.4306239989
 40
0.450171699
 40
0.4696205022
 40
0.4889503939
 40
0.5081415766
 40
0.5271745082
 40
0.5460299411
 40
0.5646889628
 40
0.5831330367
 40
0.601344044
 40
0.6193043266
 40
0.636996733
 40
0.6544046645
 40
0.6715121261
 40
0.6883037794
 40
0.7047649988
 40
0.7208819308
 40
0.7366415595
 40
0.7520317768
 40
0.7670414605
 40
0.7816605603
 40
0.7958801947
 40
0.8096927578
 40
0.8230920391
 40
0.836073359
 40
0.8486337234
 40
0.8607719989
 40
0.8724891115
 40
0.8837882728
 40
0.8946752324
 40
0.9051585573
 40
0.9152499392
 40
0.9249645208
 40
0.9343212306
 40
0.943343106
 40
0.9520575736
 40
0.9604966434
 40
0.9646249637
 40
0.9686985657
 40
0.9727227351
 40
0.976703008
 40
0.9806451669
 40
0.9845552064
 40
0.9884393115
 40
0.9923038239
 40
0.996155205
 40
1.0
 40
1.0
 40
1.0
 40
1.0
 10
14.4555058415
 20
13.2505208551
 30
0.0
 10
14.4521071037
 20
13.2395225358
 30
0.0
 10
14.4454675592
 20
13.2172298059
 30
0.0
 10
14.4360688964
 20
13.183273368
 30
0.0
 10
14.4271386301
 20
13.1484925341
 30
0.0
 10
14.4186877592
 20
13.1129302126
 30
0.0
 10
14.4107266437
 20
13.0766298012
 30
0.0
 10
14.403265054
 20
13.0396358306
 30
0.0
 10
14.3963121527
 20
13.0019936032
 30
0.0
 10
14.3898764761
 20
12.9637492496
 30
0.0
 10
14.3839659248
 20
12.9249496366
 30
0.0
 10
14.3785877549
 20
12.8856423176
 30
0.0
 10
14.3737485698
 20
12.8458754714
 30
0.0
 10
14.369454312
 20
12.8056978423
 30
0.0
 10
14.3657102553
 20
12.7651586808
 30
0.0
 10
14.3625209985
 20
12.7243076826
 30
0.0
 10
14.3598904599
 20
12.6831949279
 30
0.0
 10
14.3578218689
 20
12.64187082
 30
0.0
 10
14.3563177646
 20
12.6003860223
 30
0.0
 10
14.3553799938
 20
12.5587913956
 30
0.0
 10
14.3550097079
 20
12.517137936
 30
0.0
 10
14.3552073623
 20
12.4754767118
 30
0.0
 10
14.3559727149
 20
12.4338588011
 30
0.0
 10
14.3573048278
 20
12.3923352292
 30
0.0
 10
14.3592020637
 20
12.3509569048
 30
0.0
 10
14.3616620914
 20
12.3097745576
 30
0.0
 10
14.3646818891
 20
12.2688386757
 30
0.0
 10
14.3682577483
 20
12.2281994437
 30
0.0
 10
14.3723852779
 20
12.1879066812
 30
0.0
 10
14.3770594101
 20
12.1480097814
 30
0.0
 10
14.3822744067
 20
12.10855765
 30
0.0
 10
14.3880238633
 20
12.0695986439
 30
0.0
 10
14.3943007188
 20
12.0311805111
 30
0.0
 10
14.4010972659
 20
11.9933503328
 30
0.0
 10
14.4084051604
 20
11.9561544655
 30
0.0
 10
14.4162154315
 20
11.9196384831
 30
0.0
 10
14.4245184935
 20
11.8838471213
 30
0.0
 10
14.4333041587
 20
11.848824221
 30
0.0
 10
14.4425616467
 20
11.814612672
 30
0.0
 10
14.4522796006
 20
11.78125436
 30
0.0
 10
14.4624461036
 20
11.748790115
 30
0.0
 10
14.4730486945
 20
11.7172596605
 30
0.0
 10
14.4840743849
 20
11.6867015644
 30
0.0
 10
14.4955096776
 20
11.6571531897
 30
0.0
 10
14.5073405867
 20
11.6286506476
 30
0.0
 10
14.5195526556
 20
11.601228749
 30
0.0
 10
14.5321309809
 20
11.574920962
 30
0.0
 10
14.5450602387
 20
11.5497593716
 30
0.0
 10
14.5583247106
 20
11.5257746425
 30
0.0
 10
14.5719083124
 20
11.5029959832
 30
0.0
 10
14.5857946248
 20
11.4814511151
 30
0.0
 10
14.5999669279
 20
11.4611662466
 30
0.0
 10
14.6144082334
 20
11.4421660507
 30
0.0
 10
14.6291013201
 20
11.4244736551
 30
0.0
 10
14.6440287735
 20
11.4081106455
 30
0.0
 10
14.6591730057
 20
11.3930970834
 30
0.0
 10
14.6745163023
 20
11.3794515248
 30
0.0
 10
14.6900407207
 20
11.3671910998
 30
0.0
 10
14.7057284158
 20
11.3563314313
 30
0.0
 10
14.7215603125
 20
11.3468871451
 30
0.0
 10
14.7349571365
 20
11.3401577967
 30
0.0
 10
14.7457117608
 20
11.3355168983
 30
0.0
 10
14.7537422174
 20
11.3324220099
 30
0.0
 10
14.7617928929
 20
11.3296887906
 30
0.0
 10
14.7698614394
 20
11.3273181525
 30
0.0
 10
14.7779452962
 20
11.3253108424
 30
0.0
 10
14.7860419638
 20
11.3236675696
 30
0.0
 10
14.7941488812
 20
11.3223888904
 30
0.0
 10
14.8022635516
 20
11.3214752107
 30
0.0
 10
14.8103832008
 20
11.3209269068
 30
0.0
 10
14.8157999829
 20
11.3208049953
 30
0.0
 10
14.8185056628
 20
11.3208049933
 30
0.0
  0
SPLINE
  5
3C3
100
AcDbEntity
  8
LAYER_FEATURE
100
AcDbSpline
 62
7
  6
CONTINUOUS
 70
0
 71
3
 72
18
 73
14
 74
0
 42
0.0000001
 43
0.0000001
 44
0.0000000001
 40
0.0
 40
0.0
 40
0.0
 40
0.0
 40
0.04518667
 40
0.0909707027
 40
0.1379216114
 40
0.1865565671
 40
0.2373270126
 40
0.2906101076
 40
0.4057807063
 40
0.533835718
 40
0.6755558122
 40
0.8310674479
 40
1.0
 40
1.0
 40
1.0
 40
1.0
 10
14.5378589147
 20
13.2867922828
 30
0.0
 10
14.5377190271
 20
13.2867922803
 30
0.0
 10
14.5374370901
 20
13.2867744608
 30
0.0
 10
14.5370166224
 20
13.2866945773
 30
0.0
 10
14.536598543
 20
13.2865618231
 30
0.0
 10
14.5361840209
 20
13.2863767454
 30
0.0
 10
14.535774013
 20
13.2861399511
 30
0.0
 10
14.5352203039
 20
13.2857460494
 30
0.0
 10
14.5345452306
 20
13.2851180154
 30
0.0
 10
14.5337901317
 20
13.2841924887
 30
0.0
 10
14.5330747644
 20
13.2830844924
 30
0.0
 10
14.5324052771
 20
13.2818042392
 30
0.0
 10
14.532009125
 20
13.2808801859
 30
0.0
 10
14.5318184022
 20
13.2803932266
 30
0.0
  0
SPLINE
  5
3C4
100
AcDbEntity
  8
LAYER_FEATURE
100
AcDbSpline
 62
7
  6
CONTINUOUS
 70
0
 71
3
 72
40
 73
36
 74
0
 42
0.0000001
 43
0.0000001
 44
0.0000000001
 40
0.0
 40
0.0
 40
0.0
 40
0.0
 40
0.0443811459
 40
0.087966727
 40
0.1307332077
 40
0.1726614786
 40
0.2137326651
 40
0.2539296147
 40
0.2932370217
 40
0.3316413439
 40
0.3691310612
 40
0.405696776
 40
0.4413313808
 40
0.4760302945
 40
0.5097916238
 40
0.542616385
 40
0.5745088043
 40
0.6054765731
 40
0.6355311261
 40
0.6646880078
 40
0.6929672345
 40
0.7203936285
 40
0.7469972191
 40
0.7728136586
 40
0.7978845461
 40
0.8101562346
 40
0.8222600486
 40
0.8459899713
 40
0.8691376742
 40
0.8917708204
 40
0.9139634688
 40
0.9357955988
 40
0.9573523573
 40
0.9787230689
 40
1.0
 40
1.0
 40
1.0
 40
1.0
 10
15.554596795
 20
13.2505208551
 30
0.0
 10
15.5572737185
 20
13.2591833829
 30
0.0
 10
15.5627182941
 20
13.2763106911
 30
0.0
 10
15.5712379866
 20
13.301624441
 30
0.0
 10
15.5800314462
 20
13.326313248
 30
0.0
 10
15.5890915915
 20
13.3503573431
 30
0.0
 10
15.5984113414
 20
13.3737379277
 30
0.0
 10
15.6079833176
 20
13.3964365134
 30
0.0
 10
15.6177999699
 20
13.4184351914
 30
0.0
 10
15.6278535719
 20
13.4397166215
 30
0.0
 10
15.6381361888
 20
13.4602640363
 30
0.0
 10
15.6486397328
 20
13.4800612461
 30
0.0
 10
15.6593559638
 20
13.4990926522
 30
0.0
 10
15.6702764566
 20
13.5173432819
 30
0.0
 10
15.6813926524
 20
13.5347987764
 30
0.0
 10
15.692695875
 20
13.5514453912
 30
0.0
 10
15.7041772972
 20
13.5672700368
 30
0.0
 10
15.7158279747
 20
13.5822602709
 30
0.0
 10
15.727638879
 20
13.5964042814
 30
0.0
 10
15.7396008748
 20
13.6096909122
 30
0.0
 10
15.7517047287
 20
13.6221096826
 30
0.0
 10
15.7639411211
 20
13.6336507227
 30
0.0
 10
15.7763007583
 20
13.6443048576
 30
0.0
 10
15.7887739055
 20
13.6540633542
 30
0.0
 10
15.7993294739
 20
13.6614949778
 30
0.0
 10
15.8078181805
 20
13.6669726672
 30
0.0
 10
15.8162199484
 20
13.6720728062
 30
0.0
 10
15.8267805106
 20
13.6778899112
 30
0.0
 10
15.8396121187
 20
13.6839931353
 30
0.0
 10
15.852508744
 20
13.6891674114
 30
0.0
 10
15.8654599063
 20
13.6934078256
 30
0.0
 10
15.8784550809
 20
13.6967103745
 30
0.0
 10
15.8914837576
 20
13.6990717673
 30
0.0
 10
15.9045340814
 20
13.7004895689
 30
0.0
 10
15.9132499089
 20
13.7008049905
 30
0.0
 10
15.9175966163
 20
13.7008049862
 30
0.0
  0
SPLINE
  5
3C5
100
AcDbEntity
  8
LAYER_FEATURE
100
AcDbSpline
 62
7
  6
CONTINUOUS
 70
0
 71
3
 72
71
 73
67
 74
0
 42
0.0000001
 43
0.0000001
 44
0.0000000001
 40
0.0
 40
0.0
 40
0.0
 40
0.0
 40
0.0230787222
 40
0.0457853565
 40
0.0681093839
 40
0.0900426255
 40
0.1115770279
 40
0.1327049074
 40
0.1534193909
 40
0.1737142692
 40
0.1935840116
 40
0.2130238989
 40
0.2320300179
 40
0.2505993405
 40
0.2687298058
 40
0.2864203463
 40
0.303671016
 40
0.3204830465
 40
0.3368589295
 40
0.3528025621
 40
0.3683193042
 40
0.3834161252
 40
0.3981017357
 40
0.4123866789
 40
0.4262835121
 40
0.4398069087
 40
0.4529737836
 40
0.4658034419
 40
0.4783176326
 40
0.4905406416
 40
0.5024993123
 40
0.5142229926
 40
0.5257434647
 40
0.5370947481
 40
0.5483128443
 40
0.5594354041
 40
0.5705012963
 40
0.5815501374
 40
0.5926217699
 40
0.6037557353
 40
0.6149907541
 40
0.6263642611
 40
0.6379119971
 40
0.6496676662
 40
0.6616627112
 40
0.6739261272
 40
0.6864843792
 40
0.6993613962
 40
0.7125785642
 40
0.7261548316
 40
0.7401067966
 40
0.7544488048
 40
0.7691931213
 40
0.7843500217
 40
0.799927943
 40
0.815933632
 40
0.8323722212
 40
0.8492473936
 40
0.866561469
 40
0.8843154864
 40
0.9025093423
 40
0.9211418241
 40
0.9402107134
 40
0.9597128689
 40
0.9796442448
 40
1.0
 40
1.0
 40
1.0
 40
1.0
 10
15.5505636438
 20
13.2131529583
 30
0.0
 10
15.5528613809
 20
13.2205884382
 30
0.0
 10
15.5575275499
 20
13.235306503
 30
0.0
 10
15.5648004472
 20
13.2570927545
 30
0.0
 10
15.5722864732
 20
13.278397803
 30
0.0
 10
15.5799806894
 20
13.2992076519
 30
0.0
 10
15.587878163
 20
13.3195090749
 30
0.0
 10
15.5959738432
 20
13.3392889713
 30
0.0
 10
15.6042624872
 20
13.3585345857
 30
0.0
 10
15.6127387515
 20
13.3772335434
 30
0.0
 10
15.621397213
 20
13.3953738002
 30
0.0
 10
15.6302322725
 20
13.4129436942
 30
0.0
 10
15.639238268
 20
13.4299319194
 30
0.0
 10
15.6484094268
 20
13.4463275477
 30
0.0
 10
15.6577398403
 20
13.4621200526
 30
0.0
 10
15.6672235631
 20
13.4772992691
 30
0.0
 10
15.6768545115
 20
13.4918554533
 30
0.0
 10
15.6866265277
 20
13.5057792588
 30
0.0
 10
15.6965334102
 20
13.5190617214
 30
0.0
 10
15.7065688225
 20
13.5316943272
 30
0.0
 10
15.7167264127
 20
13.5436689405
 30
0.0
 10
15.7269997516
 20
13.5549778464
 30
0.0
 10
15.7373823211
 20
13.5656137731
 30
0.0
 10
15.7478676085
 20
13.5755698109
 30
0.0
 10
15.7584489947
 20
13.5848395112
 30
0.0
 10
15.7691198302
 20
13.5934168212
 30
0.0
 10
15.77987344
 20
13.601296059
 30
0.0
 10
15.7907030379
 20
13.6084720153
 30
0.0
 10
15.8016018266
 20
13.6149398169
 30
0.0
 10
15.8125629125
 20
13.6206950149
 30
0.0
 10
15.8235792988
 20
13.6257336055
 30
0.0
 10
15.8346439274
 20
13.6300519178
 30
0.0
 10
15.8457495824
 20
13.6336468044
 30
0.0
 10
15.856888945
 20
13.6365155418
 30
0.0
 10
15.8680545735
 20
13.6386558606
 30
0.0
 10
15.8792388907
 20
13.6400661158
 30
0.0
 10
15.8904342447
 20
13.6407451216
 30
0.0
 10
15.9016329093
 20
13.6406923283
 30
0.0
 10
15.9128271479
 20
13.639907815
 30
0.0
 10
15.9240092401
 20
13.6383921638
 30
0.0
 10
15.9351715418
 20
13.6361466493
 30
0.0
 10
15.9463065046
 20
13.6331730401
 30
0.0
 10
15.9574066853
 20
13.6294736095
 30
0.0
 10
15.9684647985
 20
13.6250512011
 30
0.0
 10
15.9794736466
 20
13.6199090192
 30
0.0
 10
15.9904261669
 20
13.6140507609
 30
0.0
 10
16.0013154078
 20
13.6074805442
 30
0.0
 10
16.0121344601
 20
13.6002028301
 30
0.0
 10
16.0228765418
 20
13.592222563
 30
0.0
 10
16.0335348975
 20
13.5835450348
 30
0.0
 10
16.044102821
 20
13.5741759415
 30
0.0
 10
16.0545737027
 20
13.5641214309
 30
0.0
 10
16.0649409228
 20
13.5533880009
 30
0.0
 10
16.0751979554
 20
13.5419826045
 30
0.0
 10
16.0853383294
 20
13.5299126043
 30
0.0
 10
16.0953555879
 20
13.5171857461
 30
0.0
 10
16.1052434014
 20
13.5038102366
 30
0.0
 10
16.1149954624
 20
13.4897946602
 30
0.0
 10
16.1246055416
 20
13.4751480159
 30
0.0
 10
16.134067529
 20
13.4598797292
 30
0.0
 10
16.1433753398
 20
13.4439995942
 30
0.0
 10
16.1525230275
 20
13.4275178242
 30
0.0
 10
16.1615047308
 20
13.4104450233
 30
0.0
 10
16.1703146641
 20
13.3927921358
 30
0.0
 10
16.1789471629
 20
13.3745706159
 30
0.0
 10
16.1845220403
 20
13.3621808007
 30
0.0
 10
16.1872802294
 20
13.3558951347
 30
0.0
  0
ENDSEC
  0
SECTION
  2
OBJECTS
  0
DICTIONARY
  5
C
100
AcDbDictionary
280
0
281
1
  3
ACAD_GROUP
350
D
  3
ACAD_MLINESTYLE
350
17
  3
ACAD_LAYOUT
350
1A
  3
ACAD_PLOTSETTINGS
350
19
  3
ACAD_PLOTSTYLENAME
350
E
  0
DICTIONARY
  5
D
102
{ACAD_REACTORS
330
C
102
}
100
AcDbDictionary
280
0
281
1
  0
ACDBDICTIONARYWDFLT
  5
E
102
{ACAD_REACTORS
330
C
102
}
100
AcDbDictionary
281
1
  3
Normal
350
F
100
AcDbDictionaryWithDefault
340
F
  0
DICTIONARY
  5
17
102
{ACAD_REACTORS
330
C
102
}
100
AcDbDictionary
280
0
281
1
  3
Standard
350
18
  0
DICTIONARY
  5
19
102
{ACAD_REACTORS
330
C
102
}
100
AcDbDictionary
281
1
  0
DICTIONARY
  5
1A
102
{ACAD_REACTORS
330
C
102
}
100
AcDbDictionary
281
1
  3
Model
350
3C6
  3
Layout1
350
3C7
  0
ACDBPLACEHOLDER
  5
F
102
{ACAD_REACTORS
330
E
102
}
  0
MLINESTYLE
  5
18
102
{ACAD_REACTORS
330
17
102
}
100
AcDbMlineStyle
  2
STANDARD
 70
0
  3

 62
256
 51
90.0
 52
90.0
 71
2
 49
0.5
 62
256
  6
BYLAYER
 49
-0.5
 62
256
  6
BYLAYER
  0
LAYOUT
  5
3C6
102
{ACAD_REACTORS
330
1A
102
}
100
AcDbPlotSettings
  1

  2
none_device
  4
ANSI_C_(22.00_x_17.00_Inches)
  6

 40
0.0
 41
0.0
 42
0.0
 43
0.0
 44
558.8
 45
431.8
 46
0.0
 47
0.0
 48
0.0
 49
0.0
140
0.0
141
0.0
142
1.0
143
1.0
 70
1024
 72
0
 73
0
 74
0
  7

 75
0
147
1.0
148
0.0
149
0.0
100
AcDbLayout
  1
Model
 70
0
 71
0
 10
0.0
 20
0.0
 11
22.0
 21
17.0
 12
0.0
 22
0.0
 32
0.0
 14
0.0
 24
0.0
 34
0.0
 15
0.0
 25
0.0
 35
0.0
146
0.0
 13
0.0
 23
0.0
 33
0.0
 16
1.0
 26
0.0
 36
0.0
 17
0.0
 27
1.0
 37
0.0
 76
0
330
220
345
0
346
0
  0
LAYOUT
  5
3C7
102
{ACAD_REACTORS
330
1A
102
}
100
AcDbPlotSettings
  1

  2
none_device
  4
ANSI_C_(22.00_x_17.00_Inches)
  6

 40
0.0
 41
0.0
 42
0.0
 43
0.0
 44
558.8
 45
431.8
 46
0.0
 47
0.0
 48
0.0
 49
0.0
140
0.0
141
0.0
142
1.0
143
1.0
 70
0
 72
0
 73
0
 74
0
  7

 75
0
147
1.0
148
0.0
149
0.0
100
AcDbLayout
  1
Layout1
 70
0
 71
1
 10
0.0
 20
0.0
 11
22.0
 21
17.0
 12
0.0
 22
0.0
 32
0.0
 14
0.0
 24
0.0
 34
0.0
 15
0.0
 25
0.0
 35
0.0
146
0.0
 13
0.0
 23
0.0
 33
0.0
 16
1.0
 26
0.0
 36
0.0
 17
0.0
 27
1.0
 37
0.0
 76
0
330
221
345
0
346
0
  0
ENDSEC
  0
EOF