999
DXF file: _cgs_temp_output.dxf
999
Pro/ENGINEER 2016360 by Parametric Technology Corporation
  0
SECTION
  2
HEADER
  9
$ACADVER
  1
AC1021
  9
$DWGCODEPAGE
  3
ANSI_1252
  9
$EXTMAX
 10
22.0
 20
17.0
 30
0.0
  9
$EXTMIN
 10
0.0
 20
0.0
 30
0.0
  9
$LIMMIN
 10
0.0
 20
0.0
  9
$LIMMAX
 10
22.0
 20
17.0
  9
$VIEWCTR
 10
11.0
 20
8.5
  9
$VIEWSIZE
 40
17.0
  9
$CLAYER
  8
0
  9
$LTSCALE
 40
1.21
  9
$CELTYPE
  6
BYLAYER
  9
$DIMSCALE
 40
1.0
  9
$DIMASZ
 40
0.1875
  9
$DIMEXO
 40
0.0625
  9
$DIMDLI
 40
0.836
  9
$DIMEXE
 40
0.125
  9
$DIMCEN
 40
0.198
  9
$DIMLFAC
 40
1.0
  9
$DIMBLK
  1
_CLOSED
  9
$DIMALT
 70
0
  9
$DIMALTF
 40
25.4
  9
$DIMTXT
 40
0.15625
  9
$DIMTOL
 70
0
  9
$DIMLIM
 70
0
  9
$DIMTFAC
 40
1.0
  9
$DIMGAP
 40
0.09
  9
$DIMDSEP
 70
46
  9
$AUNITS
 70
0
  9
$PDMODE
 70
3
  9
$PDSIZE
 40
0.3125
  9
$HANDSEED
  5
2D6
  9
$TILEMODE
 70
1
  9
$MEASUREMENT
 70
0
  9
$INSUNITS
 70
1
  0
ENDSEC
  0
SECTION
  2
CLASSES
  0
CLASS
  1
ACDBDICTIONARYWDFLT
  2
AcDbDictionaryWithDefault
  3
AutoCAD 2000
 90
0
 91
1
280
0
281
0
  0
CLASS
  1
ACDBPLACEHOLDER
  2
AcDbPlaceHolder
  3
AutoCAD 2000
 90
0
 91
1
280
0
281
0
  0
CLASS
  1
LAYOUT
  2
AcDbLayout
  3
AutoCAD 2000
 90
0
 91
0
280
0
281
0
  0
ENDSEC
  0
SECTION
  2
TABLES
  0
TABLE
  2
VPORT
  5
8
100
AcDbSymbolTable
 70
2
  0
VPORT
  5
1F4
100
AcDbSymbolTableRecord
100
AcDbViewportTableRecord
  2
*ACTIVE
 70
0
 10
0.0
 20
0.0
 11
1.0
 21
1.0
 12
11.0
 22
8.5
 13
0.0
 23
0.0
 14
1.0
 24
1.0
 15
0.0
 25
0.0
 16
0.0
 26
0.0
 36
1.0
 17
0.0
 27
0.0
 37
0.0
 40
17.0
 41
1.2941176471
 42
50.0
 43
0.0
 44
0.0
 50
0.0
 51
0.0
 71
0
 72
100
 73
1
 74
1
 75
0
 76
0
 77
0
 78
0
  0
ENDTAB
  0
TABLE
  2
LTYPE
  5
5
100
AcDbSymbolTable
 70
6
  0
LTYPE
  5
14
100
AcDbSymbolTableRecord
100
AcDbLinetypeTableRecord
  2
BYBLOCK
 70
0
  3

 72
65
 73
0
 40
0.0
  0
LTYPE
  5
15
100
AcDbSymbolTableRecord
100
AcDbLinetypeTableRecord
  2
BYLAYER
 70
0
  3

 72
65
 73
0
 40
0.0
  0
LTYPE
  5
16
100
AcDbSymbolTableRecord
100
AcDbLinetypeTableRecord
  2
CONTINUOUS
 70
64
  3
Solid line
 72
65
 73
0
 40
0.0
  0
LTYPE
  5
1F5
100
AcDbSymbolTableRecord
100
AcDbLinetypeTableRecord
  2
CENTER
 70
64
  3
____ _ ____ _ ____ _ ____ _ ____ _ ____ _ ____
 72
65
 73
4
 40
0.6
 49
0.375
 74
0
 49
-0.075
 74
0
 49
0.075
 74
0
 49
-0.075
 74
0
  0
LTYPE
  5
1F6
100
AcDbSymbolTableRecord
100
AcDbLinetypeTableRecord
  2
HIDDEN
 70
64
  3
- - - - - - - - - - - - - - - - - - - -
 72
65
 73
2
 40
0.2
 49
0.1
 74
0
 49
-0.1
 74
0
  0
LTYPE
  5
1F7
100
AcDbSymbolTableRecord
100
AcDbLinetypeTableRecord
  2
PHANTOM
 70
64
  3
_____ _ _ _____ _ _ _____ _ _ _____
 72
65
 73
6
 40
0.8
 49
0.45
 74
0
 49
-0.05
 74
0
 49
0.1
 74
0
 49
-0.05
 74
0
 49
0.1
 74
0
 49
-0.05
 74
0
  0
LTYPE
  5
1F8
100
AcDbSymbolTableRecord
100
AcDbLinetypeTableRecord
  2
DOT
 70
64
  3
. . . . . . . . . . . . . . . . . . . .
 72
65
 73
2
 40
0.2
 49
0.1
 74
0
 49
-0.1
 74
0
  0
LTYPE
  5
1F9
100
AcDbSymbolTableRecord
100
AcDbLinetypeTableRecord
  2
DASHED
 70
64
  3
- - - - - - - - - - - - - - - - - - - -
 72
65
 73
2
 40
0.2
 49
0.1
 74
0
 49
-0.1
 74
0
  0
ENDTAB
  0
TABLE
  2
LAYER
  5
2
100
AcDbSymbolTable
 70
36
  0
LAYER
  5
10
100
AcDbSymbolTableRecord
100
AcDbLayerTableRecord
  2
0
 70
0
 62
7
  6
CONTINUOUS
370
-3
390
F
  0
LAYER
  5
1FA
100
AcDbSymbolTableRecord
100
AcDbLayerTableRecord
  2
DEFAULT_1
 70
0
 62
7
  6
CENTER
370
-3
390
F
  0
LAYER
  5
1FB
100
AcDbSymbolTableRecord
100
AcDbLayerTableRecord
  2
DEFAULT_2
 70
0
 62
8
  6
HIDDEN
370
-3
390
F
  0
LAYER
  5
1FC
100
AcDbSymbolTableRecord
100
AcDbLayerTableRecord
  2
DEFAULT_3
 70
0
 62
7
  6
PHANTOM
370
-3
390
F
  0
LAYER
  5
1FD
100
AcDbSymbolTableRecord
100
AcDbLayerTableRecord
  2
01_ALL_DTM_PLN
 70
0
 62
7
  6
CONTINUOUS
370
-3
390
F
  0
LAYER
  5
1FE
100
AcDbSymbolTableRecord
100
AcDbLayerTableRecord
  2
01__ASM_ALL_DTM_PLN
 70
0
 62
7
  6
CONTINUOUS
370
-3
390
F
  0
LAYER
  5
1FF
100
AcDbSymbolTableRecord
100
AcDbLayerTableRecord
  2
01__ASM_DEF_DTM_PLN
 70
0
 62
7
  6
CONTINUOUS
370
-3
390
F
  0
LAYER
  5
200
100
AcDbSymbolTableRecord
100
AcDbLayerTableRecord
  2
01___PRT_ALL_DTM_PLN
 70
0
 62
7
  6
CONTINUOUS
370
-3
390
F
  0
LAYER
  5
201
100
AcDbSymbolTableRecord
100
AcDbLayerTableRecord
  2
01___PRT_DEF_DTM_PLN
 70
0
 62
7
  6
CONTINUOUS
370
-3
390
F
  0
LAYER
  5
202
100
AcDbSymbolTableRecord
100
AcDbLayerTableRecord
  2
02_ALL_AXES
 70
0
 62
7
  6
CONTINUOUS
370
-3
390
F
  0
LAYER
  5
203
100
AcDbSymbolTableRecord
100
AcDbLayerTableRecord
  2
02__ASM_ALL_AXES
 70
0
 62
7
  6
CONTINUOUS
370
-3
390
F
  0
LAYER
  5
204
100
AcDbSymbolTableRecord
100
AcDbLayerTableRecord
  2
02___PRT_ALL_AXES
 70
0
 62
7
  6
CONTINUOUS
370
-3
390
F
  0
LAYER
  5
205
100
AcDbSymbolTableRecord
100
AcDbLayerTableRecord
  2
03_ALL_CURVES
 70
0
 62
7
  6
CONTINUOUS
370
-3
390
F
  0
LAYER
  5
206
100
AcDbSymbolTableRecord
100
AcDbLayerTableRecord
  2
03__ASM_ALL_CURVES
 70
0
 62
7
  6
CONTINUOUS
370
-3
390
F
  0
LAYER
  5
207
100
AcDbSymbolTableRecord
100
AcDbLayerTableRecord
  2
03___PRT_ALL_CURVES
 70
0
 62
7
  6
CONTINUOUS
370
-3
390
F
  0
LAYER
  5
208
100
AcDbSymbolTableRecord
100
AcDbLayerTableRecord
  2
04_ALL_DTM_PNT
 70
0
 62
7
  6
CONTINUOUS
370
-3
390
F
  0
LAYER
  5
209
100
AcDbSymbolTableRecord
100
AcDbLayerTableRecord
  2
04__ASM_ALL_DTM_PNT
 70
0
 62
7
  6
CONTINUOUS
370
-3
390
F
  0
LAYER
  5
20A
100
AcDbSymbolTableRecord
100
AcDbLayerTableRecord
  2
04___PRT_ALL_DTM_PNT
 70
0
 62
7
  6
CONTINUOUS
370
-3
390
F
  0
LAYER
  5
20B
100
AcDbSymbolTableRecord
100
AcDbLayerTableRecord
  2
05_ALL_DTM_CSYS
 70
0
 62
7
  6
CONTINUOUS
370
-3
390
F
  0
LAYER
  5
20C
100
AcDbSymbolTableRecord
100
AcDbLayerTableRecord
  2
05__ASM_ALL_DTM_CSYS
 70
0
 62
7
  6
CONTINUOUS
370
-3
390
F
  0
LAYER
  5
20D
100
AcDbSymbolTableRecord
100
AcDbLayerTableRecord
  2
05__ASM_DEF_DTM_CSYS
 70
0
 62
7
  6
CONTINUOUS
370
-3
390
F
  0
LAYER
  5
20E
100
AcDbSymbolTableRecord
100
AcDbLayerTableRecord
  2
05___PRT_ALL_DTM_CSYS
 70
0
 62
7
  6
CONTINUOUS
370
-3
390
F
  0
LAYER
  5
20F
100
AcDbSymbolTableRecord
100
AcDbLayerTableRecord
  2
05___PRT_DEF_DTM_CSYS
 70
0
 62
7
  6
CONTINUOUS
370
-3
390
F
  0
LAYER
  5
210
100
AcDbSymbolTableRecord
100
AcDbLayerTableRecord
  2
06_ALL_SURFS
 70
0
 62
7
  6
CONTINUOUS
370
-3
390
F
  0
LAYER
  5
211
100
AcDbSymbolTableRecord
100
AcDbLayerTableRecord
  2
06__ASM_ALL_SURFS
 70
0
 62
7
  6
CONTINUOUS
370
-3
390
F
  0
LAYER
  5
212
100
AcDbSymbolTableRecord
100
AcDbLayerTableRecord
  2
06___PRT_ALL_SURFS
 70
0
 62
7
  6
CONTINUOUS
370
-3
390
F
  0
LAYER
  5
213
100
AcDbSymbolTableRecord
100
AcDbLayerTableRecord
  2
07__ASM_ALL_SKELETONS
 70
0
 62
7
  6
CONTINUOUS
370
-3
390
F
  0
LAYER
  5
214
100
AcDbSymbolTableRecord
100
AcDbLayerTableRecord
  2
LAYER_AXIS
 70
0
 62
7
  6
CONTINUOUS
370
-3
390
F
  0
LAYER
  5
215
100
AcDbSymbolTableRecord
100
AcDbLayerTableRecord
  2
LAYER_CHAMFER_FEAT
 70
0
 62
7
  6
CONTINUOUS
370
-3
390
F
  0
LAYER
  5
216
100
AcDbSymbolTableRecord
100
AcDbLayerTableRecord
  2
LAYER_CUT_FEAT
 70
0
 62
7
  6
CONTINUOUS
370
-3
390
F
  0
LAYER
  5
217
100
AcDbSymbolTableRecord
100
AcDbLayerTableRecord
  2
LAYER_DATUM
 70
0
 62
7
  6
CONTINUOUS
370
-3
390
F
  0
LAYER
  5
218
100
AcDbSymbolTableRecord
100
AcDbLayerTableRecord
  2
LAYER_DIM
 70
0
 62
7
  6
CONTINUOUS
370
-3
390
F
  0
LAYER
  5
219
100
AcDbSymbolTableRecord
100
AcDbLayerTableRecord
  2
LAYER_FEATURE
 70
0
 62
7
  6
CONTINUOUS
370
-3
390
F
  0
LAYER
  5
21A
100
AcDbSymbolTableRecord
100
AcDbLayerTableRecord
  2
LAYER_GEOM_FEAT
 70
0
 62
7
  6
CONTINUOUS
370
-3
390
F
  0
LAYER
  5
21B
100
AcDbSymbolTableRecord
100
AcDbLayerTableRecord
  2
LAYER_NOGEOM_FEAT
 70
0
 62
7
  6
CONTINUOUS
370
-3
390
F
  0
LAYER
  5
21C
100
AcDbSymbolTableRecord
100
AcDbLayerTableRecord
  2
LAYER_PARAMETER_DIM
 70
0
 62
7
  6
CONTINUOUS
370
-3
390
F
  0
LAYER
  5
21D
100
AcDbSymbolTableRecord
100
AcDbLayerTableRecord
  2
LAYER_PROTRUSION_FEAT
 70
0
 62
7
  6
CONTINUOUS
370
-3
390
F
  0
LAYER
  5
21E
100
AcDbSymbolTableRecord
100
AcDbLayerTableRecord
  2
LAYER_QUILT
 70
0
 62
7
  6
CONTINUOUS
370
-3
390
F
  0
LAYER
  5
21F
100
AcDbSymbolTableRecord
100
AcDbLayerTableRecord
  2
LAYER_ROUND_FEAT
 70
0
 62
7
  6
CONTINUOUS
370
-3
390
F
  0
ENDTAB
  0
TABLE
  2
STYLE
  5
3
100
AcDbSymbolTable
 70
1
  0
STYLE
  5
11
100
AcDbSymbolTableRecord
100
AcDbTextStyleTableRecord
  2
STANDARD
 70
0
 40
0.0
 41
0.8
 50
0.0
 71
0
 42
0.2
  3
txt
  4

  0
STYLE
  5
220
100
AcDbSymbolTableRecord
100
AcDbTextStyleTableRecord
  2
TEXTSTYLE_1
 70
0
 40
0.0
 41
0.8
 50
0.0
 71
0
 42
0.2
  3
gdt
  4

  0
ENDTAB
  0
TABLE
  2
VIEW
  5
6
100
AcDbSymbolTable
 70
0
  0
ENDTAB
  0
TABLE
  2
UCS
  5
7
100
AcDbSymbolTable
 70
0
  0
ENDTAB
  0
TABLE
  2
APPID
  5
9
100
AcDbSymbolTable
 70
1
  0
APPID
  5
221
100
AcDbSymbolTableRecord
100
AcDbRegAppTableRecord
  2
ACAD
 70
0
  0
ENDTAB
  0
TABLE
  2
BLOCK_RECORD
  5
1
100
AcDbSymbolTable
 70
0
  0
BLOCK_RECORD
  5
222
100
AcDbSymbolTableRecord
100
AcDbBlockTableRecord
  2
*Model_Space
  0
BLOCK_RECORD
  5
223
100
AcDbSymbolTableRecord
100
AcDbBlockTableRecord
  2
*Paper_Space
  0
ENDTAB
  0
TABLE
  2
DIMSTYLE
  5
A
100
AcDbSymbolTable
 70
1
100
AcDbDimStyleTable
 71
0
  0
DIMSTYLE
105
224
100
AcDbSymbolTableRecord
100
AcDbDimStyleTableRecord
  2
STANDARD
 70
0
  3

  4

 40
1.0
 41
0.1875
 42
0.0625
 43
0.38
 44
0.125
 45
0.0
 46
0.0
 47
0.0001
 48
0.0001
140
0.15625
141
0.09
142
0.0
143
25.4
144
1.0
145
0.0
146
1.0
147
0.09
 71
0.0
 72
0.0
 73
1
 74
1
 75
0
 76
0
 77
0
 78
4
 79
1
170
0
171
3
172
0
173
0
174
0
175
0
176
0
177
0
178
0
270
2
179
4
271
4
272
4
273
2
274
2
275
0
280
0
281
0
282
0
283
1
284
4
285
0
286
0
287
3
288
0
340
11
278
46
  0
ENDTAB
  0
ENDSEC
  0
SECTION
  2
BLOCKS
  0
BLOCK
  5
20
100
AcDbEntity
  8
0
100
AcDbBlockBegin
  2
*Model_Space
 70
0
 10
0.0
 20
0.0
 30
0.0
  3
*Model_Space
  1

  0
ENDBLK
  5
21
100
AcDbEntity
  8
0
100
AcDbBlockEnd
  0
BLOCK
  5
1C
100
AcDbEntity
  8
0
100
AcDbBlockBegin
  2
*Paper_Space
 70
0
 10
0.0
 20
0.0
 30
0.0
  3
*Paper_Space
  1

  0
ENDBLK
  5
1D
100
AcDbEntity
  8
0
100
AcDbBlockEnd
  0
ENDSEC
  0
SECTION
  2
ENTITIES
  0
MTEXT
  5
225
100
AcDbEntity
  8
0
100
AcDbMText
 62
7
  6
CONTINUOUS
  7
STANDARD
 71
1
 72
1
 10
15.9560215477
 20
0.9479130325
 30
0.0
 11
1.0
 21
0.0
 31
0.0
 44
0.9
  1
SCALE: 1:0.500
 40
0.3
 41
3.36
  0
LINE
  5
226
100
AcDbEntity
  8
0
100
AcDbLine
 62
7
  6
CONTINUOUS
 10
0.0
 20
0.0
 11
0.0
 21
17.0
  0
LINE
  5
227
100
AcDbEntity
  8
0
100
AcDbLine
 62
7
  6
CONTINUOUS
 10
0.0
 20
0.0
 11
22.0
 21
0.0
  0
LINE
  5
228
100
AcDbEntity
  8
0
100
AcDbLine
 62
7
  6
CONTINUOUS
 10
0.0
 20
17.0
 11
22.0
 21
17.0
  0
LINE
  5
229
100
AcDbEntity
  8
0
100
AcDbLine
 62
7
  6
CONTINUOUS
 10
22.0
 20
0.0
 11
22.0
 21
17.0
  0
LINE
  5
22A
100
AcDbEntity
  8
LAYER_FEATURE
100
AcDbLine
 62
7
  6
CONTINUOUS
 10
6.8408672762
 20
3.8013698968
 11
6.7787507053
 21
3.8013698968
  0
LINE
  5
22B
100
AcDbEntity
  8
LAYER_FEATURE
100
AcDbLine
 62
7
  6
CONTINUOUS
 10
5.4198672762
 20
3.8013698968
 11
5.481983847
 21
3.8013698968
  0
LINE
  5
22C
100
AcDbEntity
  8
02___PRT_ALL_AXES
100
AcDbLine
 62
7
  6
CONTINUOUS
 10
5.5228672762
 20
3.9686198968
 11
6.7378672762
 21
3.9686198968
  0
LINE
  5
22D
100
AcDbEntity
  8
LAYER_FEATURE
100
AcDbLine
 62
7
  6
CONTINUOUS
 10
5.4198672762
 20
7.2388698968
 11
5.4198672762
 21
3.8013698968
  0
LINE
  5
22E
100
AcDbEntity
  8
LAYER_FEATURE
100
AcDbLine
 62
7
  6
CONTINUOUS
 10
5.481983847
 20
7.2388698968
 11
5.481983847
 21
3.8013698968
  0
LINE
  5
22F
100
AcDbEntity
  8
LAYER_FEATURE
100
AcDbLine
 62
7
  6
CONTINUOUS
 10
5.5228672762
 20
7.0862908619
 11
5.5228672762
 21
3.9539489316
  0
LINE
  5
230
100
AcDbEntity
  8
LAYER_FEATURE
100
AcDbLine
 62
7
  6
CONTINUOUS
 10
5.481983847
 20
3.8013698968
 11
5.5228672762
 21
3.9539489316
  0
LINE
  5
231
100
AcDbEntity
  8
LAYER_FEATURE
100
AcDbLine
 62
7
  6
CONTINUOUS
 10
5.481983847
 20
7.2388698968
 11
5.5228672762
 21
7.0862908619
  0
LINE
  5
232
100
AcDbEntity
  8
LAYER_FEATURE
100
AcDbLine
 62
7
  6
CONTINUOUS
 10
6.7787507053
 20
7.2388698968
 11
6.7378672762
 21
7.0862908619
  0
LINE
  5
233
100
AcDbEntity
  8
LAYER_FEATURE
100
AcDbLine
 62
7
  6
CONTINUOUS
 10
6.7787507053
 20
3.8013698968
 11
6.7378672762
 21
3.9539489316
  0
LINE
  5
234
100
AcDbEntity
  8
LAYER_FEATURE
100
AcDbLine
 62
7
  6
CONTINUOUS
 10
6.7378672762
 20
7.0862908619
 11
6.7378672762
 21
3.9539489316
  0
LINE
  5
235
100
AcDbEntity
  8
LAYER_FEATURE
100
AcDbLine
 62
7
  6
CONTINUOUS
 10
6.7787507053
 20
7.2388698968
 11
6.7787507053
 21
3.8013698968
  0
LINE
  5
236
100
AcDbEntity
  8
LAYER_FEATURE
100
AcDbLine
 62
7
  6
CONTINUOUS
 10
6.8408672762
 20
7.2388698968
 11
6.8408672762
 21
3.8013698968
  0
LINE
  5
237
100
AcDbEntity
  8
LAYER_FEATURE
100
AcDbLine
 62
7
  6
CONTINUOUS
 10
5.5228672762
 20
6.8032672438
 11
6.7378672762
 21
6.8032672438
  0
LINE
  5
238
100
AcDbEntity
  8
LAYER_CUT_FEAT
100
AcDbLine
 62
7
  6
CONTINUOUS
 10
5.5228672762
 20
6.8058585462
 11
6.7378672762
 21
6.8058585462
  0
LINE
  5
239
100
AcDbEntity
  8
LAYER_FEATURE
100
AcDbLine
 62
7
  6
CONTINUOUS
 10
5.5228672762
 20
6.9170172438
 11
6.7378672762
 21
6.9170172438
  0
LINE
  5
23A
100
AcDbEntity
  8
LAYER_FEATURE
100
AcDbLine
 62
7
  6
CONTINUOUS
 10
5.5228672762
 20
6.9352245441
 11
6.7378672762
 21
6.9352245441
  0
LINE
  5
23B
100
AcDbEntity
  8
LAYER_CUT_FEAT
100
AcDbLine
 62
7
  6
CONTINUOUS
 10
5.5228672762
 20
6.936390994
 11
6.7378672762
 21
6.936390994
  0
LINE
  5
23C
100
AcDbEntity
  8
LAYER_FEATURE
100
AcDbLine
 62
7
  6
CONTINUOUS
 10
5.5228672762
 20
7.0130341267
 11
6.7378672762
 21
7.0130341267
  0
LINE
  5
23D
100
AcDbEntity
  8
LAYER_FEATURE
100
AcDbLine
 62
7
  6
CONTINUOUS
 10
5.5228672762
 20
7.0241846058
 11
6.7378672762
 21
7.0241846058
  0
LINE
  5
23E
100
AcDbEntity
  8
LAYER_CUT_FEAT
100
AcDbLine
 62
7
  6
CONTINUOUS
 10
5.5228672762
 20
7.0244784503
 11
6.7378672762
 21
7.0244784503
  0
LINE
  5
23F
100
AcDbEntity
  8
LAYER_FEATURE
100
AcDbLine
 62
7
  6
CONTINUOUS
 10
5.5228672762
 20
7.0636895662
 11
6.7378672762
 21
7.0636895662
  0
LINE
  5
240
100
AcDbEntity
  8
LAYER_FEATURE
100
AcDbLine
 62
7
  6
CONTINUOUS
 10
5.5228672762
 20
7.0674444223
 11
6.7378672762
 21
7.0674444223
  0
LINE
  5
241
100
AcDbEntity
  8
LAYER_FEATURE
100
AcDbLine
 62
7
  6
CONTINUOUS
 10
6.8408672762
 20
7.2388698968
 11
6.7787507053
 21
7.2388698968
  0
LINE
  5
242
100
AcDbEntity
  8
LAYER_FEATURE
100
AcDbLine
 62
7
  6
CONTINUOUS
 10
5.4198672762
 20
7.2388698968
 11
5.481983847
 21
7.2388698968
  0
LINE
  5
243
100
AcDbEntity
  8
LAYER_FEATURE
100
AcDbLine
 62
7
  6
CONTINUOUS
 10
5.3603720839
 20
10.8812977814
 11
5.4224886547
 21
10.8812977814
  0
LINE
  5
244
100
AcDbEntity
  8
LAYER_FEATURE
100
AcDbLine
 62
7
  6
CONTINUOUS
 10
6.719255513
 20
10.8812977814
 11
6.7813720839
 21
10.8812977814
  0
LINE
  5
245
100
AcDbEntity
  8
02___PRT_ALL_AXES
100
AcDbLine
 62
7
  6
CONTINUOUS
 10
5.4633720839
 20
11.0485477814
 11
6.6783720839
 21
11.0485477814
  0
LINE
  5
246
100
AcDbEntity
  8
LAYER_FEATURE
100
AcDbLine
 62
7
  6
CONTINUOUS
 10
5.4633720839
 20
11.7278751289
 11
6.6783720839
 21
11.7278751289
  0
LINE
  5
247
100
AcDbEntity
  8
LAYER_FEATURE
100
AcDbLine
 62
7
  6
CONTINUOUS
 10
6.6783720839
 20
11.8565920193
 11
5.4633720839
 21
11.8565920193
  0
LINE
  5
248
100
AcDbEntity
  8
LAYER_FEATURE
100
AcDbLine
 62
7
  6
CONTINUOUS
 10
5.3603720839
 20
10.8812977814
 11
5.3603720839
 21
14.3187977814
  0
LINE
  5
249
100
AcDbEntity
  8
LAYER_FEATURE
100
AcDbLine
 62
7
  6
CONTINUOUS
 10
5.4224886547
 20
10.8812977814
 11
5.4224886547
 21
14.3187977814
  0
LINE
  5
24A
100
AcDbEntity
  8
LAYER_FEATURE
100
AcDbLine
 62
7
  6
CONTINUOUS
 10
5.4633720839
 20
11.0338768162
 11
5.4633720839
 21
14.1662187465
  0
LINE
  5
24B
100
AcDbEntity
  8
LAYER_FEATURE
100
AcDbLine
 62
7
  6
CONTINUOUS
 10
6.6783720839
 20
11.9085535435
 11
5.4633720839
 21
11.9085535435
  0
LINE
  5
24C
100
AcDbEntity
  8
LAYER_CUT_FEAT
100
AcDbLine
 62
7
  6
CONTINUOUS
 10
5.4633720839
 20
11.9152250359
 11
6.6783720839
 21
11.9152250359
  0
LINE
  5
24D
100
AcDbEntity
  8
LAYER_FEATURE
100
AcDbLine
 62
7
  6
CONTINUOUS
 10
5.4633720839
 20
11.9248959083
 11
6.6783720839
 21
11.9248959083
  0
LINE
  5
24E
100
AcDbEntity
  8
LAYER_FEATURE
100
AcDbLine
 62
7
  6
CONTINUOUS
 10
5.4633720839
 20
11.9639415897
 11
6.6783720839
 21
11.9639415897
  0
LINE
  5
24F
100
AcDbEntity
  8
LAYER_FEATURE
100
AcDbLine
 62
7
  6
CONTINUOUS
 10
6.6783720839
 20
12.0810751981
 11
5.4633720839
 21
12.0810751981
  0
LINE
  5
250
100
AcDbEntity
  8
LAYER_FEATURE
100
AcDbLine
 62
7
  6
CONTINUOUS
 10
6.6783720839
 20
12.1374567553
 11
5.4633720839
 21
12.1374567553
  0
LINE
  5
251
100
AcDbEntity
  8
LAYER_FEATURE
100
AcDbLine
 62
7
  6
CONTINUOUS
 10
5.4633720839
 20
12.177721661
 11
6.6783720839
 21
12.177721661
  0
LINE
  5
252
100
AcDbEntity
  8
LAYER_FEATURE
100
AcDbLine
 62
7
  6
CONTINUOUS
 10
5.4633720839
 20
12.2193358153
 11
6.6783720839
 21
12.2193358153
  0
LINE
  5
253
100
AcDbEntity
  8
LAYER_FEATURE
100
AcDbLine
 62
7
  6
CONTINUOUS
 10
6.6783720839
 20
12.3213270962
 11
5.4633720839
 21
12.3213270962
  0
LINE
  5
254
100
AcDbEntity
  8
LAYER_FEATURE
100
AcDbLine
 62
7
  6
CONTINUOUS
 10
5.4224886547
 20
10.8812977814
 11
5.4633720839
 21
11.0338768162
  0
LINE
  5
255
100
AcDbEntity
  8
LAYER_FEATURE
100
AcDbLine
 62
7
  6
CONTINUOUS
 10
6.6783720839
 20
12.3804155614
 11
5.4633720839
 21
12.3804155614
  0
LINE
  5
256
100
AcDbEntity
  8
LAYER_FEATURE
100
AcDbLine
 62
7
  6
CONTINUOUS
 10
5.4633720839
 20
12.4433795791
 11
6.6783720839
 21
12.4433795791
  0
LINE
  5
257
100
AcDbEntity
  8
LAYER_FEATURE
100
AcDbLine
 62
7
  6
CONTINUOUS
 10
5.4633720839
 20
12.4862977814
 11
6.6783720839
 21
12.4862977814
  0
LINE
  5
258
100
AcDbEntity
  8
LAYER_FEATURE
100
AcDbLine
 62
7
  6
CONTINUOUS
 10
5.4224886547
 20
14.3187977814
 11
5.4633720839
 21
14.1662187465
  0
LINE
  5
259
100
AcDbEntity
  8
LAYER_FEATURE
100
AcDbLine
 62
7
  6
CONTINUOUS
 10
6.6783720839
 20
12.5700477814
 11
5.4633720839
 21
12.5700477814
  0
LINE
  5
25A
100
AcDbEntity
  8
LAYER_FEATURE
100
AcDbLine
 62
7
  6
CONTINUOUS
 10
6.6783720839
 20
12.6300477814
 11
5.4633720839
 21
12.6300477814
  0
LINE
  5
25B
100
AcDbEntity
  8
LAYER_FEATURE
100
AcDbLine
 62
7
  6
CONTINUOUS
 10
5.4633720839
 20
12.7137977814
 11
6.6783720839
 21
12.7137977814
  0
LINE
  5
25C
100
AcDbEntity
  8
LAYER_FEATURE
100
AcDbLine
 62
7
  6
CONTINUOUS
 10
6.6783720839
 20
14.1662187465
 11
6.719255513
 21
14.3187977814
  0
LINE
  5
25D
100
AcDbEntity
  8
LAYER_FEATURE
100
AcDbLine
 62
7
  6
CONTINUOUS
 10
6.6783720839
 20
11.0338768162
 11
6.719255513
 21
10.8812977814
  0
LINE
  5
25E
100
AcDbEntity
  8
LAYER_FEATURE
100
AcDbLine
 62
7
  6
CONTINUOUS
 10
6.6783720839
 20
11.0338768162
 11
6.6783720839
 21
14.1662187465
  0
LINE
  5
25F
100
AcDbEntity
  8
LAYER_FEATURE
100
AcDbLine
 62
7
  6
CONTINUOUS
 10
6.719255513
 20
10.8812977814
 11
6.719255513
 21
14.3187977814
  0
LINE
  5
260
100
AcDbEntity
  8
LAYER_FEATURE
100
AcDbLine
 62
7
  6
CONTINUOUS
 10
6.7813720839
 20
10.8812977814
 11
6.7813720839
 21
14.3187977814
  0
LINE
  5
261
100
AcDbEntity
  8
02___PRT_ALL_AXES
100
AcDbLine
 62
7
  6
CONTINUOUS
 10
5.4633720839
 20
14.1515477814
 11
6.6783720839
 21
14.1515477814
  0
LINE
  5
262
100
AcDbEntity
  8
LAYER_FEATURE
100
AcDbLine
 62
7
  6
CONTINUOUS
 10
5.3603720839
 20
14.3187977814
 11
5.4224886547
 21
14.3187977814
  0
LINE
  5
263
100
AcDbEntity
  8
LAYER_FEATURE
100
AcDbLine
 62
7
  6
CONTINUOUS
 10
6.719255513
 20
14.3187977814
 11
6.7813720839
 21
14.3187977814
  0
LINE
  5
264
100
AcDbEntity
  8
LAYER_FEATURE
100
AcDbLine
 62
7
  6
CONTINUOUS
 10
14.8166679797
 20
10.7920549929
 11
14.8738811302
 21
10.7920549929
  0
LINE
  5
265
100
AcDbEntity
  8
LAYER_FEATURE
100
AcDbLine
 62
7
  6
CONTINUOUS
 10
16.0682825017
 20
10.7920549929
 11
16.1254956522
 21
10.7920549929
  0
LINE
  5
266
100
AcDbEntity
  8
02___PRT_ALL_AXES
100
AcDbLine
 62
7
  6
CONTINUOUS
 10
14.9115372621
 20
10.9593049929
 11
15.7805017255
 21
10.9593049929
  0
LINE
  5
267
100
AcDbEntity
  8
LAYER_FEATURE
100
AcDbLine
 62
7
  6
CONTINUOUS
 10
14.3777192999
 20
12.9360880038
 11
14.3851075484
 21
12.9930093826
  0
LINE
  5
268
100
AcDbEntity
  8
LAYER_FEATURE
100
AcDbLine
 62
7
  6
CONTINUOUS
 10
14.4145875907
 20
13.1676653921
 11
14.4257127204
 21
13.2204274632
  0
LINE
  5
269
100
AcDbEntity
  8
LAYER_FEATURE
100
AcDbLine
 62
7
  6
CONTINUOUS
 10
14.4701302962
 20
13.3908526296
 11
14.4810794253
 21
13.4262840242
  0
LINE
  5
26A
100
AcDbEntity
  8
02___PRT_ALL_AXES
100
AcDbLine
 62
7
  6
CONTINUOUS
 10
16.064519876
 20
11.2108146356
 11
16.0135468019
 21
11.2211032483
  0
LINE
  5
26B
100
AcDbEntity
  8
LAYER_FEATURE
100
AcDbLine
 62
7
  6
CONTINUOUS
 10
14.3570707977
 20
12.6915886064
 11
14.3604976768
 21
12.7509397656
  0
LINE
  5
26C
100
AcDbEntity
  8
LAYER_FEATURE
100
AcDbLine
 62
7
  6
CONTINUOUS
 10
14.3146963278
 20
12.6411989302
 11
14.3358180907
 21
12.6541885656
  0
LINE
  5
26D
100
AcDbEntity
  8
LAYER_FEATURE
100
AcDbLine
 62
7
  6
CONTINUOUS
 10
14.3443852885
 20
12.8025664637
 11
14.3256399808
 21
12.8307353765
  0
LINE
  5
26E
100
AcDbEntity
  8
LAYER_FEATURE
100
AcDbLine
 62
7
  6
CONTINUOUS
 10
14.372731033
 20
13.0510365396
 11
14.3561753408
 21
13.0871363508
  0
LINE
  5
26F
100
AcDbEntity
  8
LAYER_FEATURE
100
AcDbLine
 62
7
  6
CONTINUOUS
 10
14.417448132
 20
13.2830919533
 11
14.4035850917
 21
13.3260257884
  0
LINE
  5
270
100
AcDbEntity
  8
LAYER_FEATURE
100
AcDbLine
 62
7
  6
CONTINUOUS
 10
14.4771778793
 20
13.4916818186
 11
14.4664287123
 21
13.5401451546
  0
LINE
  5
271
100
AcDbEntity
  8
LAYER_FEATURE
100
AcDbLine
 62
7
  6
CONTINUOUS
 10
14.3089999728
 20
12.6252258661
 11
15.4005769695
 21
12.6252258661
  0
LINE
  5
272
100
AcDbEntity
  8
LAYER_FEATURE
100
AcDbLine
 62
7
  6
CONTINUOUS
 10
15.4028068083
 20
12.6915886064
 11
14.3570707977
 21
12.6915886064
  0
LINE
  5
273
100
AcDbEntity
  8
LAYER_FEATURE
100
AcDbLine
 62
7
  6
CONTINUOUS
 10
15.4056647117
 20
12.7509397656
 11
14.3604976768
 21
12.7509397656
  0
LINE
  5
274
100
AcDbEntity
  8
LAYER_FEATURE
100
AcDbLine
 62
7
  6
CONTINUOUS
 10
14.3219935562
 20
12.8502656782
 11
15.4121636222
 21
12.8502656782
  0
LINE
  5
275
100
AcDbEntity
  8
LAYER_FEATURE
100
AcDbLine
 62
7
  6
CONTINUOUS
 10
14.3258912119
 20
12.8921690506
 11
15.415778789
 21
12.8921690506
  0
LINE
  5
276
100
AcDbEntity
  8
LAYER_FEATURE
100
AcDbLine
 62
7
  6
CONTINUOUS
 10
15.4198916154
 20
12.9360880038
 11
14.3777192999
 21
12.9360880038
  0
LINE
  5
277
100
AcDbEntity
  8
LAYER_FEATURE
100
AcDbLine
 62
7
  6
CONTINUOUS
 10
14.3325811536
 20
12.9053593476
 11
14.3542604117
 21
12.9087330925
  0
LINE
  5
278
100
AcDbEntity
  8
LAYER_FEATURE
100
AcDbLine
 62
7
  6
CONTINUOUS
 10
15.4259232302
 20
12.9930093826
 11
14.3851075484
 21
12.9930093826
  0
LINE
  5
279
100
AcDbEntity
  8
LAYER_FEATURE
100
AcDbLine
 62
7
  6
CONTINUOUS
 10
14.3539049874
 20
13.1079959453
 11
15.4406941929
 21
13.1079959453
  0
LINE
  5
27A
100
AcDbEntity
  8
LAYER_FEATURE
100
AcDbLine
 62
7
  6
CONTINUOUS
 10
14.3605770098
 20
13.1475246811
 11
15.446726051
 21
13.1475246811
  0
LINE
  5
27B
100
AcDbEntity
  8
LAYER_CUT_FEAT
100
AcDbLine
 62
7
  6
CONTINUOUS
 10
14.367200435
 20
13.157656989
 11
15.4482849855
 21
13.157656989
  0
LINE
  5
27C
100
AcDbEntity
  8
LAYER_FEATURE
100
AcDbLine
 62
7
  6
CONTINUOUS
 10
15.4498248563
 20
13.1676653921
 11
14.4145875907
 21
13.1676653921
  0
LINE
  5
27D
100
AcDbEntity
  8
LAYER_FEATURE
100
AcDbLine
 62
7
  6
CONTINUOUS
 10
15.4587835032
 20
13.2204274632
 11
14.4257127204
 21
13.2204274632
  0
LINE
  5
27E
100
AcDbEntity
  8
LAYER_FEATURE
100
AcDbLine
 62
7
  6
CONTINUOUS
 10
14.4027597932
 20
13.3475808675
 11
15.4837156905
 21
13.3475808675
  0
LINE
  5
27F
100
AcDbEntity
  8
LAYER_FEATURE
100
AcDbLine
 62
7
  6
CONTINUOUS
 10
14.4120034563
 20
13.3835339062
 11
15.491823874
 21
13.3835339062
  0
LINE
  5
280
100
AcDbEntity
  8
0
100
AcDbLine
 62
7
  6
CONTINUOUS
 10
14.4179034981
 20
13.3908526296
 11
15.4935066209
 21
13.3908526296
  0
LINE
  5
281
100
AcDbEntity
  8
LAYER_FEATURE
100
AcDbLine
 62
7
  6
CONTINUOUS
 10
15.5019222152
 20
13.4262840242
 11
14.4810794253
 21
13.4262840242
  0
LINE
  5
282
100
AcDbEntity
  8
02___PRT_ALL_AXES
100
AcDbLine
 62
7
  6
CONTINUOUS
 10
16.064519876
 20
13.8107953502
 11
16.0133580884
 21
13.8004686468
  0
LINE
  5
283
100
AcDbEntity
  8
LAYER_FEATURE
100
AcDbLine
 62
7
  6
CONTINUOUS
 10
14.4670735448
 20
13.5617407781
 11
15.538811591
 21
13.5617407781
  0
LINE
  5
284
100
AcDbEntity
  8
02___PRT_ALL_AXES
100
AcDbLine
 62
7
  6
CONTINUOUS
 10
14.9115372621
 20
14.0623049929
 11
15.7805718826
 21
14.0623049929
  0
LINE
  5
285
100
AcDbEntity
  8
LAYER_FEATURE
100
AcDbLine
 62
7
  6
CONTINUOUS
 10
14.8166679797
 20
14.2295549929
 11
14.8738811302
 21
14.2295549929
  0
LINE
  5
286
100
AcDbEntity
  8
LAYER_FEATURE
100
AcDbLine
 62
7
  6
CONTINUOUS
 10
16.0682825017
 20
14.2295549929
 11
16.1254956522
 21
14.2295549929
  0
CIRCLE
  5
287
100
AcDbEntity
  8
LAYER_FEATURE
100
AcDbCircle
 62
7
  6
CONTINUOUS
 10
15.5603552569
 20
5.4606247044
 40
1.71875
  0
CIRCLE
  5
288
100
AcDbEntity
  8
LAYER_FEATURE
100
AcDbCircle
 62
7
  6
CONTINUOUS
 10
15.5603552569
 20
5.4606247044
 40
1.5661709651
  0
CIRCLE
  5
289
100
AcDbEntity
  8
02___PRT_ALL_AXES
100
AcDbCircle
 62
7
  6
CONTINUOUS
 10
15.5603552569
 20
5.4606247044
 40
1.304
  0
CIRCLE
  5
28A
100
AcDbEntity
  8
LAYER_CHAMFER_FEAT
100
AcDbCircle
 62
7
  6
CONTINUOUS
 10
15.5603552569
 20
5.4606247044
 40
1.2025
  0
CIRCLE
  5
28B
100
AcDbEntity
  8
LAYER_CHAMFER_FEAT
100
AcDbCircle
 62
7
  6
CONTINUOUS
 10
15.5603552569
 20
5.4606247044
 40
1.1725
  0
ARC
  5
28C
100
AcDbEntity
  8
02___PRT_ALL_AXES
100
AcDbCircle
 62
7
  6
CONTINUOUS
 10
15.5603552569
 20
5.4606247044
 40
0.84375
100
AcDbArc
 50
153.3827617612
 51
231.6172382388
  0
ARC
  5
28D
100
AcDbEntity
  8
02___PRT_ALL_AXES
100
AcDbCircle
 62
7
  6
CONTINUOUS
 10
15.5603552569
 20
5.4606247044
 40
0.84375
100
AcDbArc
 50
58.3827617612
 51
136.6172382388
  0
ARC
  5
28E
100
AcDbEntity
  8
LAYER_CUT_FEAT
100
AcDbCircle
 62
7
  6
CONTINUOUS
 10
15.5603552569
 20
5.4606247044
 40
0.84375
100
AcDbArc
 50
248.3827617612
 51
41.6172382388
  0
ARC
  5
28F
100
AcDbEntity
  8
02___PRT_ALL_AXES
100
AcDbCircle
 62
7
  6
CONTINUOUS
 10
15.5603552569
 20
5.4606247044
 40
0.8131570198
100
AcDbArc
 50
136.1802428979
 51
153.8197571021
  0
ARC
  5
290
100
AcDbEntity
  8
LAYER_CUT_FEAT
100
AcDbCircle
 62
7
  6
CONTINUOUS
 10
15.5603552569
 20
5.4606247044
 40
0.7825640395
100
AcDbArc
 50
58.7288156508
 51
231.2711843492
  0
ARC
  5
291
100
AcDbEntity
  8
LAYER_CUT_FEAT
100
AcDbCircle
 62
7
  6
CONTINUOUS
 10
15.5603552569
 20
5.4606247044
 40
0.7825640395
100
AcDbArc
 50
248.7288156508
 51
41.2711843492
  0
ARC
  5
292
100
AcDbEntity
  8
02___PRT_ALL_AXES
100
AcDbCircle
 62
7
  6
CONTINUOUS
 10
14.894794221
 20
5.926655559
 40
0.125
100
AcDbArc
 50
50.8903869362
 51
239.1096130638
  0
ARC
  5
293
100
AcDbEntity
  8
LAYER_CUT_FEAT
100
AcDbCircle
 62
7
  6
CONTINUOUS
 10
16.0826201898
 20
6.0830358145
 40
0.125
100
AcDbArc
 50
301.820265907
 51
158.179734093
  0
ARC
  5
294
100
AcDbEntity
  8
02___PRT_ALL_AXES
100
AcDbCircle
 62
7
  6
CONTINUOUS
 10
15.1541052569
 20
4.7569790639
 40
0.125
100
AcDbArc
 50
131.820265907
 51
348.179734093
  0
ARC
  5
295
100
AcDbEntity
  8
02___PRT_ALL_AXES
100
AcDbCircle
 62
7
  6
CONTINUOUS
 10
12.8731689302
 20
-25.8087521955
 40
37.7028569261
100
AcDbArc
 50
85.5358032865
 51
85.6529122515
  0
ARC
  5
296
100
AcDbEntity
  8
LAYER_FEATURE
100
AcDbCircle
 62
7
  6
CONTINUOUS
 10
18.0162426305
 20
12.5277768663
 40
3.7082981618
100
AcDbArc
 50
174.3607877802
 51
175.0110221749
  0
ARC
  5
297
100
AcDbEntity
  8
LAYER_FEATURE
100
AcDbCircle
 62
7
  6
CONTINUOUS
 10
17.5142254198
 20
12.5948955422
 40
3.2017022439
100
AcDbArc
 50
170.0606983632
 51
170.7780918767
  0
ARC
  5
298
100
AcDbEntity
  8
LAYER_FEATURE
100
AcDbCircle
 62
7
  6
CONTINUOUS
 10
16.8667764547
 20
12.7332376159
 40
2.5394479201
100
AcDbArc
 50
165.1625395032
 51
166.0001116859
  0
ARC
  5
299
100
AcDbEntity
  8
LAYER_CHAMFER_FEAT
100
AcDbCircle
 62
7
  6
CONTINUOUS
 10
16.2201398422
 20
13.2947873784
 40
0.4368138556
100
AcDbArc
 50
135.7342636394
 51
138.2781440134
  0
ARC
  5
29A
100
AcDbEntity
  8
LAYER_FEATURE
100
AcDbCircle
 62
7
  6
CONTINUOUS
 10
16.0296589298
 20
13.6089737521
 40
0.2058960289
100
AcDbArc
 50
79.5286618596
 51
80.1918596166
  0
ARC
  5
29B
100
AcDbEntity
  8
LAYER_FEATURE
100
AcDbCircle
 62
7
  6
CONTINUOUS
 10
16.0296925971
 20
11.4124476741
 40
0.2057044894
100
AcDbArc
 50
279.8057524603
 51
280.4558605811
  0
ARC
  5
29C
100
AcDbEntity
  8
LAYER_FEATURE
100
AcDbCircle
 62
7
  6
CONTINUOUS
 10
16.0299352614
 20
13.6105790196
 40
0.2042671514
100
AcDbArc
 50
80.1915331494
 51
81.780337691
  0
ARC
  5
29D
100
AcDbEntity
  8
LAYER_FEATURE
100
AcDbCircle
 62
7
  6
CONTINUOUS
 10
16.0299681921
 20
11.4108200762
 40
0.2040537333
100
AcDbArc
 50
278.4239429034
 51
279.8073318516
  0
ARC
  5
29E
100
AcDbEntity
  8
02___PRT_ALL_AXES
100
AcDbCircle
 62
7
  6
CONTINUOUS
 10
16.1047709732
 20
11.409771796
 40
0.2029879281
100
AcDbArc
 50
258.5628405811
 51
265.2422603894
  0
ARC
  5
29F
100
AcDbEntity
  8
02___PRT_ALL_AXES
100
AcDbCircle
 62
7
  6
CONTINUOUS
 10
16.1047708749
 20
13.6118388918
 40
0.20298722
100
AcDbArc
 50
94.7581022403
 51
101.4371715492
  0
ARC
  5
2A0
100
AcDbEntity
  8
LAYER_FEATURE
100
AcDbCircle
 62
7
  6
CONTINUOUS
 10
16.0878382944
 20
13.6169516431
 40
0.1978533453
100
AcDbArc
 50
88.2064675535
 51
89.9996449816
  0
ARC
  5
2A1
100
AcDbEntity
  8
LAYER_FEATURE
100
AcDbCircle
 62
7
  6
CONTINUOUS
 10
16.0878395186
 20
11.4046164783
 40
0.1978114809
100
AcDbArc
 50
270.0000005052
 51
272.2047908693
  0
SPLINE
  5
2A2
100
AcDbEntity
  8
02___PRT_ALL_AXES
100
AcDbSpline
 62
7
  6
CONTINUOUS
 70
0
 71
3
 72
38
 73
34
 74
0
 42
0.0000001
 43
0.0000001
 44
0.0000000001
 40
0.0
 40
0.0
 40
0.0
 40
0.0
 40
0.088887589
 40
0.132056524
 40
0.1743453396
 40
0.2157337794
 40
0.2562035192
 40
0.2957383374
 40
0.3343240322
 40
0.3719487123
 40
0.4086029222
 40
0.4442798505
 40
0.4789756056
 40
0.5126894111
 40
0.5454238818
 40
0.5771853881
 40
0.6079843554
 40
0.6378356129
 40
0.6667588436
 40
0.6947790016
 40
0.7219267183
 40
0.7482387821
 40
0.7737585917
 40
0.7985365003
 40
0.8226301331
 40
0.8461045999
 40
0.8690324546
 40
0.8914934537
 40
0.9135740577
 40
0.9353665734
 40
0.9569679861
 40
0.9784785255
 40
1.0
 40
1.0
 40
1.0
 40
1.0
 10
16.5020858434
 20
11.7002255943
 30
0.0
 10
16.4960674948
 20
11.6807502109
 30
0.0
 10
16.4866468357
 20
11.6519602999
 30
0.0
 10
16.4731717354
 20
11.6143160765
 30
0.0
 10
16.4628508157
 20
11.5871176198
 30
0.0
 10
16.4522259878
 20
11.5607025081
 30
0.0
 10
16.4413061686
 20
11.5350929815
 30
0.0
 10
16.4301006227
 20
11.5103107586
 30
0.0
 10
16.4186188039
 20
11.4863767796
 30
0.0
 10
16.4068704319
 20
11.4633112724
 30
0.0
 10
16.394865411
 20
11.4411337292
 30
0.0
 10
16.3826138381
 20
11.4198628906
 30
0.0
 10
16.3701260379
 20
11.3995167007
 30
0.0
 10
16.3574124931
 20
11.3801123282
 30
0.0
 10
16.3444838287
 20
11.361666161
 30
0.0
 10
16.3313508586
 20
11.3441937523
 30
0.0
 10
16.3180245274
 20
11.3277098417
 30
0.0
 10
16.3045158756
 20
11.3122283764
 30
0.0
 10
16.2908360787
 20
11.2977624653
 30
0.0
 10
16.2769964261
 20
11.284324384
 30
0.0
 10
16.2630082728
 20
11.2719256294
 30
0.0
 10
16.2488830699
 20
11.2605769012
 30
0.0
 10
16.2346323974
 20
11.2502880728
 30
0.0
 10
16.2202679259
 20
11.2410682718
 30
0.0
 10
16.2058014566
 20
11.2329258868
 30
0.0
 10
16.1912450065
 20
11.2258684771
 30
0.0
 10
16.1766108
 20
11.2199028298
 30
0.0
 10
16.1619113282
 20
11.2150349425
 30
0.0
 10
16.1471593858
 20
11.2112698564
 30
0.0
 10
16.1323681791
 20
11.2086116001
 30
0.0
 10
16.1175508288
 20
11.2070631839
 30
0.0
 10
16.1027220445
 20
11.2066263025
 30
0.0
 10
16.0928531231
 20
11.2070757479
 30
0.0
 10
16.0879345811
 20
11.2074833019
 30
0.0
  0
SPLINE
  5
2A3
100
AcDbEntity
  8
LAYER_CHAMFER_FEAT
100
AcDbSpline
 62
7
  6
CONTINUOUS
 70
0
 71
3
 72
15
 73
11
 74
0
 42
0.0000001
 43
0.0000001
 44
0.0000000001
 40
0.0
 40
0.0
 40
0.0
 40
0.0
 40
0.1375058743
 40
0.2714667649
 40
0.4018486241
 40
0.5286396396
 40
0.6518353117
 40
0.7714434042
 40
0.8874860166
 40
1.0
 40
1.0
 40
1.0
 40
1.0
 10
15.8132264955
 20
11.5688543841
 30
0.0
 10
15.8167615922
 20
11.5616506144
 30
0.0
 10
15.8239078548
 20
11.5475100062
 30
0.0
 10
15.8350064591
 20
11.5268492019
 30
0.0
 10
15.8463360811
 20
11.5070309074
 30
0.0
 10
15.8578868652
 20
11.4880723654
 30
0.0
 10
15.8696490919
 20
11.4699895587
 30
0.0
 10
15.881612864
 20
11.4527978623
 30
0.0
 10
15.8937678475
 20
11.4365122592
 30
0.0
 10
15.902120057
 20
11.4261087645
 30
0.0
 10
15.9063275211
 20
11.4210680169
 30
0.0
  0
SPLINE
  5
2A4
100
AcDbEntity
  8
LAYER_FEATURE
100
AcDbSpline
 62
7
  6
CONTINUOUS
 70
0
 71
3
 72
23
 73
19
 74
0
 42
0.0000001
 43
0.0000001
 44
0.0000000001
 40
0.0
 40
0.0
 40
0.0
 40
0.0
 40
0.0540890379
 40
0.1084106231
 40
0.1631936252
 40
0.2186598002
 40
0.2750208005
 40
0.3324756838
 40
0.3912091061
 40
0.451390186
 40
0.5131718421
 40
0.57669066
 40
0.6420672494
 40
0.7094067601
 40
0.7787995681
 40
0.8503222563
 40
0.9240385223
 40
1.0
 40
1.0
 40
1.0
 40
1.0
 10
14.8738811302
 20
14.2295549833
 30
0.0
 10
14.8800811707
 20
14.2295549772
 30
0.0
 10
14.8925124368
 20
14.2291107428
 30
0.0
 10
14.9111267817
 20
14.2271136671
 30
0.0
 10
14.9297110702
 20
14.2237874808
 30
0.0
 10
14.9482488247
 20
14.2191354832
 30
0.0
 10
14.966725428
 20
14.2131621101
 30
0.0
 10
14.9851261623
 20
14.2058729471
 30
0.0
 10
15.0034367518
 20
14.1972745856
 30
0.0
 10
15.0216431459
 20
14.1873744857
 30
0.0
 10
15.0397315533
 20
14.1761810217
 30
0.0
 10
15.057688404
 20
14.1637034585
 30
0.0
 10
15.075500258
 20
14.1499518586
 30
0.0
 10
15.0931538079
 20
14.1349371347
 30
0.0
 10
15.1106358798
 20
14.1186711351
 30
0.0
 10
15.127933459
 20
14.1011664421
 30
0.0
 10
15.1450332932
 20
14.0824368937
 30
0.0
 10
15.1561250774
 20
14.0693416041
 30
0.0
 10
15.1616372317
 20
14.0626013118
 30
0.0
  0
SPLINE
  5
2A5
100
AcDbEntity
  8
LAYER_FEATURE
100
AcDbSpline
 62
7
  6
CONTINUOUS
 70
0
 71
3
 72
23
 73
19
 74
0
 42
0.0000001
 43
0.0000001
 44
0.0000000001
 40
0.0
 40
0.0
 40
0.0
 40
0.0
 40
0.0540880104
 40
0.1084085968
 40
0.1631906728
 40
0.2186560228
 40
0.275016304
 40
0.3324706232
 40
0.3912036655
 40
0.451384525
 40
0.513166152
 40
0.5766851757
 40
0.64206216
 40
0.7094022539
 40
0.7787958971
 40
0.8503196201
 40
0.9240370849
 40
1.0
 40
1.0
 40
1.0
 40
1.0
 10
14.8738811302
 20
10.7920550025
 30
0.0
 10
14.8800816785
 20
10.7920549965
 30
0.0
 10
14.8925139661
 20
10.7924993418
 30
0.0
 10
14.9111298404
 20
10.7944967038
 30
0.0
 10
14.9297156479
 20
10.797823447
 30
0.0
 10
14.948254903
 20
10.8024762284
 30
0.0
 10
14.9667330039
 20
10.8084505569
 30
0.0
 10
14.9851352132
 20
10.8157409073
 30
0.0
 10
15.0034472427
 20
10.8243406927
 30
0.0
 10
15.0216550653
 20
10.8342423923
 30
0.0
 10
15.0397448763
 20
10.8454376599
 30
0.0
 10
15.0577030784
 20
10.8579172612
 30
0.0
 10
15.0755162595
 20
10.8716710793
 30
0.0
 10
15.0931711132
 20
10.8866882013
 30
0.0
 10
15.1106544228
 20
10.9029568217
 30
0.0
 10
15.1279531978
 20
10.9204643177
 30
0.0
 10
15.1450542109
 20
10.9391968254
 30
0.0
 10
15.1561466905
 20
10.9522941912
 30
0.0
 10
15.1616592023
 20
10.959035539
 30
0.0
  0
SPLINE
  5
2A6
100
AcDbEntity
  8
LAYER_FEATURE
100
AcDbSpline
 62
7
  6
CONTINUOUS
 70
0
 71
3
 72
68
 73
64
 74
0
 42
0.0000001
 43
0.0000001
 44
0.0000000001
 40
0.0
 40
0.0
 40
0.0
 40
0.0
 40
0.0038448265
 40
0.0076962392
 40
0.0115607831
 40
0.0154449202
 40
0.0193549915
 40
0.0232971829
 40
0.0272774884
 40
0.0313016907
 40
0.0395020789
 40
0.0479412181
 40
0.0566557572
 40
0.0656777061
 40
0.0750344918
 40
0.0847491527
 40
0.0948406176
 40
0.1053240294
 40
0.1162110792
 40
0.1275103338
 40
0.1392275419
 40
0.1513659152
 40
0.163926381
 40
0.1769078068
 40
0.1903071987
 40
0.2041198767
 40
0.2183396291
 40
0.232958849
 40
0.2479686547
 40
0.2633589967
 40
0.2791187536
 40
0.2952358175
 40
0.3116971723
 40
0.3284889642
 40
0.3455965666
 40
0.3630046406
 40
0.3806971914
 40
0.3986576209
 40
0.4168687774
 40
0.4353130026
 40
0.4539721773
 40
0.4728277646
 40
0.4918608519
 40
0.5110521918
 40
0.549830236
 40
0.5890037206
 40
0.6284105861
 40
0.6678870956
 40
0.7072690133
 40
0.7463927805
 40
0.7850966971
 40
0.8042419852
 40
0.823223137
 40
0.8420210026
 40
0.8606167789
 40
0.8789920514
 40
0.8971288359
 40
0.9150096254
 40
0.9326174244
 40
0.9499358349
 40
0.9669489951
 40
0.9836419142
 40
1.0
 40
1.0
 40
1.0
 40
1.0
 10
16.1254956522
 20
14.2295549919
 30
0.0
 10
16.1294035406
 20
14.2295549951
 30
0.0
 10
16.1372271497
 20
14.2293789147
 30
0.0
 10
16.1489545827
 20
14.2285869709
 30
0.0
 10
16.1606748289
 20
14.2272673349
 30
0.0
 10
16.17238387
 20
14.2254204892
 30
0.0
 10
16.1840781215
 20
14.2230470713
 30
0.0
 10
16.1957538295
 20
14.2201478688
 30
0.0
 10
16.2074075661
 20
14.2167238283
 30
0.0
 10
16.2230077036
 20
14.2114276825
 30
0.0
 10
16.2424672881
 20
14.2034620312
 30
0.0
 10
16.2655158266
 20
14.1918840537
 30
0.0
 10
16.2883831488
 20
14.1782431032
 30
0.0
 10
16.3110410755
 20
14.162558272
 30
0.0
 10
16.3334634952
 20
14.1448501804
 30
0.0
 10
16.3556242247
 20
14.1251415302
 30
0.0
 10
16.3774974646
 20
14.1034570225
 30
0.0
 10
16.3990575968
 20
14.0798234702
 30
0.0
 10
16.4202792281
 20
14.0542698474
 30
0.0
 10
16.4411372042
 20
14.0268273346
 30
0.0
 10
16.4616066551
 20
13.9975293387
 30
0.0
 10
16.481663044
 20
13.9664114947
 30
0.0
 10
16.5012822194
 20
13.9335116512
 30
0.0
 10
16.5204404652
 20
13.8988698437
 30
0.0
 10
16.5391145494
 20
13.8625282579
 30
0.0
 10
16.5572817708
 20
13.8245311858
 30
0.0
 10
16.5749199976
 20
13.7849249721
 30
0.0
 10
16.5920077067
 20
13.7437579588
 30
0.0
 10
16.6085240191
 20
13.7010804248
 30
0.0
 10
16.6244487321
 20
13.6569445235
 30
0.0
 10
16.6397623502
 20
13.611404217
 30
0.0
 10
16.6544461132
 20
13.5645152084
 30
0.0
 10
16.6684820225
 20
13.5163348715
 30
0.0
 10
16.6818528662
 20
13.4669221795
 30
0.0
 10
16.6945422442
 20
13.4163376314
 30
0.0
 10
16.7065345878
 20
13.3646431753
 30
0.0
 10
16.7178151802
 20
13.3119021305
 30
0.0
 10
16.7283701757
 20
13.2581791088
 30
0.0
 10
16.7381866175
 20
13.203539933
 30
0.0
 10
16.7472524528
 20
13.1480515596
 30
0.0
 10
16.7555565539
 20
13.0917819803
 30
0.0
 10
16.7630887095
 20
13.0348001958
 30
0.0
 10
16.7698397236
 20
12.977175912
 30
0.0
 10
16.7778154865
 20
12.899315638
 30
0.0
 10
16.7857609526
 20
12.8008852048
 30
0.0
 10
16.7920384624
 20
12.6817524253
 30
0.0
 10
16.7950602982
 20
12.561782211
 30
0.0
 10
16.7948115911
 20
12.4415626163
 30
0.0
 10
16.7912935629
 20
12.3216818201
 30
0.0
 10
16.7845235319
 20
12.202727439
 30
0.0
 10
16.776169983
 20
12.1045040146
 30
0.0
 10
16.7678706859
 20
12.0268534747
 30
0.0
 10
16.7608812832
 20
11.9694170294
 30
0.0
 10
16.7531134512
 20
11.9126444018
 30
0.0
 10
16.7445766723
 20
11.8566050408
 30
0.0
 10
16.735281444
 20
11.801367664
 30
0.0
 10
16.7252391762
 20
11.7469999512
 30
0.0
 10
16.7144621971
 20
11.6935685314
 30
0.0
 10
16.7029637382
 20
11.6411388432
 30
0.0
 10
16.6907579121
 20
11.5897751831
 30
0.0
 10
16.6778596806
 20
11.5395402822
 30
0.0
 10
16.6642849355
 20
11.4904960525
 30
0.0
 10
16.6546952576
 20
11.4582980568
 30
0.0
 10
16.6497863605
 20
11.4424128599
 30
0.0
  0
SPLINE
  5
2A7
100
AcDbEntity
  8
LAYER_FEATURE
100
AcDbSpline
 62
7
  6
CONTINUOUS
 70
0
 71
3
 72
39
 73
35
 74
0
 42
0.0000001
 43
0.0000001
 44
0.0000000001
 40
0.0
 40
0.0
 40
0.0
 40
0.0
 40
0.0212769805
 40
0.0426477427
 40
0.0642045486
 40
0.0860367268
 40
0.1082294314
 40
0.1308626295
 40
0.1540103791
 40
0.1777403604
 40
0.2021136227
 40
0.2271845602
 40
0.2530010567
 40
0.2796047186
 40
0.307031172
 40
0.3353104562
 40
0.3644674123
 40
0.3945220379
 40
0.4254898696
 40
0.4573823626
 40
0.4902072078
 40
0.5239686095
 40
0.5586675988
 40
0.5943022926
 40
0.630868091
 40
0.6683578902
 40
0.7067623015
 40
0.7460698034
 40
0.7862668444
 40
0.8273381134
 40
0.8692665
 40
0.9120330868
 40
0.9556186933
 40
1.0
 40
1.0
 40
1.0
 40
1.0
 10
16.1254956522
 20
10.7920549939
 30
0.0
 10
16.1317737223
 20
10.792054999
 30
0.0
 10
16.1443622349
 20
10.7925105527
 30
0.0
 10
16.1632111757
 20
10.7945583583
 30
0.0
 10
16.1820288576
 20
10.7979689617
 30
0.0
 10
16.2007981503
 20
10.8027389078
 30
0.0
 10
16.219503879
 20
10.8088634904
 30
0.0
 10
16.2381307792
 20
10.8163368103
 30
0.0
 10
16.2566640384
 20
10.8251519579
 30
0.0
 10
16.275089095
 20
10.8353010823
 30
0.0
 10
16.2933916683
 20
10.8467753704
 30
0.0
 10
16.3115576881
 20
10.8595651097
 30
0.0
 10
16.3295732362
 20
10.8736597295
 30
0.0
 10
16.347424523
 20
10.8890477673
 30
0.0
 10
16.365097908
 20
10.9057168164
 30
0.0
 10
16.3825798447
 20
10.9236535765
 30
0.0
 10
16.3998568781
 20
10.9428438375
 30
0.0
 10
16.4169156907
 20
10.9632724275
 30
0.0
 10
16.4337430976
 20
10.9849232287
 30
0.0
 10
16.4503260341
 20
11.0077792035
 30
0.0
 10
16.4666515807
 20
11.0318223797
 30
0.0
 10
16.482707018
 20
11.057033829
 30
0.0
 10
16.4984797935
 20
11.083393716
 30
0.0
 10
16.5139575339
 20
11.1108813096
 30
0.0
 10
16.5291280957
 20
11.1394749683
 30
0.0
 10
16.5439795693
 20
11.1691521655
 30
0.0
 10
16.5585002632
 20
11.1998895264
 30
0.0
 10
16.5726787228
 20
11.23166283
 30
0.0
 10
16.5865037962
 20
11.2644470228
 30
0.0
 10
16.5999645722
 20
11.2982162504
 30
0.0
 10
16.6130503877
 20
11.3329438099
 30
0.0
 10
16.6257510222
 20
11.3686025245
 30
0.0
 10
16.6380562527
 20
11.405163872
 30
0.0
 10
16.6459200005
 20
11.4299013144
 30
0.0
 10
16.6497863605
 20
11.4424128599
 30
0.0
  0
SPLINE
  5
2A8
100
AcDbEntity
  8
LAYER_FEATURE
100
AcDbSpline
 62
7
  6
CONTINUOUS
 70
0
 71
3
 72
38
 73
34
 74
0
 42
0.0000001
 43
0.0000001
 44
0.0000000001
 40
0.0
 40
0.0
 40
0.0
 40
0.0
 40
0.0879641015
 40
0.1307308154
 40
0.1726592574
 40
0.2137306969
 40
0.2539278684
 40
0.2932354731
 40
0.3316400141
 40
0.3691299403
 40
0.4056958394
 40
0.4413306459
 40
0.4760297561
 40
0.5097912537
 40
0.5426161989
 40
0.5745088018
 40
0.6054767252
 40
0.6355314433
 40
0.6646884946
 40
0.6929678646
 40
0.7203944064
 40
0.7469981512
 40
0.7728147246
 40
0.7978857464
 40
0.8222590851
 40
0.8459891338
 40
0.8691369619
 40
0.8917702327
 40
0.9139630008
 40
0.9357952502
 40
0.9573521255
 40
0.9787229529
 40
1.0
 40
1.0
 40
1.0
 40
1.0
 10
15.6900649262
 20
13.3213843915
 30
0.0
 10
15.6958788749
 20
13.3401983364
 30
0.0
 10
15.704967097
 20
13.3680248502
 30
0.0
 10
15.7179361264
 20
13.4044375009
 30
0.0
 10
15.7278642856
 20
13.4307850659
 30
0.0
 10
15.7380768267
 20
13.4564054445
 30
0.0
 10
15.7485657845
 20
13.481278528
 30
0.0
 10
15.7593228662
 20
13.5053846348
 30
0.0
 10
15.7703395783
 20
13.5287047941
 30
0.0
 10
15.7816072466
 20
13.5512206198
 30
0.0
 10
15.7931170279
 20
13.5729143605
 30
0.0
 10
15.8048598476
 20
13.5937689481
 30
0.0
 10
15.8168264964
 20
13.6137679632
 30
0.0
 10
15.8290076219
 20
13.6328956534
 30
0.0
 10
15.841393668
 20
13.65113699
 30
0.0
 10
15.8539749798
 20
13.668477619
 30
0.0
 10
15.8667417884
 20
13.6849038798
 30
0.0
 10
15.8796841548
 20
13.7004028637
 30
0.0
 10
15.892792078
 20
13.7149623447
 30
0.0
 10
15.9060554697
 20
13.7285707974
 30
0.0
 10
15.9194641025
 20
13.7412174568
 30
0.0
 10
15.9330077112
 20
13.7528922212
 30
0.0
 10
15.9466759498
 20
13.7635856734
 30
0.0
 10
15.9604583367
 20
13.7732891428
 30
0.0
 10
15.9743443321
 20
13.7819945823
 30
0.0
 10
15.9883232646
 20
13.7896946123
 30
0.0
 10
16.0023842713
 20
13.7963826018
 30
0.0
 10
16.0165163298
 20
13.8020525483
 30
0.0
 10
16.0307082043
 20
13.8066991868
 30
0.0
 10
16.0449482905
 20
13.8103181179
 30
0.0
 10
16.059225094
 20
13.8129057263
 30
0.0
 10
16.0735256168
 20
13.8144593437
 30
0.0
 10
16.0830764056
 20
13.8148049959
 30
0.0
 10
16.0878395203
 20
13.8148049884
 30
0.0
  0
SPLINE
  5
2A9
100
AcDbEntity
  8
LAYER_FEATURE
100
AcDbSpline
 62
7
  6
CONTINUOUS
 70
0
 71
3
 72
60
 73
56
 74
0
 42
0.0000001
 43
0.0000001
 44
0.0000000001
 40
0.0
 40
0.0
 40
0.0
 40
0.0
 40
0.0163582303
 40
0.0330514128
 40
0.0500647371
 40
0.0673833563
 40
0.0849913568
 40
0.1028723527
 40
0.1210093488
 40
0.1393848345
 40
0.1767778278
 40
0.2149036885
 40
0.2536080534
 40
0.2927322729
 40
0.3321146462
 40
0.3715916121
 40
0.4109989337
 40
0.4501728716
 40
0.4889513634
 40
0.5271752217
 40
0.5646893475
 40
0.5831337858
 40
0.601345153
 40
0.6193057911
 40
0.6369985472
 40
0.654406822
 40
0.6715146206
 40
0.6883066057
 40
0.7047681513
 40
0.7208854033
 40
0.736645344
 40
0.7520358637
 40
0.7670458418
 40
0.78166523
 40
0.795885147
 40
0.8096979855
 40
0.8230975325
 40
0.8360791073
 40
0.8486397176
 40
0.8607782318
 40
0.8724955771
 40
0.883794964
 40
0.8946821395
 40
0.9051656706
 40
0.9152572507
 40
0.9249720236
 40
0.9343289186
 40
0.9433509731
 40
0.9520656131
 40
0.9605048493
 40
0.9687053322
 40
0.9767082098
 40
0.9845587386
 40
0.9923056101
 40
1.0
 40
1.0
 40
1.0
 40
1.0
 10
15.6900649262
 20
13.3213843915
 30
0.0
 10
15.6863406008
 20
13.30933247
 30
0.0
 10
15.679064999
 20
13.284904123
 30
0.0
 10
15.6687659559
 20
13.2476947195
 30
0.0
 10
15.6589801844
 20
13.20958192
 30
0.0
 10
15.6497197337
 20
13.1706128008
 30
0.0
 10
15.6409959523
 20
13.1308348644
 30
0.0
 10
15.6328195656
 20
13.0902969498
 30
0.0
 10
15.6252005544
 20
13.0490485934
 30
0.0
 10
15.6157430998
 20
12.9928463524
 30
0.0
 10
15.6054022004
 20
12.9211718549
 30
0.0
 10
15.5954193216
 20
12.8336467274
 30
0.0
 10
15.5878410511
 20
12.7445408686
 30
0.0
 10
15.5827046999
 20
12.6542909595
 30
0.0
 10
15.5800356019
 20
12.5633385764
 30
0.0
 10
15.5798469155
 20
12.4721290194
 30
0.0
 10
15.5821395493
 20
12.3811087943
 30
0.0
 10
15.5869022257
 20
12.2907235394
 30
0.0
 10
15.5941114652
 20
12.2014155083
 30
0.0
 10
15.6037317335
 20
12.1136223778
 30
0.0
 10
15.6137739522
 20
12.0416812393
 30
0.0
 10
15.622996428
 20
11.985233344
 30
0.0
 10
15.6304441086
 20
11.9437790328
 30
0.0
 10
15.6384520763
 20
11.90301988
 30
0.0
 10
15.6470105596
 20
11.8630057232
 30
0.0
 10
15.6561090429
 20
11.8237856121
 30
0.0
 10
15.6657363624
 20
11.7854075786
 30
0.0
 10
15.6758807018
 20
11.7479186208
 30
0.0
 10
15.6865296173
 20
11.711364636
 30
0.0
 10
15.6976700515
 20
11.6757903674
 30
0.0
 10
15.7092883513
 20
11.6412393476
 30
0.0
 10
15.7213702878
 20
11.6077538411
 30
0.0
 10
15.7339010662
 20
11.5753747869
 30
0.0
 10
15.7468653569
 20
11.5441417503
 30
0.0
 10
15.7602473188
 20
11.5140928758
 30
0.0
 10
15.7740306227
 20
11.4852648409
 30
0.0
 10
15.7881984801
 20
11.4576928102
 30
0.0
 10
15.8027336694
 20
11.4314103887
 30
0.0
 10
15.8176185604
 20
11.4064495784
 30
0.0
 10
15.8328351597
 20
11.3828407514
 30
0.0
 10
15.8483651441
 20
11.3606126235
 30
0.0
 10
15.8641898981
 20
11.3397922335
 30
0.0
 10
15.8802905574
 20
11.320404933
 30
0.0
 10
15.896648037
 20
11.3024743783
 30
0.0
 10
15.913243066
 20
11.2860225458
 30
0.0
 10
15.9300562136
 20
11.2710697724
 30
0.0
 10
15.9470678856
 20
11.2576348031
 30
0.0
 10
15.9642582894
 20
11.2457348454
 30
0.0
 10
15.9816073657
 20
11.2353856218
 30
0.0
 10
15.9990946327
 20
11.2266013725
 30
0.0
 10
16.016699094
 20
11.2193948275
 30
0.0
 10
16.0343988222
 20
11.2137770765
 30
0.0
 10
16.0521716703
 20
11.209757326
 30
0.0
 10
16.0699921534
 20
11.2073425432
 30
0.0
 10
16.0819061773
 20
11.2068050067
 30
0.0
 10
16.0878395203
 20
11.2068049974
 30
0.0
  0
SPLINE
  5
2AA
100
AcDbEntity
  8
LAYER_FEATURE
100
AcDbSpline
 62
7
  6
CONTINUOUS
 70
0
 71
3
 72
68
 73
64
 74
0
 42
0.0000001
 43
0.0000001
 44
0.0000000001
 40
0.0
 40
0.0
 40
0.0
 40
0.0
 40
0.0163580858
 40
0.0330510049
 40
0.0500641651
 40
0.0673825756
 40
0.0849903746
 40
0.1028711641
 40
0.1210079486
 40
0.1393832211
 40
0.1579789974
 40
0.176776863
 40
0.1957580148
 40
0.2149033029
 40
0.2536072195
 40
0.2927309867
 40
0.3321129044
 40
0.3715894139
 40
0.4109962794
 40
0.450169764
 40
0.4889478082
 40
0.5081391481
 40
0.5271722354
 40
0.5460278227
 40
0.5646869974
 40
0.5831312226
 40
0.6013423791
 40
0.6193028086
 40
0.6369953594
 40
0.6544034334
 40
0.6715110358
 40
0.6883028277
 40
0.7047641825
 40
0.7208812464
 40
0.7366410033
 40
0.7520313453
 40
0.767041151
 40
0.7816603709
 40
0.7958801233
 40
0.8096928013
 40
0.8230921932
 40
0.836073619
 40
0.8486340848
 40
0.8607724581
 40
0.8724896662
 40
0.8837889208
 40
0.8946759706
 40
0.9051593824
 40
0.9152508473
 40
0.9249655082
 40
0.9343222939
 40
0.9433442428
 40
0.9520587819
 40
0.9604979211
 40
0.9686983093
 40
0.9727225116
 40
0.9767028171
 40
0.9806450085
 40
0.9845550798
 40
0.9884392169
 40
0.9923037608
 40
0.9961551735
 40
1.0
 40
1.0
 40
1.0
 40
1.0
 10
15.5439917935
 20
13.5791971259
 30
0.0
 10
15.5390828964
 20
13.563311929
 30
0.0
 10
15.5294932185
 20
13.5311139334
 30
0.0
 10
15.5159184733
 20
13.4820697036
 30
0.0
 10
15.5030202419
 20
13.4318348027
 30
0.0
 10
15.4908144158
 20
13.3804711426
 30
0.0
 10
15.4793159569
 20
13.3280414544
 30
0.0
 10
15.4685389778
 20
13.2746100346
 30
0.0
 10
15.4584967099
 20
13.2202423219
 30
0.0
 10
15.4492014816
 20
13.165004945
 30
0.0
 10
15.4406647028
 20
13.108965584
 30
0.0
 10
15.4328968708
 20
13.0521929565
 30
0.0
 10
15.425907468
 20
12.9947565111
 30
0.0
 10
15.417608171
 20
12.9171059712
 30
0.0
 10
15.4092546221
 20
12.8188825469
 30
0.0
 10
15.402484591
 20
12.6999281657
 30
0.0
 10
15.3989665628
 20
12.5800473695
 30
0.0
 10
15.3987178557
 20
12.4598277748
 30
0.0
 10
15.4017396916
 20
12.3398575605
 30
0.0
 10
15.4080172014
 20
12.220724781
 30
0.0
 10
15.4159626674
 20
12.1222943478
 30
0.0
 10
15.4239384303
 20
12.0444340738
 30
0.0
 10
15.4306894445
 20
11.98680979
 30
0.0
 10
15.4382216001
 20
11.9298280055
 30
0.0
 10
15.4465257012
 20
11.8735584262
 30
0.0
 10
15.4555915364
 20
11.8180700528
 30
0.0
 10
15.4654079782
 20
11.763430877
 30
0.0
 10
15.4759629737
 20
11.7097078553
 30
0.0
 10
15.4872435661
 20
11.6569668105
 30
0.0
 10
15.4992359097
 20
11.6052723544
 30
0.0
 10
15.5119252877
 20
11.5546878063
 30
0.0
 10
15.5252961314
 20
11.5052751143
 30
0.0
 10
15.5393320408
 20
11.4570947774
 30
0.0
 10
15.5540158038
 20
11.4102057688
 30
0.0
 10
15.5693294218
 20
11.3646654623
 30
0.0
 10
15.5852541348
 20
11.320529561
 30
0.0
 10
15.6017704472
 20
11.277852027
 30
0.0
 10
15.6188581564
 20
11.2366850137
 30
0.0
 10
15.6364963832
 20
11.1970788001
 30
0.0
 10
15.6546636045
 20
11.1590817279
 30
0.0
 10
15.6733376888
 20
11.1227401422
 30
0.0
 10
15.6924959345
 20
11.0880983346
 30
0.0
 10
15.7121151099
 20
11.0551984912
 30
0.0
 10
15.7321714989
 20
11.0240806471
 30
0.0
 10
15.7526409497
 20
10.9947826512
 30
0.0
 10
15.7734989258
 20
10.9673401384
 30
0.0
 10
15.7947205572
 20
10.9417865156
 30
0.0
 10
15.8162806894
 20
10.9181529633
 30
0.0
 10
15.8381539293
 20
10.8964684556
 30
0.0
 10
15.8603146587
 20
10.8767598054
 30
0.0
 10
15.8827370784
 20
10.8590517139
 30
0.0
 10
15.9053950052
 20
10.8433668826
 30
0.0
 10
15.9282623274
 20
10.8297259321
 30
0.0
 10
15.9513108659
 20
10.8181479546
 30
0.0
 10
15.9707704504
 20
10.8101823033
 30
0.0
 10
15.9863705879
 20
10.8048861575
 30
0.0
 10
15.9980243244
 20
10.801462117
 30
0.0
 10
16.0097000325
 20
10.7985629145
 30
0.0
 10
16.0213942839
 20
10.7961894966
 30
0.0
 10
16.0331033251
 20
10.7943426509
 30
0.0
 10
16.0448235712
 20
10.7930230149
 30
0.0
 10
16.0565510043
 20
10.7922310712
 30
0.0
 10
16.0643746133
 20
10.7920549907
 30
0.0
 10
16.0682825017
 20
10.7920549939
 30
0.0
  0
SPLINE
  5
2AB
100
AcDbEntity
  8
02___PRT_ALL_AXES
100
AcDbSpline
 62
7
  6
CONTINUOUS
 70
0
 71
3
 72
60
 73
56
 74
0
 42
0.0000001
 43
0.0000001
 44
0.0000000001
 40
0.0
 40
0.0
 40
0.0
 40
0.0
 40
0.0077481154
 40
0.0155012589
 40
0.0233137453
 40
0.0312383755
 40
0.0393252039
 40
0.0476205594
 40
0.0561663711
 40
0.0649997978
 40
0.0741531189
 40
0.0836538266
 40
0.0935248553
 40
0.1037848931
 40
0.1144487289
 40
0.1255276101
 40
0.1370295873
 40
0.1489598344
 40
0.1613209398
 40
0.1741131665
 40
0.1873346817
 40
0.2009817592
 40
0.2150489597
 40
0.2295292889
 40
0.2444143362
 40
0.2596943967
 40
0.2753585807
 40
0.2913949095
 40
0.3077904031
 40
0.3245311618
 40
0.3416024386
 40
0.3589887057
 40
0.3766737166
 40
0.3946405636
 40
0.4128717309
 40
0.431349148
 40
0.4689668447
 40
0.5073410055
 40
0.5463118603
 40
0.5857150868
 40
0.625383127
 40
0.6651464609
 40
0.704834866
 40
0.7442786731
 40
0.7833100204
 40
0.8217641314
 40
0.8594806221
 40
0.8780142587
 40
0.8963060478
 40
0.914337795
 40
0.9320918404
 40
0.9495511582
 40
0.9666992393
 40
0.9835206127
 40
1.0
 40
1.0
 40
1.0
 40
1.0
 10
16.0879332613
 20
13.8141265737
 30
0.0
 10
16.0939298034
 20
13.8146234912
 30
0.0
 10
16.1059792383
 20
13.8150736934
 30
0.0
 10
16.1240817755
 20
13.8140920858
 30
0.0
 10
16.1421575073
 20
13.8114546223
 30
0.0
 10
16.1601790878
 20
13.8071661013
 30
0.0
 10
16.1781224956
 20
13.8012342203
 30
0.0
 10
16.1959640326
 20
13.7936689468
 30
0.0
 10
16.2136811339
 20
13.7844822229
 30
0.0
 10
16.2312519624
 20
13.7736876816
 30
0.0
 10
16.2486552741
 20
13.7613005261
 30
0.0
 10
16.2658702201
 20
13.7473374998
 30
0.0
 10
16.2828762226
 20
13.7318169201
 30
0.0
 10
16.2996528972
 20
13.7147587379
 30
0.0
 10
16.3161800314
 20
13.6961846062
 30
0.0
 10
16.3324375861
 20
13.6761179232
 30
0.0
 10
16.3484057187
 20
13.65458386
 30
0.0
 10
16.364064822
 20
13.631609375
 30
0.0
 10
16.3793955652
 20
13.6072232115
 30
0.0
 10
16.394378936
 20
13.5814558845
 30
0.0
 10
16.4089962822
 20
13.5543396579
 30
0.0
 10
16.4232293562
 20
13.5259085156
 30
0.0
 10
16.4370603439
 20
13.4961981176
 30
0.0
 10
16.4504718995
 20
13.4652457565
 30
0.0
 10
16.4634471757
 20
13.43309031
 30
0.0
 10
16.4759698521
 20
13.3997721921
 30
0.0
 10
16.4880241598
 20
13.3653333014
 30
0.0
 10
16.49959491
 20
13.3298169703
 30
0.0
 10
16.5106675165
 20
13.2932679072
 30
0.0
 10
16.5212280119
 20
13.2557321365
 30
0.0
 10
16.53126307
 20
13.2172569374
 30
0.0
 10
16.5407600213
 20
13.1778907863
 30
0.0
 10
16.5497068772
 20
13.1376832833
 30
0.0
 10
16.5580923195
 20
13.0966851347
 30
0.0
 10
16.5659058219
 20
13.0549479174
 30
0.0
 10
16.5756053587
 20
12.9980456727
 30
0.0
 10
16.5862075769
 20
12.9254390735
 30
0.0
 10
16.5964351702
 20
12.8367353749
 30
0.0
 10
16.6041903006
 20
12.7463896784
 30
0.0
 10
16.609433666
 20
12.6548575418
 30
0.0
 10
16.6121386689
 20
12.5625997621
 30
0.0
 10
16.6122915736
 20
12.4700810932
 30
0.0
 10
16.6098916171
 20
12.377767547
 30
0.0
 10
16.6049509776
 20
12.2861241632
 30
0.0
 10
16.5974947024
 20
12.1956123128
 30
0.0
 10
16.5875605972
 20
12.1066883966
 30
0.0
 10
16.577200054
 20
12.0338627123
 30
0.0
 10
16.5676905557
 20
11.9767586486
 30
0.0
 10
16.5600154903
 20
11.9348522778
 30
0.0
 10
16.5517660524
 20
11.8936724661
 30
0.0
 10
16.5429526054
 20
11.8532709934
 30
0.0
 10
16.5335862959
 20
11.8136988895
 30
0.0
 10
16.5236789358
 20
11.7750058222
 30
0.0
 10
16.5132430798
 20
11.7372409269
 30
0.0
 10
16.5058643307
 20
11.7124527836
 30
0.0
 10
16.5020858434
 20
11.7002255943
 30
0.0
  0
SPLINE
  5
2AC
100
AcDbEntity
  8
LAYER_CHAMFER_FEAT
100
AcDbSpline
 62
7
  6
CONTINUOUS
 70
0
 71
3
 72
53
 73
49
 74
0
 42
0.0000001
 43
0.0000001
 44
0.0000000001
 40
0.0
 40
0.0
 40
0.0
 40
0.0
 40
0.010161457
 40
0.0206687214
 40
0.0315254941
 40
0.0427337805
 40
0.0542940544
 40
0.066205392
 40
0.0784655817
 40
0.0910712462
 40
0.1040179447
 40
0.1173002521
 40
0.1309118303
 40
0.144845512
 40
0.1590933628
 40
0.1736467281
 40
0.1884962872
 40
0.2036321099
 40
0.2190436969
 40
0.2347200102
 40
0.2668192392
 40
0.2998333662
 40
0.333658541
 40
0.3681855703
 40
0.4033007739
 40
0.4388868212
 40
0.4748235159
 40
0.5109885593
 40
0.5472583005
 40
0.5835084698
 40
0.6196149129
 40
0.655454326
 40
0.6909049887
 40
0.7258475267
 40
0.760165668
 40
0.7937470585
 40
0.8264840851
 40
0.8582747836
 40
0.8737857305
 40
0.8890249455
 40
0.9039817208
 40
0.9186459076
 40
0.9330079537
 40
0.9470589701
 40
0.9607907359
 40
0.9741957049
 40
0.9872675749
 40
1.0
 40
1.0
 40
1.0
 40
1.0
 10
15.9063275212
 20
13.6005419685
 30
0.0
 10
15.9017545864
 20
13.5950633576
 30
0.0
 10
15.8926832415
 20
13.5837258027
 30
0.0
 10
15.8795169935
 20
13.5659201275
 30
0.0
 10
15.8665781495
 20
13.547050143
 30
0.0
 10
15.8538798628
 20
13.5271351748
 30
0.0
 10
15.8414346862
 20
13.5061950899
 30
0.0
 10
15.829255085
 20
13.484250925
 30
0.0
 10
15.8173532247
 20
13.4613247183
 30
0.0
 10
15.805741035
 20
13.4374395126
 30
0.0
 10
15.7944301849
 20
13.4126193132
 30
0.0
 10
15.7834320562
 20
13.3868890834
 30
0.0
 10
15.7727577039
 20
13.3602747283
 30
0.0
 10
15.762417882
 20
13.332803046
 30
0.0
 10
15.7524230282
 20
13.3045017005
 30
0.0
 10
15.7427832236
 20
13.2753992129
 30
0.0
 10
15.7335081822
 20
13.2455249185
 30
0.0
 10
15.7246072872
 20
13.2149089553
 30
0.0
 10
15.7160894818
 20
13.1835821166
 30
0.0
 10
15.7051690243
 20
13.1405692034
 30
0.0
 10
15.6925622023
 20
13.0852388714
 30
0.0
 10
15.6792069438
 20
13.0170405629
 30
0.0
 10
15.6675619242
 20
12.9468008982
 30
0.0
 10
15.6576744003
 20
12.8748033493
 30
0.0
 10
15.6495844204
 20
12.8013378896
 30
0.0
 10
15.6433248055
 20
12.7267007142
 30
0.0
 10
15.6389209392
 20
12.6511927658
 30
0.0
 10
15.6363906714
 20
12.5751185674
 30
0.0
 10
15.6357442888
 20
12.4987849548
 30
0.0
 10
15.6369843787
 20
12.4224998262
 30
0.0
 10
15.6401059542
 20
12.3465708819
 30
0.0
 10
15.6450963058
 20
12.2713043627
 30
0.0
 10
15.651935244
 20
12.1970038048
 30
0.0
 10
15.660594987
 20
12.1239687693
 30
0.0
 10
15.6710404631
 20
12.052493691
 30
0.0
 10
15.6832293054
 20
11.9828663867
 30
0.0
 10
15.6971121195
 20
11.9153678369
 30
0.0
 10
15.7101504917
 20
11.8606793399
 30
0.0
 10
15.7214073393
 20
11.8182225557
 30
0.0
 10
15.7301674005
 20
11.7873396204
 30
0.0
 10
15.7393049257
 20
11.7571870838
 30
0.0
 10
15.7488107574
 20
11.7277952787
 30
0.0
 10
15.7586752669
 20
11.6991938407
 30
0.0
 10
15.7688885137
 20
11.6714115828
 30
0.0
 10
15.7794401888
 20
11.644476574
 30
0.0
 10
15.7903197124
 20
11.618415696
 30
0.0
 10
15.801516006
 20
11.593255639
 30
0.0
 10
15.8092872157
 20
11.5768817923
 30
0.0
 10
15.8132264955
 20
11.5688543841
 30
0.0
  0
SPLINE
  5
2AD
100
AcDbEntity
  8
LAYER_CHAMFER_FEAT
100
AcDbSpline
 62
7
  6
CONTINUOUS
 70
0
 71
3
 72
22
 73
18
 74
0
 42
0.0000001
 43
0.0000001
 44
0.0000000001
 40
0.0
 40
0.0
 40
0.0
 40
0.0
 40
0.0744796228
 40
0.1469247071
 40
0.2173919874
 40
0.2859484997
 40
0.352672246
 40
0.4176526329
 40
0.5427620846
 40
0.6031722632
 40
0.6623212147
 40
0.7203609656
 40
0.7774554296
 40
0.8337791839
 40
0.8895161557
 40
0.9448576168
 40
1.0
 40
1.0
 40
1.0
 40
1.0
 10
15.8958847986
 20
11.4341383197
 30
0.0
 10
15.8993920604
 20
11.4302546767
 30
0.0
 10
15.9064429247
 20
11.4227113814
 30
0.0
 10
15.9172784163
 20
11.4119414483
 30
0.0
 10
15.9282182335
 20
11.401881934
 30
0.0
 10
15.9392551141
 20
11.3925397106
 30
0.0
 10
15.9503828492
 20
11.3839204163
 30
0.0
 10
15.9651417723
 20
11.3735328833
 30
0.0
 10
15.9802520014
 20
11.364437651
 30
0.0
 10
15.995653328
 20
11.3567857847
 30
0.0
 10
16.0071258276
 20
11.3518605096
 30
0.0
 10
16.0186451429
 20
11.347686741
 30
0.0
 10
16.0302040696
 20
11.3442672883
 30
0.0
 10
16.0417948001
 20
11.3416049379
 30
0.0
 10
16.0534096916
 20
11.3397016862
 30
0.0
 10
16.0650401599
 20
11.3385591242
 30
0.0
 10
16.072805121
 20
11.3383049985
 30
0.0
 10
16.0766794195
 20
11.3383050026
 30
0.0
  0
SPLINE
  5
2AE
100
AcDbEntity
  8
LAYER_CHAMFER_FEAT
100
AcDbSpline
 62
7
  6
CONTINUOUS
 70
0
 71
3
 72
19
 73
15
 74
0
 42
0.0000001
 43
0.0000001
 44
0.0000000001
 40
0.0
 40
0.0
 40
0.0
 40
0.0
 40
0.0559040141
 40
0.1119839116
 40
0.1684135179
 40
0.2253627202
 40
0.2829955928
 40
0.3414690257
 40
0.4009313192
 40
0.4615214203
 40
0.5865528285
 40
0.7175102781
 40
0.8551323315
 40
1.0
 40
1.0
 40
1.0
 40
1.0
 10
16.0766794195
 20
13.6833049832
 30
0.0
 10
16.0730636816
 20
13.6833049794
 30
0.0
 10
16.0658188956
 20
13.6830837623
 30
0.0
 10
16.0549654675
 20
13.6820889005
 30
0.0
 10
16.0441245871
 20
13.6804316481
 30
0.0
 10
16.0333032298
 20
13.67811302
 30
0.0
 10
16.0225075547
 20
13.6751346861
 30
0.0
 10
16.0117439508
 20
13.6714985497
 30
0.0
 10
16.001018317
 20
13.6672068966
 30
0.0
 10
15.9866276013
 20
13.6605456105
 30
0.0
 10
15.9687324027
 20
13.6505213721
 30
0.0
 10
15.9477489421
 20
13.6360491553
 30
0.0
 10
15.9270736427
 20
13.6190462468
 30
0.0
 10
15.9138741616
 20
13.6063863305
 30
0.0
 10
15.9073329553
 20
13.5996778439
 30
0.0
  0
SPLINE
  5
2AF
100
AcDbEntity
  8
LAYER_FEATURE
100
AcDbSpline
 62
7
  6
CONTINUOUS
 70
0
 71
3
 72
39
 73
35
 74
0
 42
0.0000001
 43
0.0000001
 44
0.0000000001
 40
0.0
 40
0.0
 40
0.0
 40
0.0
 40
0.0443813067
 40
0.0879669132
 40
0.1307335
 40
0.1726618866
 40
0.2137331556
 40
0.2539301966
 40
0.2932376985
 40
0.3316421098
 40
0.369131909
 40
0.4056977074
 40
0.4413324012
 40
0.4760313905
 40
0.5097927922
 40
0.5426176374
 40
0.5745101304
 40
0.6054779621
 40
0.6355325877
 40
0.6646895438
 40
0.692968828
 40
0.7203952814
 40
0.7469989433
 40
0.7728154398
 40
0.7978863773
 40
0.8222596396
 40
0.8459896209
 40
0.8691373705
 40
0.8917705686
 40
0.9139632732
 40
0.9357954514
 40
0.9573522573
 40
0.9787230195
 40
1.0
 40
1.0
 40
1.0
 40
1.0
 10
15.5439917935
 20
13.5791971259
 30
0.0
 10
15.5478581535
 20
13.5917086714
 30
0.0
 10
15.5557219013
 20
13.6164461138
 30
0.0
 10
15.5680271318
 20
13.6530074613
 30
0.0
 10
15.5807277662
 20
13.688666176
 30
0.0
 10
15.5938135817
 20
13.7233937354
 30
0.0
 10
15.6072743577
 20
13.757162963
 30
0.0
 10
15.6210994312
 20
13.7899471558
 30
0.0
 10
15.6352778907
 20
13.8217204594
 30
0.0
 10
15.6497985847
 20
13.8524578204
 30
0.0
 10
15.6646500583
 20
13.8821350175
 30
0.0
 10
15.67982062
 20
13.9107286762
 30
0.0
 10
15.6952983605
 20
13.9382162698
 30
0.0
 10
15.7110711359
 20
13.9645761568
 30
0.0
 10
15.7271265733
 20
13.9897876061
 30
0.0
 10
15.7434521199
 20
14.0138307823
 30
0.0
 10
15.7600350564
 20
14.0366867571
 30
0.0
 10
15.7768624633
 20
14.0583375583
 30
0.0
 10
15.7939212758
 20
14.0787661483
 30
0.0
 10
15.8111983093
 20
14.0979564093
 30
0.0
 10
15.828680246
 20
14.1158931694
 30
0.0
 10
15.8463536309
 20
14.1325622186
 30
0.0
 10
15.8642049178
 20
14.1479502563
 30
0.0
 10
15.8822204658
 20
14.1620448761
 30
0.0
 10
15.9003864857
 20
14.1748346154
 30
0.0
 10
15.9186890589
 20
14.1863089035
 30
0.0
 10
15.9371141156
 20
14.1964580279
 30
0.0
 10
15.9556473748
 20
14.2052731755
 30
0.0
 10
15.974274275
 20
14.2127464954
 30
0.0
 10
15.9929800037
 20
14.218871078
 30
0.0
 10
16.0117492964
 20
14.2236410241
 30
0.0
 10
16.0305669783
 20
14.2270516275
 30
0.0
 10
16.0494159191
 20
14.2290994331
 30
0.0
 10
16.0620044317
 20
14.2295549868
 30
0.0
 10
16.0682825017
 20
14.2295549919
 30
0.0
  0
SPLINE
  5
2B0
100
AcDbEntity
  8
LAYER_FEATURE
100
AcDbSpline
 62
7
  6
CONTINUOUS
 70
0
 71
3
 72
67
 73
63
 74
0
 42
0.0000001
 43
0.0000001
 44
0.0000000001
 40
0.0
 40
0.0
 40
0.0
 40
0.0
 40
0.0163581013
 40
0.0330510694
 40
0.0500642491
 40
0.0673826926
 40
0.0849905208
 40
0.1028713409
 40
0.1210081566
 40
0.1393834611
 40
0.15797927
 40
0.1767771682
 40
0.1957583526
 40
0.2149036734
 40
0.2536076561
 40
0.292731491
 40
0.3321134768
 40
0.371590054
 40
0.4109969877
 40
0.45017054
 40
0.4889486503
 40
0.5081400228
 40
0.5271731428
 40
0.546028763
 40
0.5646879707
 40
0.5831322282
 40
0.601343416
 40
0.6193038759
 40
0.6369964566
 40
0.65440456
 40
0.6715121917
 40
0.6883040129
 40
0.7047653969
 40
0.720882489
 40
0.7366422729
 40
0.7520326412
 40
0.7670424724
 40
0.7816617173
 40
0.7958814943
 40
0.8096941963
 40
0.8230936114
 40
0.8360750592
 40
0.8486355463
 40
0.8607739405
 40
0.872491169
 40
0.8837904436
 40
0.8946775128
 40
0.905160943
 40
0.9152524249
 40
0.9249671014
 40
0.9343239024
 40
0.9433458667
 40
0.9520604213
 40
0.9604995757
 40
0.9686999787
 40
0.9767027777
 40
0.9806449746
 40
0.9845550535
 40
0.9884391969
 40
0.9923037475
 40
0.9961551669
 40
1.0
 40
1.0
 40
1.0
 40
1.0
 10
14.2923772715
 20
13.5791971259
 30
0.0
 10
14.2874683782
 20
13.5633119413
 30
0.0
 10
14.2778787
 20
13.5311139377
 30
0.0
 10
14.2643039521
 20
13.4820697112
 30
0.0
 10
14.251405721
 20
13.431834796
 30
0.0
 10
14.2391998942
 20
13.3804711443
 30
0.0
 10
14.2277014347
 20
13.3280414542
 30
0.0
 10
14.2169244544
 20
13.2746100361
 30
0.0
 10
14.2068821859
 20
13.2202423234
 30
0.0
 10
14.1975869586
 20
13.1650049455
 30
0.0
 10
14.1890501824
 20
13.1089655829
 30
0.0
 10
14.1812823519
 20
13.0521929544
 30
0.0
 10
14.174292949
 20
12.9947565094
 30
0.0
 10
14.1659936502
 20
12.9171059707
 30
0.0
 10
14.1576400964
 20
12.8188825474
 30
0.0
 10
14.1508700655
 20
12.6999281662
 30
0.0
 10
14.1473520461
 20
12.5800473695
 30
0.0
 10
14.1471033378
 20
12.4598277748
 30
0.0
 10
14.1501251655
 20
12.33985756
 30
0.0
 10
14.156402675
 20
12.2207247806
 30
0.0
 10
14.1643481476
 20
12.1222943488
 30
0.0
 10
14.1723239128
 20
12.0444340764
 30
0.0
 10
14.1790749265
 20
11.9868097927
 30
0.0
 10
14.1866070794
 20
11.9298280066
 30
0.0
 10
14.1949111772
 20
11.873558425
 30
0.0
 10
14.2039770108
 20
11.81807005
 30
0.0
 10
14.2137934536
 20
11.7634308745
 30
0.0
 10
14.224348451
 20
11.7097078545
 30
0.0
 10
14.2356290454
 20
11.6569668119
 30
0.0
 10
14.2476213902
 20
11.6052723575
 30
0.0
 10
14.2603107683
 20
11.5546878098
 30
0.0
 10
14.273681611
 20
11.5052751165
 30
0.0
 10
14.287717518
 20
11.4570947771
 30
0.0
 10
14.3024012801
 20
11.410205767
 30
0.0
 10
14.3177148988
 20
11.3646654608
 30
0.0
 10
14.3336396127
 20
11.3205295606
 30
0.0
 10
14.3501559257
 20
11.2778520278
 30
0.0
 10
14.367243635
 20
11.236685015
 30
0.0
 10
14.3848818616
 20
11.197078801
 30
0.0
 10
14.4030490824
 20
11.1590817282
 30
0.0
 10
14.4217231663
 20
11.1227401423
 30
0.0
 10
14.4408814128
 20
11.0880983359
 30
0.0
 10
14.4605005887
 20
11.0551984936
 30
0.0
 10
14.4805569778
 20
11.0240806498
 30
0.0
 10
14.5010264283
 20
10.9947826528
 30
0.0
 10
14.5218844037
 20
10.9673401378
 30
0.0
 10
14.5431060341
 20
10.9417865123
 30
0.0
 10
14.564666166
 20
10.9181529584
 30
0.0
 10
14.5865394046
 20
10.8964684532
 30
0.0
 10
14.6087001422
 20
10.8767598074
 30
0.0
 10
14.6311225416
 20
10.8590517256
 30
0.0
 10
14.6537805433
 20
10.8433668766
 30
0.0
 10
14.6766475979
 20
10.8297259878
 30
0.0
 10
14.699697085
 20
10.8181477735
 30
0.0
 10
14.7229000086
 20
10.8086492412
 30
0.0
 10
14.7424411873
 20
10.8024473987
 30
0.0
 10
14.7580854145
 20
10.798562986
 30
0.0
 10
14.7697797851
 20
10.7961894667
 30
0.0
 10
14.7814887975
 20
10.794342663
 30
0.0
 10
14.7932090509
 20
10.7930230173
 30
0.0
 10
14.8049364813
 20
10.7922310576
 30
0.0
 10
14.8127600914
 20
10.7920550064
 30
0.0
 10
14.8166679797
 20
10.7920550025
 30
0.0
  0
SPLINE
  5
2B1
100
AcDbEntity
  8
LAYER_FEATURE
100
AcDbSpline
 62
7
  6
CONTINUOUS
 70
0
 71
3
 72
39
 73
35
 74
0
 42
0.0000001
 43
0.0000001
 44
0.0000000001
 40
0.0
 40
0.0
 40
0.0
 40
0.0
 40
0.0443812481
 40
0.0879669295
 40
0.1307335086
 40
0.172661876
 40
0.2137331571
 40
0.2539301992
 40
0.2932376968
 40
0.3316421073
 40
0.369131911
 40
0.4056977099
 40
0.4413323968
 40
0.4760313903
 40
0.5097927974
 40
0.5426176342
 40
0.5745101269
 40
0.6054779669
 40
0.6355325892
 40
0.664689538
 40
0.6929688298
 40
0.7203952869
 40
0.7469989387
 40
0.7728154376
 40
0.7978863828
 40
0.8222596394
 40
0.8459896168
 40
0.869137373
 40
0.8917705712
 40
0.9139632708
 40
0.935795451
 40
0.9573522592
 40
0.9787230199
 40
1.0
 40
1.0
 40
1.0
 40
1.0
 10
14.2923772715
 20
13.5791971259
 30
0.0
 10
14.2962436264
 20
13.5917086549
 30
0.0
 10
14.3041073779
 20
13.6164461012
 30
0.0
 10
14.316412606
 20
13.6530074521
 30
0.0
 10
14.3291132436
 20
13.6886661806
 30
0.0
 10
14.3421990627
 20
13.723393734
 30
0.0
 10
14.3556598359
 20
13.7571629607
 30
0.0
 10
14.3694849066
 20
13.7899471576
 30
0.0
 10
14.3836633697
 20
13.8217204582
 30
0.0
 10
14.3981840658
 20
13.8524578179
 30
0.0
 10
14.4130355345
 20
13.8821350188
 30
0.0
 10
14.4282060944
 20
13.910728678
 30
0.0
 10
14.4436838441
 20
13.9382162655
 30
0.0
 10
14.4594566147
 20
13.9645761561
 30
0.0
 10
14.4755120445
 20
13.9897876109
 30
0.0
 10
14.4918376023
 20
14.0138307783
 30
0.0
 10
14.5084205388
 20
14.0366867527
 30
0.0
 10
14.5252479354
 20
14.0583375636
 30
0.0
 10
14.5423067518
 20
14.0787661499
 30
0.0
 10
14.5595837954
 20
14.0979564002
 30
0.0
 10
14.5770657221
 20
14.1158931713
 30
0.0
 10
14.5947391012
 20
14.1325622278
 30
0.0
 10
14.6125904032
 20
14.1479502463
 30
0.0
 10
14.6306059469
 20
14.1620448706
 30
0.0
 10
14.6487719558
 20
14.1748346283
 30
0.0
 10
14.6670745384
 20
14.1863089013
 30
0.0
 10
14.6854996
 20
14.1964580132
 30
0.0
 10
14.7040328486
 20
14.2052731845
 30
0.0
 10
14.7226597501
 20
14.2127465051
 30
0.0
 10
14.7413654865
 20
14.2188710607
 30
0.0
 10
14.7601347741
 20
14.2236410215
 30
0.0
 10
14.778952454
 20
14.2270516472
 30
0.0
 10
14.7978013983
 20
14.2290994172
 30
0.0
 10
14.8103899098
 20
14.2295549894
 30
0.0
 10
14.8166679797
 20
14.2295549833
 30
0.0
  0
SPLINE
  5
2B2
100
AcDbEntity
  8
LAYER_FEATURE
100
AcDbSpline
 62
7
  6
CONTINUOUS
 70
0
 71
3
 72
11
 73
7
 74
0
 42
0.0000001
 43
0.0000001
 44
0.0000000001
 40
0.0
 40
0.0
 40
0.0
 40
0.0
 40
0.2285615567
 40
0.4712438258
 40
0.7283774601
 40
1.0
 40
1.0
 40
1.0
 40
1.0
 10
14.4074988265
 20
13.1576073535
 30
0.0
 10
14.4081431042
 20
13.158291564
 30
0.0
 10
14.4094141482
 20
13.1597569798
 30
0.0
 10
14.4112140941
 20
13.1621532722
 30
0.0
 10
14.4129582385
 20
13.1648049181
 30
0.0
 10
14.4140505302
 20
13.1666861282
 30
0.0
 10
14.4145875907
 20
13.1676653921
 30
0.0
  0
SPLINE
  5
2B3
100
AcDbEntity
  8
LAYER_FEATURE
100
AcDbSpline
 62
7
  6
CONTINUOUS
 70
0
 71
3
 72
19
 73
15
 74
0
 42
0.0000001
 43
0.0000001
 44
0.0000000001
 40
0.0
 40
0.0
 40
0.0
 40
0.0
 40
0.0394461003
 40
0.0798614968
 40
0.1221417189
 40
0.167033031
 40
0.2151191061
 40
0.2668243871
 40
0.3224314734
 40
0.3821059553
 40
0.5137787825
 40
0.6615845711
 40
0.8242769574
 40
1.0
 40
1.0
 40
1.0
 40
1.0
 10
14.367200435
 20
13.1576569869
 30
0.0
 10
14.3670313142
 20
13.1576569975
 30
0.0
 10
14.3666882171
 20
13.1576270311
 30
0.0
 10
14.3661795794
 20
13.1574933592
 30
0.0
 10
14.3656770106
 20
13.1572721816
 30
0.0
 10
14.3651829431
 20
13.1569653754
 30
0.0
 10
14.3646992466
 20
13.1565748392
 30
0.0
 10
14.3642277156
 20
13.1561026112
 30
0.0
 10
14.3637700602
 20
13.1555509
 30
0.0
 10
14.3631608668
 20
13.1546837899
 30
0.0
 10
14.3624544645
 20
13.1534080738
 30
0.0
 10
14.3617169859
 20
13.1516587918
 30
0.0
 10
14.361076073
 20
13.1496728421
 30
0.0
 10
14.3607324485
 20
13.148261865
 30
0.0
 10
14.3605770098
 20
13.1475246811
 30
0.0
  0
SPLINE
  5
2B4
100
AcDbEntity
  8
LAYER_FEATURE
100
AcDbSpline
 62
7
  6
CONTINUOUS
 70
0
 71
3
 72
17
 73
13
 74
0
 42
0.0000001
 43
0.0000001
 44
0.0000000001
 40
0.0
 40
0.0
 40
0.0
 40
0.0
 40
0.0426455307
 40
0.0860340479
 40
0.130862184
 40
0.1777466722
 40
0.2795083499
 40
0.3943797033
 40
0.5238234907
 40
0.668238905
 40
0.8272721358
 40
1.0
 40
1.0
 40
1.0
 40
1.0
 10
14.4179034981
 20
13.3908526153
 30
0.0
 10
14.4177619779
 20
13.3908526135
 30
0.0
 10
14.4174760533
 20
13.3908318069
 30
0.0
 10
14.4170505424
 20
13.3907385546
 30
0.0
 10
14.416628348
 20
13.390583861
 30
0.0
 10
14.4160565156
 20
13.390288769
 30
0.0
 10
14.4153550112
 20
13.3897554107
 30
0.0
 10
14.4145749777
 20
13.3889066769
 30
0.0
 10
14.413839157
 20
13.3878430868
 30
0.0
 10
14.4131552167
 20
13.3865771674
 30
0.0
 10
14.4125306691
 20
13.3851237756
 30
0.0
 10
14.4121726925
 20
13.384081555
 30
0.0
 10
14.4120034563
 20
13.3835339062
 30
0.0
  0
SPLINE
  5
2B5
100
AcDbEntity
  8
LAYER_CHAMFER_FEAT
100
AcDbSpline
 62
7
  6
CONTINUOUS
 70
0
 71
3
 72
40
 73
36
 74
0
 42
0.0000001
 43
0.0000001
 44
0.0000000001
 40
0.0
 40
0.0
 40
0.0
 40
0.0
 40
0.0439502757
 40
0.0865555814
 40
0.1278039627
 40
0.1676916606
 40
0.2062199332
 40
0.2433975233
 40
0.2792409162
 40
0.3137752501
 40
0.3470352717
 40
0.3790663183
 40
0.4099253805
 40
0.4396821259
 40
0.4684198017
 40
0.4962359324
 40
0.5232426463
 40
0.5495664621
 40
0.5753473411
 40
0.600736889
 40
0.6258956905
 40
0.6509898752
 40
0.6761871606
 40
0.701652738
 40
0.7275454069
 40
0.7540143011
 40
0.7811964192
 40
0.8092150243
 40
0.8235746291
 40
0.8381829111
 40
0.8681862231
 40
0.8993090416
 40
0.931618034
 40
0.9651674162
 40
1.0
 40
1.0
 40
1.0
 40
1.0
 10
16.3953960032
 20
13.4527556017
 30
0.0
 10
16.3912284789
 20
13.4612481235
 30
0.0
 10
16.3827891381
 20
13.4778609289
 30
0.0
 10
16.3696020839
 20
13.5020077498
 30
0.0
 10
16.3560972582
 20
13.5249701108
 30
0.0
 10
16.3422909109
 20
13.5467203679
 30
0.0
 10
16.328199126
 20
13.5672328469
 30
0.0
 10
16.3138384719
 20
13.5864831303
 30
0.0
 10
16.299225687
 20
13.6044483683
 30
0.0
 10
16.2843777163
 20
13.6211071776
 30
0.0
 10
16.2693116757
 20
13.636439651
 30
0.0
 10
16.2540448214
 20
13.6504273265
 30
0.0
 10
16.2385945579
 20
13.6630531641
 30
0.0
 10
16.2229784624
 20
13.6743015137
 30
0.0
 10
16.2072143214
 20
13.6841580464
 30
0.0
 10
16.1913202322
 20
13.6926097286
 30
0.0
 10
16.1753147312
 20
13.6996448307
 30
0.0
 10
16.1592169579
 20
13.7052530374
 30
0.0
 10
16.1430467856
 20
13.7094256303
 30
0.0
 10
16.1268248727
 20
13.7121557267
 30
0.0
 10
16.110572598
 20
13.7134385967
 30
0.0
 10
16.0943118373
 20
13.7132719316
 30
0.0
 10
16.0780646208
 20
13.7116560393
 30
0.0
 10
16.0618527302
 20
13.7085937992
 30
0.0
 10
16.0456974191
 20
13.7040904785
 30
0.0
 10
16.0296190648
 20
13.6981533464
 30
0.0
 10
16.013637756
 20
13.6907917449
 30
0.0
 10
16.0005241656
 20
13.6835382731
 30
0.0
 10
15.9901078103
 20
13.6770576353
 30
0.0
 10
15.97955814
 20
13.6699955343
 30
0.0
 10
15.9664602559
 20
13.6602716279
 30
0.0
 10
15.9510509271
 20
13.647331481
 30
0.0
 10
15.9358285643
 20
13.6330329404
 30
0.0
 10
15.9208113863
 20
13.6173941305
 30
0.0
 10
15.9111318814
 20
13.606297839
 30
0.0
 10
15.9063275212
 20
13.6005419685
 30
0.0
  0
SPLINE
  5
2B6
100
AcDbEntity
  8
LAYER_FEATURE
100
AcDbSpline
 62
7
  6
CONTINUOUS
 70
0
 71
3
 72
98
 73
94
 74
0
 42
0.0000001
 43
0.0000001
 44
0.0000000001
 40
0.0
 40
0.0
 40
0.0
 40
0.0
 40
0.0178412185
 40
0.0361831751
 40
0.0549943589
 40
0.0742409859
 40
0.0938875503
 40
0.1138969105
 40
0.1342305077
 40
0.1548485482
 40
0.1757101777
 40
0.1967736497
 40
0.2179964878
 40
0.2393356468
 40
0.2607476699
 40
0.2821888441
 40
0.3036153534
 40
0.3249834336
 40
0.3462495263
 40
0.3673704329
 40
0.3883034712
 40
0.4090066353
 40
0.4294387576
 40
0.4495596749
 40
0.4693304
 40
0.488713303
 40
0.5076723037
 40
0.5261730715
 40
0.5441832439
 40
0.5616726655
 40
0.5786136566
 40
0.5949813122
 40
0.6107538402
 40
0.6184114029
 40
0.6259136497
 40
0.6332589158
 40
0.6404458298
 40
0.6474733132
 40
0.654340612
 40
0.6610473232
 40
0.6675934046
 40
0.6739792239
 40
0.6802055715
 40
0.6862736978
 40
0.6921853587
 40
0.6979428337
 40
0.7035489867
 40
0.7090072958
 40
0.7143218961
 40
0.7245378416
 40
0.7294534213
 40
0.7342493179
 40
0.7389335834
 40
0.743515145
 40
0.7480037912
 40
0.752410163
 40
0.756745712
 40
0.7610226293
 40
0.7652537606
 40
0.7694524811
 40
0.7736325565
 40
0.7778079824
 40
0.781992812
 40
0.7862009814
 40
0.7904461417
 40
0.7947415043
 40
0.7990997029
 40
0.8035326907
 40
0.808051648
 40
0.8126669309
 40
0.8173880404
 40
0.8222236007
 40
0.8322659178
 40
0.8374880865
 40
0.8428508422
 40
0.8483587798
 40
0.8540158128
 40
0.8598252052
 40
0.8657896144
 40
0.8719111459
 40
0.8781913724
 40
0.8846313893
 40
0.8912318412
 40
0.8979929478
 40
0.90491455
 40
0.9119961166
 40
0.9192367833
 40
0.9266353732
 40
0.934190407
 40
0.9497619156
 40
0.9659350239
 40
0.9826889741
 40
1.0
 40
1.0
 40
1.0
 40
1.0
 10
15.6100918056
 20
13.4843524768
 30
0.0
 10
15.6037968299
 20
13.463981928
 30
0.0
 10
15.5916248846
 20
13.4224831818
 30
0.0
 10
15.5748221587
 20
13.3589395826
 30
0.0
 10
15.5592517533
 20
13.293355367
 30
0.0
 10
15.5449514261
 20
13.2258886524
 30
0.0
 10
15.5319556213
 20
13.1567014559
 30
0.0
 10
15.5202957166
 20
13.0859601417
 30
0.0
 10
15.5099998423
 20
13.0138348186
 30
0.0
 10
15.5010928537
 20
12.9404989777
 30
0.0
 10
15.4935962568
 20
12.8661290468
 30
0.0
 10
15.4875281595
 20
12.7909039688
 30
0.0
 10
15.4829032088
 20
12.7150047661
 30
0.0
 10
15.4797325693
 20
12.6386140981
 30
0.0
 10
15.4780238976
 20
12.5619158163
 30
0.0
 10
15.4777813247
 20
12.4850945186
 30
0.0
 10
15.4790054399
 20
12.4083351022
 30
0.0
 10
15.4816932798
 20
12.3318223135
 30
0.0
 10
15.4858383524
 20
12.2557403004
 30
0.0
 10
15.4914306496
 20
12.1802721655
 30
0.0
 10
15.4984566748
 20
12.105599522
 30
0.0
 10
15.5068994598
 20
12.0319020488
 30
0.0
 10
15.5167386156
 20
11.959357054
 30
0.0
 10
15.5279503889
 20
11.8881390444
 30
0.0
 10
15.5405077208
 20
11.8184193002
 30
0.0
 10
15.5543803132
 20
11.7503654529
 30
0.0
 10
15.569534691
 20
11.6841410666
 30
0.0
 10
15.5859343071
 20
11.6199052445
 30
0.0
 10
15.6035396407
 20
11.5578122152
 30
0.0
 10
15.6223082918
 20
11.4980110259
 30
0.0
 10
15.6421951548
 20
11.4406448766
 30
0.0
 10
15.663152316
 20
11.3858517659
 30
0.0
 10
15.6816444501
 20
11.3420221109
 30
0.0
 10
15.696954969
 20
11.308374338
 30
0.0
 10
15.7085602882
 20
11.2841106385
 30
0.0
 10
15.720393924
 20
11.2605853597
 30
0.0
 10
15.7324488072
 20
11.2378125491
 30
0.0
 10
15.7447177148
 20
11.2158059036
 30
0.0
 10
15.7571933122
 20
11.1945786325
 30
0.0
 10
15.7698680987
 20
11.1741434564
 30
0.0
 10
15.7827345491
 20
11.1545126605
 30
0.0
 10
15.7957849476
 20
11.1356979994
 30
0.0
 10
15.8090115288
 20
11.117710765
 30
0.0
 10
15.8224064522
 20
11.1005617619
 30
0.0
 10
15.835961709
 20
11.0842612654
 30
0.0
 10
15.8496693636
 20
11.0688190592
 30
0.0
 10
15.8635211157
 20
11.0542445708
 30
0.0
 10
15.877509395
 20
11.0405460222
 30
0.0
 10
15.8960843789
 20
11.023684724
 30
0.0
 10
15.9151409547
 20
11.0083365627
 30
0.0
 10
15.9346556419
 20
10.9946758262
 30
0.0
 10
15.9491993157
 20
10.9854738208
 30
0.0
 10
15.9638284178
 20
10.9771907195
 30
0.0
 10
15.9785345882
 20
10.9698315723
 30
0.0
 10
15.9933089886
 20
10.9634013099
 30
0.0
 10
16.0081427394
 20
10.9579042362
 30
0.0
 10
16.0230267841
 20
10.9533440878
 30
0.0
 10
16.0379519692
 20
10.949724156
 30
0.0
 10
16.0529089507
 20
10.9470469781
 30
0.0
 10
16.0678882891
 20
10.9453145574
 30
0.0
 10
16.0828804293
 20
10.9445282108
 30
0.0
 10
16.097875755
 20
10.9446884631
 30
0.0
 10
16.1128646339
 20
10.9457952791
 30
0.0
 10
16.1278374679
 20
10.9478477609
 30
0.0
 10
16.1427847386
 20
10.9508443957
 30
0.0
 10
16.1576970227
 20
10.9547830332
 30
0.0
 10
16.1725650695
 20
10.9596607809
 30
0.0
 10
16.1873797182
 20
10.9654742993
 30
0.0
 10
16.202132019
 20
10.9722195957
 30
0.0
 10
16.2168130298
 20
10.9798921109
 30
0.0
 10
16.2314143514
 20
10.9884871188
 30
0.0
 10
16.251009514
 20
11.0013299789
 30
0.0
 10
16.2701647172
 20
11.0158839097
 30
0.0
 10
16.2888472326
 20
11.0319715774
 30
0.0
 10
16.3029210145
 20
11.0450858984
 30
0.0
 10
16.3168636776
 20
11.0590816878
 30
0.0
 10
16.330667637
 20
11.0739510768
 30
0.0
 10
16.3443245589
 20
11.0896849483
 30
0.0
 10
16.3578264479
 20
11.1062738619
 30
0.0
 10
16.3711652369
 20
11.1237078768
 30
0.0
 10
16.3843330499
 20
11.1419765032
 30
0.0
 10
16.3973220323
 20
11.1610687928
 30
0.0
 10
16.4101244265
 20
11.1809733004
 30
0.0
 10
16.4227326297
 20
11.2016780651
 30
0.0
 10
16.4351390567
 20
11.2231706877
 30
0.0
 10
16.4473363203
 20
11.2454382573
 30
0.0
 10
16.4593170893
 20
11.2684673941
 30
0.0
 10
16.4710742315
 20
11.2922443442
 30
0.0
 10
16.4865988033
 20
11.3252570154
 30
0.0
 10
16.5053691403
 20
11.3683201373
 30
0.0
 10
16.5266693466
 20
11.4222333864
 30
0.0
 10
16.5469155138
 20
11.4787633108
 30
0.0
 10
16.5594793289
 20
11.5174923175
 30
0.0
 10
16.565587235
 20
11.537257509
 30
0.0
  0
SPLINE
  5
2B7
100
AcDbEntity
  8
LAYER_FEATURE
100
AcDbSpline
 62
7
  6
CONTINUOUS
 70
0
 71
3
 72
11
 73
7
 74
0
 42
0.0000001
 43
0.0000001
 44
0.0000000001
 40
0.0
 40
0.0
 40
0.0
 40
0.0
 40
0.2405317117
 40
0.4876480997
 40
0.7409475683
 40
1.0
 40
1.0
 40
1.0
 40
1.0
 10
15.6012049439
 20
13.5791971259
 30
0.0
 10
15.5944828851
 20
13.5574445355
 30
0.0
 10
15.581472511
 20
13.5131507936
 30
0.0
 10
15.5634695888
 20
13.4453588666
 30
0.0
 10
15.5467461571
 20
13.3754365611
 30
0.0
 10
15.5365837269
 20
13.3280113758
 30
0.0
 10
15.5317154535
 20
13.3039788739
 30
0.0
  0
SPLINE
  5
2B8
100
AcDbEntity
  8
LAYER_FEATURE
100
AcDbSpline
 62
7
  6
CONTINUOUS
 70
0
 71
3
 72
57
 73
53
 74
0
 42
0.0000001
 43
0.0000001
 44
0.0000000001
 40
0.0
 40
0.0
 40
0.0
 40
0.0
 40
0.0365196525
 40
0.0739003751
 40
0.1120187458
 40
0.1507465977
 40
0.189951946
 40
0.2294998725
 40
0.2692533788
 40
0.3090742329
 40
0.3488237989
 40
0.3883638684
 40
0.4275574913
 40
0.4662698187
 40
0.5043689647
 40
0.5417268829
 40
0.5600896394
 40
0.578221305
 40
0.5961073769
 40
0.6137337751
 40
0.631086878
 40
0.6481535612
 40
0.6649212343
 40
0.6813778813
 40
0.6975121051
 40
0.7133131746
 40
0.7287710795
 40
0.7438765857
 40
0.7586212952
 40
0.772997714
 40
0.7869993277
 40
0.8006206877
 40
0.8138575067
 40
0.8267067611
 40
0.8391668098
 40
0.8512375263
 40
0.8629204491
 40
0.874218951
 40
0.885138422
 40
0.8956864705
 40
0.9058731429
 40
0.9157111554
 40
0.9252161327
 40
0.9344068388
 40
0.9433053803
 40
0.9519373649
 40
0.9603319824
 40
0.968521974
 40
0.9765434574
 40
0.9844355741
 40
0.9922399531
 40
1.0
 40
1.0
 40
1.0
 40
1.0
 10
15.5317154535
 20
13.3039788739
 30
0.0
 10
15.5250323488
 20
13.2709873566
 30
0.0
 10
15.5125361368
 20
13.204014399
 30
0.0
 10
15.4965362121
 20
13.1019963801
 30
0.0
 10
15.4831074604
 20
12.997555468
 30
0.0
 10
15.4723054159
 20
12.8911205696
 30
0.0
 10
15.4641745092
 20
12.7831272744
 30
0.0
 10
15.4587482904
 20
12.674018105
 30
0.0
 10
15.4560490914
 20
12.5642401058
 30
0.0
 10
15.4560880419
 20
12.4542431339
 30
0.0
 10
15.4588649991
 20
12.3444779514
 30
0.0
 10
15.4643684907
 20
12.2353943423
 30
0.0
 10
15.4725758567
 20
12.1274393198
 30
0.0
 10
15.4834532791
 20
12.021054973
 30
0.0
 10
15.4969559159
 20
11.9166776841
 30
0.0
 10
15.5104252466
 20
11.831242731
 30
0.0
 10
15.5224927148
 20
11.7642461599
 30
0.0
 10
15.5321101315
 20
11.7150508005
 30
0.0
 10
15.542335869
 20
11.6666718101
 30
0.0
 10
15.5531594897
 20
11.6191586872
 30
0.0
 10
15.5645698669
 20
11.5725601712
 30
0.0
 10
15.5765552855
 20
11.5269240182
 30
0.0
 10
15.5891034399
 20
11.4822969986
 30
0.0
 10
15.6022014529
 20
11.4387248393
 30
0.0
 10
15.6158358875
 20
11.39625218
 30
0.0
 10
15.6299927654
 20
11.3549225235
 30
0.0
 10
15.6446575715
 20
11.3147781856
 30
0.0
 10
15.6598152772
 20
11.2758602515
 30
0.0
 10
15.6754503619
 20
11.2382085375
 30
0.0
 10
15.6915468303
 20
11.2018615502
 30
0.0
 10
15.7080882344
 20
11.1668564466
 30
0.0
 10
15.7250576917
 20
11.1332289906
 30
0.0
 10
15.7424379015
 20
11.1010135123
 30
0.0
 10
15.760211181
 20
11.0702428812
 30
0.0
 10
15.7783594889
 20
11.0409484779
 30
0.0
 10
15.7968644533
 20
11.0131601671
 30
0.0
 10
15.8157074047
 20
10.9869062739
 30
0.0
 10
15.8348693935
 20
10.9622135556
 30
0.0
 10
15.8543312312
 20
10.9391071989
 30
0.0
 10
15.8740735208
 20
10.9176108242
 30
0.0
 10
15.8940766799
 20
10.8977464946
 30
0.0
 10
15.914320961
 20
10.879534737
 30
0.0
 10
15.9347864477
 20
10.8629945615
 30
0.0
 10
15.9554530359
 20
10.8481434918
 30
0.0
 10
15.976300398
 20
10.8349976138
 30
0.0
 10
15.9973079079
 20
10.8235715962
 30
0.0
 10
16.0184545169
 20
10.8138786796
 30
0.0
 10
16.0397186959
 20
10.8059306121
 30
0.0
 10
16.0610780751
 20
10.7997374932
 30
0.0
 10
16.0825102378
 20
10.7953075863
 30
0.0
 10
16.1039896233
 20
10.7926470787
 30
0.0
 10
16.1183429093
 20
10.792054988
 30
0.0
 10
16.1254956522
 20
10.7920549939
 30
0.0
  0
SPLINE
  5
2B9
100
AcDbEntity
  8
LAYER_CHAMFER_FEAT
100
AcDbSpline
 62
7
  6
CONTINUOUS
 70
0
 71
3
 72
27
 73
23
 74
0
 42
0.0000001
 43
0.0000001
 44
0.0000000001
 40
0.0
 40
0.0
 40
0.0
 40
0.0
 40
0.083511091
 40
0.1639083651
 40
0.2411670835
 40
0.3152835286
 40
0.3862766026
 40
0.4541914516
 40
0.5191027253
 40
0.581118554
 40
0.6403847064
 40
0.6970888372
 40
0.7514643421
 40
0.8037931644
 40
0.8292988702
 40
0.8544212602
 40
0.8792091189
 40
0.9037137694
 40
0.9279888851
 40
0.9520900428
 40
0.9760743653
 40
1.0
 40
1.0
 40
1.0
 40
1.0
 10
16.3605021837
 20
13.4292557944
 30
0.0
 10
16.3555948811
 20
13.4392558259
 30
0.0
 10
16.345634698
 20
13.4587243189
 30
0.0
 10
16.3299415374
 20
13.4868135665
 30
0.0
 10
16.3138030213
 20
13.5131924211
 30
0.0
 10
16.2972471131
 20
13.5378146151
 30
0.0
 10
16.2803019703
 20
13.560637523
 30
0.0
 10
16.2629962676
 20
13.5816214571
 30
0.0
 10
16.2453589682
 20
13.6007298325
 30
0.0
 10
16.227419243
 20
13.6179290609
 30
0.0
 10
16.2092066059
 20
13.6331883684
 30
0.0
 10
16.1907503305
 20
13.6464798277
 30
0.0
 10
16.1720819121
 20
13.6577774113
 30
0.0
 10
16.1562366386
 20
13.6655781109
 30
0.0
 10
16.1435149713
 20
13.6707624245
 30
0.0
 10
16.1340237165
 20
13.6741078023
 30
0.0
 10
16.1245065306
 20
13.6769413285
 30
0.0
 10
16.1149674429
 20
13.6792615983
 30
0.0
 10
16.1054108645
 20
13.6810675332
 30
0.0
 10
16.0958410033
 20
13.682358106
 30
0.0
 10
16.0862626226
 20
13.6831327584
 30
0.0
 10
16.0798707673
 20
13.6833049866
 30
0.0
 10
16.0766794195
 20
13.6833049832
 30
0.0
  0
SPLINE
  5
2BA
100
AcDbEntity
  8
02___PRT_ALL_AXES
100
AcDbSpline
 62
7
  6
CONTINUOUS
 70
0
 71
3
 72
23
 73
19
 74
0
 42
0.0000001
 43
0.0000001
 44
0.0000000001
 40
0.0
 40
0.0
 40
0.0
 40
0.0
 40
0.0418147337
 40
0.0873072892
 40
0.1364757124
 40
0.1892273108
 40
0.2453972602
 40
0.3047624977
 40
0.36705234
 40
0.4319568863
 40
0.4991339543
 40
0.5682150475
 40
0.6388106588
 40
0.7105151938
 40
0.7829114312
 40
0.8555755304
 40
0.9280796199
 40
1.0
 40
1.0
 40
1.0
 40
1.0
 10
15.7806534985
 20
11.6418955061
 30
0.0
 10
15.7819326454
 20
11.6434271284
 30
0.0
 10
15.7844270627
 20
11.64677449
 30
0.0
 10
15.7878418725
 20
11.6523282605
 30
0.0
 10
15.7910651192
 20
11.6585880445
 30
0.0
 10
15.7940749237
 20
11.6655112085
 30
0.0
 10
15.7968512235
 20
11.673051342
 30
0.0
 10
15.7993749721
 20
11.6811571404
 30
0.0
 10
15.8016287828
 20
11.6897732464
 30
0.0
 10
15.8035970301
 20
11.69884056
 30
0.0
 10
15.8052660372
 20
11.7082967322
 30
0.0
 10
15.8066241851
 20
11.7180766222
 30
0.0
 10
15.8076620122
 20
11.7281127802
 30
0.0
 10
15.8083722804
 20
11.7383359332
 30
0.0
 10
15.8087500448
 20
11.7486754838
 30
0.0
 10
15.8087926529
 20
11.7590600153
 30
0.0
 10
15.8084998415
 20
11.7694176766
 30
0.0
 10
15.8080798255
 20
11.7762986993
 30
0.0
 10
15.8078130839
 20
11.7797205598
 30
0.0
  0
SPLINE
  5
2BB
100
AcDbEntity
  8
02___PRT_ALL_AXES
100
AcDbSpline
 62
7
  6
CONTINUOUS
 70
0
 71
3
 72
56
 73
52
 74
0
 42
0.0000001
 43
0.0000001
 44
0.0000000001
 40
0.0
 40
0.0
 40
0.0
 40
0.0
 40
0.0077385613
 40
0.0156305703
 40
0.023716754
 40
0.032034134
 40
0.0494812584
 40
0.0586740275
 40
0.0682058481
 40
0.0780941107
 40
0.0883528524
 40
0.0989930435
 40
0.1100228671
 40
0.1214479828
 40
0.1332717647
 40
0.1454955246
 40
0.1581187109
 40
0.1711390833
 40
0.1845528677
 40
0.1983548891
 40
0.2125386949
 40
0.2270966651
 40
0.2420201085
 40
0.2572993482
 40
0.2729237959
 40
0.2888820214
 40
0.3051618201
 40
0.3217502709
 40
0.3386337903
 40
0.3557981798
 40
0.3732286723
 40
0.4088252481
 40
0.445296851
 40
0.4825091828
 40
0.5203226663
 40
0.5585935521
 40
0.5971749676
 40
0.6359179542
 40
0.6746724731
 40
0.7132884099
 40
0.751616573
 40
0.7895097055
 40
0.8268235098
 40
0.8634176956
 40
0.8991570862
 40
0.9166662362
 40
0.9339139175
 40
0.9508852309
 40
0.9675656849
 40
0.9839417999
 40
1.0
 40
1.0
 40
1.0
 40
1.0
 10
16.0645198762
 20
11.2108146445
 30
0.0
 10
16.0587717489
 20
11.2119748758
 30
0.0
 10
16.0472554999
 20
11.2148114573
 30
0.0
 10
16.0301948403
 20
11.2205176393
 30
0.0
 10
16.0132240271
 20
11.2277020977
 30
0.0
 10
15.9903859531
 20
11.2394220068
 30
0.0
 10
15.9681503392
 20
11.2539836471
 30
0.0
 10
15.9466440577
 20
11.2709918029
 30
0.0
 10
15.9304136885
 20
11.2853864905
 30
0.0
 10
15.914386932
 20
11.3011771062
 30
0.0
 10
15.8985793807
 20
11.3183467643
 30
0.0
 10
15.8830089606
 20
11.336875483
 30
0.0
 10
15.8676927328
 20
11.3567423001
 30
0.0
 10
15.852647773
 20
11.3779246534
 30
0.0
 10
15.8378908705
 20
11.400398538
 30
0.0
 10
15.8234385798
 20
11.4241384767
 30
0.0
 10
15.8093071705
 20
11.4491175553
 30
0.0
 10
15.7955126005
 20
11.4753074409
 30
0.0
 10
15.7820704903
 20
11.5026784089
 30
0.0
 10
15.7689960852
 20
11.5311993657
 30
0.0
 10
15.7563042348
 20
11.5608378865
 30
0.0
 10
15.7440093771
 20
11.5915602589
 30
0.0
 10
15.7321255139
 20
11.6233315221
 30
0.0
 10
15.7206661946
 20
11.656115506
 30
0.0
 10
15.70964449
 20
11.6898748678
 30
0.0
 10
15.6990729724
 20
11.7245711364
 30
0.0
 10
15.6889637112
 20
11.7601647608
 30
0.0
 10
15.679328248
 20
11.7966151676
 30
0.0
 10
15.6701776107
 20
11.8338807669
 30
0.0
 10
15.6615221922
 20
11.8719191493
 30
0.0
 10
15.6505790699
 20
11.9239723048
 30
0.0
 10
15.638234105
 20
11.9906710706
 30
0.0
 10
15.6256409631
 20
12.0725293522
 30
0.0
 10
15.6152247478
 20
12.1563858956
 30
0.0
 10
15.6070332215
 20
12.241858022
 30
0.0
 10
15.6011039916
 20
12.3285563778
 30
0.0
 10
15.5974642329
 20
12.4160856898
 30
0.0
 10
15.5961306574
 20
12.5040468956
 30
0.0
 10
15.5971093951
 20
12.592038917
 30
0.0
 10
15.6003959277
 20
12.6796605323
 30
0.0
 10
15.6059752062
 20
12.7665122507
 30
0.0
 10
15.6138216128
 20
12.8521980909
 30
0.0
 10
15.6238991509
 20
12.936327702
 30
0.0
 10
15.6361616167
 20
13.0185171471
 30
0.0
 10
15.6482351085
 20
13.0855303643
 30
0.0
 10
15.6589656319
 20
13.1378634985
 30
0.0
 10
15.667466981
 20
13.1761304708
 30
0.0
 10
15.6764666413
 20
13.2136378295
 30
0.0
 10
15.6859544051
 20
13.2503431066
 30
0.0
 10
15.6959193768
 20
13.2862040249
 30
0.0
 10
15.7029439592
 20
13.3097584228
 30
0.0
 10
15.7065366553
 20
13.3213843915
 30
0.0
  0
SPLINE
  5
2BC
100
AcDbEntity
  8
LAYER_CUT_FEAT
100
AcDbSpline
 62
7
  6
CONTINUOUS
 70
0
 71
3
 72
56
 73
52
 74
0
 42
0.0000001
 43
0.0000001
 44
0.0000000001
 40
0.0
 40
0.0
 40
0.0
 40
0.0
 40
0.009480284
 40
0.0193353707
 40
0.0295776554
 40
0.0402163268
 40
0.0512576899
 40
0.0627054534
 40
0.0745609793
 40
0.0868235313
 40
0.0994904857
 40
0.1125575074
 40
0.1260186984
 40
0.1398667526
 40
0.1540930834
 40
0.1686879269
 40
0.1836404305
 40
0.1989387551
 40
0.214570156
 40
0.230521048
 40
0.2467770653
 40
0.263323135
 40
0.2972207147
 40
0.3320823758
 40
0.3677673111
 40
0.4041280892
 40
0.4410120191
 40
0.4782624159
 40
0.5157198523
 40
0.5532233596
 40
0.5906116302
 40
0.6277242103
 40
0.6644026971
 40
0.7004919695
 40
0.7358414266
 40
0.7703063166
 40
0.8037490919
 40
0.8200472351
 40
0.8360423514
 40
0.8517199705
 40
0.8670663933
 40
0.8820687519
 40
0.8967150729
 40
0.910994358
 40
0.9248966859
 40
0.9384132897
 40
0.9515366853
 40
0.9642607711
 40
0.9765808786
 40
0.9884944846
 40
1.0
 40
1.0
 40
1.0
 40
1.0
 10
15.753224949
 20
13.3063724552
 30
0.0
 10
15.75697445
 20
13.3029710566
 30
0.0
 10
15.7644236729
 20
13.2958128322
 30
0.0
 10
15.7752303393
 20
13.2842857498
 30
0.0
 10
15.7858690185
 20
13.2717797408
 30
0.0
 10
15.7963261931
 20
13.2583110567
 30
0.0
 10
15.8065891472
 20
13.2438965164
 30
0.0
 10
15.8166451313
 20
13.2285542704
 30
0.0
 10
15.8264816705
 20
13.2123036078
 30
0.0
 10
15.8360864857
 20
13.1951649745
 30
0.0
 10
15.8454475427
 20
13.1771599343
 30
0.0
 10
15.8545530714
 20
13.1583111601
 30
0.0
 10
15.8633916222
 20
13.1386424228
 30
0.0
 10
15.8719520502
 20
13.1181785401
 30
0.0
 10
15.8802235384
 20
13.0969453418
 30
0.0
 10
15.888195618
 20
13.0749696468
 30
0.0
 10
15.895858213
 20
13.0522792378
 30
0.0
 10
15.9032016193
 20
13.0289028108
 30
0.0
 10
15.9102165291
 20
13.0048699276
 30
0.0
 10
15.9168940262
 20
12.9802110162
 30
0.0
 10
15.923225711
 20
12.9549572241
 30
0.0
 10
15.9312604879
 20
12.9202562846
 30
0.0
 10
15.9403608037
 20
12.8756119592
 30
0.0
 10
15.9496989774
 20
12.8206171206
 30
0.0
 10
15.9574934292
 20
12.7640545085
 30
0.0
 10
15.9637044809
 20
12.7062105923
 30
0.0
 10
15.9683004599
 20
12.6473777842
 30
0.0
 10
15.9712579757
 20
12.5878537909
 30
0.0
 10
15.9725619225
 20
12.5279398303
 30
0.0
 10
15.9722056893
 20
12.4679391444
 30
0.0
 10
15.9701910548
 20
12.4081554172
 30
0.0
 10
15.9665283261
 20
12.3488912192
 30
0.0
 10
15.9612361281
 20
12.2904464301
 30
0.0
 10
15.9543414722
 20
12.2331167543
 30
0.0
 10
15.9458794332
 20
12.1771919412
 30
0.0
 10
15.9358931623
 20
12.122955184
 30
0.0
 10
15.9262625809
 20
12.079022699
 30
0.0
 10
15.917814509
 20
12.0449498945
 30
0.0
 10
15.9111855752
 20
12.0202045331
 30
0.0
 10
15.9042180603
 20
11.9960808865
 30
0.0
 10
15.8969207446
 20
11.9726094089
 30
0.0
 10
15.8893028982
 20
11.9498198073
 30
0.0
 10
15.8813741642
 20
11.9277408987
 30
0.0
 10
15.8731445665
 20
11.906400599
 30
0.0
 10
15.8646245204
 20
11.885825867
 30
0.0
 10
15.8558247981
 20
11.8660426718
 30
0.0
 10
15.8467564884
 20
11.8470759668
 30
0.0
 10
15.8374310237
 20
11.8289497472
 30
0.0
 10
15.8278600539
 20
11.8116866063
 30
0.0
 10
15.818055784
 20
11.7953087861
 30
0.0
 10
15.8112535148
 20
11.7848108432
 30
0.0
 10
15.8078130839
 20
11.7797205598
 30
0.0
  0
SPLINE
  5
2BD
100
AcDbEntity
  8
LAYER_CHAMFER_FEAT
100
AcDbSpline
 62
7
  6
CONTINUOUS
 70
0
 71
3
 72
80
 73
76
 74
0
 42
0.0000001
 43
0.0000001
 44
0.0000000001
 40
0.0
 40
0.0
 40
0.0
 40
0.0
 40
0.011388447
 40
0.0222283204
 40
0.0325468819
 40
0.0423803598
 40
0.0517748911
 40
0.0563261695
 40
0.0607899173
 40
0.0651749237
 40
0.0694906174
 40
0.0737470401
 40
0.0779547781
 40
0.0821248932
 40
0.0862688256
 40
0.0903982878
 40
0.0945251458
 40
0.0986612928
 40
0.1028185235
 40
0.107008412
 40
0.1112421965
 40
0.1155306843
 40
0.1198841601
 40
0.1243123315
 40
0.1288242657
 40
0.1381299432
 40
0.1478630747
 40
0.1580720713
 40
0.168795254
 40
0.1800617608
 40
0.1918925527
 40
0.2043014015
 40
0.2172957953
 40
0.2308777377
 40
0.245044438
 40
0.2597888991
 40
0.2751004173
 40
0.290965006
 40
0.3073657578
 40
0.3242831555
 40
0.341695342
 40
0.3595783573
 40
0.3779063482
 40
0.3966517577
 40
0.4157854965
 40
0.4352771015
 40
0.4550948834
 40
0.475206065
 40
0.4955769139
 40
0.5161728681
 40
0.536958659
 40
0.5578984298
 40
0.578955852
 40
0.6000942395
 40
0.6212766617
 40
0.6424660557
 40
0.6636253373
 40
0.6847175132
 40
0.7057057923
 40
0.7265536982
 40
0.7472251835
 40
0.7676847445
 40
0.7878975396
 40
0.8078295101
 40
0.8274475044
 40
0.8467194084
 40
0.8656142814
 40
0.8841024996
 40
0.9021559107
 40
0.9197479996
 40
0.9368540725
 40
0.9534514508
 40
0.9695197223
 40
0.9850409289
 40
1.0
 40
1.0
 40
1.0
 40
1.0
 10
15.9063275211
 20
11.4210680169
 30
0.0
 10
15.912597563
 20
11.4135562005
 30
0.0
 10
15.9252559472
 20
11.3992371498
 30
0.0
 10
15.9450974831
 20
11.3795035787
 30
0.0
 10
15.965279146
 20
11.3620947822
 30
0.0
 10
15.9857604562
 20
11.3470500138
 30
0.0
 10
16.0032309928
 20
11.3363988316
 30
0.0
 10
16.0172924249
 20
11.32914452
 30
0.0
 10
16.0277744327
 20
11.3243705546
 30
0.0
 10
16.0382971056
 20
11.3202092245
 30
0.0
 10
16.0488552168
 20
11.3166628683
 30
0.0
 10
16.059443158
 20
11.3137335252
 30
0.0
 10
16.0700553593
 20
11.3114229932
 30
0.0
 10
16.0806861342
 20
11.3097326324
 30
0.0
 10
16.0913297604
 20
11.3086635163
 30
0.0
 10
16.1019804587
 20
11.3082162959
 30
0.0
 10
16.1126324285
 20
11.3083912521
 30
0.0
 10
16.1232798611
 20
11.3091882909
 30
0.0
 10
16.1339169705
 20
11.3106068816
 30
0.0
 10
16.1445379974
 20
11.3126461914
 30
0.0
 10
16.1551372537
 20
11.3153049103
 30
0.0
 10
16.1657090999
 20
11.3185815196
 30
0.0
 10
16.1762479484
 20
11.3224739702
 30
0.0
 10
16.1867484804
 20
11.3269802253
 30
0.0
 10
16.2008340994
 20
11.3338733678
 30
0.0
 10
16.2183440979
 20
11.34407657
 30
0.0
 10
16.2388861515
 20
11.3585996228
 30
0.0
 10
16.2591368395
 20
11.375494266
 30
0.0
 10
16.2790563167
 20
11.3947229603
 30
0.0
 10
16.2986071901
 20
11.4162455071
 30
0.0
 10
16.3177516638
 20
11.4400174916
 30
0.0
 10
16.3364523858
 20
11.4659903947
 30
0.0
 10
16.3546723587
 20
11.4941113613
 30
0.0
 10
16.3723751716
 20
11.5243231911
 30
0.0
 10
16.3895251473
 20
11.5565643621
 30
0.0
 10
16.4060875004
 20
11.5907691143
 30
0.0
 10
16.4220284724
 20
11.6268675639
 30
0.0
 10
16.4373154512
 20
11.6647858415
 30
0.0
 10
16.4519170767
 20
11.7044462471
 30
0.0
 10
16.4658033331
 20
11.7457674159
 30
0.0
 10
16.4789456319
 20
11.7886644944
 30
0.0
 10
16.4913168854
 20
11.833049323
 30
0.0
 10
16.5028915742
 20
11.8788306262
 30
0.0
 10
16.5136458069
 20
11.9259142073
 30
0.0
 10
16.5235573759
 20
11.9742031489
 30
0.0
 10
16.5326058063
 20
12.0235980187
 30
0.0
 10
16.5407724021
 20
12.0739970788
 30
0.0
 10
16.548040286
 20
12.1252964994
 30
0.0
 10
16.5543944361
 20
12.1773905771
 30
0.0
 10
16.5598217177
 20
12.2301719552
 30
0.0
 10
16.5643109114
 20
12.283531848
 30
0.0
 10
16.5678527364
 20
12.3373602678
 30
0.0
 10
16.5704398706
 20
12.3915462531
 30
0.0
 10
16.5720669651
 20
12.4459780998
 30
0.0
 10
16.5727306561
 20
12.5005435935
 30
0.0
 10
16.5724295713
 20
12.555130242
 30
0.0
 10
16.5711643334
 20
12.6096255094
 30
0.0
 10
16.5689375583
 20
12.6639170494
 30
0.0
 10
16.5657538496
 20
12.7178929389
 30
0.0
 10
16.5616197896
 20
12.7714419104
 30
0.0
 10
16.5565439247
 20
12.824453583
 30
0.0
 10
16.5505367483
 20
12.8768186927
 30
0.0
 10
16.5436106779
 20
12.9284293193
 30
0.0
 10
16.5357800296
 20
12.9791791116
 30
0.0
 10
16.5270609871
 20
13.0289635101
 30
0.0
 10
16.5174715674
 20
13.0776799651
 30
0.0
 10
16.5070315816
 20
13.1252281528
 30
0.0
 10
16.4957625917
 20
13.1715101859
 30
0.0
 10
16.4836878615
 20
13.2164308219
 30
0.0
 10
16.4708323079
 20
13.259897661
 30
0.0
 10
16.4572224278
 20
13.3018213607
 30
0.0
 10
16.4428862818
 20
13.3421157601
 30
0.0
 10
16.4278532651
 20
13.380698328
 30
0.0
 10
16.41215457
 20
13.4174893207
 30
0.0
 10
16.4010580923
 20
13.4412174774
 30
0.0
 10
16.3953960032
 20
13.4527556017
 30
0.0
  0
SPLINE
  5
2BE
100
AcDbEntity
  8
02___PRT_ALL_AXES
100
AcDbSpline
 62
7
  6
CONTINUOUS
 70
0
 71
3
 72
36
 73
32
 74
0
 42
0.0000001
 43
0.0000001
 44
0.0000000001
 40
0.0
 40
0.0
 40
0.0
 40
0.0
 40
0.085525955
 40
0.168164851
 40
0.2477892697
 40
0.2864375079
 40
0.3242926179
 40
0.3613441658
 40
0.3975832849
 40
0.4330026594
 40
0.4675967272
 40
0.5013617724
 40
0.5342960269
 40
0.5663999237
 40
0.5976761512
 40
0.6281299081
 40
0.6577691057
 40
0.6866045081
 40
0.714650076
 40
0.7419231167
 40
0.7684445701
 40
0.7942393122
 40
0.8193363222
 40
0.8437690223
 40
0.8675754407
 40
0.8907983765
 40
0.9134855669
 40
0.9356896262
 40
0.9574680033
 40
0.9788827291
 40
1.0
 40
1.0
 40
1.0
 40
1.0
 10
15.7065366553
 20
13.3213843915
 30
0.0
 10
15.7118523666
 20
13.3385860397
 30
0.0
 10
15.7227993335
 20
13.3722586542
 30
0.0
 10
15.7404940286
 20
13.4213376099
 30
0.0
 10
15.7561882925
 20
13.4606229686
 30
0.0
 10
15.7692279865
 20
13.4907942016
 30
0.0
 10
15.7791315263
 20
13.5125526506
 30
0.0
 10
15.7892492263
 20
13.5336513032
 30
0.0
 10
15.7995744653
 20
13.5540763688
 30
0.0
 10
15.8101004885
 20
13.5738144006
 30
0.0
 10
15.8208203848
 20
13.5928524475
 30
0.0
 10
15.8317271185
 20
13.6111780177
 30
0.0
 10
15.8428135966
 20
13.6287790635
 30
0.0
 10
15.8540725338
 20
13.6456440595
 30
0.0
 10
15.8654966181
 20
13.6617619257
 30
0.0
 10
15.8770784167
 20
13.6771220837
 30
0.0
 10
15.8888103771
 20
13.6917144732
 30
0.0
 10
15.9006849446
 20
13.7055294753
 30
0.0
 10
15.9126944038
 20
13.7185580327
 30
0.0
 10
15.9248310238
 20
13.73079155
 30
0.0
 10
15.937087016
 20
13.7422219172
 30
0.0
 10
15.949454471
 20
13.7528415808
 30
0.0
 10
15.9619255034
 20
13.7626433928
 30
0.0
 10
15.9744920952
 20
13.7716207631
 30
0.0
 10
15.9871461829
 20
13.7797675697
 30
0.0
 10
15.9998796504
 20
13.787078114
 30
0.0
 10
16.012684239
 20
13.7935472935
 30
0.0
 10
16.0255515764
 20
13.7991703736
 30
0.0
 10
16.0384733732
 20
13.8039432327
 30
0.0
 10
16.0514402782
 20
13.8078621382
 30
0.0
 10
16.060162312
 20
13.8099157886
 30
0.0
 10
16.0645198763
 20
13.8107953408
 30
0.0
  0
SPLINE
  5
2BF
100
AcDbEntity
  8
LAYER_CHAMFER_FEAT
100
AcDbSpline
 62
7
  6
CONTINUOUS
 70
0
 71
3
 72
67
 73
63
 74
0
 42
0.0000001
 43
0.0000001
 44
0.0000000001
 40
0.0
 40
0.0
 40
0.0
 40
0.0
 40
0.0038601976
 40
0.0077284267
 40
0.011612657
 40
0.0155207363
 40
0.0194603366
 40
0.023438897
 40
0.0315392188
 40
0.0398773698
 40
0.048501048
 40
0.057451777
 40
0.0667648688
 40
0.0764696504
 40
0.086589852
 40
0.0971440786
 40
0.1081463044
 40
0.1196063549
 40
0.1315303539
 40
0.1439211288
 40
0.1567785699
 40
0.1700999441
 40
0.1838801688
 40
0.1981120502
 40
0.21278649
 40
0.227892667
 40
0.2434181948
 40
0.2593492621
 40
0.2756707589
 40
0.2923663883
 40
0.3094187678
 40
0.3268095223
 40
0.3445193696
 40
0.3625281992
 40
0.3808151473
 40
0.3993586663
 40
0.4181365926
 40
0.4371262106
 40
0.4563043154
 40
0.4951298844
 40
0.5344213452
 40
0.5739813671
 40
0.6136102717
 40
0.6531077834
 40
0.6922747695
 40
0.7309149933
 40
0.7499781052
 40
0.7688381809
 40
0.7874723145
 40
0.8058581282
 40
0.8239738359
 40
0.8417983088
 40
0.8593111446
 40
0.8764927402
 40
0.8933243703
 40
0.9097882693
 40
0.9258677239
 40
0.9415471591
 40
0.9568122873
 40
0.9716501036
 40
0.9860493362
 40
1.0
 40
1.0
 40
1.0
 40
1.0
 10
16.0766794195
 20
11.3383050026
 30
0.0
 10
16.0796180255
 20
11.3383050057
 30
0.0
 10
16.0855023918
 20
11.3384509796
 30
0.0
 10
16.0943216227
 20
11.3391076065
 30
0.0
 10
16.1031342514
 20
11.3402016669
 30
0.0
 10
16.1119365473
 20
11.3417326554
 30
0.0
 10
16.1207253808
 20
11.3437000701
 30
0.0
 10
16.1324899925
 20
11.3469225407
 30
0.0
 10
16.1471800006
 20
11.3520701996
 30
0.0
 10
16.1645836631
 20
11.3599417949
 30
0.0
 10
16.1818464059
 20
11.3695305383
 30
0.0
 10
16.1989423105
 20
11.380819373
 30
0.0
 10
16.2158476452
 20
11.3937896945
 30
0.0
 10
16.2325386911
 20
11.4084209705
 30
0.0
 10
16.2489921191
 20
11.4246907574
 30
0.0
 10
16.2651847594
 20
11.4425745663
 30
0.0
 10
16.2810936335
 20
11.4620457796
 30
0.0
 10
16.2966959714
 20
11.4830755853
 30
0.0
 10
16.3119692697
 20
11.5056329425
 30
0.0
 10
16.326891348
 20
11.529684579
 30
0.0
 10
16.341440412
 20
11.5551950071
 30
0.0
 10
16.3555951133
 20
11.5821265564
 30
0.0
 10
16.3693346048
 20
11.6104394177
 30
0.0
 10
16.3826385907
 20
11.6400916972
 30
0.0
 10
16.3954873731
 20
11.6710394765
 30
0.0
 10
16.4078618927
 20
11.7032368783
 30
0.0
 10
16.4197437687
 20
11.7366361349
 30
0.0
 10
16.4311153344
 20
11.7711876616
 30
0.0
 10
16.4419596664
 20
11.8068401351
 30
0.0
 10
16.4522606157
 20
11.8435405722
 30
0.0
 10
16.462002834
 20
11.8812344115
 30
0.0
 10
16.4711718
 20
11.9198655967
 30
0.0
 10
16.4797538419
 20
11.9593766617
 30
0.0
 10
16.4877361604
 20
11.9997088188
 30
0.0
 10
16.4951068463
 20
12.0408020437
 30
0.0
 10
16.5018549079
 20
12.0825951797
 30
0.0
 10
16.5079702637
 20
12.1250259784
 30
0.0
 10
16.5134438442
 20
12.1680313907
 30
0.0
 10
16.5199012828
 20
12.226288461
 30
0.0
 10
16.5262984731
 20
12.3000917094
 30
0.0
 10
16.5312790582
 20
12.3895492684
 30
0.0
 10
16.5335645543
 20
12.4797281986
 30
0.0
 10
16.5331413047
 20
12.5700917055
 30
0.0
 10
16.5300118485
 20
12.6601029311
 30
0.0
 10
16.52419491
 20
12.749226083
 30
0.0
 10
16.5171056176
 20
12.8226413865
 30
0.0
 10
16.5101005288
 20
12.8805055639
 30
0.0
 10
16.5042250167
 20
12.9231595597
 30
0.0
 10
16.4977133206
 20
12.9651993754
 30
0.0
 10
16.4905750983
 20
13.0065625485
 30
0.0
 10
16.4828210146
 20
13.047187477
 30
0.0
 10
16.4744626321
 20
13.087013707
 30
0.0
 10
16.4655124176
 20
13.1259819728
 30
0.0
 10
16.455983716
 20
13.1640343005
 30
0.0
 10
16.4458907325
 20
13.2011140935
 30
0.0
 10
16.4352485097
 20
13.2371662222
 30
0.0
 10
16.4240728986
 20
13.2721370947
 30
0.0
 10
16.4123805366
 20
13.3059747826
 30
0.0
 10
16.4001888239
 20
13.3386289654
 30
0.0
 10
16.3875158299
 20
13.3700513901
 30
0.0
 10
16.3743805383
 20
13.4001949464
 30
0.0
 10
16.3651807708
 20
13.4197218365
 30
0.0
 10
16.3605021837
 20
13.4292557944
 30
0.0
  0
SPLINE
  5
2C0
100
AcDbEntity
  8
LAYER_FEATURE
100
AcDbSpline
 62
7
  6
CONTINUOUS
 70
0
 71
3
 72
38
 73
34
 74
0
 42
0.0000001
 43
0.0000001
 44
0.0000000001
 40
0.0
 40
0.0
 40
0.0
 40
0.0
 40
0.0220575278
 40
0.044197119
 40
0.0664997196
 40
0.0890440832
 40
0.1119058341
 40
0.1351566856
 40
0.1588637865
 40
0.1830893325
 40
0.207890282
 40
0.2333182234
 40
0.2594194541
 40
0.2862350317
 40
0.3138009904
 40
0.342148617
 40
0.3713046354
 40
0.4012915677
 40
0.4321280005
 40
0.4638288084
 40
0.4964055163
 40
0.5298664753
 40
0.5642171084
 40
0.5994601905
 40
0.6355959468
 40
0.6726223137
 40
0.7105351041
 40
0.7493280598
 40
0.7889931539
 40
0.8295206546
 40
0.8708988913
 40
0.9131150633
 40
1.0
 40
1.0
 40
1.0
 40
1.0
 10
14.9115372621
 20
14.0623049891
 30
0.0
 10
14.906332603
 20
14.0623049963
 30
0.0
 10
14.8959006319
 20
14.0619583503
 30
0.0
 10
14.8802761937
 20
14.0603999978
 30
0.0
 10
14.8646733645
 20
14.0578041489
 30
0.0
 10
14.8491040475
 20
14.0541730269
 30
0.0
 10
14.833578823
 20
14.0495096025
 30
0.0
 10
14.8181084273
 20
14.0438175213
 30
0.0
 10
14.8027032732
 20
14.0371012525
 30
0.0
 10
14.7873736533
 20
14.0293658108
 30
0.0
 10
14.7721296958
 20
14.0206168475
 30
0.0
 10
14.7569813465
 20
14.0108606805
 30
0.0
 10
14.7419385026
 20
14.0001041119
 30
0.0
 10
14.7270109163
 20
13.9883546062
 30
0.0
 10
14.7122082493
 20
13.9756202104
 30
0.0
 10
14.6975401479
 20
13.9619095033
 30
0.0
 10
14.6830161041
 20
13.9472317473
 30
0.0
 10
14.6686455848
 20
13.9315967551
 30
0.0
 10
14.654437994
 20
13.9150149397
 30
0.0
 10
14.6404025843
 20
13.8974973746
 30
0.0
 10
14.6265485958
 20
13.8790556812
 30
0.0
 10
14.6128851313
 20
13.8597021179
 30
0.0
 10
14.599421164
 20
13.8394495555
 30
0.0
 10
14.586165624
 20
13.8183114198
 30
0.0
 10
14.573127243
 20
13.7963017705
 30
0.0
 10
14.5603146524
 20
13.773435229
 30
0.0
 10
14.5477363805
 20
13.7497269785
 30
0.0
 10
14.5354007312
 20
13.7251928025
 30
0.0
 10
14.5233159111
 20
13.6998489804
 30
0.0
 10
14.5114900115
 20
13.673712435
 30
0.0
 10
14.4999307491
 20
13.6468004447
 30
0.0
 10
14.4847391884
 20
13.6095515516
 30
0.0
 10
14.4739932571
 20
13.5810389142
 30
0.0
 10
14.4670735448
 20
13.5617407781
 30
0.0
  0
SPLINE
  5
2C1
100
AcDbEntity
  8
LAYER_FEATURE
100
AcDbSpline
 62
7
  6
CONTINUOUS
 70
0
 71
3
 72
98
 73
94
 74
0
 42
0.0000001
 43
0.0000001
 44
0.0000000001
 40
0.0
 40
0.0
 40
0.0
 40
0.0
 40
0.0173110259
 40
0.0340649761
 40
0.0502380844
 40
0.065809593
 40
0.0733646268
 40
0.0807632167
 40
0.0880038834
 40
0.09508545
 40
0.1020070522
 40
0.1087681588
 40
0.1153686107
 40
0.1218086276
 40
0.1280888541
 40
0.1342103856
 40
0.1401747948
 40
0.1459841872
 40
0.1516412202
 40
0.1571491578
 40
0.1625119135
 40
0.1677340822
 40
0.1777763993
 40
0.1826119596
 40
0.1873330691
 40
0.191948352
 40
0.1964673093
 40
0.2009002971
 40
0.2052584957
 40
0.2095538583
 40
0.2137990186
 40
0.218007188
 40
0.2221920176
 40
0.2263674435
 40
0.2305475189
 40
0.2347462394
 40
0.2389773707
 40
0.243254288
 40
0.247589837
 40
0.2519962088
 40
0.256484855
 40
0.2610664166
 40
0.2657506821
 40
0.2705465787
 40
0.2754621584
 40
0.2856781039
 40
0.2909927042
 40
0.2964510133
 40
0.3020571663
 40
0.3078146413
 40
0.3137263022
 40
0.3197944285
 40
0.3260207761
 40
0.3324065954
 40
0.3389526768
 40
0.345659388
 40
0.3525266868
 40
0.3595541702
 40
0.3667410842
 40
0.3740863503
 40
0.3815885971
 40
0.3892461598
 40
0.4050186878
 40
0.4213863434
 40
0.4383273345
 40
0.4558167561
 40
0.4738269285
 40
0.4923276963
 40
0.511286697
 40
0.5306696
 40
0.5504403251
 40
0.5705612424
 40
0.5909933647
 40
0.6116965288
 40
0.6326295671
 40
0.6537504737
 40
0.6750165664
 40
0.6963846466
 40
0.7178111559
 40
0.7392523301
 40
0.7606643532
 40
0.7820035122
 40
0.8032263503
 40
0.8242898223
 40
0.8451514518
 40
0.8657694923
 40
0.8861030895
 40
0.9061124497
 40
0.9257590141
 40
0.9450056411
 40
0.9638168249
 40
0.9821587815
 40
1.0
 40
1.0
 40
1.0
 40
1.0
 10
15.6100918056
 20
13.4843524768
 30
0.0
 10
15.6161997117
 20
13.5041176683
 30
0.0
 10
15.6287635268
 20
13.542846675
 30
0.0
 10
15.649009694
 20
13.5993765994
 30
0.0
 10
15.6703099003
 20
13.6532898485
 30
0.0
 10
15.6890802373
 20
13.6963529704
 30
0.0
 10
15.7046048091
 20
13.7293656416
 30
0.0
 10
15.7163619513
 20
13.7531425917
 30
0.0
 10
15.7283427203
 20
13.7761717285
 30
0.0
 10
15.7405399839
 20
13.7984392982
 30
0.0
 10
15.7529464109
 20
13.8199319207
 30
0.0
 10
15.7655546141
 20
13.8406366854
 30
0.0
 10
15.7783570083
 20
13.860541193
 30
0.0
 10
15.7913459907
 20
13.8796334826
 30
0.0
 10
15.8045138037
 20
13.897902109
 30
0.0
 10
15.8178525927
 20
13.9153361239
 30
0.0
 10
15.8313544817
 20
13.9319250375
 30
0.0
 10
15.8450114036
 20
13.947658909
 30
0.0
 10
15.858815363
 20
13.962528298
 30
0.0
 10
15.8727580261
 20
13.9765240874
 30
0.0
 10
15.886831808
 20
13.9896384084
 30
0.0
 10
15.9055143234
 20
14.0057260761
 30
0.0
 10
15.9246695266
 20
14.0202800069
 30
0.0
 10
15.9442646892
 20
14.033122867
 30
0.0
 10
15.9588660108
 20
14.0417178749
 30
0.0
 10
15.9735470216
 20
14.0493903901
 30
0.0
 10
15.9882993224
 20
14.0561356865
 30
0.0
 10
16.0031139711
 20
14.0619492049
 30
0.0
 10
16.0179820179
 20
14.0668269527
 30
0.0
 10
16.032894302
 20
14.0707655901
 30
0.0
 10
16.0478415727
 20
14.0737622249
 30
0.0
 10
16.0628144067
 20
14.0758147067
 30
0.0
 10
16.0778032856
 20
14.0769215228
 30
0.0
 10
16.0927986113
 20
14.077081775
 30
0.0
 10
16.1077907515
 20
14.0762954284
 30
0.0
 10
16.1227700899
 20
14.0745630077
 30
0.0
 10
16.1377270714
 20
14.0718858298
 30
0.0
 10
16.1526522565
 20
14.068265898
 30
0.0
 10
16.1675363012
 20
14.0637057496
 30
0.0
 10
16.182370052
 20
14.0582086759
 30
0.0
 10
16.1971444524
 20
14.0517784135
 30
0.0
 10
16.2118506228
 20
14.0444192664
 30
0.0
 10
16.2264797249
 20
14.036136165
 30
0.0
 10
16.2410233987
 20
14.0269341596
 30
0.0
 10
16.2605380859
 20
14.0132734231
 30
0.0
 10
16.2795946617
 20
13.9979252618
 30
0.0
 10
16.2981696456
 20
13.9810639637
 30
0.0
 10
16.3121579249
 20
13.967365415
 30
0.0
 10
16.326009677
 20
13.9527909266
 30
0.0
 10
16.3397173316
 20
13.9373487204
 30
0.0
 10
16.3532725884
 20
13.9210482239
 30
0.0
 10
16.3666675118
 20
13.9038992208
 30
0.0
 10
16.379894093
 20
13.8859119864
 30
0.0
 10
16.3929444915
 20
13.8670973254
 30
0.0
 10
16.4058109419
 20
13.8474665294
 30
0.0
 10
16.4184857284
 20
13.8270313533
 30
0.0
 10
16.4309613258
 20
13.8058040822
 30
0.0
 10
16.4432302334
 20
13.7837974367
 30
0.0
 10
16.4552851166
 20
13.7610246261
 30
0.0
 10
16.4671187524
 20
13.7374993473
 30
0.0
 10
16.4787240716
 20
13.7132356478
 30
0.0
 10
16.4940345905
 20
13.679587875
 30
0.0
 10
16.5125267246
 20
13.6357582199
 30
0.0
 10
16.5334838858
 20
13.5809651092
 30
0.0
 10
16.5533707488
 20
13.5235989599
 30
0.0
 10
16.5721393999
 20
13.4637977706
 30
0.0
 10
16.5897447335
 20
13.4017047413
 30
0.0
 10
16.6061443496
 20
13.3374689192
 30
0.0
 10
16.6212987274
 20
13.2712445329
 30
0.0
 10
16.6351713198
 20
13.2031906856
 30
0.0
 10
16.6477286517
 20
13.1334709415
 30
0.0
 10
16.658940425
 20
13.0622529318
 30
0.0
 10
16.6687795808
 20
12.989707937
 30
0.0
 10
16.6772223658
 20
12.9160104638
 30
0.0
 10
16.684248391
 20
12.8413378203
 30
0.0
 10
16.6898406882
 20
12.7658696854
 30
0.0
 10
16.6939857608
 20
12.6897876723
 30
0.0
 10
16.6966736007
 20
12.6132748837
 30
0.0
 10
16.6978977159
 20
12.5365154672
 30
0.0
 10
16.697655143
 20
12.4596941695
 30
0.0
 10
16.6959464713
 20
12.3829958877
 30
0.0
 10
16.6927758318
 20
12.3066052197
 30
0.0
 10
16.6881508811
 20
12.230706017
 30
0.0
 10
16.6820827838
 20
12.155480939
 30
0.0
 10
16.6745861869
 20
12.0811110081
 30
0.0
 10
16.6656791983
 20
12.0077751672
 30
0.0
 10
16.655383324
 20
11.9356498441
 30
0.0
 10
16.6437234193
 20
11.8649085299
 30
0.0
 10
16.6307276145
 20
11.7957213334
 30
0.0
 10
16.6164272873
 20
11.7282546188
 30
0.0
 10
16.6008568819
 20
11.6626704032
 30
0.0
 10
16.584054156
 20
11.5991268041
 30
0.0
 10
16.5718822107
 20
11.5576280579
 30
0.0
 10
16.565587235
 20
11.537257509
 30
0.0
  0
SPLINE
  5
2C2
100
AcDbEntity
  8
LAYER_FEATURE
100
AcDbSpline
 62
7
  6
CONTINUOUS
 70
0
 71
3
 72
39
 73
35
 74
0
 42
0.0000001
 43
0.0000001
 44
0.0000000001
 40
0.0
 40
0.0
 40
0.0
 40
0.0
 40
0.0443813067
 40
0.0879669132
 40
0.1307335
 40
0.1726618866
 40
0.2137331556
 40
0.2539301966
 40
0.2932376985
 40
0.3316421098
 40
0.369131909
 40
0.4056977074
 40
0.4413324012
 40
0.4760313905
 40
0.5097927922
 40
0.5426176374
 40
0.5745101304
 40
0.6054779621
 40
0.6355325877
 40
0.6646895438
 40
0.692968828
 40
0.7203952814
 40
0.7469989433
 40
0.7728154398
 40
0.7978863773
 40
0.8222596396
 40
0.8459896209
 40
0.8691373705
 40
0.8917705686
 40
0.9139632732
 40
0.9357954514
 40
0.9573522573
 40
0.9787230195
 40
1.0
 40
1.0
 40
1.0
 40
1.0
 10
15.6012049439
 20
13.5791971259
 30
0.0
 10
15.6050713039
 20
13.5917086714
 30
0.0
 10
15.6129350517
 20
13.6164461138
 30
0.0
 10
15.6252402823
 20
13.6530074613
 30
0.0
 10
15.6379409167
 20
13.688666176
 30
0.0
 10
15.6510267322
 20
13.7233937354
 30
0.0
 10
15.6644875082
 20
13.757162963
 30
0.0
 10
15.6783125816
 20
13.7899471558
 30
0.0
 10
15.6924910412
 20
13.8217204594
 30
0.0
 10
15.7070117352
 20
13.8524578204
 30
0.0
 10
15.7218632087
 20
13.8821350175
 30
0.0
 10
15.7370337705
 20
13.9107286762
 30
0.0
 10
15.7525115109
 20
13.9382162698
 30
0.0
 10
15.7682842864
 20
13.9645761568
 30
0.0
 10
15.7843397238
 20
13.9897876061
 30
0.0
 10
15.8006652703
 20
14.0138307823
 30
0.0
 10
15.8172482069
 20
14.0366867571
 30
0.0
 10
15.8340756137
 20
14.0583375583
 30
0.0
 10
15.8511344263
 20
14.0787661483
 30
0.0
 10
15.8684114598
 20
14.0979564093
 30
0.0
 10
15.8858933964
 20
14.1158931694
 30
0.0
 10
15.9035667814
 20
14.1325622186
 30
0.0
 10
15.9214180683
 20
14.1479502563
 30
0.0
 10
15.9394336163
 20
14.1620448761
 30
0.0
 10
15.9575996361
 20
14.1748346154
 30
0.0
 10
15.9759022094
 20
14.1863089035
 30
0.0
 10
15.9943272661
 20
14.1964580279
 30
0.0
 10
16.0128605253
 20
14.2052731755
 30
0.0
 10
16.0314874254
 20
14.2127464954
 30
0.0
 10
16.0501931541
 20
14.218871078
 30
0.0
 10
16.0689624469
 20
14.2236410241
 30
0.0
 10
16.0877801287
 20
14.2270516275
 30
0.0
 10
16.1066290696
 20
14.2290994331
 30
0.0
 10
16.1192175821
 20
14.2295549868
 30
0.0
 10
16.1254956522
 20
14.2295549919
 30
0.0
  0
SPLINE
  5
2C3
100
AcDbEntity
  8
LAYER_FEATURE
100
AcDbSpline
 62
7
  6
CONTINUOUS
 70
0
 71
3
 72
67
 73
63
 74
0
 42
0.0000001
 43
0.0000001
 44
0.0000000001
 40
0.0
 40
0.0
 40
0.0
 40
0.0
 40
0.0163581013
 40
0.0330510694
 40
0.0500642491
 40
0.0673826926
 40
0.0849905208
 40
0.1028713409
 40
0.1210081566
 40
0.1393834611
 40
0.15797927
 40
0.1767771682
 40
0.1957583526
 40
0.2149036734
 40
0.2536076561
 40
0.292731491
 40
0.3321134768
 40
0.371590054
 40
0.4109969877
 40
0.45017054
 40
0.4889486503
 40
0.5081400228
 40
0.5271731428
 40
0.546028763
 40
0.5646879707
 40
0.5831322282
 40
0.601343416
 40
0.6193038759
 40
0.6369964566
 40
0.65440456
 40
0.6715121917
 40
0.6883040129
 40
0.7047653969
 40
0.720882489
 40
0.7366422729
 40
0.7520326412
 40
0.7670424724
 40
0.7816617173
 40
0.7958814943
 40
0.8096941963
 40
0.8230936114
 40
0.8360750592
 40
0.8486355463
 40
0.8607739405
 40
0.872491169
 40
0.8837904436
 40
0.8946775128
 40
0.905160943
 40
0.9152524249
 40
0.9249671014
 40
0.9343239024
 40
0.9433458667
 40
0.9520604213
 40
0.9604995757
 40
0.9686999787
 40
0.9767027777
 40
0.9806449746
 40
0.9845550535
 40
0.9884391969
 40
0.9923037475
 40
0.9961551669
 40
1.0
 40
1.0
 40
1.0
 40
1.0
 10
14.3495904219
 20
13.5791971259
 30
0.0
 10
14.3446815286
 20
13.5633119413
 30
0.0
 10
14.3350918505
 20
13.5311139377
 30
0.0
 10
14.3215171026
 20
13.4820697112
 30
0.0
 10
14.3086188714
 20
13.431834796
 30
0.0
 10
14.2964130447
 20
13.3804711443
 30
0.0
 10
14.2849145852
 20
13.3280414542
 30
0.0
 10
14.2741376049
 20
13.2746100361
 30
0.0
 10
14.2640953364
 20
13.2202423234
 30
0.0
 10
14.254800109
 20
13.1650049455
 30
0.0
 10
14.2462633329
 20
13.1089655829
 30
0.0
 10
14.2384955023
 20
13.0521929544
 30
0.0
 10
14.2315060995
 20
12.9947565094
 30
0.0
 10
14.2232068006
 20
12.9171059707
 30
0.0
 10
14.2148532469
 20
12.8188825474
 30
0.0
 10
14.2080832159
 20
12.6999281662
 30
0.0
 10
14.2045651966
 20
12.5800473695
 30
0.0
 10
14.2043164883
 20
12.4598277748
 30
0.0
 10
14.207338316
 20
12.33985756
 30
0.0
 10
14.2136158255
 20
12.2207247806
 30
0.0
 10
14.2215612981
 20
12.1222943488
 30
0.0
 10
14.2295370632
 20
12.0444340764
 30
0.0
 10
14.236288077
 20
11.9868097927
 30
0.0
 10
14.2438202298
 20
11.9298280066
 30
0.0
 10
14.2521243276
 20
11.873558425
 30
0.0
 10
14.2611901612
 20
11.81807005
 30
0.0
 10
14.2710066041
 20
11.7634308745
 30
0.0
 10
14.2815616015
 20
11.7097078545
 30
0.0
 10
14.2928421958
 20
11.6569668119
 30
0.0
 10
14.3048345406
 20
11.6052723575
 30
0.0
 10
14.3175239188
 20
11.5546878098
 30
0.0
 10
14.3308947615
 20
11.5052751165
 30
0.0
 10
14.3449306685
 20
11.4570947771
 30
0.0
 10
14.3596144306
 20
11.410205767
 30
0.0
 10
14.3749280493
 20
11.3646654608
 30
0.0
 10
14.3908527631
 20
11.3205295606
 30
0.0
 10
14.4073690762
 20
11.2778520278
 30
0.0
 10
14.4244567855
 20
11.236685015
 30
0.0
 10
14.442095012
 20
11.197078801
 30
0.0
 10
14.4602622329
 20
11.1590817282
 30
0.0
 10
14.4789363167
 20
11.1227401423
 30
0.0
 10
14.4980945633
 20
11.0880983359
 30
0.0
 10
14.5177137392
 20
11.0551984936
 30
0.0
 10
14.5377701282
 20
11.0240806498
 30
0.0
 10
14.5582395788
 20
10.9947826528
 30
0.0
 10
14.5790975542
 20
10.9673401378
 30
0.0
 10
14.6003191846
 20
10.9417865123
 30
0.0
 10
14.6218793165
 20
10.9181529584
 30
0.0
 10
14.6437525551
 20
10.8964684532
 30
0.0
 10
14.6659132927
 20
10.8767598074
 30
0.0
 10
14.6883356921
 20
10.8590517256
 30
0.0
 10
14.7109936938
 20
10.8433668766
 30
0.0
 10
14.7338607483
 20
10.8297259878
 30
0.0
 10
14.7569102355
 20
10.8181477735
 30
0.0
 10
14.7801131591
 20
10.8086492412
 30
0.0
 10
14.7996543378
 20
10.8024473987
 30
0.0
 10
14.8152985649
 20
10.798562986
 30
0.0
 10
14.8269929356
 20
10.7961894667
 30
0.0
 10
14.838701948
 20
10.794342663
 30
0.0
 10
14.8504222014
 20
10.7930230173
 30
0.0
 10
14.8621496318
 20
10.7922310576
 30
0.0
 10
14.8699732418
 20
10.7920550064
 30
0.0
 10
14.8738811302
 20
10.7920550025
 30
0.0
  0
SPLINE
  5
2C4
100
AcDbEntity
  8
LAYER_FEATURE
100
AcDbSpline
 62
7
  6
CONTINUOUS
 70
0
 71
3
 72
39
 73
35
 74
0
 42
0.0000001
 43
0.0000001
 44
0.0000000001
 40
0.0
 40
0.0
 40
0.0
 40
0.0
 40
0.0461969325
 40
0.0914342792
 40
0.135681175
 40
0.178911444
 40
0.2211000661
 40
0.2622250994
 40
0.3022674372
 40
0.3412110908
 40
0.379043502
 40
0.4157558344
 40
0.4513433549
 40
0.4858058203
 40
0.519147914
 40
0.5513797456
 40
0.5825174129
 40
0.6125836233
 40
0.6416083359
 40
0.6696294514
 40
0.6966935211
 40
0.7228564419
 40
0.748184058
 40
0.7727525979
 40
0.7966488771
 40
0.8199701515
 40
0.8428235201
 40
0.8653247774
 40
0.8875967121
 40
0.9097668951
 40
0.9319650809
 40
0.9543204189
 40
0.9769587192
 40
1.0
 40
1.0
 40
1.0
 40
1.0
 10
14.4337895474
 20
13.4843524768
 30
0.0
 10
14.4378417185
 20
13.4974653073
 30
0.0
 10
14.4461030406
 20
13.5233448892
 30
0.0
 10
14.4591097808
 20
13.5615010495
 30
0.0
 10
14.4725906968
 20
13.5985560885
 30
0.0
 10
14.4865314489
 20
13.634470857
 30
0.0
 10
14.5009175858
 20
13.6692080089
 30
0.0
 10
14.5157340156
 20
13.7027311519
 30
0.0
 10
14.5309652624
 20
13.7350052876
 30
0.0
 10
14.5465954359
 20
13.7659967165
 30
0.0
 10
14.562608252
 20
13.7956730931
 30
0.0
 10
14.5789870729
 20
13.82400346
 30
0.0
 10
14.5957149026
 20
13.850958291
 30
0.0
 10
14.6127744321
 20
13.8765095117
 30
0.0
 10
14.630148072
 20
13.9006305102
 30
0.0
 10
14.6478179812
 20
13.9232961511
 30
0.0
 10
14.6657660971
 20
13.9444827904
 30
0.0
 10
14.6839741431
 20
13.9641682948
 30
0.0
 10
14.7024236778
 20
13.9823320103
 30
0.0
 10
14.721096103
 20
13.9989547385
 30
0.0
 10
14.7399726713
 20
14.0140187021
 30
0.0
 10
14.7590344504
 20
14.0275075317
 30
0.0
 10
14.7782622783
 20
14.0394062358
 30
0.0
 10
14.7976366973
 20
14.0497011579
 30
0.0
 10
14.8171378397
 20
14.0583799964
 30
0.0
 10
14.836745307
 20
14.0654318706
 30
0.0
 10
14.8564380432
 20
14.070847509
 30
0.0
 10
14.8761942981
 20
14.0746194264
 30
0.0
 10
14.8959916499
 20
14.0767421733
 30
0.0
 10
14.9158072003
 20
14.0772125621
 30
0.0
 10
14.9356176734
 20
14.0760299037
 30
0.0
 10
14.955400335
 20
14.0731958769
 30
0.0
 10
14.9751310479
 20
14.0687151332
 30
0.0
 10
14.9881033588
 20
14.0646754543
 30
0.0
 10
14.9945586514
 20
14.0623977543
 30
0.0
  0
SPLINE
  5
2C5
100
AcDbEntity
  8
LAYER_FEATURE
100
AcDbSpline
 62
7
  6
CONTINUOUS
 70
0
 71
3
 72
73
 73
69
 74
0
 42
0.0000001
 43
0.0000001
 44
0.0000000001
 40
0.0
 40
0.0
 40
0.0
 40
0.0
 40
0.0168480366
 40
0.034060606
 40
0.0516207593
 40
0.0695110112
 40
0.0877128526
 40
0.1062071181
 40
0.1249739315
 40
0.143992808
 40
0.1632427007
 40
0.1827020598
 40
0.2023488866
 40
0.2221607862
 40
0.2621874419
 40
0.3025980288
 40
0.3432042638
 40
0.3838162853
 40
0.4242441842
 40
0.4642995368
 40
0.4841299832
 40
0.5037981075
 40
0.5232814703
 40
0.5425580219
 40
0.5616061548
 40
0.5804047579
 40
0.5989332726
 40
0.617171752
 40
0.6351009212
 40
0.6527022416
 40
0.6699579798
 40
0.6868512802
 40
0.7033662439
 40
0.719488015
 40
0.7352028739
 40
0.7504983418
 40
0.7653632966
 40
0.7797881034
 40
0.7937647603
 40
0.8072870658
 40
0.8203508085
 40
0.8329539852
 40
0.845097049
 40
0.8567831941
 40
0.8680186767
 40
0.8788131761
 40
0.8891801924
 40
0.8991374706
 40
0.9087074358
 40
0.9133562617
 40
0.9179190344
 40
0.9268023759
 40
0.9353975088
 40
0.9437487192
 40
0.9478491874
 40
0.9519077185
 40
0.9559312451
 40
0.959926935
 40
0.9639021412
 40
0.9678643625
 40
0.9718211873
 40
0.9757802436
 40
0.979749143
 40
0.9837354274
 40
0.9877465163
 40
0.9917896607
 40
0.9958718934
 40
1.0
 40
1.0
 40
1.0
 40
1.0
 10
14.4337895474
 20
13.4843524768
 30
0.0
 10
14.4290432293
 20
13.4689933857
 30
0.0
 10
14.4197851706
 20
13.4378376868
 30
0.0
 10
14.4067283439
 20
13.3903420647
 30
0.0
 10
14.3943666161
 20
13.3416341206
 30
0.0
 10
14.3827171138
 20
13.2917813329
 30
0.0
 10
14.3717958971
 20
13.2408521655
 30
0.0
 10
14.3616180395
 20
13.1889168362
 30
0.0
 10
14.3521975945
 20
13.1360468624
 30
0.0
 10
14.3435475678
 20
13.0823150962
 30
0.0
 10
14.3356799008
 20
13.0277955618
 30
0.0
 10
14.3286054739
 20
12.9725634293
 30
0.0
 10
14.3223339984
 20
12.9166946698
 30
0.0
 10
14.3150298414
 20
12.8412029363
 30
0.0
 10
14.3079799375
 20
12.7457937368
 30
0.0
 10
14.3028611989
 20
12.6303963298
 30
0.0
 10
14.3010837292
 20
12.51434022
 30
0.0
 10
14.3026573343
 20
12.3982646545
 30
0.0
 10
14.3075733475
 20
12.2828089864
 30
0.0
 10
14.3144551334
 20
12.1873257935
 30
0.0
 10
14.3216258726
 20
12.1117555852
 30
0.0
 10
14.3277989909
 20
12.0558145883
 30
0.0
 10
14.3347761728
 20
12.0005008894
 30
0.0
 10
14.3425478418
 20
11.9458905729
 30
0.0
 10
14.3511032509
 20
11.8920589348
 30
0.0
 10
14.3604305915
 20
11.8390801418
 30
0.0
 10
14.3705169847
 20
11.7870271895
 30
0.0
 10
14.381348505
 20
11.7359717837
 30
0.0
 10
14.3929102012
 20
11.6859842454
 30
0.0
 10
14.4051861171
 20
11.6371334108
 30
0.0
 10
14.4181593157
 20
11.5894865356
 30
0.0
 10
14.4318119034
 20
11.5431091999
 30
0.0
 10
14.4461250579
 20
11.4980652159
 30
0.0
 10
14.4610790564
 20
11.4544165375
 30
0.0
 10
14.476653307
 20
11.4122231726
 30
0.0
 10
14.4928263825
 20
11.3715430972
 30
0.0
 10
14.509576055
 20
11.332432172
 30
0.0
 10
14.5268793358
 20
11.294944063
 30
0.0
 10
14.5447125184
 20
11.2591301676
 30
0.0
 10
14.5630512254
 20
11.225039544
 30
0.0
 10
14.581870459
 20
11.1927188465
 30
0.0
 10
14.6011446559
 20
11.1622122689
 30
0.0
 10
14.62084775
 20
11.1335614958
 30
0.0
 10
14.6409532282
 20
11.1068056742
 30
0.0
 10
14.6614342262
 20
11.0819813756
 30
0.0
 10
14.6822634898
 20
11.0591226765
 30
0.0
 10
14.7034137905
 20
11.0382609254
 30
0.0
 10
14.7248566795
 20
11.0194257285
 30
0.0
 10
14.7431210087
 20
11.0053058289
 30
0.0
 10
14.7578450078
 20
10.9950846696
 30
0.0
 10
14.7723682214
 20
10.9857426439
 30
0.0
 10
14.7906659948
 20
10.9753309056
 30
0.0
 10
14.8129978671
 20
10.9648448004
 30
0.0
 10
14.8318492297
 20
10.9578441862
 30
0.0
 10
14.8469524108
 20
10.9533495158
 30
0.0
 10
14.8582351736
 20
10.9505361846
 30
0.0
 10
14.869536758
 20
10.9482618262
 30
0.0
 10
14.8808533646
 20
10.9465270964
 30
0.0
 10
14.8921809332
 20
10.9453328272
 30
0.0
 10
14.9035154237
 20
10.944679352
 30
0.0
 10
14.9148527875
 20
10.9445670485
 30
0.0
 10
14.9261889645
 20
10.9449958651
 30
0.0
 10
14.9375198969
 20
10.9459656957
 30
0.0
 10
14.9488415424
 20
10.9474761339
 30
0.0
 10
14.9601498571
 20
10.9495265688
 30
0.0
 10
14.971440891
 20
10.9521162786
 30
0.0
 10
14.9827104158
 20
10.9552440918
 30
0.0
 10
14.9901615558
 20
10.957672697
 30
0.0
 10
14.9938794128
 20
10.9589735779
 30
0.0
  0
SPLINE
  5
2C6
100
AcDbEntity
  8
LAYER_FEATURE
100
AcDbSpline
 62
7
  6
CONTINUOUS
 70
0
 71
3
 72
15
 73
11
 74
0
 42
0.0000001
 43
0.0000001
 44
0.0000000001
 40
0.0
 40
0.0
 40
0.0
 40
0.0
 40
0.1220694044
 40
0.2497303719
 40
0.3806665067
 40
0.5124401608
 40
0.6425916514
 40
0.7687139887
 40
0.8885304367
 40
1.0
 40
1.0
 40
1.0
 40
1.0
 10
14.4027597932
 20
13.3475808675
 30
0.0
 10
14.402576937
 20
13.3467136532
 30
0.0
 10
14.4022676755
 20
13.344925394
 30
0.0
 10
14.4019704006
 20
13.3421759998
 30
0.0
 10
14.4018332546
 20
13.3393434048
 30
0.0
 10
14.4018593798
 20
13.3364895965
 30
0.0
 10
14.4020481693
 20
13.3336768979
 30
0.0
 10
14.4023954044
 20
13.330966619
 30
0.0
 10
14.4028932036
 20
13.3284179411
 30
0.0
 10
14.4033364094
 20
13.3267959574
 30
0.0
 10
14.4035850917
 20
13.3260257884
 30
0.0
  0
SPLINE
  5
2C7
100
AcDbEntity
  8
LAYER_FEATURE
100
AcDbSpline
 62
7
  6
CONTINUOUS
 70
0
 71
3
 72
15
 73
11
 74
0
 42
0.0000001
 43
0.0000001
 44
0.0000000001
 40
0.0
 40
0.0
 40
0.0
 40
0.0
 40
0.13320316
 40
0.2658649282
 40
0.3970519656
 40
0.5258431329
 40
0.6513502469
 40
0.7727275145
 40
0.8891828953
 40
1.0
 40
1.0
 40
1.0
 40
1.0
 10
14.4257127204
 20
13.2204274632
 30
0.0
 10
14.4257557278
 20
13.2232452459
 30
0.0
 10
14.4257414528
 20
13.2288713984
 30
0.0
 10
14.4254212316
 20
13.237267225
 30
0.0
 10
14.4248049334
 20
13.2455530956
 30
0.0
 10
14.423897712
 20
13.2536599625
 30
0.0
 10
14.4227072352
 20
13.2615203988
 30
0.0
 10
14.4212434715
 20
13.2690691701
 30
0.0
 10
14.4195188175
 20
13.2762434355
 30
0.0
 10
14.4181685317
 20
13.2808608757
 30
0.0
 10
14.417448132
 20
13.2830919533
 30
0.0
  0
SPLINE
  5
2C8
100
AcDbEntity
  8
LAYER_FEATURE
100
AcDbSpline
 62
7
  6
CONTINUOUS
 70
0
 71
3
 72
15
 73
11
 74
0
 42
0.0000001
 43
0.0000001
 44
0.0000000001
 40
0.0
 40
0.0
 40
0.0
 40
0.0
 40
0.1318455436
 40
0.2666134713
 40
0.4018042628
 40
0.5348903751
 40
0.6634183956
 40
0.7850886497
 40
0.8978446988
 40
1.0
 40
1.0
 40
1.0
 40
1.0
 10
14.3539049874
 20
13.1079959453
 30
0.0
 10
14.3537849817
 20
13.1070713832
 30
0.0
 10
14.3536020536
 20
13.1051935857
 30
0.0
 10
14.3534933568
 20
13.1023528993
 30
0.0
 10
14.3535480448
 20
13.0995017792
 30
0.0
 10
14.3537649361
 20
13.0967025997
 30
0.0
 10
14.3541391309
 20
13.0940164258
 30
0.0
 10
14.3546622918
 20
13.0915014888
 30
0.0
 10
14.3553225952
 20
13.0892123965
 30
0.0
 10
14.3558742127
 20
13.0877929629
 30
0.0
 10
14.3561753408
 20
13.0871363508
 30
0.0
  0
SPLINE
  5
2C9
100
AcDbEntity
  8
LAYER_FEATURE
100
AcDbSpline
 62
7
  6
CONTINUOUS
 70
0
 71
3
 72
15
 73
11
 74
0
 42
0.0000001
 43
0.0000001
 44
0.0000000001
 40
0.0
 40
0.0
 40
0.0
 40
0.0
 40
0.1397663353
 40
0.2770697998
 40
0.4109652612
 40
0.5405453024
 40
0.6649637233
 40
0.7834478568
 40
0.8953148539
 40
1.0
 40
1.0
 40
1.0
 40
1.0
 10
14.3851075484
 20
12.9930093826
 30
0.0
 10
14.3849603628
 20
12.9957846058
 30
0.0
 10
14.3845698976
 20
13.0012814766
 30
0.0
 10
14.3836888973
 20
13.0094073789
 30
0.0
 10
14.3825238466
 20
13.0172930138
 30
0.0
 10
14.3810845099
 20
13.0248727856
 30
0.0
 10
14.379383017
 20
13.032083817
 30
0.0
 10
14.3774335471
 20
13.0388665763
 30
0.0
 10
14.3752525502
 20
13.0451648011
 30
0.0
 10
14.3735987583
 20
13.049144458
 30
0.0
 10
14.372731033
 20
13.0510365396
 30
0.0
  0
SPLINE
  5
2CA
100
AcDbEntity
  8
LAYER_FEATURE
100
AcDbSpline
 62
7
  6
CONTINUOUS
 70
0
 71
3
 72
20
 73
16
 74
0
 42
0.0000001
 43
0.0000001
 44
0.0000000001
 40
0.0
 40
0.0
 40
0.0
 40
0.0
 40
0.0447086573
 40
0.0905696199
 40
0.1380052933
 40
0.1873969508
 40
0.239066838
 40
0.2932764175
 40
0.3502327494
 40
0.4100942106
 40
0.4729733964
 40
0.5389451839
 40
0.6802615239
 40
0.834072311
 40
1.0
 40
1.0
 40
1.0
 40
1.0
 10
14.3542604117
 20
12.9087330925
 30
0.0
 10
14.3548131308
 20
12.9088191071
 30
0.0
 10
14.3559235914
 20
12.9090588055
 30
0.0
 10
14.3575637293
 20
12.9096085137
 30
0.0
 10
14.3591909454
 20
12.9103502595
 30
0.0
 10
14.3608015319
 20
12.911281759
 30
0.0
 10
14.3623924657
 20
12.912400646
 30
0.0
 10
14.3639606531
 20
12.9137043283
 30
0.0
 10
14.3655031338
 20
12.9151898908
 30
0.0
 10
14.367016881
 20
12.9168542054
 30
0.0
 10
14.3684990616
 20
12.9186937559
 30
0.0
 10
14.3704744718
 20
12.9214383569
 30
0.0
 10
14.3728333745
 20
12.9252996956
 30
0.0
 10
14.3754291265
 20
12.9304566852
 30
0.0
 10
14.3769745429
 20
12.9341501897
 30
0.0
 10
14.3777192999
 20
12.9360880038
 30
0.0
  0
SPLINE
  5
2CB
100
AcDbEntity
  8
LAYER_FEATURE
100
AcDbSpline
 62
7
  6
CONTINUOUS
 70
0
 71
3
 72
20
 73
16
 74
0
 42
0.0000001
 43
0.0000001
 44
0.0000000001
 40
0.0
 40
0.0
 40
0.0
 40
0.0
 40
0.0369294094
 40
0.075759187
 40
0.1172997865
 40
0.1621816957
 40
0.2108346212
 40
0.2635224224
 40
0.3203736826
 40
0.3814084934
 40
0.4465609266
 40
0.5156917202
 40
0.6650241089
 40
0.8273418663
 40
1.0
 40
1.0
 40
1.0
 40
1.0
 10
14.3325811536
 20
12.9053593476
 30
0.0
 10
14.3323920964
 20
12.9053299264
 30
0.0
 10
14.3320092943
 20
12.9052321749
 30
0.0
 10
14.3314531604
 20
12.9049807919
 30
0.0
 10
14.3309079229
 20
12.904624756
 30
0.0
 10
14.3303763044
 20
12.9041669903
 30
0.0
 10
14.3298604215
 20
12.9036103451
 30
0.0
 10
14.3293626828
 20
12.902957858
 30
0.0
 10
14.3288854477
 20
12.9022130391
 30
0.0
 10
14.3284311278
 20
12.9013798436
 30
0.0
 10
14.3280021115
 20
12.900462702
 30
0.0
 10
14.3274527603
 20
12.8990991883
 30
0.0
 10
14.3268526365
 20
12.8972167758
 30
0.0
 10
14.3262825873
 20
12.8947710783
 30
0.0
 10
14.3260063561
 20
12.8930561576
 30
0.0
 10
14.3258912119
 20
12.8921690506
 30
0.0
  0
SPLINE
  5
2CC
100
AcDbEntity
  8
LAYER_FEATURE
100
AcDbSpline
 62
7
  6
CONTINUOUS
 70
0
 71
3
 72
17
 73
13
 74
0
 42
0.0000001
 43
0.0000001
 44
0.0000000001
 40
0.0
 40
0.0
 40
0.0
 40
0.0
 40
0.1421763921
 40
0.2843219925
 40
0.4237974883
 40
0.5580351768
 40
0.6846516836
 40
0.8015428887
 40
0.8558053938
 40
0.9070402967
 40
0.9551349985
 40
1.0
 40
1.0
 40
1.0
 40
1.0
 10
14.3219935562
 20
12.8502656782
 30
0.0
 10
14.3219385169
 20
12.8493124349
 30
0.0
 10
14.32188469
 20
12.8474024706
 30
0.0
 10
14.3219679466
 20
12.8445560395
 30
0.0
 10
14.3222127725
 20
12.8417722736
 30
0.0
 10
14.3226136995
 20
12.8391118689
 30
0.0
 10
14.3231617602
 20
12.8366327974
 30
0.0
 10
14.323744509
 20
12.8347169207
 30
0.0
 10
14.3242808835
 20
12.8333224382
 30
0.0
 10
14.3247015355
 20
12.8323800013
 30
0.0
 10
14.3251481891
 20
12.8315201134
 30
0.0
 10
14.3254730562
 20
12.8309862171
 30
0.0
 10
14.3256399808
 20
12.8307353765
 30
0.0
  0
SPLINE
  5
2CD
100
AcDbEntity
  8
LAYER_FEATURE
100
AcDbSpline
 62
7
  6
CONTINUOUS
 70
0
 71
3
 72
15
 73
11
 74
0
 42
0.0000001
 43
0.0000001
 44
0.0000000001
 40
0.0
 40
0.0
 40
0.0
 40
0.0
 40
0.1469077605
 40
0.2891791648
 40
0.4258852183
 40
0.5561693486
 40
0.6792767829
 40
0.79457429
 40
0.9015782912
 40
1.0
 40
1.0
 40
1.0
 40
1.0
 10
14.3604976768
 20
12.7509397656
 30
0.0
 10
14.3601673825
 20
12.7535885836
 30
0.0
 10
14.3594179504
 20
12.758790913
 30
0.0
 10
14.3580031387
 20
12.7664010952
 30
0.0
 10
14.3563249676
 20
12.7736482577
 30
0.0
 10
14.3543974607
 20
12.7804723562
 30
0.0
 10
14.3522367583
 20
12.7868171248
 30
0.0
 10
14.3498605741
 20
12.7926307898
 30
0.0
 10
14.3472887033
 20
12.7978655183
 30
0.0
 10
14.3453760346
 20
12.8010776516
 30
0.0
 10
14.3443852885
 20
12.8025664637
 30
0.0
  0
SPLINE
  5
2CE
100
AcDbEntity
  8
LAYER_FEATURE
100
AcDbSpline
 62
7
  6
CONTINUOUS
 70
0
 71
3
 72
18
 73
14
 74
0
 42
0.0000001
 43
0.0000001
 44
0.0000000001
 40
0.0
 40
0.0
 40
0.0
 40
0.0
 40
0.0896773568
 40
0.1379408298
 40
0.1886656001
 40
0.2419569878
 40
0.2978834302
 40
0.3564838822
 40
0.417772435
 40
0.5483306974
 40
0.6892890624
 40
0.8400935566
 40
1.0
 40
1.0
 40
1.0
 40
1.0
 10
14.3358180907
 20
12.6541885656
 30
0.0
 10
14.336935791
 20
12.6548759381
 30
0.0
 10
14.3385579655
 20
12.65609668
 30
0.0
 10
14.340571192
 20
12.6579868062
 30
0.0
 10
14.3420906327
 20
12.6596189902
 30
0.0
 10
14.343578684
 20
12.6614268248
 30
0.0
 10
14.345032767
 20
12.6634069201
 30
0.0
 10
14.3464499308
 20
12.6655550818
 30
0.0
 10
14.3483259394
 20
12.6687042332
 30
0.0
 10
14.3505476909
 20
12.6730435599
 30
0.0
 10
14.3529685274
 20
12.678733578
 30
0.0
 10
14.3551782023
 20
12.6849658183
 30
0.0
 10
14.3564632819
 20
12.6893291206
 30
0.0
 10
14.3570707977
 20
12.6915886064
 30
0.0
  0
SPLINE
  5
2CF
100
AcDbEntity
  8
LAYER_FEATURE
100
AcDbSpline
 62
7
  6
CONTINUOUS
 70
0
 71
3
 72
18
 73
14
 74
0
 42
0.0000001
 43
0.0000001
 44
0.0000000001
 40
0.0
 40
0.0
 40
0.0
 40
0.0
 40
0.0790124208
 40
0.123618891
 40
0.1718752691
 40
0.2238599736
 40
0.2795614677
 40
0.3388963136
 40
0.4017224083
 40
0.5370156059
 40
0.683506907
 40
0.8387508091
 40
1.0
 40
1.0
 40
1.0
 40
1.0
 10
14.3146963278
 20
12.6411989302
 30
0.0
 10
14.3143051543
 20
12.6409583631
 30
0.0
 10
14.3137510805
 20
12.6404855973
 30
0.0
 10
14.3130982039
 20
12.6397292234
 30
0.0
 10
14.3126071496
 20
12.6390438114
 30
0.0
 10
14.3121377
 20
12.638267706
 30
0.0
 10
14.3116919556
 20
12.6374046091
 30
0.0
 10
14.31127233
 20
12.6364592781
 30
0.0
 10
14.3107374675
 20
12.6350611857
 30
0.0
 10
14.3101568111
 20
12.6331414215
 30
0.0
 10
14.3096113707
 20
12.6306585092
 30
0.0
 10
14.309213239
 20
12.627995374
 30
0.0
 10
14.3090539955
 20
12.6261615015
 30
0.0
 10
14.3089999728
 20
12.6252258661
 30
0.0
  0
SPLINE
  5
2D0
100
AcDbEntity
  8
LAYER_FEATURE
100
AcDbSpline
 62
7
  6
CONTINUOUS
 70
0
 71
3
 72
53
 73
49
 74
0
 42
0.0000001
 43
0.0000001
 44
0.0000000001
 40
0.0
 40
0.0
 40
0.0
 40
0.0
 40
0.0421389296
 40
0.0843188618
 40
0.1264456839
 40
0.1684249274
 40
0.2101629161
 40
0.2515668719
 40
0.292545328
 40
0.3330085032
 40
0.3728686899
 40
0.4120406613
 40
0.4504420826
 40
0.4879939485
 40
0.5246210553
 40
0.5602525115
 40
0.5948222824
 40
0.6282698016
 40
0.6605406709
 40
0.6762203896
 40
0.6915887853
 40
0.7066411831
 40
0.7213734513
 40
0.7357820612
 40
0.7498641361
 40
0.7636174671
 40
0.7770406014
 40
0.7901328767
 40
0.8028944744
 40
0.8153265202
 40
0.8274311201
 40
0.8392114592
 40
0.8506718979
 40
0.8618180322
 40
0.8726568274
 40
0.8831967017
 40
0.8934476204
 40
0.9131257236
 40
0.922586742
 40
0.9318162499
 40
0.9408333534
 40
0.9496591283
 40
0.9583165679
 40
0.9668304785
 40
0.9752273358
 40
0.9835350436
 40
0.9917826493
 40
1.0
 40
1.0
 40
1.0
 40
1.0
 10
14.3089999728
 20
12.6252258661
 30
0.0
 10
14.3082357066
 20
12.5986865
 30
0.0
 10
14.307240643
 20
12.545565036
 30
0.0
 10
14.3073421857
 20
12.4658907444
 30
0.0
 10
14.3090356601
 20
12.3863346683
 30
0.0
 10
14.3123166347
 20
12.3071069642
 30
0.0
 10
14.3171764123
 20
12.2284166136
 30
0.0
 10
14.3236021211
 20
12.1504711916
 30
0.0
 10
14.3315767452
 20
12.0734762737
 30
0.0
 10
14.3410791787
 20
11.9976349129
 30
0.0
 10
14.3520842775
 20
11.9231470826
 30
0.0
 10
14.3645629039
 20
11.8502091407
 30
0.0
 10
14.3784820371
 20
11.7790133042
 30
0.0
 10
14.393804863
 20
11.7097471405
 30
0.0
 10
14.4104908779
 20
11.6425930319
 30
0.0
 10
14.4284959683
 20
11.5777277507
 30
0.0
 10
14.447772632
 20
11.5153216991
 30
0.0
 10
14.4682699181
 20
11.4555394586
 30
0.0
 10
14.486493848
 20
11.4075883588
 30
0.0
 10
14.5016636554
 20
11.3706877235
 30
0.0
 10
14.513202614
 20
11.3440296905
 30
0.0
 10
14.5250043316
 20
11.318141562
 30
0.0
 10
14.5370611367
 20
11.2930403262
 30
0.0
 10
14.5493650857
 20
11.2687425277
 30
0.0
 10
14.561908062
 20
11.2452641366
 30
0.0
 10
14.574681869
 20
11.2226206187
 30
0.0
 10
14.5876781037
 20
11.2008268548
 30
0.0
 10
14.6008882418
 20
11.1798971679
 30
0.0
 10
14.6143036801
 20
11.1598453389
 30
0.0
 10
14.6279156132
 20
11.1406845217
 30
0.0
 10
14.6417151889
 20
11.1224273247
 30
0.0
 10
14.6556934472
 20
11.1050857601
 30
0.0
 10
14.6698412598
 20
11.0886712247
 30
0.0
 10
14.6841495697
 20
11.0731945175
 30
0.0
 10
14.6986088979
 20
11.0586660246
 30
0.0
 10
14.7132106857
 20
11.0450947103
 30
0.0
 10
14.7325900028
 20
11.0285164877
 30
0.0
 10
14.752481436
 20
11.0136042978
 30
0.0
 10
14.7728452415
 20
11.0005604865
 30
0.0
 10
14.7880138099
 20
10.9919017794
 30
0.0
 10
14.8032663741
 20
10.9842464961
 30
0.0
 10
14.8185933715
 20
10.9775999108
 30
0.0
 10
14.8339845576
 20
10.9719670026
 30
0.0
 10
14.8494297063
 20
10.9673521296
 30
0.0
 10
14.864918238
 20
10.9637588556
 30
0.0
 10
14.880439743
 20
10.9611900955
 30
0.0
 10
14.8959825052
 20
10.959648013
 30
0.0
 10
14.9063597768
 20
10.959304989
 30
0.0
 10
14.9115372621
 20
10.9593049956
 30
0.0
  0
SPLINE
  5
2D1
100
AcDbEntity
  8
LAYER_FEATURE
100
AcDbSpline
 62
7
  6
CONTINUOUS
 70
0
 71
3
 72
15
 73
11
 74
0
 42
0.0000001
 43
0.0000001
 44
0.0000000001
 40
0.0
 40
0.0
 40
0.0
 40
0.0
 40
0.1126204601
 40
0.233296856
 40
0.3599530997
 40
0.4902911285
 40
0.6218950407
 40
0.7523079002
 40
0.8791063589
 40
1.0
 40
1.0
 40
1.0
 40
1.0
 10
14.4670735448
 20
13.5617407781
 30
0.0
 10
14.4668317588
 20
13.5609583581
 30
0.0
 10
14.4664026759
 20
13.5593148974
 30
0.0
 10
14.4659260386
 20
13.556739369
 30
0.0
 10
14.4656013082
 20
13.5540105622
 30
0.0
 10
14.4654358586
 20
13.5511880871
 30
0.0
 10
14.4654333861
 20
13.5483334904
 30
0.0
 10
14.4655939655
 20
13.5455091094
 30
0.0
 10
14.4659139258
 20
13.5427767461
 30
0.0
 10
14.4662383571
 20
13.5410033838
 30
0.0
 10
14.4664287123
 20
13.5401451546
 30
0.0
  0
SPLINE
  5
2D2
100
AcDbEntity
  8
LAYER_FEATURE
100
AcDbSpline
 62
7
  6
CONTINUOUS
 70
0
 71
3
 72
15
 73
11
 74
0
 42
0.0000001
 43
0.0000001
 44
0.0000000001
 40
0.0
 40
0.0
 40
0.0
 40
0.0
 40
0.1270541201
 40
0.2553207885
 40
0.383896457
 40
0.511868149
 40
0.6383329274
 40
0.7624063719
 40
0.8832318236
 40
1.0
 40
1.0
 40
1.0
 40
1.0
 10
14.4810794253
 20
13.4262840242
 30
0.0
 10
14.4813139163
 20
13.4290586753
 30
0.0
 10
14.4816814308
 20
13.4346437251
 30
0.0
 10
14.4819317957
 20
13.4430552377
 30
0.0
 10
14.4818831239
 20
13.4514905526
 30
0.0
 10
14.4815357848
 20
13.4598793256
 30
0.0
 10
14.4808927324
 20
13.4681517181
 30
0.0
 10
14.4799593489
 20
13.4762389173
 30
0.0
 10
14.4787435553
 20
13.4840735028
 30
0.0
 10
14.4777320236
 20
13.4891834219
 30
0.0
 10
14.4771778793
 20
13.4916818186
 30
0.0
  0
SPLINE
  5
2D3
100
AcDbEntity
  8
LAYER_FEATURE
100
AcDbSpline
 62
7
  6
CONTINUOUS
 70
0
 71
3
 72
39
 73
35
 74
0
 42
0.0000001
 43
0.0000001
 44
0.0000000001
 40
0.0
 40
0.0
 40
0.0
 40
0.0
 40
0.0443812481
 40
0.0879669295
 40
0.1307335086
 40
0.172661876
 40
0.2137331571
 40
0.2539301992
 40
0.2932376968
 40
0.3316421073
 40
0.369131911
 40
0.4056977099
 40
0.4413323968
 40
0.4760313903
 40
0.5097927974
 40
0.5426176342
 40
0.5745101269
 40
0.6054779669
 40
0.6355325892
 40
0.664689538
 40
0.6929688298
 40
0.7203952869
 40
0.7469989387
 40
0.7728154376
 40
0.7978863828
 40
0.8222596394
 40
0.8459896168
 40
0.869137373
 40
0.8917705712
 40
0.9139632708
 40
0.935795451
 40
0.9573522592
 40
0.9787230199
 40
1.0
 40
1.0
 40
1.0
 40
1.0
 10
14.3495904219
 20
13.5791971259
 30
0.0
 10
14.3534567768
 20
13.5917086549
 30
0.0
 10
14.3613205284
 20
13.6164461012
 30
0.0
 10
14.3736257564
 20
13.6530074521
 30
0.0
 10
14.3863263941
 20
13.6886661806
 30
0.0
 10
14.3994122131
 20
13.723393734
 30
0.0
 10
14.4128729863
 20
13.7571629607
 30
0.0
 10
14.4266980571
 20
13.7899471576
 30
0.0
 10
14.4408765202
 20
13.8217204582
 30
0.0
 10
14.4553972163
 20
13.8524578179
 30
0.0
 10
14.470248685
 20
13.8821350188
 30
0.0
 10
14.4854192449
 20
13.910728678
 30
0.0
 10
14.5008969946
 20
13.9382162655
 30
0.0
 10
14.5166697651
 20
13.9645761561
 30
0.0
 10
14.5327251949
 20
13.9897876109
 30
0.0
 10
14.5490507528
 20
14.0138307783
 30
0.0
 10
14.5656336892
 20
14.0366867527
 30
0.0
 10
14.5824610859
 20
14.0583375636
 30
0.0
 10
14.5995199023
 20
14.0787661499
 30
0.0
 10
14.6167969458
 20
14.0979564002
 30
0.0
 10
14.6342788725
 20
14.1158931713
 30
0.0
 10
14.6519522517
 20
14.1325622278
 30
0.0
 10
14.6698035536
 20
14.1479502463
 30
0.0
 10
14.6878190973
 20
14.1620448706
 30
0.0
 10
14.7059851062
 20
14.1748346283
 30
0.0
 10
14.7242876888
 20
14.1863089013
 30
0.0
 10
14.7427127505
 20
14.1964580132
 30
0.0
 10
14.7612459991
 20
14.2052731845
 30
0.0
 10
14.7798729005
 20
14.2127465051
 30
0.0
 10
14.7985786369
 20
14.2188710607
 30
0.0
 10
14.8173479245
 20
14.2236410215
 30
0.0
 10
14.8361656045
 20
14.2270516472
 30
0.0
 10
14.8550145488
 20
14.2290994172
 30
0.0
 10
14.8676030602
 20
14.2295549894
 30
0.0
 10
14.8738811302
 20
14.2295549833
 30
0.0
  0
ENDSEC
  0
SECTION
  2
OBJECTS
  0
DICTIONARY
  5
C
100
AcDbDictionary
280
0
281
1
  3
ACAD_GROUP
350
D
  3
ACAD_MLINESTYLE
350
17
  3
ACAD_LAYOUT
350
1A
  3
ACAD_PLOTSETTINGS
350
19
  3
ACAD_PLOTSTYLENAME
350
E
  0
DICTIONARY
  5
D
102
{ACAD_REACTORS
330
C
102
}
100
AcDbDictionary
280
0
281
1
  0
ACDBDICTIONARYWDFLT
  5
E
102
{ACAD_REACTORS
330
C
102
}
100
AcDbDictionary
281
1
  3
Normal
350
F
100
AcDbDictionaryWithDefault
340
F
  0
DICTIONARY
  5
17
102
{ACAD_REACTORS
330
C
102
}
100
AcDbDictionary
280
0
281
1
  3
Standard
350
18
  0
DICTIONARY
  5
19
102
{ACAD_REACTORS
330
C
102
}
100
AcDbDictionary
281
1
  0
DICTIONARY
  5
1A
102
{ACAD_REACTORS
330
C
102
}
100
AcDbDictionary
281
1
  3
Model
350
2D4
  3
Layout1
350
2D5
  0
ACDBPLACEHOLDER
  5
F
102
{ACAD_REACTORS
330
E
102
}
  0
MLINESTYLE
  5
18
102
{ACAD_REACTORS
330
17
102
}
100
AcDbMlineStyle
  2
STANDARD
 70
0
  3

 62
256
 51
90.0
 52
90.0
 71
2
 49
0.5
 62
256
  6
BYLAYER
 49
-0.5
 62
256
  6
BYLAYER
  0
LAYOUT
  5
2D4
102
{ACAD_REACTORS
330
1A
102
}
100
AcDbPlotSettings
  1

  2
none_device
  4
ANSI_C_(22.00_x_17.00_Inches)
  6

 40
0.0
 41
0.0
 42
0.0
 43
0.0
 44
558.8
 45
431.8
 46
0.0
 47
0.0
 48
0.0
 49
0.0
140
0.0
141
0.0
142
1.0
143
1.0
 70
1024
 72
0
 73
0
 74
0
  7

 75
0
147
1.0
148
0.0
149
0.0
100
AcDbLayout
  1
Model
 70
0
 71
0
 10
0.0
 20
0.0
 11
22.0
 21
17.0
 12
0.0
 22
0.0
 32
0.0
 14
0.0
 24
0.0
 34
0.0
 15
0.0
 25
0.0
 35
0.0
146
0.0
 13
0.0
 23
0.0
 33
0.0
 16
1.0
 26
0.0
 36
0.0
 17
0.0
 27
1.0
 37
0.0
 76
0
330
222
345
0
346
0
  0
LAYOUT
  5
2D5
102
{ACAD_REACTORS
330
1A
102
}
100
AcDbPlotSettings
  1

  2
none_device
  4
ANSI_C_(22.00_x_17.00_Inches)
  6

 40
0.0
 41
0.0
 42
0.0
 43
0.0
 44
558.8
 45
431.8
 46
0.0
 47
0.0
 48
0.0
 49
0.0
140
0.0
141
0.0
142
1.0
143
1.0
 70
0
 72
0
 73
0
 74
0
  7

 75
0
147
1.0
148
0.0
149
0.0
100
AcDbLayout
  1
Layout1
 70
0
 71
1
 10
0.0
 20
0.0
 11
22.0
 21
17.0
 12
0.0
 22
0.0
 32
0.0
 14
0.0
 24
0.0
 34
0.0
 15
0.0
 25
0.0
 35
0.0
146
0.0
 13
0.0
 23
0.0
 33
0.0
 16
1.0
 26
0.0
 36
0.0
 17
0.0
 27
1.0
 37
0.0
 76
0
330
223
345
0
346
0
  0
ENDSEC
  0
EOF