999
DXF file: _cgs_temp_output.dxf
999
Pro/ENGINEER 2016360 by Parametric Technology Corporation
  0
SECTION
  2
HEADER
  9
$ACADVER
  1
AC1021
  9
$DWGCODEPAGE
  3
ANSI_1252
  9
$EXTMAX
 10
22.0
 20
17.0
 30
0.0
  9
$EXTMIN
 10
0.0
 20
0.0
 30
0.0
  9
$LIMMIN
 10
0.0
 20
0.0
  9
$LIMMAX
 10
22.0
 20
17.0
  9
$VIEWCTR
 10
11.0
 20
8.5
  9
$VIEWSIZE
 40
17.0
  9
$CLAYER
  8
0
  9
$LTSCALE
 40
1.21
  9
$CELTYPE
  6
BYLAYER
  9
$DIMSCALE
 40
1.0
  9
$DIMASZ
 40
0.1875
  9
$DIMEXO
 40
0.0625
  9
$DIMDLI
 40
0.836
  9
$DIMEXE
 40
0.125
  9
$DIMCEN
 40
0.198
  9
$DIMLFAC
 40
1.0
  9
$DIMBLK
  1
_CLOSED
  9
$DIMALT
 70
0
  9
$DIMALTF
 40
25.4
  9
$DIMTXT
 40
0.15625
  9
$DIMTOL
 70
0
  9
$DIMLIM
 70
0
  9
$DIMTFAC
 40
1.0
  9
$DIMGAP
 40
0.09
  9
$DIMDSEP
 70
46
  9
$AUNITS
 70
0
  9
$PDMODE
 70
3
  9
$PDSIZE
 40
0.3125
  9
$HANDSEED
  5
341
  9
$TILEMODE
 70
1
  9
$MEASUREMENT
 70
0
  9
$INSUNITS
 70
1
  0
ENDSEC
  0
SECTION
  2
CLASSES
  0
CLASS
  1
ACDBDICTIONARYWDFLT
  2
AcDbDictionaryWithDefault
  3
AutoCAD 2000
 90
0
 91
1
280
0
281
0
  0
CLASS
  1
ACDBPLACEHOLDER
  2
AcDbPlaceHolder
  3
AutoCAD 2000
 90
0
 91
1
280
0
281
0
  0
CLASS
  1
LAYOUT
  2
AcDbLayout
  3
AutoCAD 2000
 90
0
 91
0
280
0
281
0
  0
ENDSEC
  0
SECTION
  2
TABLES
  0
TABLE
  2
VPORT
  5
8
100
AcDbSymbolTable
 70
2
  0
VPORT
  5
1F4
100
AcDbSymbolTableRecord
100
AcDbViewportTableRecord
  2
*ACTIVE
 70
0
 10
0.0
 20
0.0
 11
1.0
 21
1.0
 12
11.0
 22
8.5
 13
0.0
 23
0.0
 14
1.0
 24
1.0
 15
0.0
 25
0.0
 16
0.0
 26
0.0
 36
1.0
 17
0.0
 27
0.0
 37
0.0
 40
17.0
 41
1.2941176471
 42
50.0
 43
0.0
 44
0.0
 50
0.0
 51
0.0
 71
0
 72
100
 73
1
 74
1
 75
0
 76
0
 77
0
 78
0
  0
ENDTAB
  0
TABLE
  2
LTYPE
  5
5
100
AcDbSymbolTable
 70
6
  0
LTYPE
  5
14
100
AcDbSymbolTableRecord
100
AcDbLinetypeTableRecord
  2
BYBLOCK
 70
0
  3

 72
65
 73
0
 40
0.0
  0
LTYPE
  5
15
100
AcDbSymbolTableRecord
100
AcDbLinetypeTableRecord
  2
BYLAYER
 70
0
  3

 72
65
 73
0
 40
0.0
  0
LTYPE
  5
16
100
AcDbSymbolTableRecord
100
AcDbLinetypeTableRecord
  2
CONTINUOUS
 70
64
  3
Solid line
 72
65
 73
0
 40
0.0
  0
LTYPE
  5
1F5
100
AcDbSymbolTableRecord
100
AcDbLinetypeTableRecord
  2
CENTER
 70
64
  3
____ _ ____ _ ____ _ ____ _ ____ _ ____ _ ____
 72
65
 73
4
 40
0.6
 49
0.375
 74
0
 49
-0.075
 74
0
 49
0.075
 74
0
 49
-0.075
 74
0
  0
LTYPE
  5
1F6
100
AcDbSymbolTableRecord
100
AcDbLinetypeTableRecord
  2
HIDDEN
 70
64
  3
- - - - - - - - - - - - - - - - - - - -
 72
65
 73
2
 40
0.2
 49
0.1
 74
0
 49
-0.1
 74
0
  0
LTYPE
  5
1F7
100
AcDbSymbolTableRecord
100
AcDbLinetypeTableRecord
  2
PHANTOM
 70
64
  3
_____ _ _ _____ _ _ _____ _ _ _____
 72
65
 73
6
 40
0.8
 49
0.45
 74
0
 49
-0.05
 74
0
 49
0.1
 74
0
 49
-0.05
 74
0
 49
0.1
 74
0
 49
-0.05
 74
0
  0
LTYPE
  5
1F8
100
AcDbSymbolTableRecord
100
AcDbLinetypeTableRecord
  2
DOT
 70
64
  3
. . . . . . . . . . . . . . . . . . . .
 72
65
 73
2
 40
0.2
 49
0.1
 74
0
 49
-0.1
 74
0
  0
LTYPE
  5
1F9
100
AcDbSymbolTableRecord
100
AcDbLinetypeTableRecord
  2
DASHED
 70
64
  3
- - - - - - - - - - - - - - - - - - - -
 72
65
 73
2
 40
0.2
 49
0.1
 74
0
 49
-0.1
 74
0
  0
ENDTAB
  0
TABLE
  2
LAYER
  5
2
100
AcDbSymbolTable
 70
36
  0
LAYER
  5
10
100
AcDbSymbolTableRecord
100
AcDbLayerTableRecord
  2
0
 70
0
 62
7
  6
CONTINUOUS
370
-3
390
F
  0
LAYER
  5
1FA
100
AcDbSymbolTableRecord
100
AcDbLayerTableRecord
  2
DEFAULT_1
 70
0
 62
7
  6
CENTER
370
-3
390
F
  0
LAYER
  5
1FB
100
AcDbSymbolTableRecord
100
AcDbLayerTableRecord
  2
DEFAULT_2
 70
0
 62
8
  6
HIDDEN
370
-3
390
F
  0
LAYER
  5
1FC
100
AcDbSymbolTableRecord
100
AcDbLayerTableRecord
  2
DEFAULT_3
 70
0
 62
7
  6
PHANTOM
370
-3
390
F
  0
LAYER
  5
1FD
100
AcDbSymbolTableRecord
100
AcDbLayerTableRecord
  2
01_ALL_DTM_PLN
 70
0
 62
7
  6
CONTINUOUS
370
-3
390
F
  0
LAYER
  5
1FE
100
AcDbSymbolTableRecord
100
AcDbLayerTableRecord
  2
01__ASM_ALL_DTM_PLN
 70
0
 62
7
  6
CONTINUOUS
370
-3
390
F
  0
LAYER
  5
1FF
100
AcDbSymbolTableRecord
100
AcDbLayerTableRecord
  2
01__ASM_DEF_DTM_PLN
 70
0
 62
7
  6
CONTINUOUS
370
-3
390
F
  0
LAYER
  5
200
100
AcDbSymbolTableRecord
100
AcDbLayerTableRecord
  2
01___PRT_ALL_DTM_PLN
 70
0
 62
7
  6
CONTINUOUS
370
-3
390
F
  0
LAYER
  5
201
100
AcDbSymbolTableRecord
100
AcDbLayerTableRecord
  2
01___PRT_DEF_DTM_PLN
 70
0
 62
7
  6
CONTINUOUS
370
-3
390
F
  0
LAYER
  5
202
100
AcDbSymbolTableRecord
100
AcDbLayerTableRecord
  2
02_ALL_AXES
 70
0
 62
7
  6
CONTINUOUS
370
-3
390
F
  0
LAYER
  5
203
100
AcDbSymbolTableRecord
100
AcDbLayerTableRecord
  2
02__ASM_ALL_AXES
 70
0
 62
7
  6
CONTINUOUS
370
-3
390
F
  0
LAYER
  5
204
100
AcDbSymbolTableRecord
100
AcDbLayerTableRecord
  2
02___PRT_ALL_AXES
 70
0
 62
7
  6
CONTINUOUS
370
-3
390
F
  0
LAYER
  5
205
100
AcDbSymbolTableRecord
100
AcDbLayerTableRecord
  2
03_ALL_CURVES
 70
0
 62
7
  6
CONTINUOUS
370
-3
390
F
  0
LAYER
  5
206
100
AcDbSymbolTableRecord
100
AcDbLayerTableRecord
  2
03__ASM_ALL_CURVES
 70
0
 62
7
  6
CONTINUOUS
370
-3
390
F
  0
LAYER
  5
207
100
AcDbSymbolTableRecord
100
AcDbLayerTableRecord
  2
03___PRT_ALL_CURVES
 70
0
 62
7
  6
CONTINUOUS
370
-3
390
F
  0
LAYER
  5
208
100
AcDbSymbolTableRecord
100
AcDbLayerTableRecord
  2
04_ALL_DTM_PNT
 70
0
 62
7
  6
CONTINUOUS
370
-3
390
F
  0
LAYER
  5
209
100
AcDbSymbolTableRecord
100
AcDbLayerTableRecord
  2
04__ASM_ALL_DTM_PNT
 70
0
 62
7
  6
CONTINUOUS
370
-3
390
F
  0
LAYER
  5
20A
100
AcDbSymbolTableRecord
100
AcDbLayerTableRecord
  2
04___PRT_ALL_DTM_PNT
 70
0
 62
7
  6
CONTINUOUS
370
-3
390
F
  0
LAYER
  5
20B
100
AcDbSymbolTableRecord
100
AcDbLayerTableRecord
  2
05_ALL_DTM_CSYS
 70
0
 62
7
  6
CONTINUOUS
370
-3
390
F
  0
LAYER
  5
20C
100
AcDbSymbolTableRecord
100
AcDbLayerTableRecord
  2
05__ASM_ALL_DTM_CSYS
 70
0
 62
7
  6
CONTINUOUS
370
-3
390
F
  0
LAYER
  5
20D
100
AcDbSymbolTableRecord
100
AcDbLayerTableRecord
  2
05__ASM_DEF_DTM_CSYS
 70
0
 62
7
  6
CONTINUOUS
370
-3
390
F
  0
LAYER
  5
20E
100
AcDbSymbolTableRecord
100
AcDbLayerTableRecord
  2
05___PRT_ALL_DTM_CSYS
 70
0
 62
7
  6
CONTINUOUS
370
-3
390
F
  0
LAYER
  5
20F
100
AcDbSymbolTableRecord
100
AcDbLayerTableRecord
  2
05___PRT_DEF_DTM_CSYS
 70
0
 62
7
  6
CONTINUOUS
370
-3
390
F
  0
LAYER
  5
210
100
AcDbSymbolTableRecord
100
AcDbLayerTableRecord
  2
06_ALL_SURFS
 70
0
 62
7
  6
CONTINUOUS
370
-3
390
F
  0
LAYER
  5
211
100
AcDbSymbolTableRecord
100
AcDbLayerTableRecord
  2
06__ASM_ALL_SURFS
 70
0
 62
7
  6
CONTINUOUS
370
-3
390
F
  0
LAYER
  5
212
100
AcDbSymbolTableRecord
100
AcDbLayerTableRecord
  2
06___PRT_ALL_SURFS
 70
0
 62
7
  6
CONTINUOUS
370
-3
390
F
  0
LAYER
  5
213
100
AcDbSymbolTableRecord
100
AcDbLayerTableRecord
  2
07__ASM_ALL_SKELETONS
 70
0
 62
7
  6
CONTINUOUS
370
-3
390
F
  0
LAYER
  5
214
100
AcDbSymbolTableRecord
100
AcDbLayerTableRecord
  2
ANNOTATIONS
 70
0
 62
7
  6
CONTINUOUS
370
-3
390
F
  0
LAYER
  5
215
100
AcDbSymbolTableRecord
100
AcDbLayerTableRecord
  2
ASM_DATUMS
 70
0
 62
7
  6
CONTINUOUS
370
-3
390
F
  0
LAYER
  5
216
100
AcDbSymbolTableRecord
100
AcDbLayerTableRecord
  2
ASM_DEF_DATUMS
 70
0
 62
7
  6
CONTINUOUS
370
-3
390
F
  0
LAYER
  5
217
100
AcDbSymbolTableRecord
100
AcDbLayerTableRecord
  2
AXIS
 70
0
 62
7
  6
CONTINUOUS
370
-3
390
F
  0
LAYER
  5
218
100
AcDbSymbolTableRecord
100
AcDbLayerTableRecord
  2
CSYS
 70
0
 62
7
  6
CONTINUOUS
370
-3
390
F
  0
LAYER
  5
219
100
AcDbSymbolTableRecord
100
AcDbLayerTableRecord
  2
CURVES
 70
0
 62
7
  6
CONTINUOUS
370
-3
390
F
  0
LAYER
  5
21A
100
AcDbSymbolTableRecord
100
AcDbLayerTableRecord
  2
DATUMS
 70
0
 62
7
  6
CONTINUOUS
370
-3
390
F
  0
LAYER
  5
21B
100
AcDbSymbolTableRecord
100
AcDbLayerTableRecord
  2
DEF_CSYS
 70
0
 62
7
  6
CONTINUOUS
370
-3
390
F
  0
LAYER
  5
21C
100
AcDbSymbolTableRecord
100
AcDbLayerTableRecord
  2
DEF_DATUMS
 70
0
 62
7
  6
CONTINUOUS
370
-3
390
F
  0
LAYER
  5
21D
100
AcDbSymbolTableRecord
100
AcDbLayerTableRecord
  2
GTOL
 70
0
 62
7
  6
CONTINUOUS
370
-3
390
F
  0
LAYER
  5
21E
100
AcDbSymbolTableRecord
100
AcDbLayerTableRecord
  2
POINTS
 70
0
 62
7
  6
CONTINUOUS
370
-3
390
F
  0
LAYER
  5
21F
100
AcDbSymbolTableRecord
100
AcDbLayerTableRecord
  2
SKELETONS
 70
0
 62
7
  6
CONTINUOUS
370
-3
390
F
  0
LAYER
  5
220
100
AcDbSymbolTableRecord
100
AcDbLayerTableRecord
  2
SURFACES
 70
0
 62
7
  6
CONTINUOUS
370
-3
390
F
  0
LAYER
  5
221
100
AcDbSymbolTableRecord
100
AcDbLayerTableRecord
  2
XSEC_DATUMS
 70
0
 62
7
  6
CONTINUOUS
370
-3
390
F
  0
ENDTAB
  0
TABLE
  2
STYLE
  5
3
100
AcDbSymbolTable
 70
1
  0
STYLE
  5
11
100
AcDbSymbolTableRecord
100
AcDbTextStyleTableRecord
  2
STANDARD
 70
0
 40
0.0
 41
0.8
 50
0.0
 71
0
 42
0.2
  3
txt
  4

  0
STYLE
  5
222
100
AcDbSymbolTableRecord
100
AcDbTextStyleTableRecord
  2
TEXTSTYLE_1
 70
0
 40
0.0
 41
0.8
 50
0.0
 71
0
 42
0.2
  3
gdt
  4

  0
ENDTAB
  0
TABLE
  2
VIEW
  5
6
100
AcDbSymbolTable
 70
0
  0
ENDTAB
  0
TABLE
  2
UCS
  5
7
100
AcDbSymbolTable
 70
0
  0
ENDTAB
  0
TABLE
  2
APPID
  5
9
100
AcDbSymbolTable
 70
1
  0
APPID
  5
223
100
AcDbSymbolTableRecord
100
AcDbRegAppTableRecord
  2
ACAD
 70
0
  0
ENDTAB
  0
TABLE
  2
BLOCK_RECORD
  5
1
100
AcDbSymbolTable
 70
0
  0
BLOCK_RECORD
  5
224
100
AcDbSymbolTableRecord
100
AcDbBlockTableRecord
  2
*Model_Space
  0
BLOCK_RECORD
  5
225
100
AcDbSymbolTableRecord
100
AcDbBlockTableRecord
  2
*Paper_Space
  0
ENDTAB
  0
TABLE
  2
DIMSTYLE
  5
A
100
AcDbSymbolTable
 70
1
100
AcDbDimStyleTable
 71
0
  0
DIMSTYLE
105
226
100
AcDbSymbolTableRecord
100
AcDbDimStyleTableRecord
  2
STANDARD
 70
0
  3

  4

 40
1.0
 41
0.1875
 42
0.0625
 43
0.38
 44
0.125
 45
0.0
 46
0.0
 47
0.0001
 48
0.0001
140
0.15625
141
0.09
142
0.0
143
25.4
144
1.0
145
0.0
146
1.0
147
0.09
 71
0.0
 72
0.0
 73
1
 74
1
 75
0
 76
0
 77
0
 78
4
 79
1
170
0
171
3
172
0
173
0
174
0
175
0
176
0
177
0
178
0
270
2
179
4
271
4
272
4
273
2
274
2
275
0
280
0
281
0
282
0
283
1
284
4
285
0
286
0
287
3
288
0
340
11
278
46
  0
ENDTAB
  0
ENDSEC
  0
SECTION
  2
BLOCKS
  0
BLOCK
  5
20
100
AcDbEntity
  8
0
100
AcDbBlockBegin
  2
*Model_Space
 70
0
 10
0.0
 20
0.0
 30
0.0
  3
*Model_Space
  1

  0
ENDBLK
  5
21
100
AcDbEntity
  8
0
100
AcDbBlockEnd
  0
BLOCK
  5
1C
100
AcDbEntity
  8
0
100
AcDbBlockBegin
  2
*Paper_Space
 70
0
 10
0.0
 20
0.0
 30
0.0
  3
*Paper_Space
  1

  0
ENDBLK
  5
1D
100
AcDbEntity
  8
0
100
AcDbBlockEnd
  0
ENDSEC
  0
SECTION
  2
ENTITIES
  0
MTEXT
  5
227
100
AcDbEntity
  8
0
100
AcDbMText
 62
7
  6
CONTINUOUS
  7
STANDARD
 71
1
 72
1
 10
15.9560215477
 20
0.9479130325
 30
0.0
 11
1.0
 21
0.0
 31
0.0
 44
0.9
  1
SCALE: 1:1.000
 40
0.3
 41
3.36
  0
LINE
  5
228
100
AcDbEntity
  8
0
100
AcDbLine
 62
7
  6
CONTINUOUS
 10
0.0
 20
0.0
 11
0.0
 21
17.0
  0
LINE
  5
229
100
AcDbEntity
  8
0
100
AcDbLine
 62
7
  6
CONTINUOUS
 10
0.0
 20
0.0
 11
22.0
 21
0.0
  0
LINE
  5
22A
100
AcDbEntity
  8
0
100
AcDbLine
 62
7
  6
CONTINUOUS
 10
0.0
 20
17.0
 11
22.0
 21
17.0
  0
LINE
  5
22B
100
AcDbEntity
  8
0
100
AcDbLine
 62
7
  6
CONTINUOUS
 10
22.0
 20
0.0
 11
22.0
 21
17.0
  0
LINE
  5
22C
100
AcDbEntity
  8
02___PRT_ALL_AXES
100
AcDbLine
 62
7
  6
CONTINUOUS
 10
5.4639347042
 20
7.2916198968
 11
5.3778672762
 21
7.2653064433
  0
LINE
  5
22D
100
AcDbEntity
  8
02___PRT_ALL_AXES
100
AcDbLine
 62
7
  6
CONTINUOUS
 10
5.4639347042
 20
3.7486198968
 11
5.3778672762
 21
3.7749333502
  0
LINE
  5
22E
100
AcDbEntity
  8
0
100
AcDbLine
 62
7
  6
CONTINUOUS
 10
5.5028672762
 20
3.9474873899
 11
6.7578672762
 21
3.9474873899
  0
LINE
  5
22F
100
AcDbEntity
  8
0
100
AcDbLine
 62
7
  6
CONTINUOUS
 10
5.5028672762
 20
4.0082812694
 11
6.7578672762
 21
4.0082812694
  0
LINE
  5
230
100
AcDbEntity
  8
0
100
AcDbLine
 62
7
  6
CONTINUOUS
 10
5.5028672762
 20
4.1342756555
 11
6.7578672762
 21
4.1342756555
  0
LINE
  5
231
100
AcDbEntity
  8
0
100
AcDbLine
 62
7
  6
CONTINUOUS
 10
5.5028672762
 20
4.319963989
 11
6.7578672762
 21
4.319963989
  0
LINE
  5
232
100
AcDbEntity
  8
0
100
AcDbLine
 62
7
  6
CONTINUOUS
 10
5.5028672762
 20
4.5572307987
 11
6.7578672762
 21
4.5572307987
  0
LINE
  5
233
100
AcDbEntity
  8
02___PRT_ALL_AXES
100
AcDbLine
 62
7
  6
CONTINUOUS
 10
5.3778672762
 20
7.2653064433
 11
5.3778672762
 21
3.7749333502
  0
LINE
  5
234
100
AcDbEntity
  8
02___PRT_ALL_AXES
100
AcDbLine
 62
7
  6
CONTINUOUS
 10
5.4639347042
 20
7.2916198968
 11
5.4639347042
 21
3.7486198968
  0
LINE
  5
235
100
AcDbEntity
  8
02___PRT_ALL_AXES
100
AcDbLine
 62
7
  6
CONTINUOUS
 10
5.5028672762
 20
7.1642771918
 11
5.5028672762
 21
3.8759626017
  0
LINE
  5
236
100
AcDbEntity
  8
0
100
AcDbLine
 62
7
  6
CONTINUOUS
 10
5.5028672762
 20
4.8357063865
 11
6.7578672762
 21
4.8357063865
  0
LINE
  5
237
100
AcDbEntity
  8
02___PRT_ALL_AXES
100
AcDbLine
 62
7
  6
CONTINUOUS
 10
5.5028672762
 20
3.8759626017
 11
5.4639347042
 21
3.7486198968
  0
LINE
  5
238
100
AcDbEntity
  8
02___PRT_ALL_AXES
100
AcDbLine
 62
7
  6
CONTINUOUS
 10
5.5028672762
 20
7.1642771918
 11
5.4639347042
 21
7.2916198968
  0
LINE
  5
239
100
AcDbEntity
  8
02___PRT_ALL_AXES
100
AcDbLine
 62
7
  6
CONTINUOUS
 10
6.7578672762
 20
7.1642771918
 11
6.7967998481
 21
7.2916198968
  0
LINE
  5
23A
100
AcDbEntity
  8
02___PRT_ALL_AXES
100
AcDbLine
 62
7
  6
CONTINUOUS
 10
6.7578672762
 20
3.8759626017
 11
6.7967998481
 21
3.7486198968
  0
LINE
  5
23B
100
AcDbEntity
  8
02___PRT_ALL_AXES
100
AcDbLine
 62
7
  6
CONTINUOUS
 10
6.7578672762
 20
3.8759626017
 11
6.7578672762
 21
7.1642771918
  0
LINE
  5
23C
100
AcDbEntity
  8
02___PRT_ALL_AXES
100
AcDbLine
 62
7
  6
CONTINUOUS
 10
6.7967998481
 20
3.7486198968
 11
6.7967998481
 21
7.2916198968
  0
LINE
  5
23D
100
AcDbEntity
  8
02___PRT_ALL_AXES
100
AcDbLine
 62
7
  6
CONTINUOUS
 10
6.8828672762
 20
3.7749333502
 11
6.8828672762
 21
7.2653064433
  0
LINE
  5
23E
100
AcDbEntity
  8
0
100
AcDbLine
 62
7
  6
CONTINUOUS
 10
6.7578672762
 20
6.204533407
 11
5.5028672762
 21
6.204533407
  0
LINE
  5
23F
100
AcDbEntity
  8
0
100
AcDbLine
 62
7
  6
CONTINUOUS
 10
6.7578672762
 20
6.4830089948
 11
5.5028672762
 21
6.4830089948
  0
LINE
  5
240
100
AcDbEntity
  8
0
100
AcDbLine
 62
7
  6
CONTINUOUS
 10
6.7578672762
 20
6.7202758045
 11
5.5028672762
 21
6.7202758045
  0
LINE
  5
241
100
AcDbEntity
  8
0
100
AcDbLine
 62
7
  6
CONTINUOUS
 10
6.7578672762
 20
6.905964138
 11
5.5028672762
 21
6.905964138
  0
LINE
  5
242
100
AcDbEntity
  8
0
100
AcDbLine
 62
7
  6
CONTINUOUS
 10
6.7578672762
 20
7.0319585242
 11
5.5028672762
 21
7.0319585242
  0
LINE
  5
243
100
AcDbEntity
  8
0
100
AcDbLine
 62
7
  6
CONTINUOUS
 10
6.7578672762
 20
7.0927524036
 11
5.5028672762
 21
7.0927524036
  0
LINE
  5
244
100
AcDbEntity
  8
02___PRT_ALL_AXES
100
AcDbLine
 62
7
  6
CONTINUOUS
 10
6.7967998481
 20
3.7486198968
 11
6.8828672762
 21
3.7749333502
  0
LINE
  5
245
100
AcDbEntity
  8
02___PRT_ALL_AXES
100
AcDbLine
 62
7
  6
CONTINUOUS
 10
6.7967998481
 20
7.2916198968
 11
6.8828672762
 21
7.2653064433
  0
LINE
  5
246
100
AcDbEntity
  8
02___PRT_ALL_AXES
100
AcDbLine
 62
7
  6
CONTINUOUS
 10
5.3183720839
 20
14.3452343279
 11
5.4044395119
 21
14.3715477814
  0
LINE
  5
247
100
AcDbEntity
  8
02___PRT_ALL_AXES
100
AcDbLine
 62
7
  6
CONTINUOUS
 10
5.3183720839
 20
10.8548612348
 11
5.4044395119
 21
10.8285477814
  0
LINE
  5
248
100
AcDbEntity
  8
0
100
AcDbLine
 62
7
  6
CONTINUOUS
 10
5.4433720839
 20
11.0494273152
 11
6.6983720839
 21
11.0494273152
  0
LINE
  5
249
100
AcDbEntity
  8
0
100
AcDbLine
 62
7
  6
CONTINUOUS
 10
5.4433720839
 20
11.143335889
 11
6.6983720839
 21
11.143335889
  0
LINE
  5
24A
100
AcDbEntity
  8
0
100
AcDbLine
 62
7
  6
CONTINUOUS
 10
5.4433720839
 20
11.3000356666
 11
6.6983720839
 21
11.3000356666
  0
LINE
  5
24B
100
AcDbEntity
  8
0
100
AcDbLine
 62
7
  6
CONTINUOUS
 10
5.4433720839
 20
11.5126781158
 11
6.6983720839
 21
11.5126781158
  0
LINE
  5
24C
100
AcDbEntity
  8
0
100
AcDbLine
 62
7
  6
CONTINUOUS
 10
5.4433720839
 20
11.7719697412
 11
6.6983720839
 21
11.7719697412
  0
LINE
  5
24D
100
AcDbEntity
  8
02___PRT_ALL_AXES
100
AcDbLine
 62
7
  6
CONTINUOUS
 10
5.3183720839
 20
10.8548612348
 11
5.3183720839
 21
14.3452343279
  0
LINE
  5
24E
100
AcDbEntity
  8
02___PRT_ALL_AXES
100
AcDbLine
 62
7
  6
CONTINUOUS
 10
5.4044395119
 20
10.8285477814
 11
5.4044395119
 21
14.3715477814
  0
LINE
  5
24F
100
AcDbEntity
  8
02___PRT_ALL_AXES
100
AcDbLine
 62
7
  6
CONTINUOUS
 10
5.4433720839
 20
10.9558904863
 11
5.4433720839
 21
14.2442050764
  0
LINE
  5
250
100
AcDbEntity
  8
0
100
AcDbLine
 62
7
  6
CONTINUOUS
 10
5.4433720839
 20
12.0659895946
 11
6.6983720839
 21
12.0659895946
  0
LINE
  5
251
100
AcDbEntity
  8
02___PRT_ALL_AXES
100
AcDbLine
 62
7
  6
CONTINUOUS
 10
5.4044395119
 20
10.8285477814
 11
5.4433720839
 21
10.9558904863
  0
LINE
  5
252
100
AcDbEntity
  8
02___PRT_ALL_AXES
100
AcDbLine
 62
7
  6
CONTINUOUS
 10
5.4044395119
 20
14.3715477814
 11
5.4433720839
 21
14.2442050764
  0
LINE
  5
253
100
AcDbEntity
  8
02___PRT_ALL_AXES
100
AcDbLine
 62
7
  6
CONTINUOUS
 10
6.7373046558
 20
14.3715477814
 11
6.6983720839
 21
14.2442050764
  0
LINE
  5
254
100
AcDbEntity
  8
02___PRT_ALL_AXES
100
AcDbLine
 62
7
  6
CONTINUOUS
 10
6.7373046558
 20
10.8285477814
 11
6.6983720839
 21
10.9558904863
  0
LINE
  5
255
100
AcDbEntity
  8
02___PRT_ALL_AXES
100
AcDbLine
 62
7
  6
CONTINUOUS
 10
6.6983720839
 20
10.9558904863
 11
6.6983720839
 21
14.2442050764
  0
LINE
  5
256
100
AcDbEntity
  8
0
100
AcDbLine
 62
7
  6
CONTINUOUS
 10
5.4433720839
 20
13.1341059681
 11
6.6983720839
 21
13.1341059681
  0
LINE
  5
257
100
AcDbEntity
  8
02___PRT_ALL_AXES
100
AcDbLine
 62
7
  6
CONTINUOUS
 10
6.7373046558
 20
10.8285477814
 11
6.7373046558
 21
14.3715477814
  0
LINE
  5
258
100
AcDbEntity
  8
02___PRT_ALL_AXES
100
AcDbLine
 62
7
  6
CONTINUOUS
 10
6.8233720839
 20
10.8548612348
 11
6.8233720839
 21
14.3452343279
  0
LINE
  5
259
100
AcDbEntity
  8
0
100
AcDbLine
 62
7
  6
CONTINUOUS
 10
6.6983720839
 20
13.4281258216
 11
5.4433720839
 21
13.4281258216
  0
LINE
  5
25A
100
AcDbEntity
  8
0
100
AcDbLine
 62
7
  6
CONTINUOUS
 10
6.6983720839
 20
13.687417447
 11
5.4433720839
 21
13.687417447
  0
LINE
  5
25B
100
AcDbEntity
  8
0
100
AcDbLine
 62
7
  6
CONTINUOUS
 10
6.6983720839
 20
13.9000598962
 11
5.4433720839
 21
13.9000598962
  0
LINE
  5
25C
100
AcDbEntity
  8
0
100
AcDbLine
 62
7
  6
CONTINUOUS
 10
6.6983720839
 20
14.0567596738
 11
5.4433720839
 21
14.0567596738
  0
LINE
  5
25D
100
AcDbEntity
  8
0
100
AcDbLine
 62
7
  6
CONTINUOUS
 10
6.6983720839
 20
14.1506682476
 11
5.4433720839
 21
14.1506682476
  0
LINE
  5
25E
100
AcDbEntity
  8
02___PRT_ALL_AXES
100
AcDbLine
 62
7
  6
CONTINUOUS
 10
6.8233720839
 20
10.8548612348
 11
6.7373046558
 21
10.8285477814
  0
LINE
  5
25F
100
AcDbEntity
  8
02___PRT_ALL_AXES
100
AcDbLine
 62
7
  6
CONTINUOUS
 10
6.8233720839
 20
14.3452343279
 11
6.7373046558
 21
14.3715477814
  0
LINE
  5
260
100
AcDbEntity
  8
02___PRT_ALL_AXES
100
AcDbLine
 62
7
  6
CONTINUOUS
 10
14.6901674017
 20
14.241350514
 11
14.7681162241
 21
14.267443214
  0
LINE
  5
261
100
AcDbEntity
  8
02___PRT_ALL_AXES
100
AcDbLine
 62
7
  6
CONTINUOUS
 10
14.6901674017
 20
10.7802594718
 11
14.7681162241
 21
10.7541667718
  0
LINE
  5
262
100
AcDbEntity
  8
0
100
AcDbLine
 62
7
  6
CONTINUOUS
 10
14.6797171833
 20
13.9905686425
 11
14.6824222472
 21
13.9918130634
  0
LINE
  5
263
100
AcDbEntity
  8
0
100
AcDbLine
 62
7
  6
CONTINUOUS
 10
14.7546944237
 20
10.9739229252
 11
14.7529171016
 21
10.9744417868
  0
LINE
  5
264
100
AcDbEntity
  8
0
100
AcDbLine
 62
7
  6
CONTINUOUS
 10
14.880372527
 20
10.9331459835
 11
15.7723704989
 21
10.9331459835
  0
LINE
  5
265
100
AcDbEntity
  8
0
100
AcDbLine
 62
7
  6
CONTINUOUS
 10
14.7546944095
 20
10.9739140708
 11
15.7428812367
 21
10.9739140708
  0
LINE
  5
266
100
AcDbEntity
  8
0
100
AcDbLine
 62
7
  6
CONTINUOUS
 10
14.6349054179
 20
11.0809818921
 11
15.6787690082
 21
11.0809818921
  0
LINE
  5
267
100
AcDbEntity
  8
AXIS
100
AcDbLine
 62
7
  6
CONTINUOUS
 10
16.161908214
 20
11.1405549929
 11
16.1152955694
 21
11.1405549929
  0
LINE
  5
268
100
AcDbEntity
  8
0
100
AcDbLine
 62
7
  6
CONTINUOUS
 10
14.5264028093
 20
11.2496657479
 11
15.6011266605
 21
11.2496657479
  0
LINE
  5
269
100
AcDbEntity
  8
0
100
AcDbLine
 62
7
  6
CONTINUOUS
 10
14.4339286684
 20
11.4725933445
 11
15.5263486505
 21
11.4725933445
  0
LINE
  5
26A
100
AcDbEntity
  8
AXIS
100
AcDbLine
 62
7
  6
CONTINUOUS
 10
16.0041193056
 20
11.6460246488
 11
15.9448817715
 21
11.6460246488
  0
LINE
  5
26B
100
AcDbEntity
  8
0
100
AcDbLine
 62
7
  6
CONTINUOUS
 10
14.3615245588
 20
11.7400216759
 11
15.4641819266
 21
11.7400216759
  0
LINE
  5
26C
100
AcDbEntity
  8
02___PRT_ALL_AXES
100
AcDbLine
 62
7
  6
CONTINUOUS
 10
15.9157280123
 20
10.9794101654
 11
15.9149255143
 21
10.9801563288
  0
LINE
  5
26D
100
AcDbEntity
  8
02___PRT_ALL_AXES
100
AcDbLine
 62
7
  6
CONTINUOUS
 10
15.9154970914
 20
10.977774844
 11
15.9146940708
 21
10.9785241593
  0
LINE
  5
26E
100
AcDbEntity
  8
0
100
AcDbLine
 62
7
  6
CONTINUOUS
 10
14.3297901029
 20
12.0382130713
 11
15.420546746
 21
12.0382130713
  0
LINE
  5
26F
100
AcDbEntity
  8
02___PRT_ALL_AXES
100
AcDbLine
 62
7
  6
CONTINUOUS
 10
15.7270626962
 20
13.8470379503
 11
15.7264733981
 21
13.8457652046
  0
LINE
  5
270
100
AcDbEntity
  8
02___PRT_ALL_AXES
100
AcDbLine
 62
7
  6
CONTINUOUS
 10
15.7273860916
 20
13.8460494113
 11
15.7267854932
 21
13.8448133989
  0
LINE
  5
271
100
AcDbEntity
  8
02___PRT_ALL_AXES
100
AcDbLine
 62
7
  6
CONTINUOUS
 10
15.6626804564
 20
13.607361071
 11
15.66191465
 21
13.6051052641
  0
LINE
  5
272
100
AcDbEntity
  8
02___PRT_ALL_AXES
100
AcDbLine
 62
7
  6
CONTINUOUS
 10
15.6622856095
 20
13.6082836534
 11
15.6615015812
 21
13.60606687
  0
LINE
  5
273
100
AcDbEntity
  8
02___PRT_ALL_AXES
100
AcDbLine
 62
7
  6
CONTINUOUS
 10
15.7103361543
 20
11.2936443808
 11
15.7090948882
 21
11.2964231283
  0
LINE
  5
274
100
AcDbEntity
  8
02___PRT_ALL_AXES
100
AcDbLine
 62
7
  6
CONTINUOUS
 10
15.7099070417
 20
11.2924056333
 11
15.7086769448
 21
11.2952229095
  0
LINE
  5
275
100
AcDbEntity
  8
02___PRT_ALL_AXES
100
AcDbLine
 62
7
  6
CONTINUOUS
 10
15.6324370046
 20
11.5067729277
 11
15.6322370204
 21
11.507422469
  0
LINE
  5
276
100
AcDbEntity
  8
02___PRT_ALL_AXES
100
AcDbLine
 62
7
  6
CONTINUOUS
 10
15.6319095051
 20
11.5057126889
 11
15.6317106191
 21
11.5063655446
  0
LINE
  5
277
100
AcDbEntity
  8
02___PRT_ALL_AXES
100
AcDbLine
 62
7
  6
CONTINUOUS
 10
15.5736837593
 20
13.3745786213
 11
15.5738683598
 21
13.3754103125
  0
LINE
  5
278
100
AcDbEntity
  8
02___PRT_ALL_AXES
100
AcDbLine
 62
7
  6
CONTINUOUS
 10
15.5741786842
 20
13.3738546845
 11
15.5743689897
 21
13.3746770968
  0
LINE
  5
279
100
AcDbEntity
  8
0
100
AcDbLine
 62
7
  6
CONTINUOUS
 10
14.330585787
 20
13.1062860304
 11
14.3292860585
 21
13.1062751203
  0
LINE
  5
27A
100
AcDbEntity
  8
AXIS
100
AcDbLine
 62
7
  6
CONTINUOUS
 10
16.454012465
 20
13.1018794462
 11
15.993481968
 21
13.1018794462
  0
LINE
  5
27B
100
AcDbEntity
  8
0
100
AcDbLine
 62
7
  6
CONTINUOUS
 10
15.4357391147
 20
13.1062751203
 11
14.3292860585
 21
13.1062751203
  0
LINE
  5
27C
100
AcDbEntity
  8
AXIS
100
AcDbLine
 62
7
  6
CONTINUOUS
 10
15.9208650426
 20
13.2380501799
 11
15.8694028137
 21
13.2380501799
  0
LINE
  5
27D
100
AcDbEntity
  8
AXIS
100
AcDbLine
 62
7
  6
CONTINUOUS
 10
16.3757779453
 20
13.2920866567
 11
15.9496094431
 21
13.2920866567
  0
LINE
  5
27E
100
AcDbEntity
  8
0
100
AcDbLine
 62
7
  6
CONTINUOUS
 10
15.487736309
 20
13.3947199093
 11
14.3882503805
 21
13.3947199093
  0
LINE
  5
27F
100
AcDbEntity
  8
0
100
AcDbLine
 62
7
  6
CONTINUOUS
 10
15.5558426835
 20
13.6454070427
 11
14.4692301245
 21
13.6454070427
  0
LINE
  5
280
100
AcDbEntity
  8
0
100
AcDbLine
 62
7
  6
CONTINUOUS
 10
15.6325824095
 20
13.8473807181
 11
14.5687370567
 21
13.8473807181
  0
LINE
  5
281
100
AcDbEntity
  8
AXIS
100
AcDbLine
 62
7
  6
CONTINUOUS
 10
16.161908214
 20
13.8810549929
 11
16.1167189172
 21
13.8810549929
  0
LINE
  5
282
100
AcDbEntity
  8
0
100
AcDbLine
 62
7
  6
CONTINUOUS
 10
15.7074701787
 20
13.9918137167
 11
14.6824222468
 21
13.9918137167
  0
LINE
  5
283
100
AcDbEntity
  8
AXIS
100
AcDbLine
 62
7
  6
CONTINUOUS
 10
16.3456172931
 20
11.2252464489
 11
16.3469010642
 21
11.2266212477
  0
LINE
  5
284
100
AcDbEntity
  8
AXIS
100
AcDbLine
 62
7
  6
CONTINUOUS
 10
16.3457335265
 20
11.2244330958
 11
16.3470384253
 21
11.2256677451
  0
LINE
  5
285
100
AcDbEntity
  8
0
100
AcDbLine
 62
7
  6
CONTINUOUS
 10
14.8041896406
 20
14.072182951
 11
14.8053171159
 21
14.0723792063
  0
LINE
  5
286
100
AcDbEntity
  8
0
100
AcDbLine
 62
7
  6
CONTINUOUS
 10
15.7603873551
 20
14.0723936233
 11
14.8053171065
 21
14.0723936233
  0
LINE
  5
287
100
AcDbEntity
  8
0
100
AcDbLine
 62
7
  6
CONTINUOUS
 10
14.9059208625
 20
14.0884640023
 11
15.7716465668
 21
14.0884640023
  0
LINE
  5
288
100
AcDbEntity
  8
02___PRT_ALL_AXES
100
AcDbLine
 62
7
  6
CONTINUOUS
 10
16.2520575353
 20
10.7802594718
 11
16.1741087129
 21
10.7541667718
  0
LINE
  5
289
100
AcDbEntity
  8
02___PRT_ALL_AXES
100
AcDbLine
 62
7
  6
CONTINUOUS
 10
16.2520575353
 20
14.241350514
 11
16.1741087129
 21
14.267443214
  0
ARC
  5
28A
100
AcDbEntity
  8
AXIS
100
AcDbCircle
 62
7
  6
CONTINUOUS
 10
15.5586385646
 20
5.4973233892
 40
0.8734963426
100
AcDbArc
 50
359.0936402034
 51
2.7584510831
  0
ARC
  5
28B
100
AcDbEntity
  8
AXIS
100
AcDbCircle
 62
7
  6
CONTINUOUS
 10
14.6886848961
 20
5.3843634295
 40
0.155
100
AcDbArc
 50
89.6662661704
 51
280.3337338296
  0
CIRCLE
  5
28C
100
AcDbEntity
  8
02___PRT_ALL_AXES
100
AcDbCircle
 62
7
  6
CONTINUOUS
 10
15.5603552569
 20
5.4606247044
 40
1.7715
  0
CIRCLE
  5
28D
100
AcDbEntity
  8
02___PRT_ALL_AXES
100
AcDbCircle
 62
7
  6
CONTINUOUS
 10
15.5603552569
 20
5.4606247044
 40
1.7451865466
  0
CIRCLE
  5
28E
100
AcDbEntity
  8
02___PRT_ALL_AXES
100
AcDbCircle
 62
7
  6
CONTINUOUS
 10
15.5603552569
 20
5.4606247044
 40
1.6307067049
  0
CIRCLE
  5
28F
100
AcDbEntity
  8
02___PRT_ALL_AXES
100
AcDbCircle
 62
7
  6
CONTINUOUS
 10
15.5603552569
 20
5.4606247044
 40
1.372
  0
CIRCLE
  5
290
100
AcDbEntity
  8
AXIS
100
AcDbCircle
 62
7
  6
CONTINUOUS
 10
15.5603552569
 20
5.4606247044
 40
1.37025
  0
ARC
  5
291
100
AcDbEntity
  8
AXIS
100
AcDbCircle
 62
7
  6
CONTINUOUS
 10
15.5603552569
 20
5.4606247044
 40
0.955
100
AcDbArc
 50
101.163989526
 51
176.6715555105
  0
ARC
  5
292
100
AcDbEntity
  8
AXIS
100
AcDbCircle
 62
7
  6
CONTINUOUS
 10
15.5603552569
 20
5.4606247044
 40
0.955
100
AcDbArc
 50
193.3284444895
 51
346.6715555105
  0
ARC
  5
293
100
AcDbEntity
  8
AXIS
100
AcDbCircle
 62
7
  6
CONTINUOUS
 10
15.5603552569
 20
5.4606247044
 40
0.955
100
AcDbArc
 50
3.3284444895
 51
78.836010474
  0
ARC
  5
294
100
AcDbEntity
  8
AXIS
100
AcDbCircle
 62
7
  6
CONTINUOUS
 10
15.5603552569
 20
5.4606247044
 40
0.9355
100
AcDbArc
 50
4.0466434973
 51
78.2397668605
  0
ARC
  5
295
100
AcDbEntity
  8
AXIS
100
AcDbCircle
 62
7
  6
CONTINUOUS
 10
15.5603552569
 20
5.4606247044
 40
0.9355
100
AcDbArc
 50
194.0466434973
 51
345.9533565027
  0
ARC
  5
296
100
AcDbEntity
  8
AXIS
100
AcDbCircle
 62
7
  6
CONTINUOUS
 10
15.5603552569
 20
5.4606247044
 40
0.9355
100
AcDbArc
 50
101.7602331395
 51
175.9533565027
  0
ARC
  5
297
100
AcDbEntity
  8
AXIS
100
AcDbCircle
 62
7
  6
CONTINUOUS
 10
15.5603552569
 20
5.4606247044
 40
0.9047
100
AcDbArc
 50
77.5646788581
 51
102.4353211419
  0
ARC
  5
298
100
AcDbEntity
  8
AXIS
100
AcDbCircle
 62
7
  6
CONTINUOUS
 10
15.5620719429
 20
5.4973233893
 40
0.8734963362
100
AcDbArc
 50
177.2415489034
 51
180.9063598101
  0
CIRCLE
  5
299
100
AcDbEntity
  8
AXIS
100
AcDbCircle
 62
7
  6
CONTINUOUS
 10
15.5603552569
 20
5.4606247044
 40
0.8655
  0
ARC
  5
29A
100
AcDbEntity
  8
AXIS
100
AcDbCircle
 62
7
  6
CONTINUOUS
 10
16.4320256178
 20
5.3843634295
 40
0.155
100
AcDbArc
 50
259.6662661704
 51
90.3337338296
  0
ARC
  5
29B
100
AcDbEntity
  8
AXIS
100
AcDbCircle
 62
7
  6
CONTINUOUS
 10
15.5603552569
 20
6.3356247044
 40
0.195
100
AcDbArc
 50
2.4910885082
 51
177.5089114918
  0
ARC
  5
29C
100
AcDbEntity
  8
0
100
AcDbCircle
 62
7
  6
CONTINUOUS
 10
16.4535835712
 20
12.1603925006
 40
2.1369221121
100
AcDbArc
 50
197.0934453571
 51
198.5795959336
  0
ARC
  5
29D
100
AcDbEntity
  8
0
100
AcDbCircle
 62
7
  6
CONTINUOUS
 10
16.157788223
 20
12.9649528623
 40
1.8234417526
100
AcDbArc
 50
158.2813777446
 51
159.925221445
  0
ARC
  5
29E
100
AcDbEntity
  8
AXIS
100
AcDbCircle
 62
7
  6
CONTINUOUS
 10
15.2436523891
 20
12.9772585315
 40
1.3895786435
100
AcDbArc
 50
21.7093327682
 51
24.0189798155
  0
ARC
  5
29F
100
AcDbEntity
  8
0
100
AcDbCircle
 62
7
  6
CONTINUOUS
 10
15.7073303539
 20
11.8619539441
 40
1.3325403323
100
AcDbArc
 50
205.119597235
 51
207.1574292142
  0
ARC
  5
2A0
100
AcDbEntity
  8
0
100
AcDbCircle
 62
7
  6
CONTINUOUS
 10
16.0269642233
 20
11.0651770485
 40
1.306722824
100
AcDbArc
 50
179.3626858899
 51
182.4842509573
  0
ARC
  5
2A1
100
AcDbEntity
  8
0
100
AcDbCircle
 62
7
  6
CONTINUOUS
 10
15.9498552992
 20
13.9533417585
 40
1.299710733
100
AcDbArc
 50
180.292351158
 51
183.4238440011
  0
ARC
  5
2A2
100
AcDbEntity
  8
AXIS
100
AcDbCircle
 62
7
  6
CONTINUOUS
 10
15.3266392204
 20
13.01394963
 40
1.2988428962
100
AcDbArc
 50
24.0306633888
 51
24.4112935962
  0
ARC
  5
2A3
100
AcDbEntity
  8
0
100
AcDbCircle
 62
7
  6
CONTINUOUS
 10
16.0386531855
 20
13.947092285
 40
1.2707067183
100
AcDbArc
 50
175.5781587001
 51
177.9826671773
  0
ARC
  5
2A4
100
AcDbEntity
  8
0
100
AcDbCircle
 62
7
  6
CONTINUOUS
 10
15.8580233319
 20
11.0854093285
 40
1.2553361672
100
AcDbArc
 50
174.6133326572
 51
177.8262328632
  0
ARC
  5
2A5
100
AcDbEntity
  8
0
100
AcDbCircle
 62
7
  6
CONTINUOUS
 10
15.7169751696
 20
13.8891696482
 40
1.1823063279
100
AcDbArc
 50
185.0254610012
 51
188.3540407252
  0
ARC
  5
2A6
100
AcDbEntity
  8
0
100
AcDbCircle
 62
7
  6
CONTINUOUS
 10
16.0113105042
 20
11.1002136054
 40
1.174145198
100
AcDbArc
 50
186.1755373495
 51
187.3646843535
  0
ARC
  5
2A7
100
AcDbEntity
  8
0
100
AcDbCircle
 62
7
  6
CONTINUOUS
 10
15.48348706
 20
13.279557931
 40
1.0785715218
100
AcDbArc
 50
148.4269800219
 51
150.7580186649
  0
ARC
  5
2A8
100
AcDbEntity
  8
0
100
AcDbCircle
 62
7
  6
CONTINUOUS
 10
15.5662845561
 20
11.1867233323
 40
1.0759232964
100
AcDbArc
 50
169.437612298
 51
173.0063326706
  0
ARC
  5
2A9
100
AcDbEntity
  8
0
100
AcDbCircle
 62
7
  6
CONTINUOUS
 10
15.9465860594
 20
13.9010898215
 40
1.0625389832
100
AcDbArc
 50
170.505386416
 51
170.7204879991
  0
ARC
  5
2AA
100
AcDbEntity
  8
0
100
AcDbCircle
 62
7
  6
CONTINUOUS
 10
15.1896491348
 20
11.5446030729
 40
0.7243024518
100
AcDbArc
 50
216.5412353787
 51
219.6032114148
  0
ARC
  5
2AB
100
AcDbEntity
  8
0
100
AcDbCircle
 62
7
  6
CONTINUOUS
 10
15.0684410025
 20
13.5827861548
 40
0.5633762197
100
AcDbArc
 50
133.6292978087
 51
137.2217229927
  0
ARC
  5
2AC
100
AcDbEntity
  8
AXIS
100
AcDbCircle
 62
7
  6
CONTINUOUS
 10
16.0605268472
 20
13.495265338
 40
0.4153173664
100
AcDbArc
 50
48.276645449
 51
48.9361162388
  0
ARC
  5
2AD
100
AcDbEntity
  8
AXIS
100
AcDbCircle
 62
7
  6
CONTINUOUS
 10
16.067463828
 20
13.5032519412
 40
0.4047387432
100
AcDbArc
 50
48.9338410092
 51
49.7641568037
  0
ARC
  5
2AE
100
AcDbEntity
  8
0
100
AcDbCircle
 62
7
  6
CONTINUOUS
 10
14.9440651415
 20
11.2917012086
 40
0.3703931882
100
AcDbArc
 50
234.1436100479
 51
238.9311374245
  0
ARC
  5
2AF
100
AcDbEntity
  8
AXIS
100
AcDbCircle
 62
7
  6
CONTINUOUS
 10
15.6643434021
 20
13.1397662019
 40
0.3313119403
100
AcDbArc
 50
349.704873894
 51
353.4336494844
  0
ARC
  5
2B0
100
AcDbEntity
  8
0
100
AcDbCircle
 62
7
  6
CONTINUOUS
 10
14.9098894816
 20
13.7918934377
 40
0.299557453
100
AcDbArc
 50
110.6619363825
 51
116.1415994297
  0
ARC
  5
2B1
100
AcDbEntity
  8
0
100
AcDbCircle
 62
7
  6
CONTINUOUS
 10
14.8933300174
 20
11.1753051424
 40
0.2425055769
100
AcDbArc
 50
260.6050004885
 51
266.9371292922
  0
ARC
  5
2B2
100
AcDbEntity
  8
0
100
AcDbCircle
 62
7
  6
CONTINUOUS
 10
14.422296827
 20
13.8816689966
 40
0.230663571
100
AcDbArc
 50
351.3928464301
 51
356.0671986643
  0
ARC
  5
2B3
100
AcDbEntity
  8
02___PRT_ALL_AXES
100
AcDbCircle
 62
7
  6
CONTINUOUS
 10
16.1316898065
 20
13.6710500214
 40
0.2117666101
100
AcDbArc
 50
81.8778149617
 51
85.4022300837
  0
ARC
  5
2B4
100
AcDbEntity
  8
02___PRT_ALL_AXES
100
AcDbCircle
 62
7
  6
CONTINUOUS
 10
16.1317099462
 20
11.3504481218
 40
0.2116531152
100
AcDbArc
 50
274.2083466466
 51
278.1583397771
  0
ARC
  5
2B5
100
AcDbEntity
  8
AXIS
100
AcDbCircle
 62
7
  6
CONTINUOUS
 10
16.1619596409
 20
11.3498923109
 40
0.2093373203
100
AcDbArc
 50
261.9808861298
 51
269.9859244259
  0
ARC
  5
2B6
100
AcDbEntity
  8
AXIS
100
AcDbCircle
 62
7
  6
CONTINUOUS
 10
16.1619572785
 20
13.6717529361
 40
0.2093020585
100
AcDbArc
 50
90.0134312677
 51
98.0038650795
  0
ARC
  5
2B7
100
AcDbEntity
  8
02___PRT_ALL_AXES
100
AcDbCircle
 62
7
  6
CONTINUOUS
 10
16.1319571237
 20
11.3474495399
 40
0.208644481
100
AcDbArc
 50
270.0045606915
 51
274.2010791682
  0
ARC
  5
2B8
100
AcDbEntity
  8
02___PRT_ALL_AXES
100
AcDbCircle
 62
7
  6
CONTINUOUS
 10
16.1319620512
 20
13.6741940101
 40
0.2086109166
100
AcDbArc
 50
85.4075435558
 51
89.9967919072
  0
ARC
  5
2B9
100
AcDbEntity
  8
0
100
AcDbCircle
 62
7
  6
CONTINUOUS
 10
14.6433407347
 20
11.0805667111
 40
0.0769862494
100
AcDbArc
 50
359.3636785707
 51
0.3094374078
  0
ARC
  5
2BA
100
AcDbEntity
  8
0
100
AcDbCircle
 62
7
  6
CONTINUOUS
 10
14.5761954939
 20
13.8711495397
 40
0.0764058401
100
AcDbArc
 50
356.0216977708
 51
3.429907002
  0
ARC
  5
2BB
100
AcDbEntity
  8
0
100
AcDbCircle
 62
7
  6
CONTINUOUS
 10
14.5329768104
 20
11.2103167122
 40
0.0755846264
100
AcDbArc
 50
354.6399770506
 51
2.1124817266
  0
ARC
  5
2BC
100
AcDbEntity
  8
AXIS
100
AcDbCircle
 62
7
  6
CONTINUOUS
 10
13.9981721047
 20
39.1370749341
 40
26.1325641523
100
AcDbArc
 50
273.9967045198
 51
274.3720388161
  0
ARC
  5
2BD
100
AcDbEntity
  8
0
100
AcDbCircle
 62
7
  6
CONTINUOUS
 10
18.3081167868
 20
12.5104346044
 40
4.0294690448
100
AcDbArc
 50
180.9044559322
 51
181.8760791218
  0
ARC
  5
2BE
100
AcDbEntity
  8
0
100
AcDbCircle
 62
7
  6
CONTINUOUS
 10
18.2253915899
 20
12.5147009546
 40
3.9466665574
100
AcDbArc
 50
176.2031993043
 51
177.1877316675
  0
ARC
  5
2BF
100
AcDbEntity
  8
0
100
AcDbCircle
 62
7
  6
CONTINUOUS
 10
17.9565355953
 20
12.483963097
 40
3.6768062441
100
AcDbArc
 50
185.6744955989
 51
186.7079731513
  0
ARC
  5
2C0
100
AcDbEntity
  8
02___PRT_ALL_AXES
100
AcDbCircle
 62
7
  6
CONTINUOUS
 10
19.0679652236
 20
12.4166569561
 40
3.6671339489
100
AcDbArc
 50
189.3725566115
 51
189.7148522021
  0
ARC
  5
2C1
100
AcDbEntity
  8
0
100
AcDbCircle
 62
7
  6
CONTINUOUS
 10
17.7328755591
 20
12.5660672548
 40
3.4513404611
100
AcDbArc
 50
171.2068977543
 51
172.2827963204
  0
ARC
  5
2C2
100
AcDbEntity
  8
0
100
AcDbCircle
 62
7
  6
CONTINUOUS
 10
17.2739953548
 20
12.3754395974
 40
2.9854613009
100
AcDbArc
 50
190.8969719941
 51
192.0852324991
  0
ARC
  5
2C3
100
AcDbEntity
  8
0
100
AcDbCircle
 62
7
  6
CONTINUOUS
 10
16.9738925275
 20
12.7137245194
 40
2.6778355076
100
AcDbArc
 50
165.4644383973
 51
166.7377463962
  0
ARC
  5
2C4
100
AcDbEntity
  8
02___PRT_ALL_AXES
100
AcDbCircle
 62
7
  6
CONTINUOUS
 10
17.6851400111
 20
12.8921641235
 40
2.1458726958
100
AcDbArc
 50
160.5680872208
 51
162.8628056903
  0
SPLINE
  5
2C5
100
AcDbEntity
  8
AXIS
100
AcDbSpline
 62
7
  6
CONTINUOUS
 70
0
 71
3
 72
32
 73
28
 74
0
 42
0.0000001
 43
0.0000001
 44
0.0000000001
 40
0.0
 40
0.0
 40
0.0
 40
0.0
 40
0.1236235171
 40
0.2472352172
 40
0.3090539556
 40
0.3708969686
 40
0.4327971961
 40
0.4637935585
 40
0.4948533462
 40
0.5260426808
 40
0.5417354799
 40
0.5575584008
 40
0.5736314323
 40
0.590235956
 40
0.6078233254
 40
0.6256390617
 40
0.6424643264
 40
0.6586397603
 40
0.6745125927
 40
0.6902325052
 40
0.7214482709
 40
0.7525199353
 40
0.7835225679
 40
0.8144873035
 40
0.8763564935
 40
0.9381865363
 40
1.0
 40
1.0
 40
1.0
 40
1.0
 10
16.4042214911
 20
5.2318775924
 30
0.0
 10
16.4065285266
 20
5.2420663711
 30
0.0
 10
16.4107773338
 20
5.2625274688
 30
0.0
 10
16.415167201
 20
5.2882781439
 30
0.0
 10
16.4181233766
 20
5.308964586
 30
0.0
 10
16.4200632399
 20
5.3245257559
 30
0.0
 10
16.4214485981
 20
5.3375290552
 30
0.0
 10
16.422419884
 20
5.3479588701
 30
0.0
 10
16.4230819812
 20
5.3558107399
 30
0.0
 10
16.4235796077
 20
5.3623784098
 30
0.0
 10
16.4239494837
 20
5.3676643334
 30
0.0
 10
16.4242168208
 20
5.3716768906
 30
0.0
 10
16.424480217
 20
5.3757669177
 30
0.0
 10
16.4247546102
 20
5.3800056173
 30
0.0
 10
16.4250764938
 20
5.3843889142
 30
0.0
 10
16.4254998198
 20
5.388782398
 30
0.0
 10
16.42596678
 20
5.3930511373
 30
0.0
 10
16.4264220105
 20
5.3971559894
 30
0.0
 10
16.4268601032
 20
5.4011687615
 30
0.0
 10
16.4274195839
 20
5.4064467809
 30
0.0
 10
16.428077605
 20
5.4130058797
 30
0.0
 10
16.4287982382
 20
5.4208563696
 30
0.0
 10
16.4294486985
 20
5.4286917106
 30
0.0
 10
16.4302222322
 20
5.4391278999
 30
0.0
 10
16.4310142623
 20
5.4521744006
 30
0.0
 10
16.4316839113
 20
5.4678374684
 30
0.0
 10
16.4319429683
 20
5.4782833172
 30
0.0
 10
16.4320256178
 20
5.4835061594
 30
0.0
  0
SPLINE
  5
2C6
100
AcDbEntity
  8
AXIS
100
AcDbSpline
 62
7
  6
CONTINUOUS
 70
0
 71
3
 72
32
 73
28
 74
0
 42
0.0000001
 43
0.0000001
 44
0.0000000001
 40
0.0
 40
0.0
 40
0.0
 40
0.0
 40
0.0618103751
 40
0.1236373979
 40
0.1855035827
 40
0.216466812
 40
0.2474679252
 40
0.2785380347
 40
0.3097521932
 40
0.3254710446
 40
0.3413433682
 40
0.3575188006
 40
0.3743515355
 40
0.3921825574
 40
0.409792613
 40
0.4263971586
 40
0.4424692882
 40
0.4582912612
 40
0.4739831459
 40
0.5051707714
 40
0.5362289817
 40
0.5672237975
 40
0.6291209765
 40
0.6909609702
 40
0.7527767145
 40
0.8763824404
 40
1.0
 40
1.0
 40
1.0
 40
1.0
 10
14.6886848961
 20
5.4835061594
 30
0.0
 10
14.6887675414
 20
5.4782835782
 30
0.0
 10
14.6890265809
 20
5.4678382455
 30
0.0
 10
14.6896961762
 20
5.4521759465
 30
0.0
 10
14.690488139
 20
5.4391300795
 30
0.0
 10
14.6912616056
 20
5.4286943964
 30
0.0
 10
14.6919120078
 20
5.420859439
 30
0.0
 10
14.6926325796
 20
5.4130093408
 30
0.0
 10
14.6932905322
 20
5.4064505938
 30
0.0
 10
14.693849984
 20
5.4011728413
 30
0.0
 10
14.6942880423
 20
5.397160199
 30
0.0
 10
14.6947433135
 20
5.39305476
 30
0.0
 10
14.6952105018
 20
5.3887841103
 30
0.0
 10
14.6956340054
 20
5.3843867879
 30
0.0
 10
14.6959564848
 20
5.3800003158
 30
0.0
 10
14.6962306979
 20
5.3757597568
 30
0.0
 10
14.696494162
 20
5.3716698892
 30
0.0
 10
14.6967614901
 20
5.3676575655
 30
0.0
 10
14.6971313813
 20
5.3623719455
 30
0.0
 10
14.6976290212
 20
5.3558046328
 30
0.0
 10
14.6982911365
 20
5.3479531744
 30
0.0
 10
14.6992624381
 20
5.3375238849
 30
0.0
 10
14.7006478013
 20
5.3245212334
 30
0.0
 10
14.7025876439
 20
5.3089608329
 30
0.0
 10
14.7055437568
 20
5.2882754053
 30
0.0
 10
14.7099334788
 20
5.262525986
 30
0.0
 10
14.7141820985
 20
5.24206588
 30
0.0
 10
14.7164890228
 20
5.2318775924
 30
0.0
  0
SPLINE
  5
2C7
100
AcDbEntity
  8
02___PRT_ALL_AXES
100
AcDbSpline
 62
7
  6
CONTINUOUS
 70
0
 71
3
 72
41
 73
37
 74
0
 42
0.0000001
 43
0.0000001
 44
0.0000000001
 40
0.0
 40
0.0
 40
0.0
 40
0.0
 40
0.032027984
 40
0.06523626
 40
0.0995132372
 40
0.1347486352
 40
0.1708206164
 40
0.2076023662
 40
0.2449624806
 40
0.2827655305
 40
0.3208732439
 40
0.3591453853
 40
0.3974407022
 40
0.4356177718
 40
0.4735359112
 40
0.5110561355
 40
0.5480420174
 40
0.5843605871
 40
0.6198834288
 40
0.654487665
 40
0.688056953
 40
0.7204826993
 40
0.7516655555
 40
0.7815167724
 40
0.8099598848
 40
0.8369329594
 40
0.8623913221
 40
0.8863106089
 40
0.9086908683
 40
0.9295620004
 40
0.9489902115
 40
0.9581991841
 40
0.9670929312
 40
0.9840167973
 40
0.9921110624
 40
1.0
 40
1.0
 40
1.0
 40
1.0
 10
14.2456591087
 20
13.5956303467
 30
0.0
 10
14.2361823772
 20
13.5649636323
 30
0.0
 10
14.2180932877
 20
13.502119613
 30
0.0
 10
14.1939022193
 20
13.4053498841
 30
0.0
 10
14.1722424994
 20
13.304692061
 30
0.0
 10
14.1532082188
 20
13.2005879194
 30
0.0
 10
14.1368829139
 20
13.0934857922
 30
0.0
 10
14.1233376139
 20
12.9838517472
 30
0.0
 10
14.1126313844
 20
12.8721618714
 30
0.0
 10
14.1048113755
 20
12.7589013034
 30
0.0
 10
14.0999117815
 20
12.6445623237
 30
0.0
 10
14.09795375
 20
12.5296419224
 30
0.0
 10
14.0989458601
 20
12.4146396346
 30
0.0
 10
14.1028840783
 20
12.3000553784
 30
0.0
 10
14.1097510644
 20
12.1863872203
 30
0.0
 10
14.1195165785
 20
12.0741291464
 30
0.0
 10
14.1321379781
 20
11.9637689535
 30
0.0
 10
14.1475604179
 20
11.8557861019
 30
0.0
 10
14.1657162437
 20
11.7506494161
 30
0.0
 10
14.1865260056
 20
11.6488150609
 30
0.0
 10
14.2098989842
 20
11.5507246438
 30
0.0
 10
14.2357335541
 20
11.4568031191
 30
0.0
 10
14.263916923
 20
11.3674565458
 30
0.0
 10
14.2943266527
 20
11.2830704558
 30
0.0
 10
14.3268314994
 20
11.2040081967
 30
0.0
 10
14.3612919662
 20
11.1306089912
 30
0.0
 10
14.3975612051
 20
11.0631858652
 30
0.0
 10
14.4354868202
 20
11.0020254626
 30
0.0
 10
14.4749149365
 20
10.947385403
 30
0.0
 10
14.5156849879
 20
10.8995010534
 30
0.0
 10
14.5512682621
 20
10.8647930521
 30
0.0
 10
14.58026239
 20
10.8408029088
 30
0.0
 10
14.6085594364
 20
10.8200094511
 30
0.0
 10
14.6377629079
 20
10.8023955125
 30
0.0
 10
14.6676739691
 20
10.7884520644
 30
0.0
 10
14.6826702243
 20
10.7827694009
 30
0.0
 10
14.6901674165
 20
10.780259763
 30
0.0
  0
SPLINE
  5
2C8
100
AcDbEntity
  8
02___PRT_ALL_AXES
100
AcDbSpline
 62
7
  6
CONTINUOUS
 70
0
 71
3
 72
23
 73
19
 74
0
 42
0.0000001
 43
0.0000001
 44
0.0000000001
 40
0.0
 40
0.0
 40
0.0
 40
0.0
 40
0.0567566014
 40
0.1124830857
 40
0.1675876364
 40
0.2224958394
 40
0.2776389105
 40
0.3334415466
 40
0.3903095849
 40
0.4486213849
 40
0.5087198712
 40
0.5709088176
 40
0.6354520042
 40
0.7025716607
 40
0.7724535919
 40
0.8452458447
 40
0.9210657484
 40
1.0
 40
1.0
 40
1.0
 40
1.0
 10
14.7681162284
 20
14.2674431276
 30
0.0
 10
14.7765718413
 20
14.270273686
 30
0.0
 10
14.7935853797
 20
14.27515526
 30
0.0
 10
14.8194907394
 20
14.280062043
 30
0.0
 10
14.8454590726
 20
14.2824625545
 30
0.0
 10
14.8714460903
 20
14.282349213
 30
0.0
 10
14.8974103499
 20
14.2797247702
 30
0.0
 10
14.9233096977
 20
14.2745923222
 30
0.0
 10
14.9491043154
 20
14.2669651553
 30
0.0
 10
14.9747552426
 20
14.2568565874
 30
0.0
 10
15.0002259955
 20
14.244286081
 30
0.0
 10
15.0254816442
 20
14.2292752424
 30
0.0
 10
15.0504874626
 20
14.2118472807
 30
0.0
 10
15.0752114149
 20
14.1920302422
 30
0.0
 10
15.0996192663
 20
14.1698517524
 30
0.0
 10
15.1236801921
 20
14.1453449752
 30
0.0
 10
15.1473603724
 20
14.1185442978
 30
0.0
 10
15.1625639453
 20
14.0995584042
 30
0.0
 10
15.1701014902
 20
14.0897109945
 30
0.0
  0
SPLINE
  5
2C9
100
AcDbEntity
  8
02___PRT_ALL_AXES
100
AcDbSpline
 62
7
  6
CONTINUOUS
 70
0
 71
3
 72
23
 73
19
 74
0
 42
0.0000001
 43
0.0000001
 44
0.0000000001
 40
0.0
 40
0.0
 40
0.0
 40
0.0
 40
0.0838346687
 40
0.1650436693
 40
0.2434895293
 40
0.3190804931
 40
0.3917410857
 40
0.4614081462
 40
0.528039855
 40
0.591620661
 40
0.6521628064
 40
0.7097098985
 40
0.7643437711
 40
0.8161881557
 40
0.8654171491
 40
0.9122586948
 40
0.95700246
 40
1.0
 40
1.0
 40
1.0
 40
1.0
 10
14.2456591087
 20
13.5956303467
 30
0.0
 10
14.252336345
 20
13.6172378913
 30
0.0
 10
14.2660666173
 20
13.6595985989
 30
0.0
 10
14.2881624167
 20
13.7214662574
 30
0.0
 10
14.3113922945
 20
13.7805354064
 30
0.0
 10
14.3356996219
 20
13.8366661745
 30
0.0
 10
14.3610298709
 20
13.889731881
 30
0.0
 10
14.3873248018
 20
13.939611633
 30
0.0
 10
14.4145250405
 20
13.9861904119
 30
0.0
 10
14.4425688699
 20
14.0293618319
 30
0.0
 10
14.4713933122
 20
14.0690277992
 30
0.0
 10
14.5009355429
 20
14.1050972681
 30
0.0
 10
14.5311301652
 20
14.1374883066
 30
0.0
 10
14.5619141879
 20
14.1661245149
 30
0.0
 10
14.5932206189
 20
14.1909390442
 30
0.0
 10
14.6249874117
 20
14.2118681097
 30
0.0
 10
14.6571395044
 20
14.2288554368
 30
0.0
 10
14.6791680582
 20
14.2376682261
 30
0.0
 10
14.6901674158
 20
14.2413502365
 30
0.0
  0
SPLINE
  5
2CA
100
AcDbEntity
  8
02___PRT_ALL_AXES
100
AcDbSpline
 62
7
  6
CONTINUOUS
 70
0
 71
3
 72
23
 73
19
 74
0
 42
0.0000001
 43
0.0000001
 44
0.0000000001
 40
0.0
 40
0.0
 40
0.0
 40
0.0
 40
0.0567301832
 40
0.1124298014
 40
0.1675079813
 40
0.2223916606
 40
0.2775132347
 40
0.3332981714
 40
0.3901535465
 40
0.4484581931
 40
0.5085553123
 40
0.570749742
 40
0.635303985
 40
0.702442011
 40
0.7723475609
 40
0.8451699514
 40
0.9210253435
 40
1.0
 40
1.0
 40
1.0
 40
1.0
 10
14.7681162296
 20
10.7541668818
 30
0.0
 10
14.7765849473
 20
10.7513321691
 30
0.0
 10
14.7936249287
 20
10.7464441606
 30
0.0
 10
14.8195710881
 20
10.7415348541
 30
0.0
 10
14.8455804504
 20
10.7391414165
 30
0.0
 10
14.8716083121
 20
10.7392674006
 30
0.0
 10
14.897612939
 20
10.7419148761
 30
0.0
 10
14.923552378
 20
10.7470759895
 30
0.0
 10
14.9493860935
 20
10.7547409422
 30
0.0
 10
14.975075252
 20
10.764894406
 30
0.0
 10
15.0005835286
 20
10.7775167957
 30
0.0
 10
15.0258746913
 20
10.7925880124
 30
0.0
 10
15.0509158646
 20
10.810081893
 30
0.0
 10
15.0756723152
 20
10.829973469
 30
0.0
 10
15.1001123248
 20
10.8522318658
 30
0.0
 10
15.124202735
 20
10.8768260275
 30
0.0
 10
15.1479108223
 20
10.9037200857
 30
0.0
 10
15.1631312247
 20
10.9227703659
 30
0.0
 10
15.1706766436
 20
10.9326511067
 30
0.0
  0
SPLINE
  5
2CB
100
AcDbEntity
  8
02___PRT_ALL_AXES
100
AcDbSpline
 62
7
  6
CONTINUOUS
 70
0
 71
3
 72
34
 73
30
 74
0
 42
0.0000001
 43
0.0000001
 44
0.0000000001
 40
0.0
 40
0.0
 40
0.0
 40
0.0
 40
0.093560486
 40
0.18245555
 40
0.2664065904
 40
0.3064720432
 40
0.3452357101
 40
0.3826858503
 40
0.4188178388
 40
0.4536331339
 40
0.4871420397
 40
0.5193625805
 40
0.5503230193
 40
0.608608331
 40
0.6360734652
 40
0.6625125987
 40
0.6880203453
 40
0.7127075384
 40
0.7367005338
 40
0.7601415095
 40
0.7831854846
 40
0.8059980074
 40
0.8287509037
 40
0.8516176985
 40
0.8747686386
 40
0.8983664441
 40
0.9225624413
 40
0.9474936894
 40
1.0
 40
1.0
 40
1.0
 40
1.0
 10
14.3916098844
 20
13.5328295569
 30
0.0
 10
14.4011897286
 20
13.5638299439
 30
0.0
 10
14.4211356545
 20
13.6239061542
 30
0.0
 10
14.4543439478
 20
13.7101586286
 30
0.0
 10
14.4844577723
 20
13.7776237446
 30
0.0
 10
14.5097656629
 20
13.8280940291
 30
0.0
 10
14.5289748651
 20
13.8635589934
 30
0.0
 10
14.5486817022
 20
13.8971783603
 30
0.0
 10
14.5688589769
 20
13.92890723
 30
0.0
 10
14.5894811887
 20
13.9587021264
 30
0.0
 10
14.6105189146
 20
13.9865229101
 30
0.0
 10
14.6319470773
 20
14.0123336963
 30
0.0
 10
14.6604227192
 20
14.0433893834
 30
0.0
 10
14.6901013699
 20
14.0710708682
 30
0.0
 10
14.7209731589
 20
14.0947897114
 30
0.0
 10
14.7439163803
 20
14.1100656056
 30
0.0
 10
14.7670745013
 20
14.1231559815
 30
0.0
 10
14.7904173242
 20
14.134041941
 30
0.0
 10
14.8139140555
 20
14.1427028557
 30
0.0
 10
14.8375308479
 20
14.1491253211
 30
0.0
 10
14.8612337292
 20
14.1532955116
 30
0.0
 10
14.8849864516
 20
14.1552048161
 30
0.0
 10
14.9087520386
 20
14.1548506982
 30
0.0
 10
14.9324929936
 20
14.1522313974
 30
0.0
 10
14.9561728739
 20
14.1473549347
 30
0.0
 10
14.9797554207
 20
14.1402298522
 30
0.0
 10
15.0032083678
 20
14.1308686866
 30
0.0
 10
15.0347962529
 20
14.1151657022
 30
0.0
 10
15.0573900966
 20
14.1004237092
 30
0.0
 10
15.0719787428
 20
14.0895265885
 30
0.0
  0
SPLINE
  5
2CC
100
AcDbEntity
  8
02___PRT_ALL_AXES
100
AcDbSpline
 62
7
  6
CONTINUOUS
 70
0
 71
3
 72
22
 73
18
 74
0
 42
0.0000001
 43
0.0000001
 44
0.0000000001
 40
0.0
 40
0.0
 40
0.0
 40
0.0
 40
0.0802364225
 40
0.1583268384
 40
0.234167347
 40
0.307685633
 40
0.3788240246
 40
0.4475314821
 40
0.5137653133
 40
0.5774986135
 40
0.6387193386
 40
0.6974326624
 40
0.7536621584
 40
0.8074532355
 40
0.8588759023
 40
0.9080274172
 40
1.0
 40
1.0
 40
1.0
 40
1.0
 10
14.3169057546
 20
13.6119870517
 30
0.0
 10
14.3227627989
 20
13.6309404542
 30
0.0
 10
14.3347647362
 20
13.6682049582
 30
0.0
 10
14.3539040495
 20
13.7228523586
 30
0.0
 10
14.3739106673
 20
13.775415666
 30
0.0
 10
14.3947475782
 20
13.8258008701
 30
0.0
 10
14.4163804724
 20
13.8739230726
 30
0.0
 10
14.4387714968
 20
13.9197014849
 30
0.0
 10
14.4618836575
 20
13.9630570819
 30
0.0
 10
14.4856766522
 20
14.0039158017
 30
0.0
 10
14.5101109136
 20
14.0422078392
 30
0.0
 10
14.5351448304
 20
14.0778681815
 30
0.0
 10
14.5607373427
 20
14.1108363429
 30
0.0
 10
14.5868446179
 20
14.1410547032
 30
0.0
 10
14.6134291808
 20
14.1684760764
 30
0.0
 10
14.6486551474
 20
14.2005202158
 30
0.0
 10
14.6768335304
 20
14.2213867914
 30
0.0
 10
14.6961880151
 20
14.2333234974
 30
0.0
  0
SPLINE
  5
2CD
100
AcDbEntity
  8
02___PRT_ALL_AXES
100
AcDbSpline
 62
7
  6
CONTINUOUS
 70
0
 71
3
 72
9
 73
5
 74
0
 42
0.0000001
 43
0.0000001
 44
0.0000000001
 40
0.0
 40
0.0
 40
0.0
 40
0.0
 40
0.511151584
 40
1.0
 40
1.0
 40
1.0
 40
1.0
 10
14.6961880151
 20
14.2333234974
 30
0.0
 10
14.7077522744
 20
14.2404556513
 30
0.0
 10
14.7311066274
 20
14.2532700308
 30
0.0
 10
14.7557943839
 20
14.2633183289
 30
0.0
 10
14.7681162284
 20
14.2674431276
 30
0.0
  0
SPLINE
  5
2CE
100
AcDbEntity
  8
02___PRT_ALL_AXES
100
AcDbSpline
 62
7
  6
CONTINUOUS
 70
0
 71
3
 72
40
 73
36
 74
0
 42
0.0000001
 43
0.0000001
 44
0.0000000001
 40
0.0
 40
0.0
 40
0.0
 40
0.0
 40
0.0312052456
 40
0.0635086815
 40
0.0968120838
 40
0.1310195619
 40
0.1660249736
 40
0.2017177317
 40
0.2379833869
 40
0.2747037967
 40
0.3117581505
 40
0.3490237394
 40
0.3863766386
 40
0.4236923914
 40
0.4608467781
 40
0.4977165177
 40
0.5341799272
 40
0.5701177386
 40
0.6054138523
 40
0.6399560204
 40
0.6736367029
 40
0.7063540754
 40
0.7380128256
 40
0.7685251468
 40
0.7978121338
 40
0.8258051125
 40
0.8524471112
 40
0.8776949311
 40
0.9015218103
 40
0.9239202446
 40
0.9449057741
 40
0.9548833667
 40
0.9645267821
 40
0.9828509049
 40
1.0
 40
1.0
 40
1.0
 40
1.0
 10
14.3169057546
 20
13.6119870517
 30
0.0
 10
14.3077783055
 20
13.5824506157
 30
0.0
 10
14.2903106806
 20
13.5219909475
 30
0.0
 10
14.2668013925
 20
13.42899015
 30
0.0
 10
14.2456013824
 20
13.3323887027
 30
0.0
 10
14.226793888
 20
13.2325694733
 30
0.0
 10
14.2104530511
 20
13.1299201382
 30
0.0
 10
14.1966430737
 20
13.0248436863
 30
0.0
 10
14.1854183028
 20
12.9177518111
 30
0.0
 10
14.1768234063
 20
12.8090641172
 30
0.0
 10
14.1708919639
 20
12.6992068156
 30
0.0
 10
14.1676472345
 20
12.5886106824
 30
0.0
 10
14.1671022482
 20
12.4777094112
 30
0.0
 10
14.1692592651
 20
12.3669379355
 30
0.0
 10
14.1741094599
 20
12.2567306548
 30
0.0
 10
14.1816337288
 20
12.1475197321
 30
0.0
 10
14.1918027499
 20
12.0397334086
 30
0.0
 10
14.2045762191
 20
11.9337941952
 30
0.0
 10
14.2199036106
 20
11.8301172166
 30
0.0
 10
14.2377247133
 20
11.7291086701
 30
0.0
 10
14.2579695398
 20
11.6311640944
 30
0.0
 10
14.2805580471
 20
11.5366666012
 30
0.0
 10
14.3054013727
 20
11.4459855394
 30
0.0
 10
14.3324023302
 20
11.3594750602
 30
0.0
 10
14.3614549789
 20
11.2774722596
 30
0.0
 10
14.3924456098
 20
11.200295866
 30
0.0
 10
14.4252540189
 20
11.1282450915
 30
0.0
 10
14.4597538638
 20
11.0615987003
 30
0.0
 10
14.4958138767
 20
11.0006118274
 30
0.0
 10
14.5332966899
 20
10.9455210392
 30
0.0
 10
14.5661403884
 20
10.9040223489
 30
0.0
 10
14.5930458332
 20
10.8740997071
 30
0.0
 10
14.6194000318
 20
10.8472786083
 30
0.0
 10
14.6529240718
 20
10.8176039938
 30
0.0
 10
14.681678222
 20
10.797237915
 30
0.0
 10
14.6961372998
 20
10.7883175242
 30
0.0
  0
SPLINE
  5
2CF
100
AcDbEntity
  8
02___PRT_ALL_AXES
100
AcDbSpline
 62
7
  6
CONTINUOUS
 70
0
 71
3
 72
9
 73
5
 74
0
 42
0.0000001
 43
0.0000001
 44
0.0000000001
 40
0.0
 40
0.0
 40
0.0
 40
0.0
 40
0.5111600189
 40
1.0
 40
1.0
 40
1.0
 40
1.0
 10
14.6961372998
 20
10.7883175242
 30
0.0
 10
14.7077093272
 20
10.7811782718
 30
0.0
 10
14.7310798285
 20
10.7683520417
 30
0.0
 10
14.7557853237
 20
10.7582943752
 30
0.0
 10
14.7681162296
 20
10.7541668818
 30
0.0
  0
SPLINE
  5
2D0
100
AcDbEntity
  8
02___PRT_ALL_AXES
100
AcDbSpline
 62
7
  6
CONTINUOUS
 70
0
 71
3
 72
52
 73
48
 74
0
 42
0.0000001
 43
0.0000001
 44
0.0000000001
 40
0.0
 40
0.0
 40
0.0
 40
0.0
 40
0.0349881933
 40
0.0714829421
 40
0.1093128026
 40
0.1482975826
 40
0.1882421025
 40
0.2289431054
 40
0.270189765
 40
0.3117662892
 40
0.353453852
 40
0.3950326309
 40
0.4362837994
 40
0.4769915218
 40
0.5169449884
 40
0.5559405129
 40
0.5937837546
 40
0.6302921061
 40
0.6652972768
 40
0.6986482359
 40
0.7146631186
 40
0.7302175081
 40
0.7452990877
 40
0.7598974826
 40
0.7740041682
 40
0.78761331
 40
0.8007212261
 40
0.8133275207
 40
0.8254347624
 40
0.8370492639
 40
0.8481815329
 40
0.8588464269
 40
0.869064333
 40
0.8788609802
 40
0.8973121145
 40
0.9060654663
 40
0.9145673925
 40
0.9228770001
 40
0.9310589476
 40
0.939181632
 40
0.9473153777
 40
0.955530129
 40
0.9638933395
 40
0.9724679854
 40
0.981311427
 40
0.990474167
 40
1.0
 40
1.0
 40
1.0
 40
1.0
 10
14.3916098844
 20
13.5328295569
 30
0.0
 10
14.3809016324
 20
13.4981776407
 30
0.0
 10
14.3606715985
 20
13.4268643152
 30
0.0
 10
14.3342965793
 20
13.3166341336
 30
0.0
 10
14.311372542
 20
13.2014082938
 30
0.0
 10
14.292042209
 20
13.0819045296
 30
0.0
 10
14.2764268564
 20
12.9588596536
 30
0.0
 10
14.2646237485
 20
12.8330369204
 30
0.0
 10
14.2567069264
 20
12.7052158156
 30
0.0
 10
14.2527258846
 20
12.5761890029
 30
0.0
 10
14.2527054743
 20
12.4467566757
 30
0.0
 10
14.2566457866
 20
12.3177216011
 30
0.0
 10
14.2645221561
 20
12.189884007
 30
0.0
 10
14.2762853279
 20
12.0640365236
 30
0.0
 10
14.2918617637
 20
11.940959191
 30
0.0
 10
14.3111541543
 20
11.8214143896
 30
0.0
 10
14.3340419844
 20
11.7061422073
 30
0.0
 10
14.3603824101
 20
11.5958544506
 30
0.0
 10
14.3900111253
 20
11.4912339317
 30
0.0
 10
14.4176503129
 20
11.4082178118
 30
0.0
 10
14.4413422928
 20
11.3452227334
 30
0.0
 10
14.4595726905
 20
11.3004256214
 30
0.0
 10
14.4784760397
 20
11.2575076507
 30
0.0
 10
14.4980226782
 20
11.216534688
 30
0.0
 10
14.5181837113
 20
11.1775705388
 30
0.0
 10
14.5389265324
 20
11.14067461
 30
0.0
 10
14.5602210158
 20
11.1059044466
 30
0.0
 10
14.5820334213
 20
11.0733129727
 30
0.0
 10
14.6043313827
 20
11.0429505762
 30
0.0
 10
14.6270813956
 20
11.0148642306
 30
0.0
 10
14.6502489855
 20
10.9890963373
 30
0.0
 10
14.6738001213
 20
10.9656888857
 30
0.0
 10
14.6977029908
 20
10.9446744275
 30
0.0
 10
14.7293488695
 20
10.9203874696
 30
0.0
 10
14.7622470859
 20
10.900302941
 30
0.0
 10
14.796090525
 20
10.8852157438
 30
0.0
 10
14.8212025776
 20
10.8766291815
 30
0.0
 10
14.8464407165
 20
10.870599154
 30
0.0
 10
14.87176271
 20
10.8671359171
 30
0.0
 10
14.8971236224
 20
10.8662510962
 30
0.0
 10
14.9224772394
 20
10.867944919
 30
0.0
 10
14.9477778178
 20
10.8722138572
 30
0.0
 10
14.9729806051
 20
10.8790479814
 30
0.0
 10
14.9980438215
 20
10.8884298801
 30
0.0
 10
15.0229267596
 20
10.9003423514
 30
0.0
 10
15.0475911612
 20
10.9147586201
 30
0.0
 10
15.0635364631
 20
10.9257965603
 30
0.0
 10
15.0714564255
 20
10.93169397
 30
0.0
  0
SPLINE
  5
2D1
100
AcDbEntity
  8
02___PRT_ALL_AXES
100
AcDbSpline
 62
7
  6
CONTINUOUS
 70
0
 71
3
 72
23
 73
19
 74
0
 42
0.0000001
 43
0.0000001
 44
0.0000000001
 40
0.0
 40
0.0
 40
0.0
 40
0.0
 40
0.0426285774
 40
0.0859998629
 40
0.1308108304
 40
0.1776770664
 40
0.2271131305
 40
0.2795289354
 40
0.335232959
 40
0.3944462074
 40
0.4573098827
 40
0.5239019816
 40
0.5942437678
 40
0.6683089634
 40
0.7460288179
 40
0.8273093295
 40
0.912029545
 40
1.0
 40
1.0
 40
1.0
 40
1.0
 10
16.1319737317
 20
13.8828049263
 30
0.0
 10
16.1219351278
 20
13.8828047471
 30
0.0
 10
16.1016535491
 20
13.8813271891
 30
0.0
 10
16.0714696558
 20
13.8747139087
 30
0.0
 10
16.0415226795
 20
13.8637401385
 30
0.0
 10
16.0119221405
 20
13.8484664095
 30
0.0
 10
15.9827532989
 20
13.8289635703
 30
0.0
 10
15.9540995589
 20
13.8053054778
 30
0.0
 10
15.9260375004
 20
13.7775758199
 30
0.0
 10
15.8986478281
 20
13.7458622412
 30
0.0
 10
15.8720066744
 20
13.7102660329
 30
0.0
 10
15.8461943684
 20
13.6708960401
 30
0.0
 10
15.8212872287
 20
13.6278748664
 30
0.0
 10
15.7973622759
 20
13.5813362369
 30
0.0
 10
15.7744926159
 20
13.5314247335
 30
0.0
 10
15.7527486559
 20
13.4782931402
 30
0.0
 10
15.7322019892
 20
13.4221121744
 30
0.0
 10
15.7195726833
 20
13.3834465231
 30
0.0
 10
15.7134562907
 20
13.3636538694
 30
0.0
  0
SPLINE
  5
2D2
100
AcDbEntity
  8
02___PRT_ALL_AXES
100
AcDbSpline
 62
7
  6
CONTINUOUS
 70
0
 71
3
 72
28
 73
24
 74
0
 42
0.0000001
 43
0.0000001
 44
0.0000000001
 40
0.0
 40
0.0
 40
0.0
 40
0.0
 40
0.022910253
 40
0.0454449955
 40
0.0677236623
 40
0.0898711362
 40
0.112014933
 40
0.1342827335
 40
0.1567994808
 40
0.1796851489
 40
0.2030525826
 40
0.2270056094
 40
0.2770098096
 40
0.3303593094
 40
0.3875243486
 40
0.4488308955
 40
0.5144813152
 40
0.5845749623
 40
0.6591273658
 40
0.7380837637
 40
0.8213278067
 40
0.9087067175
 40
1.0
 40
1.0
 40
1.0
 40
1.0
 10
16.1741087073
 20
14.267443104
 30
0.0
 10
16.1668452699
 20
14.2698743763
 30
0.0
 10
16.1522500601
 20
14.2741595132
 30
0.0
 10
16.1300689172
 20
14.2788174775
 30
0.0
 10
16.1078347063
 20
14.2816357048
 30
0.0
 10
16.0855745779
 20
14.2826108266
 30
0.0
 10
16.0633135516
 20
14.2817416472
 30
0.0
 10
16.0410775579
 20
14.2790279742
 30
0.0
 10
16.0188916146
 20
14.2744755785
 30
0.0
 10
15.996780713
 20
14.2680899448
 30
0.0
 10
15.974768333
 20
14.2598789634
 30
0.0
 10
15.9451620009
 20
14.2463222967
 30
0.0
 10
15.9084091153
 20
14.2245942652
 30
0.0
 10
15.8657749606
 20
14.1918199853
 30
0.0
 10
15.8241160044
 20
14.1521306386
 30
0.0
 10
15.7835855078
 20
14.105700503
 30
0.0
 10
15.744327855
 20
14.0527192364
 30
0.0
 10
15.706491298
 20
13.9934009139
 30
0.0
 10
15.6702229308
 20
13.92798381
 30
0.0
 10
15.6356678599
 20
13.8567326874
 30
0.0
 10
15.602963386
 20
13.779934647
 30
0.0
 10
15.5722462241
 20
13.6979063828
 30
0.0
 10
15.5535673651
 20
13.6411483289
 30
0.0
 10
15.5445558489
 20
13.6119870517
 30
0.0
  0
SPLINE
  5
2D3
100
AcDbEntity
  8
02___PRT_ALL_AXES
100
AcDbSpline
 62
7
  6
CONTINUOUS
 70
0
 71
3
 72
23
 73
19
 74
0
 42
0.0000001
 43
0.0000001
 44
0.0000000001
 40
0.0
 40
0.0
 40
0.0
 40
0.0
 40
0.0838346687
 40
0.1650436693
 40
0.2434895293
 40
0.3190804931
 40
0.3917410857
 40
0.4614081462
 40
0.528039855
 40
0.591620661
 40
0.6521628064
 40
0.7097098985
 40
0.7643437711
 40
0.8161881557
 40
0.8654171491
 40
0.9122586948
 40
0.95700246
 40
1.0
 40
1.0
 40
1.0
 40
1.0
 10
16.6965658283
 20
11.4259796391
 30
0.0
 10
16.689888592
 20
11.4043720945
 30
0.0
 10
16.6761583196
 20
11.3620113869
 30
0.0
 10
16.6540625203
 20
11.3001437284
 30
0.0
 10
16.6308326425
 20
11.2410745794
 30
0.0
 10
16.606525315
 20
11.1849438113
 30
0.0
 10
16.5811950661
 20
11.1318781049
 30
0.0
 10
16.5549001351
 20
11.0819983528
 30
0.0
 10
16.5276998964
 20
11.0354195739
 30
0.0
 10
16.4996560671
 20
10.9922481539
 30
0.0
 10
16.4708316248
 20
10.9525821866
 30
0.0
 10
16.4412893941
 20
10.9165127177
 30
0.0
 10
16.4110947718
 20
10.8841216792
 30
0.0
 10
16.380310749
 20
10.8554854709
 30
0.0
 10
16.3490043181
 20
10.8306709416
 30
0.0
 10
16.3172375253
 20
10.8097418761
 30
0.0
 10
16.2850854326
 20
10.792754549
 30
0.0
 10
16.2630568787
 20
10.7839417597
 30
0.0
 10
16.2520575212
 20
10.7802597493
 30
0.0
  0
SPLINE
  5
2D4
100
AcDbEntity
  8
02___PRT_ALL_AXES
100
AcDbSpline
 62
7
  6
CONTINUOUS
 70
0
 71
3
 72
41
 73
37
 74
0
 42
0.0000001
 43
0.0000001
 44
0.0000000001
 40
0.0
 40
0.0
 40
0.0
 40
0.0
 40
0.032027984
 40
0.06523626
 40
0.0995132372
 40
0.1347486352
 40
0.1708206164
 40
0.2076023662
 40
0.2449624806
 40
0.2827655305
 40
0.3208732439
 40
0.3591453853
 40
0.3974407022
 40
0.4356177718
 40
0.4735359112
 40
0.5110561355
 40
0.5480420174
 40
0.5843605871
 40
0.6198834288
 40
0.654487665
 40
0.688056953
 40
0.7204826993
 40
0.7516655555
 40
0.7815167724
 40
0.8099598848
 40
0.8369329594
 40
0.8623913221
 40
0.8863106089
 40
0.9086908683
 40
0.9295620004
 40
0.9489902115
 40
0.9581991841
 40
0.9670929312
 40
0.9840167973
 40
0.9921110624
 40
1.0
 40
1.0
 40
1.0
 40
1.0
 10
16.6965658283
 20
11.4259796391
 30
0.0
 10
16.7060425598
 20
11.4566463535
 30
0.0
 10
16.7241316492
 20
11.5194903728
 30
0.0
 10
16.7483227176
 20
11.6162601017
 30
0.0
 10
16.7699824376
 20
11.7169179249
 30
0.0
 10
16.7890167182
 20
11.8210220664
 30
0.0
 10
16.8053420231
 20
11.9281241937
 30
0.0
 10
16.8188873231
 20
12.0377582386
 30
0.0
 10
16.8295935526
 20
12.1494481144
 30
0.0
 10
16.8374135615
 20
12.2627086824
 30
0.0
 10
16.8423131554
 20
12.3770476622
 30
0.0
 10
16.8442711869
 20
12.4919680634
 30
0.0
 10
16.8432790768
 20
12.6069703512
 30
0.0
 10
16.8393408587
 20
12.7215546074
 30
0.0
 10
16.8324738726
 20
12.8352227655
 30
0.0
 10
16.8227083585
 20
12.9474808394
 30
0.0
 10
16.8100869589
 20
13.0578410323
 30
0.0
 10
16.7946645191
 20
13.1658238839
 30
0.0
 10
16.7765086932
 20
13.2709605697
 30
0.0
 10
16.7556989314
 20
13.372794925
 30
0.0
 10
16.7323259528
 20
13.470885342
 30
0.0
 10
16.7064913828
 20
13.5648068668
 30
0.0
 10
16.678308014
 20
13.65415344
 30
0.0
 10
16.6478982843
 20
13.73853953
 30
0.0
 10
16.6153934375
 20
13.8176017891
 30
0.0
 10
16.5809329707
 20
13.8910009946
 30
0.0
 10
16.5446637319
 20
13.9584241206
 30
0.0
 10
16.5067381168
 20
14.0195845232
 30
0.0
 10
16.4673100005
 20
14.0742245828
 30
0.0
 10
16.4265399491
 20
14.1221089324
 30
0.0
 10
16.3909566748
 20
14.1568169337
 30
0.0
 10
16.3619625469
 20
14.180807077
 30
0.0
 10
16.3336655005
 20
14.2016005347
 30
0.0
 10
16.304462029
 20
14.2192144733
 30
0.0
 10
16.2745509679
 20
14.2331579214
 30
0.0
 10
16.2595547127
 20
14.2388405849
 30
0.0
 10
16.2520575205
 20
14.2413502229
 30
0.0
  0
SPLINE
  5
2D5
100
AcDbEntity
  8
02___PRT_ALL_AXES
100
AcDbSpline
 62
7
  6
CONTINUOUS
 70
0
 71
3
 72
36
 73
32
 74
0
 42
0.0000001
 43
0.0000001
 44
0.0000000001
 40
0.0
 40
0.0
 40
0.0
 40
0.0
 40
0.0204252225
 40
0.0404639714
 40
0.0602858991
 40
0.0800677017
 40
0.099987356
 40
0.1202184195
 40
0.1409244882
 40
0.1622555904
 40
0.1843447636
 40
0.2073077651
 40
0.2312417942
 40
0.2562274123
 40
0.2823285651
 40
0.3095950143
 40
0.3380630995
 40
0.3677575468
 40
0.3986928138
 40
0.4308738252
 40
0.4642978532
 40
0.4989542188
 40
0.5348265493
 40
0.5718917938
 40
0.6101225284
 40
0.6494858031
 40
0.6899450759
 40
0.7314593836
 40
0.8174680315
 40
0.9071263125
 40
1.0
 40
1.0
 40
1.0
 40
1.0
 10
16.1741087085
 20
10.7541668582
 30
0.0
 10
16.1650564581
 20
10.7511365724
 30
0.0
 10
16.1468290826
 20
10.7459675739
 30
0.0
 10
16.1190500644
 20
10.7409919582
 30
0.0
 10
16.0912040712
 20
10.7388981404
 30
0.0
 10
16.0633468449
 20
10.7396930222
 30
0.0
 10
16.0355303151
 20
10.7433731583
 30
0.0
 10
16.0078067362
 20
10.7499305721
 30
0.0
 10
15.9802247949
 20
10.7593469152
 30
0.0
 10
15.9528320053
 20
10.7716030647
 30
0.0
 10
15.9256712065
 20
10.7866709582
 30
0.0
 10
15.8987858767
 20
10.8045238651
 30
0.0
 10
15.872215359
 20
10.8251275338
 30
0.0
 10
15.8460010538
 20
10.8484482461
 30
0.0
 10
15.8201813501
 20
10.8744459805
 30
0.0
 10
15.7947963778
 20
10.903079225
 30
0.0
 10
15.769884594
 20
10.9343014044
 30
0.0
 10
15.7454846814
 20
10.9680626426
 30
0.0
 10
15.7216350922
 20
11.0043091255
 30
0.0
 10
15.6983726513
 20
11.0429826211
 30
0.0
 10
15.6757352514
 20
11.0840217773
 30
0.0
 10
15.6537575904
 20
11.1273603925
 30
0.0
 10
15.6324762755
 20
11.1729295977
 30
0.0
 10
15.6119238236
 20
11.2206557703
 30
0.0
 10
15.5921347734
 20
11.2704627782
 30
0.0
 10
15.5731395982
 20
11.3222701262
 30
0.0
 10
15.5549698456
 20
11.3759950186
 30
0.0
 10
15.531607357
 20
11.4509535148
 30
0.0
 10
15.504763544
 20
11.548879353
 30
0.0
 10
15.4766395262
 20
11.6712250763
 30
0.0
 10
15.4607434952
 20
11.7550636262
 30
0.0
 10
15.453418855
 20
11.7978468494
 30
0.0
  0
SPLINE
  5
2D6
100
AcDbEntity
  8
02___PRT_ALL_AXES
100
AcDbSpline
 62
7
  6
CONTINUOUS
 70
0
 71
3
 72
15
 73
11
 74
0
 42
0.0000001
 43
0.0000001
 44
0.0000000001
 40
0.0
 40
0.0
 40
0.0
 40
0.0
 40
0.1214285427
 40
0.2461041874
 40
0.3729381168
 40
0.5008076751
 40
0.6285742752
 40
0.755100904
 40
0.8792697284
 40
1.0
 40
1.0
 40
1.0
 40
1.0
 10
15.4497864938
 20
11.8194517328
 30
0.0
 10
15.4404326582
 20
11.8761184397
 30
0.0
 10
15.4241412324
 20
11.9914214664
 30
0.0
 10
15.4069715053
 20
12.1670256073
 30
0.0
 10
15.3968583297
 20
12.3462299176
 30
0.0
 10
15.3939094948
 20
12.5271551248
 30
0.0
 10
15.3981560847
 20
12.707909241
 30
0.0
 10
15.4095532118
 20
12.8866022115
 30
0.0
 10
15.4279794061
 20
13.0613602237
 30
0.0
 10
15.4451090191
 20
13.1759662859
 30
0.0
 10
15.4548782208
 20
13.232227681
 30
0.0
  0
LINE
  5
2D7
100
AcDbEntity
  8
02___PRT_ALL_AXES
100
AcDbLine
 62
7
  6
CONTINUOUS
 10
15.4548782208
 20
13.232227681
 11
15.456092252
 21
13.2391791219
  0
SPLINE
  5
2D8
100
AcDbEntity
  8
02___PRT_ALL_AXES
100
AcDbSpline
 62
7
  6
CONTINUOUS
 70
0
 71
3
 72
11
 73
7
 74
0
 42
0.0000001
 43
0.0000001
 44
0.0000000001
 40
0.0
 40
0.0
 40
0.0
 40
0.0
 40
0.2609723767
 40
0.5151057285
 40
0.761691757
 40
1.0
 40
1.0
 40
1.0
 40
1.0
 10
15.456092252
 20
13.2391791219
 30
0.0
 10
15.4618622091
 20
13.2720280253
 30
0.0
 10
15.4741495348
 20
13.3367114731
 30
0.0
 10
15.4951264857
 20
13.4317820989
 30
0.0
 10
15.5183435746
 20
13.523346277
 30
0.0
 10
15.5355639814
 20
13.5828893578
 30
0.0
 10
15.5445558489
 20
13.6119870517
 30
0.0
  0
SPLINE
  5
2D9
100
AcDbEntity
  8
02___PRT_ALL_AXES
100
AcDbSpline
 62
7
  6
CONTINUOUS
 70
0
 71
3
 72
42
 73
38
 74
0
 42
0.0000001
 43
0.0000001
 44
0.0000000001
 40
0.0
 40
0.0
 40
0.0
 40
0.0
 40
0.0076948283
 40
0.0154421525
 40
0.0232931042
 40
0.0312964561
 40
0.0394974252
 40
0.047937093
 40
0.0656647145
 40
0.0847293059
 40
0.1052990337
 40
0.1274817474
 40
0.1513348245
 40
0.1768750017
 40
0.2040861688
 40
0.2329248097
 40
0.263324973
 40
0.2952022383
 40
0.3284561855
 40
0.3629728208
 40
0.39862698
 40
0.435283777
 40
0.4728000304
 40
0.5110260483
 40
0.5498067804
 40
0.5889829482
 40
0.6283925136
 40
0.6678717444
 40
0.7072563481
 40
0.7463828201
 40
0.7850894123
 40
0.8232173457
 40
0.8606126629
 40
0.8971260794
 40
0.9326147944
 40
0.9669503637
 40
1.0
 40
1.0
 40
1.0
 40
1.0
 10
16.1319737317
 20
11.1388050595
 30
0.0
 10
16.1257309828
 20
11.1388049481
 30
0.0
 10
16.1131956589
 20
11.1393707731
 30
0.0
 10
16.0944459843
 20
11.1419117927
 30
0.0
 10
16.0757461541
 20
11.1461405238
 30
0.0
 10
16.0571236315
 20
11.1520515529
 30
0.0
 10
16.0386008524
 20
11.1596343091
 30
0.0
 10
16.0136636782
 20
11.1721597463
 30
0.0
 10
15.9827790214
 20
11.1922093438
 30
0.0
 10
15.9471562578
 20
11.2223099417
 30
0.0
 10
15.9124999673
 20
11.2586776652
 30
0.0
 10
15.8789599238
 20
11.3011289857
 30
0.0
 10
15.8466773908
 20
11.3494614997
 30
0.0
 10
15.8157982797
 20
11.403445785
 30
0.0
 10
15.7864667431
 20
11.462825596
 30
0.0
 10
15.7588218233
 20
11.527316431
 30
0.0
 10
15.7329962202
 20
11.5966076252
 30
0.0
 10
15.7091159723
 20
11.6703642948
 30
0.0
 10
15.6872977793
 20
11.7482284423
 30
0.0
 10
15.6676479839
 20
11.8298209747
 30
0.0
 10
15.6502634438
 20
11.9147442362
 30
0.0
 10
15.6352300612
 20
12.0025837449
 30
0.0
 10
15.6226211951
 20
12.0929101534
 30
0.0
 10
15.6124990456
 20
12.1852818133
 30
0.0
 10
15.6049140642
 20
12.2792469037
 30
0.0
 10
15.5999030835
 20
12.3743455269
 30
0.0
 10
15.5974906691
 20
12.4701121765
 30
0.0
 10
15.5976893073
 20
12.5660780428
 30
0.0
 10
15.6004977191
 20
12.6617733222
 30
0.0
 10
15.6059017298
 20
12.7567295561
 30
0.0
 10
15.6138751983
 20
12.850481862
 30
0.0
 10
15.6243787757
 20
12.9425716412
 30
0.0
 10
15.637360447
 20
13.0325483417
 30
0.0
 10
15.652756243
 20
13.1199711268
 30
0.0
 10
15.6704908394
 20
13.2044164693
 30
0.0
 10
15.6904771352
 20
13.285466138
 30
0.0
 10
15.7055398556
 20
13.3380362762
 30
0.0
 10
15.7134562907
 20
13.3636538694
 30
0.0
  0
SPLINE
  5
2DA
100
AcDbEntity
  8
02___PRT_ALL_AXES
100
AcDbSpline
 62
7
  6
CONTINUOUS
 70
0
 71
3
 72
26
 73
22
 74
0
 42
0.0000001
 43
0.0000001
 44
0.0000000001
 40
0.0
 40
0.0
 40
0.0
 40
0.0
 40
0.0503691339
 40
0.0996599979
 40
0.1241353845
 40
0.1486100756
 40
0.1731755335
 40
0.1979218833
 40
0.2229369616
 40
0.2483051031
 40
0.3003921112
 40
0.3547839844
 40
0.4119634605
 40
0.4723198928
 40
0.5361524251
 40
0.6036801258
 40
0.6750520742
 40
0.7503553227
 40
0.8296266443
 40
0.9128572395
 40
1.0
 40
1.0
 40
1.0
 40
1.0
 10
16.2520575205
 20
14.2413502229
 30
0.0
 10
16.2406085712
 20
14.2451826867
 30
0.0
 10
16.2174728934
 20
14.2514141279
 30
0.0
 10
16.1878939231
 20
14.255391243
 30
0.0
 10
16.1643442462
 20
14.2561868502
 30
0.0
 10
16.1467187532
 20
14.2556086876
 30
0.0
 10
16.1291064469
 20
14.2538570246
 30
0.0
 10
16.1115191937
 20
14.2509341542
 30
0.0
 10
16.0939691797
 20
14.2468412901
 30
0.0
 10
16.0704333651
 20
14.2397688046
 30
0.0
 10
16.0410579329
 20
14.2278963281
 30
0.0
 10
16.0065101325
 20
14.2091595314
 30
0.0
 10
15.9724280723
 20
14.185875688
 30
0.0
 10
15.9388991914
 20
14.1581172183
 30
0.0
 10
15.906001383
 20
14.1259648806
 30
0.0
 10
15.8738142279
 20
14.089506587
 30
0.0
 10
15.8424175879
 20
14.0488390062
 30
0.0
 10
15.811888916
 20
14.004070383
 30
0.0
 10
15.782307604
 20
13.9553171473
 30
0.0
 10
15.7537493346
 20
13.9027094731
 30
0.0
 10
15.7358473037
 20
13.865988835
 30
0.0
 10
15.7270626962
 20
13.8470379503
 30
0.0
  0
SPLINE
  5
2DB
100
AcDbEntity
  8
02___PRT_ALL_AXES
100
AcDbSpline
 62
7
  6
CONTINUOUS
 70
0
 71
3
 72
11
 73
7
 74
0
 42
0.0000001
 43
0.0000001
 44
0.0000000001
 40
0.0
 40
0.0
 40
0.0
 40
0.0
 40
0.236309374
 40
0.4819736808
 40
0.7366892902
 40
1.0
 40
1.0
 40
1.0
 40
1.0
 10
15.7264733981
 20
13.8457652046
 30
0.0
 10
15.7176247478
 20
13.8266322119
 30
0.0
 10
15.7003448062
 20
13.7872499927
 30
0.0
 10
15.6760950534
 20
13.7261579814
 30
0.0
 10
15.6530649484
 20
13.662031365
 30
0.0
 10
15.6387908971
 20
13.6180719904
 30
0.0
 10
15.6318559047
 20
13.5956303467
 30
0.0
  0
SPLINE
  5
2DC
100
AcDbEntity
  8
02___PRT_ALL_AXES
100
AcDbSpline
 62
7
  6
CONTINUOUS
 70
0
 71
3
 72
53
 73
49
 74
0
 42
0.0000001
 43
0.0000001
 44
0.0000000001
 40
0.0
 40
0.0
 40
0.0
 40
0.0
 40
0.0349682653
 40
0.0714404369
 40
0.109245626
 40
0.1482043071
 40
0.1881219848
 40
0.228796126
 40
0.2700166455
 40
0.3115684975
 40
0.3532335989
 40
0.3947928526
 40
0.4360281279
 40
0.476724243
 40
0.5166709862
 40
0.5556651998
 40
0.5935129913
 40
0.6300320982
 40
0.6650544494
 40
0.6984290822
 40
0.7144581907
 40
0.7300283807
 40
0.7451272551
 40
0.7597443958
 40
0.7738711662
 40
0.7875016233
 40
0.8006319509
 40
0.8132615526
 40
0.8253928158
 40
0.8370317603
 40
0.8481886191
 40
0.8588778674
 40
0.8691194764
 40
0.8789387011
 40
0.8883672886
 40
0.8974434931
 40
0.9062124949
 40
0.9147264774
 40
0.9230438948
 40
0.9312288397
 40
0.9393492542
 40
0.9474751653
 40
0.9556763916
 40
0.9640204515
 40
0.9725705244
 40
0.981384306
 40
0.9905127216
 40
1.0
 40
1.0
 40
1.0
 40
1.0
 10
16.6294075489
 20
11.4971414498
 30
0.0
 10
16.6400131932
 20
11.5314613273
 30
0.0
 10
16.6600511642
 20
11.6020888244
 30
0.0
 10
16.6861815311
 20
11.7112555724
 30
0.0
 10
16.7088989661
 20
11.8253654112
 30
0.0
 10
16.7280624363
 20
11.9437094854
 30
0.0
 10
16.7435520407
 20
12.0655601647
 30
0.0
 10
16.755271567
 20
12.1901636766
 30
0.0
 10
16.763147699
 20
12.3167502177
 30
0.0
 10
16.767131338
 20
12.4445369427
 30
0.0
 10
16.7671976887
 20
12.5727335325
 30
0.0
 10
16.7633463717
 20
12.7005470754
 30
0.0
 10
16.7556014278
 20
12.8271871014
 30
0.0
 10
16.7440111532
 20
12.9518705636
 30
0.0
 10
16.728647803
 20
13.0738267552
 30
0.0
 10
16.709607082
 20
13.1923023075
 30
0.0
 10
16.68700762
 20
13.3065657593
 30
0.0
 10
16.6609900785
 20
13.4159134495
 30
0.0
 10
16.6317162884
 20
13.5196702196
 30
0.0
 10
16.6044031806
 20
13.6020226049
 30
0.0
 10
16.5809871183
 20
13.6645318513
 30
0.0
 10
16.5629661634
 20
13.7089957055
 30
0.0
 10
16.5442780077
 20
13.7516044257
 30
0.0
 10
16.5249520909
 20
13.7922928512
 30
0.0
 10
16.5050167741
 20
13.8309977522
 30
0.0
 10
16.4845042492
 20
13.8676602744
 30
0.0
 10
16.463444325
 20
13.9022234469
 30
0.0
 10
16.4418700857
 20
13.9346346952
 30
0.0
 10
16.4198137643
 20
13.9648441813
 30
0.0
 10
16.3973080428
 20
13.9928051894
 30
0.0
 10
16.3743875581
 20
14.0184755698
 30
0.0
 10
16.3510844994
 20
14.041814289
 30
0.0
 10
16.3274347031
 20
14.0627863791
 30
0.0
 10
16.3034710261
 20
14.0813569769
 30
0.0
 10
16.2792291731
 20
14.097496468
 30
0.0
 10
16.2547442623
 20
14.1111769414
 30
0.0
 10
16.2300523824
 20
14.122372401
 30
0.0
 10
16.205192332
 20
14.1310625906
 30
0.0
 10
16.1802032721
 20
14.1372261724
 30
0.0
 10
16.1551283201
 20
14.1408516345
 30
0.0
 10
16.1300113073
 20
14.14192762
 30
0.0
 10
16.1048979463
 20
14.1404528062
 30
0.0
 10
16.0798333819
 20
14.1364308102
 30
0.0
 10
16.0548620427
 20
14.1298703471
 30
0.0
 10
16.0300252865
 20
14.1207886965
 30
0.0
 10
16.0053635237
 20
14.1092022764
 30
0.0
 10
15.9809147972
 20
14.095137248
 30
0.0
 10
15.9651043889
 20
14.0843436686
 30
0.0
 10
15.9572512791
 20
14.0785722081
 30
0.0
  0
SPLINE
  5
2DD
100
AcDbEntity
  8
02___PRT_ALL_AXES
100
AcDbSpline
 62
7
  6
CONTINUOUS
 70
0
 71
3
 72
11
 73
7
 74
0
 42
0.0000001
 43
0.0000001
 44
0.0000000001
 40
0.0
 40
0.0
 40
0.0
 40
0.0
 40
0.2327633964
 40
0.4765993319
 40
0.732178693
 40
1.0
 40
1.0
 40
1.0
 40
1.0
 10
15.9572512791
 20
14.0785722081
 30
0.0
 10
15.9482547935
 20
14.0719604503
 30
0.0
 10
15.9303673421
 20
14.0576844853
 30
0.0
 10
15.9045241052
 20
14.0338663103
 30
0.0
 10
15.8791149429
 20
14.0072128781
 30
0.0
 10
15.8628803077
 20
13.9880427612
 30
0.0
 10
15.8548379154
 20
13.9780253264
 30
0.0
  0
SPLINE
  5
2DE
100
AcDbEntity
  8
02___PRT_ALL_AXES
100
AcDbSpline
 62
7
  6
CONTINUOUS
 70
0
 71
3
 72
11
 73
7
 74
0
 42
0.0000001
 43
0.0000001
 44
0.0000000001
 40
0.0
 40
0.0
 40
0.0
 40
0.0
 40
0.2312048371
 40
0.474906837
 40
0.7311886933
 40
1.0
 40
1.0
 40
1.0
 40
1.0
 10
15.8548379154
 20
13.9780253264
 30
0.0
 10
15.8448080988
 20
13.9655323976
 30
0.0
 10
15.8250399674
 20
13.9391938241
 30
0.0
 10
15.796974313
 20
13.8969829535
 30
0.0
 10
15.7697894701
 20
13.8511445299
 30
0.0
 10
15.7527035514
 20
13.8190044218
 30
0.0
 10
15.744303962
 20
13.8023789861
 30
0.0
  0
SPLINE
  5
2DF
100
AcDbEntity
  8
02___PRT_ALL_AXES
100
AcDbSpline
 62
7
  6
CONTINUOUS
 70
0
 71
3
 72
11
 73
7
 74
0
 42
0.0000001
 43
0.0000001
 44
0.0000000001
 40
0.0
 40
0.0
 40
0.0
 40
0.0
 40
0.2370177282
 40
0.48282799
 40
0.7372321505
 40
1.0
 40
1.0
 40
1.0
 40
1.0
 10
15.744303962
 20
13.8023789861
 30
0.0
 10
15.7367921768
 20
13.7875107947
 30
0.0
 10
15.7220523041
 20
13.7569359513
 30
0.0
 10
15.7011424972
 20
13.7095189163
 30
0.0
 10
15.6810624143
 20
13.6597879141
 30
0.0
 10
15.6684535734
 20
13.6256910008
 30
0.0
 10
15.6622856095
 20
13.6082836534
 30
0.0
  0
SPLINE
  5
2E0
100
AcDbEntity
  8
02___PRT_ALL_AXES
100
AcDbSpline
 62
7
  6
CONTINUOUS
 70
0
 71
3
 72
35
 73
31
 74
0
 42
0.0000001
 43
0.0000001
 44
0.0000000001
 40
0.0
 40
0.0
 40
0.0
 40
0.0
 40
0.0939100452
 40
0.1828551331
 40
0.2253716007
 40
0.2665440457
 40
0.3063490617
 40
0.3447682187
 40
0.3817920524
 40
0.4174182518
 40
0.4516535138
 40
0.484514364
 40
0.5160276922
 40
0.5462338918
 40
0.575186092
 40
0.6029537559
 40
0.6552584279
 40
0.6800609191
 40
0.7041333661
 40
0.7276357849
 40
0.7507430905
 40
0.773642005
 40
0.796525484
 40
0.8195870611
 40
0.843014617
 40
0.866985598
 40
0.8916621247
 40
0.9436537609
 40
0.9712406535
 40
1.0
 40
1.0
 40
1.0
 40
1.0
 10
16.6294075489
 20
11.4971414498
 30
0.0
 10
16.6193991579
 20
11.4647542847
 30
0.0
 10
16.5985234373
 20
11.4021091951
 30
0.0
 10
16.568982057
 20
11.3262670265
 30
0.0
 10
16.5439100437
 20
11.2692097215
 30
0.0
 10
16.5247628375
 20
11.2289462832
 30
0.0
 10
16.5050200294
 20
11.1906273812
 30
0.0
 10
16.4847094519
 20
11.1543119009
 30
0.0
 10
16.463863095
 20
11.1200541936
 30
0.0
 10
16.4425112311
 20
11.08790602
 30
0.0
 10
16.4206855253
 20
11.0579156892
 30
0.0
 10
16.3984189541
 20
11.0301278744
 30
0.0
 10
16.3757423194
 20
11.0045853651
 30
0.0
 10
16.3526913826
 20
10.9813262742
 30
0.0
 10
16.3292934975
 20
10.9603850643
 30
0.0
 10
16.298313066
 20
10.9360893891
 30
0.0
 10
16.2661102363
 20
10.9158514563
 30
0.0
 10
16.2329608266
 20
10.900430339
 30
0.0
 10
16.2083618119
 20
10.8915217069
 30
0.0
 10
16.1836335153
 20
10.8850863075
 30
0.0
 10
16.1588145179
 20
10.8811398311
 30
0.0
 10
16.133948299
 20
10.8796907497
 30
0.0
 10
16.1090784834
 20
10.8807424651
 30
0.0
 10
16.0842492702
 20
10.8842938851
 30
0.0
 10
16.059503515
 20
10.8903337845
 30
0.0
 10
16.0348815544
 20
10.8988522206
 30
0.0
 10
16.0017024201
 20
10.9137399244
 30
0.0
 10
15.9694428628
 20
10.9334690038
 30
0.0
 10
15.938397785
 20
10.9572753821
 30
0.0
 10
15.9230944877
 20
10.9707004037
 30
0.0
 10
15.9154970914
 20
10.977774844
 30
0.0
  0
SPLINE
  5
2E1
100
AcDbEntity
  8
02___PRT_ALL_AXES
100
AcDbSpline
 62
7
  6
CONTINUOUS
 70
0
 71
3
 72
15
 73
11
 74
0
 42
0.0000001
 43
0.0000001
 44
0.0000000001
 40
0.0
 40
0.0
 40
0.0
 40
0.0
 40
0.1049293021
 40
0.2153797319
 40
0.3315399115
 40
0.4535282193
 40
0.5813949729
 40
0.7151383847
 40
0.8547044266
 40
1.0
 40
1.0
 40
1.0
 40
1.0
 10
15.9146940708
 20
10.9785241593
 30
0.0
 10
15.9050573146
 20
10.9875352611
 30
0.0
 10
15.885965329
 20
11.0067784746
 30
0.0
 10
15.8586040611
 20
11.0382626519
 30
0.0
 10
15.8318568795
 20
11.0730174545
 30
0.0
 10
15.8057846385
 20
11.1109655965
 30
0.0
 10
15.7804405428
 20
11.1520232128
 30
0.0
 10
15.7558814463
 20
11.1961010534
 30
0.0
 10
15.7321593823
 20
11.2431006398
 30
0.0
 10
15.7172333549
 20
11.2756700401
 30
0.0
 10
15.7099070417
 20
11.2924056333
 30
0.0
  0
SPLINE
  5
2E2
100
AcDbEntity
  8
02___PRT_ALL_AXES
100
AcDbSpline
 62
7
  6
CONTINUOUS
 70
0
 71
3
 72
10
 73
6
 74
0
 42
0.0000001
 43
0.0000001
 44
0.0000000001
 40
0.0
 40
0.0
 40
0.0
 40
0.0
 40
0.2382371774
 40
0.484509427
 40
1.0
 40
1.0
 40
1.0
 40
1.0
 10
15.7086769448
 20
11.2952229095
 30
0.0
 10
15.7015696428
 20
11.3115432422
 30
0.0
 10
15.6876640153
 20
11.3449760996
 30
0.0
 10
15.6610787579
 20
11.4148133366
 30
0.0
 10
15.6431393417
 20
11.468869355
 30
0.0
 10
15.6319095051
 20
11.5057126889
 30
0.0
  0
SPLINE
  5
2E3
100
AcDbEntity
  8
02___PRT_ALL_AXES
100
AcDbSpline
 62
7
  6
CONTINUOUS
 70
0
 71
3
 72
23
 73
19
 74
0
 42
0.0000001
 43
0.0000001
 44
0.0000000001
 40
0.0
 40
0.0
 40
0.0
 40
0.0
 40
0.0561451938
 40
0.1147894932
 40
0.1756279726
 40
0.238329695
 40
0.3025427821
 40
0.3678990326
 40
0.4340182461
 40
0.5005123701
 40
0.5669895469
 40
0.6330580835
 40
0.6983304955
 40
0.7624273449
 40
0.8249820375
 40
0.8856433076
 40
0.9440845016
 40
1.0
 40
1.0
 40
1.0
 40
1.0
 10
15.6317106191
 20
11.5063655446
 30
0.0
 10
15.6205712209
 20
11.5429504503
 30
0.0
 10
15.5996221768
 20
11.6183140094
 30
0.0
 10
15.572606272
 20
11.734885255
 30
0.0
 10
15.5494490545
 20
11.8568322399
 30
0.0
 10
15.5303131636
 20
11.9833087183
 30
0.0
 10
15.5153321192
 20
12.1134407293
 30
0.0
 10
15.5046108065
 20
12.2463268347
 30
0.0
 10
15.4982242384
 20
12.3810463363
 30
0.0
 10
15.4962170926
 20
12.5166653933
 30
0.0
 10
15.4986034132
 20
12.652243802
 30
0.0
 10
15.5053664591
 20
12.7868416859
 30
0.0
 10
15.5164589656
 20
12.9195260197
 30
0.0
 10
15.5318031573
 20
13.0493777842
 30
0.0
 10
15.5512919827
 20
13.1754969714
 30
0.0
 10
15.5747889307
 20
13.2970134031
 30
0.0
 10
15.6021297902
 20
13.4130823602
 30
0.0
 10
15.6232949068
 20
13.4880796779
 30
0.0
 10
15.6345399145
 20
13.524468536
 30
0.0
  0
SPLINE
  5
2E4
100
AcDbEntity
  8
02___PRT_ALL_AXES
100
AcDbSpline
 62
7
  6
CONTINUOUS
 70
0
 71
3
 72
23
 73
19
 74
0
 42
0.0000001
 43
0.0000001
 44
0.0000000001
 40
0.0
 40
0.0
 40
0.0
 40
0.0
 40
0.0530107015
 40
0.1049455698
 40
0.156382558
 40
0.2079203438
 40
0.2601532159
 40
0.3136470107
 40
0.368918205
 40
0.426422057
 40
0.4865448017
 40
0.5496050067
 40
0.6158551595
 40
0.6854891233
 40
0.7586467807
 40
0.8354220441
 40
0.9158673314
 40
1.0
 40
1.0
 40
1.0
 40
1.0
 10
16.2520575212
 20
10.7802597493
 30
0.0
 10
16.2419197705
 20
10.7768661598
 30
0.0
 10
16.2214729662
 20
10.771208259
 30
0.0
 10
16.1902535098
 20
10.7662864465
 30
0.0
 10
16.1589638675
 20
10.765056121
 30
0.0
 10
16.1276887081
 20
10.76752606
 30
0.0
 10
16.0965063015
 20
10.7736838438
 30
0.0
 10
16.065493029
 20
10.7835093886
 30
0.0
 10
16.0347180435
 20
10.7969683151
 30
0.0
 10
16.0042465769
 20
10.8140230496
 30
0.0
 10
15.9741381381
 20
10.8346276384
 30
0.0
 10
15.9444515313
 20
10.8587342301
 30
0.0
 10
15.9152426469
 20
10.8862880783
 30
0.0
 10
15.8865684216
 20
10.9172308636
 30
0.0
 10
15.8584840923
 20
10.9514971083
 30
0.0
 10
15.8310456082
 20
10.9890163884
 30
0.0
 10
15.8043079442
 20
11.0297099467
 30
0.0
 10
15.7873637898
 20
11.0582638377
 30
0.0
 10
15.779005975
 20
11.0730295869
 30
0.0
  0
SPLINE
  5
2E5
100
AcDbEntity
  8
02___PRT_ALL_AXES
100
AcDbSpline
 62
7
  6
CONTINUOUS
 70
0
 71
3
 72
11
 73
7
 74
0
 42
0.0000001
 43
0.0000001
 44
0.0000000001
 40
0.0
 40
0.0
 40
0.0
 40
0.0
 40
0.2369123533
 40
0.4826467246
 40
0.7370673197
 40
1.0
 40
1.0
 40
1.0
 40
1.0
 10
15.779005975
 20
11.0730295869
 30
0.0
 10
15.7711999097
 20
11.0868205605
 30
0.0
 10
15.7558345513
 20
11.1152231374
 30
0.0
 10
15.7338990406
 20
11.1593863856
 30
0.0
 10
15.7126865544
 20
11.2058213824
 30
0.0
 10
15.6992681222
 20
11.2377257437
 30
0.0
 10
15.692677543
 20
11.25403163
 30
0.0
  0
SPLINE
  5
2E6
100
AcDbEntity
  8
02___PRT_ALL_AXES
100
AcDbSpline
 62
7
  6
CONTINUOUS
 70
0
 71
3
 72
11
 73
7
 74
0
 42
0.0000001
 43
0.0000001
 44
0.0000000001
 40
0.0
 40
0.0
 40
0.0
 40
0.0
 40
0.2384363851
 40
0.4848005517
 40
0.7387720694
 40
1.0
 40
1.0
 40
1.0
 40
1.0
 10
15.692677543
 20
11.25403163
 30
0.0
 10
15.6849981959
 20
11.2730312591
 30
0.0
 10
15.670014349
 20
11.3119195621
 30
0.0
 10
15.648971434
 20
11.3718354539
 30
0.0
 10
15.6290278227
 20
11.4341855379
 30
0.0
 10
15.616662183
 20
11.4767097077
 30
0.0
 10
15.6106613237
 20
11.4983446485
 30
0.0
  0
SPLINE
  5
2E7
100
AcDbEntity
  8
02___PRT_ALL_AXES
100
AcDbSpline
 62
7
  6
CONTINUOUS
 70
0
 71
3
 72
9
 73
5
 74
0
 42
0.0000001
 43
0.0000001
 44
0.0000000001
 40
0.0
 40
0.0
 40
0.0
 40
0.0
 40
0.489846914
 40
1.0
 40
1.0
 40
1.0
 40
1.0
 10
15.6106613237
 20
11.4983446485
 30
0.0
 10
15.5991918735
 20
11.5396955393
 30
0.0
 10
15.577776018
 20
11.624674636
 30
0.0
 10
15.5599811398
 20
11.7104783734
 30
0.0
 10
15.5517541142
 20
11.7544055386
 30
0.0
  0
SPLINE
  5
2E8
100
AcDbEntity
  8
02___PRT_ALL_AXES
100
AcDbSpline
 62
7
  6
CONTINUOUS
 70
0
 71
3
 72
23
 73
19
 74
0
 42
0.0000001
 43
0.0000001
 44
0.0000000001
 40
0.0
 40
0.0
 40
0.0
 40
0.0
 40
0.0599298286
 40
0.1210958239
 40
0.1833172176
 40
0.2464071919
 40
0.3101743113
 40
0.3744233561
 40
0.4389564955
 40
0.5035744737
 40
0.5680774922
 40
0.6322664205
 40
0.6959438225
 40
0.7589149152
 40
0.8209887964
 40
0.8819797622
 40
0.9417081448
 40
1.0
 40
1.0
 40
1.0
 40
1.0
 10
15.5517541142
 20
11.7544055386
 30
0.0
 10
15.5457583102
 20
11.7864193773
 30
0.0
 10
15.534556246
 20
11.8512816679
 30
0.0
 10
15.5202277579
 20
11.9498854451
 30
0.0
 10
15.5082382627
 20
12.0505309545
 30
0.0
 10
15.4986312223
 20
12.1528510395
 30
0.0
 10
15.4914420674
 20
12.2564737837
 30
0.0
 10
15.4866973227
 20
12.361022087
 30
0.0
 10
15.4844137964
 20
12.4661154909
 30
0.0
 10
15.4846001204
 20
12.5713715299
 30
0.0
 10
15.4872559064
 20
12.6764071426
 30
0.0
 10
15.4923708802
 20
12.7808400981
 30
0.0
 10
15.4999265562
 20
12.8842903581
 30
0.0
 10
15.5098956886
 20
12.9863814675
 30
0.0
 10
15.5222411736
 20
13.0867420628
 30
0.0
 10
15.5369181442
 20
13.185007602
 30
0.0
 10
15.5538733392
 20
13.2808188822
 30
0.0
 10
15.5668232989
 20
13.3436500977
 30
0.0
 10
15.5736837593
 20
13.3745786213
 30
0.0
  0
SPLINE
  5
2E9
100
AcDbEntity
  8
02___PRT_ALL_AXES
100
AcDbSpline
 62
7
  6
CONTINUOUS
 70
0
 71
3
 72
9
 73
5
 74
0
 42
0.0000001
 43
0.0000001
 44
0.0000000001
 40
0.0
 40
0.0
 40
0.0
 40
0.0
 40
0.5102366868
 40
1.0
 40
1.0
 40
1.0
 40
1.0
 10
15.5738683598
 20
13.3754103125
 30
0.0
 10
15.5822677027
 20
13.4132282223
 30
0.0
 10
15.6000918001
 20
13.4870521783
 30
0.0
 10
15.6208771316
 20
13.560103024
 30
0.0
 10
15.6318559047
 20
13.5956303467
 30
0.0
  0
SPLINE
  5
2EA
100
AcDbEntity
  8
0
100
AcDbSpline
 62
7
  6
CONTINUOUS
 70
0
 71
3
 72
15
 73
11
 74
0
 42
0.0000001
 43
0.0000001
 44
0.0000000001
 40
0.0
 40
0.0
 40
0.0
 40
0.0
 40
0.0799041662
 40
0.1671419443
 40
0.2669090216
 40
0.3820995998
 40
0.5138308317
 40
0.6620121374
 40
0.8248856345
 40
1.0
 40
1.0
 40
1.0
 40
1.0
 10
14.3615245539
 20
11.7400237595
 30
0.0
 10
14.361173734
 20
11.7400247496
 30
0.0
 10
14.3604358397
 20
11.740158624
 30
0.0
 10
14.3593918608
 20
11.7407227343
 30
0.0
 10
14.3584076431
 20
11.741627505
 30
0.0
 10
14.3574878706
 20
11.7428478284
 30
0.0
 10
14.3566406297
 20
11.7443664173
 30
0.0
 10
14.3558809896
 20
11.7461591389
 30
0.0
 10
14.355218217
 20
11.7481903412
 30
0.0
 10
14.3548611481
 20
11.7496320962
 30
0.0
 10
14.3547001411
 20
11.7503838927
 30
0.0
  0
SPLINE
  5
2EB
100
AcDbEntity
  8
0
100
AcDbSpline
 62
7
  6
CONTINUOUS
 70
0
 71
3
 72
14
 73
10
 74
0
 42
0.0000001
 43
0.0000001
 44
0.0000000001
 40
0.0
 40
0.0
 40
0.0
 40
0.0
 40
0.0876356338
 40
0.1805084418
 40
0.2829803876
 40
0.3980009387
 40
0.5273406816
 40
0.6713354453
 40
1.0
 40
1.0
 40
1.0
 40
1.0
 10
14.4339286667
 20
11.4725949703
 30
0.0
 10
14.4336477049
 20
11.4725940716
 30
0.0
 10
14.4330658872
 20
11.4726751935
 30
0.0
 10
14.432224538
 20
11.4730370233
 30
0.0
 10
14.4314128858
 20
11.4736236714
 30
0.0
 10
14.4306359863
 20
11.4744253972
 30
0.0
 10
14.4299004008
 20
11.4754339573
 30
0.0
 10
14.4289397009
 20
11.4771109569
 30
0.0
 10
14.4283695263
 20
11.4785238283
 30
0.0
 10
14.4280337001
 20
11.4795225916
 30
0.0
  0
SPLINE
  5
2EC
100
AcDbEntity
  8
0
100
AcDbSpline
 62
7
  6
CONTINUOUS
 70
0
 71
3
 72
12
 73
8
 74
0
 42
0.0000001
 43
0.0000001
 44
0.0000000001
 40
0.0
 40
0.0
 40
0.0
 40
0.0
 40
0.0973758049
 40
0.1982410048
 40
0.4217019864
 40
0.6874307856
 40
1.0
 40
1.0
 40
1.0
 40
1.0
 10
14.5264028205
 20
11.2496647454
 30
0.0
 10
14.5261913519
 20
11.2496647226
 30
0.0
 10
14.5257596014
 20
11.2497105394
 30
0.0
 10
14.5248819725
 20
11.2499908411
 30
0.0
 10
14.5238003459
 20
11.2507227996
 30
0.0
 10
14.5226512768
 20
11.2520456589
 30
0.0
 10
14.5220048597
 20
11.2531293673
 30
0.0
 10
14.5216949289
 20
11.2537332801
 30
0.0
  0
SPLINE
  5
2ED
100
AcDbEntity
  8
0
100
AcDbSpline
 62
7
  6
CONTINUOUS
 70
0
 71
3
 72
11
 73
7
 74
0
 42
0.0000001
 43
0.0000001
 44
0.0000000001
 40
0.0
 40
0.0
 40
0.0
 40
0.0
 40
0.2193091944
 40
0.4528906712
 40
0.7109436129
 40
1.0
 40
1.0
 40
1.0
 40
1.0
 10
14.6349054149
 20
11.0809812769
 30
0.0
 10
14.6346173696
 20
11.0809816256
 30
0.0
 10
14.6340198425
 20
11.0810711027
 30
0.0
 10
14.6331583527
 20
11.0814536237
 30
0.0
 10
14.6323288532
 20
11.0820672975
 30
0.0
 10
14.6318324892
 20
11.0825915954
 30
0.0
 10
14.6315903823
 20
11.0828840346
 30
0.0
  0
SPLINE
  5
2EE
100
AcDbEntity
  8
0
100
AcDbSpline
 62
7
  6
CONTINUOUS
 70
0
 71
3
 72
15
 73
11
 74
0
 42
0.0000001
 43
0.0000001
 44
0.0000000001
 40
0.0
 40
0.0
 40
0.0
 40
0.0
 40
0.1754441533
 40
0.3398948496
 40
0.4899915002
 40
0.6234400387
 40
0.7395788957
 40
0.8389005621
 40
0.9239733277
 40
1.0
 40
1.0
 40
1.0
 40
1.0
 10
14.3220994202
 20
13.0936628471
 30
0.0
 10
14.3222372263
 20
13.0945531646
 30
0.0
 10
14.3225600042
 20
13.0962700731
 30
0.0
 10
14.3232011783
 20
13.0987055749
 30
0.0
 10
14.3239725539
 20
13.1008764995
 30
0.0
 10
14.3248610942
 20
13.1027317056
 30
0.0
 10
14.3258458117
 20
13.1042368517
 30
0.0
 10
14.3269188679
 20
13.1053621316
 30
0.0
 10
14.3280666434
 20
13.1060824226
 30
0.0
 10
14.3288957108
 20
13.1062685602
 30
0.0
 10
14.3292860585
 20
13.1062751203
 30
0.0
  0
SPLINE
  5
2EF
100
AcDbEntity
  8
0
100
AcDbSpline
 62
7
  6
CONTINUOUS
 70
0
 71
3
 72
13
 73
9
 74
0
 42
0.0000001
 43
0.0000001
 44
0.0000000001
 40
0.0
 40
0.0
 40
0.0
 40
0.0
 40
0.102771763
 40
0.2163270968
 40
0.4670407661
 40
0.7349225062
 40
0.8693069686
 40
1.0
 40
1.0
 40
1.0
 40
1.0
 10
14.3150152286
 20
13.007913215
 30
0.0
 10
14.3147099186
 20
13.0086005982
 30
0.0
 10
14.3141521414
 20
13.0100856503
 30
0.0
 10
14.3132305498
 20
13.0133801938
 30
0.0
 10
14.3124940522
 20
13.0179631646
 30
0.0
 10
14.3122973259
 20
13.0227485136
 30
0.0
 10
14.3124682352
 20
13.0266469295
 30
0.0
 10
14.3126656814
 20
13.028578323
 30
0.0
 10
14.31279415
 20
13.0295261352
 30
0.0
  0
SPLINE
  5
2F0
100
AcDbEntity
  8
0
100
AcDbSpline
 62
7
  6
CONTINUOUS
 70
0
 71
3
 72
9
 73
5
 74
0
 42
0.0000001
 43
0.0000001
 44
0.0000000001
 40
0.0
 40
0.0
 40
0.0
 40
0.0
 40
0.5154410959
 40
1.0
 40
1.0
 40
1.0
 40
1.0
 10
14.3150152286
 20
13.007913215
 30
0.0
 10
14.3183946651
 20
13.0003046615
 30
0.0
 10
14.3253258324
 20
12.9857059065
 30
0.0
 10
14.3331014458
 20
12.9715348812
 30
0.0
 10
14.3371001265
 20
12.9648069796
 30
0.0
  0
SPLINE
  5
2F1
100
AcDbEntity
  8
0
100
AcDbSpline
 62
7
  6
CONTINUOUS
 70
0
 71
3
 72
9
 73
5
 74
0
 42
0.0000001
 43
0.0000001
 44
0.0000000001
 40
0.0
 40
0.0
 40
0.0
 40
0.0
 40
0.5322054682
 40
1.0
 40
1.0
 40
1.0
 40
1.0
 10
14.3399254429
 20
12.9581110947
 30
0.0
 10
14.3395516649
 20
12.9593473958
 30
0.0
 10
14.33874676
 20
12.9616412813
 30
0.0
 10
14.337680146
 20
12.9638310793
 30
0.0
 10
14.3371001265
 20
12.9648069796
 30
0.0
  0
SPLINE
  5
2F2
100
AcDbEntity
  8
0
100
AcDbSpline
 62
7
  6
CONTINUOUS
 70
0
 71
3
 72
11
 73
7
 74
0
 42
0.0000001
 43
0.0000001
 44
0.0000000001
 40
0.0
 40
0.0
 40
0.0
 40
0.0
 40
0.223140894
 40
0.4607780533
 40
0.7184487585
 40
1.0
 40
1.0
 40
1.0
 40
1.0
 10
14.320840567
 20
12.8025853575
 30
0.0
 10
14.3211682192
 20
12.80264959
 30
0.0
 10
14.3218321545
 20
12.8028544702
 30
0.0
 10
14.3227867618
 20
12.8033598578
 30
0.0
 10
14.3237171819
 20
12.8040635806
 30
0.0
 10
14.3242911712
 20
12.8046339328
 30
0.0
 10
14.3245736708
 20
12.8049464683
 30
0.0
  0
SPLINE
  5
2F3
100
AcDbEntity
  8
0
100
AcDbSpline
 62
7
  6
CONTINUOUS
 70
0
 71
3
 72
9
 73
5
 74
0
 42
0.0000001
 43
0.0000001
 44
0.0000000001
 40
0.0
 40
0.0
 40
0.0
 40
0.0
 40
0.4874891816
 40
1.0
 40
1.0
 40
1.0
 40
1.0
 10
14.320840567
 20
12.8025853575
 30
0.0
 10
14.3161471592
 20
12.8016652691
 30
0.0
 10
14.3066734559
 20
12.798916242
 30
0.0
 10
14.2977765089
 20
12.7946838923
 30
0.0
 10
14.2933957502
 20
12.7922156833
 30
0.0
  0
SPLINE
  5
2F4
100
AcDbEntity
  8
0
100
AcDbSpline
 62
7
  6
CONTINUOUS
 70
0
 71
3
 72
15
 73
11
 74
0
 42
0.0000001
 43
0.0000001
 44
0.0000000001
 40
0.0
 40
0.0
 40
0.0
 40
0.0
 40
0.1621085459
 40
0.3184894153
 40
0.4656773244
 40
0.6009385138
 40
0.7226429424
 40
0.8296597478
 40
0.921768595
 40
1.0
 40
1.0
 40
1.0
 40
1.0
 10
14.2873873051
 20
12.7760420495
 30
0.0
 10
14.2874509012
 20
12.7769998241
 30
0.0
 10
14.2876317799
 20
12.7788783428
 30
0.0
 10
14.2880644232
 20
12.781603393
 30
0.0
 10
14.2886462303
 20
12.7841382777
 30
0.0
 10
14.289367492
 20
12.7864232115
 30
0.0
 10
14.2902089453
 20
12.7884116263
 30
0.0
 10
14.2911590326
 20
12.7900640591
 30
0.0
 10
14.2921949942
 20
12.7913479398
 30
0.0
 10
14.2929921717
 20
12.7919882989
 30
0.0
 10
14.2933957502
 20
12.7922156833
 30
0.0
  0
SPLINE
  5
2F5
100
AcDbEntity
  8
0
100
AcDbSpline
 62
7
  6
CONTINUOUS
 70
0
 71
3
 72
13
 73
9
 74
0
 42
0.0000001
 43
0.0000001
 44
0.0000000001
 40
0.0
 40
0.0
 40
0.0
 40
0.0
 40
0.0917498187
 40
0.1965516261
 40
0.3129971225
 40
0.4393668411
 40
0.7137995117
 40
1.0
 40
1.0
 40
1.0
 40
1.0
 10
14.287400607
 20
12.6883839802
 30
0.0
 10
14.2870404314
 20
12.6889017951
 30
0.0
 10
14.286365525
 20
12.6900786885
 30
0.0
 10
14.2855209089
 20
12.6920613297
 30
0.0
 10
14.284796159
 20
12.6943419798
 30
0.0
 10
14.2839943206
 20
12.6978094364
 30
0.0
 10
14.2834167012
 20
12.7025103542
 30
0.0
 10
14.2833816247
 20
12.7063735686
 30
0.0
 10
14.2834781823
 20
12.7083387653
 30
0.0
  0
SPLINE
  5
2F6
100
AcDbEntity
  8
0
100
AcDbSpline
 62
7
  6
CONTINUOUS
 70
0
 71
3
 72
9
 73
5
 74
0
 42
0.0000001
 43
0.0000001
 44
0.0000000001
 40
0.0
 40
0.0
 40
0.0
 40
0.0
 40
0.5186622106
 40
1.0
 40
1.0
 40
1.0
 40
1.0
 10
14.287400607
 20
12.6883839802
 30
0.0
 10
14.2912938404
 20
12.6827867819
 30
0.0
 10
14.299201558
 20
12.672266125
 30
0.0
 10
14.3080137748
 20
12.6624800171
 30
0.0
 10
14.3124929771
 20
12.6580109166
 30
0.0
  0
SPLINE
  5
2F7
100
AcDbEntity
  8
0
100
AcDbSpline
 62
7
  6
CONTINUOUS
 70
0
 71
3
 72
9
 73
5
 74
0
 42
0.0000001
 43
0.0000001
 44
0.0000000001
 40
0.0
 40
0.0
 40
0.0
 40
0.0
 40
0.5410687559
 40
1.0
 40
1.0
 40
1.0
 40
1.0
 10
14.3157986833
 20
12.6529697982
 30
0.0
 10
14.3153416094
 20
12.6539608048
 30
0.0
 10
14.3143904897
 20
12.6557466026
 30
0.0
 10
14.3131482583
 20
12.6573571132
 30
0.0
 10
14.3124929771
 20
12.6580109166
 30
0.0
  0
SPLINE
  5
2F8
100
AcDbEntity
  8
0
100
AcDbSpline
 62
7
  6
CONTINUOUS
 70
0
 71
3
 72
9
 73
5
 74
0
 42
0.0000001
 43
0.0000001
 44
0.0000000001
 40
0.0
 40
0.0
 40
0.0
 40
0.0
 40
0.4563999343
 40
1.0
 40
1.0
 40
1.0
 40
1.0
 10
14.3097229409
 20
12.4906531957
 30
0.0
 10
14.3103972028
 20
12.4911616607
 30
0.0
 10
14.311698942
 20
12.4925080129
 30
0.0
 10
14.3126986732
 20
12.4940744349
 30
0.0
 10
14.313183301
 20
12.4949558266
 30
0.0
  0
SPLINE
  5
2F9
100
AcDbEntity
  8
0
100
AcDbSpline
 62
7
  6
CONTINUOUS
 70
0
 71
3
 72
9
 73
5
 74
0
 42
0.0000001
 43
0.0000001
 44
0.0000000001
 40
0.0
 40
0.0
 40
0.0
 40
0.0
 40
0.4810346278
 40
1.0
 40
1.0
 40
1.0
 40
1.0
 10
14.3097229409
 20
12.4906531957
 30
0.0
 10
14.3051161932
 20
12.4871792193
 30
0.0
 10
14.2959988806
 20
12.4793375694
 30
0.0
 10
14.2877747789
 20
12.4705780209
 30
0.0
 10
14.283717436
 20
12.4658572487
 30
0.0
  0
SPLINE
  5
2FA
100
AcDbEntity
  8
0
100
AcDbSpline
 62
7
  6
CONTINUOUS
 70
0
 71
3
 72
13
 73
9
 74
0
 42
0.0000001
 43
0.0000001
 44
0.0000000001
 40
0.0
 40
0.0
 40
0.0
 40
0.0
 40
0.2952658926
 40
0.5722528201
 40
0.69751683
 40
0.8114377083
 40
0.9125822117
 40
1.0
 40
1.0
 40
1.0
 40
1.0
 10
14.2791497821
 20
12.4468291198
 30
0.0
 10
14.2791188431
 20
12.4487871642
 30
0.0
 10
14.2792752478
 20
12.4525881856
 30
0.0
 10
14.2800031257
 20
12.4571716044
 30
0.0
 10
14.2809206715
 20
12.4604733304
 30
0.0
 10
14.2817172212
 20
12.4625893957
 30
0.0
 10
14.2826237023
 20
12.4643834978
 30
0.0
 10
14.2833395316
 20
12.465417552
 30
0.0
 10
14.283717436
 20
12.4658572487
 30
0.0
  0
SPLINE
  5
2FB
100
AcDbEntity
  8
0
100
AcDbSpline
 62
7
  6
CONTINUOUS
 70
0
 71
3
 72
13
 73
9
 74
0
 42
0.0000001
 43
0.0000001
 44
0.0000000001
 40
0.0
 40
0.0
 40
0.0
 40
0.0
 40
0.081558913
 40
0.1773020726
 40
0.2872619739
 40
0.4106088675
 40
0.691026177
 40
1.0
 40
1.0
 40
1.0
 40
1.0
 10
14.2862599961
 20
12.3610936915
 30
0.0
 10
14.2858630003
 20
12.3614100967
 30
0.0
 10
14.2850950589
 20
12.3622173609
 30
0.0
 10
14.2841080618
 20
12.3637149618
 30
0.0
 10
14.2832161262
 20
12.3655644369
 30
0.0
 10
14.2821381607
 20
12.3685795987
 30
0.0
 10
14.2811976223
 20
12.3729332955
 30
0.0
 10
14.280870626
 20
12.3765960614
 30
0.0
 10
14.280807654
 20
12.3785182217
 30
0.0
  0
SPLINE
  5
2FC
100
AcDbEntity
  8
0
100
AcDbSpline
 62
7
  6
CONTINUOUS
 70
0
 71
3
 72
9
 73
5
 74
0
 42
0.0000001
 43
0.0000001
 44
0.0000000001
 40
0.0
 40
0.0
 40
0.0
 40
0.0
 40
0.5167737914
 40
1.0
 40
1.0
 40
1.0
 40
1.0
 10
14.2862599961
 20
12.3610936915
 30
0.0
 10
14.290519979
 20
12.3576984904
 30
0.0
 10
14.2991541388
 20
12.3515963993
 30
0.0
 10
14.3085624766
 20
12.3467435055
 30
0.0
 10
14.3132631814
 20
12.3447812484
 30
0.0
  0
SPLINE
  5
2FD
100
AcDbEntity
  8
0
100
AcDbSpline
 62
7
  6
CONTINUOUS
 70
0
 71
3
 72
9
 73
5
 74
0
 42
0.0000001
 43
0.0000001
 44
0.0000000001
 40
0.0
 40
0.0
 40
0.0
 40
0.0
 40
0.5438727095
 40
1.0
 40
1.0
 40
1.0
 40
1.0
 10
14.3169048023
 20
12.3416152176
 30
0.0
 10
14.3163856714
 20
12.3423292683
 30
0.0
 10
14.3153192807
 20
12.3435695778
 30
0.0
 10
14.313946429
 20
12.3444960343
 30
0.0
 10
14.3132631814
 20
12.3447812484
 30
0.0
  0
SPLINE
  5
2FE
100
AcDbEntity
  8
0
100
AcDbSpline
 62
7
  6
CONTINUOUS
 70
0
 71
3
 72
9
 73
5
 74
0
 42
0.0000001
 43
0.0000001
 44
0.0000000001
 40
0.0
 40
0.0
 40
0.0
 40
0.0
 40
0.4640164537
 40
1.0
 40
1.0
 40
1.0
 40
1.0
 10
14.3241037324
 20
12.179601764
 30
0.0
 10
14.324718141
 20
12.1804536299
 30
0.0
 10
14.3258606696
 20
12.1824208776
 30
0.0
 10
14.3267299297
 20
12.1845160927
 30
0.0
 10
14.3271401145
 20
12.1856578694
 30
0.0
  0
SPLINE
  5
2FF
100
AcDbEntity
  8
0
100
AcDbSpline
 62
7
  6
CONTINUOUS
 70
0
 71
3
 72
9
 73
5
 74
0
 42
0.0000001
 43
0.0000001
 44
0.0000000001
 40
0.0
 40
0.0
 40
0.0
 40
0.0
 40
0.4830350853
 40
1.0
 40
1.0
 40
1.0
 40
1.0
 10
14.3241037324
 20
12.179601764
 30
0.0
 10
14.3198853572
 20
12.1737530669
 30
0.0
 10
14.3116453349
 20
12.161285116
 30
0.0
 10
14.3042812447
 20
12.148286194
 30
0.0
 10
14.3006741047
 20
12.1414632463
 30
0.0
  0
SPLINE
  5
300
100
AcDbEntity
  8
0
100
AcDbSpline
 62
7
  6
CONTINUOUS
 70
0
 71
3
 72
12
 73
8
 74
0
 42
0.0000001
 43
0.0000001
 44
0.0000000001
 40
0.0
 40
0.0
 40
0.0
 40
0.0
 40
0.2734403776
 40
0.5440434176
 40
0.7916417535
 40
0.9017089418
 40
1.0
 40
1.0
 40
1.0
 40
1.0
 10
14.2977468704
 20
12.1204122427
 30
0.0
 10
14.2975529966
 20
12.1223620572
 30
0.0
 10
14.297405154
 20
12.1262683614
 30
0.0
 10
14.2978215854
 20
12.1319362328
 30
0.0
 10
14.2987047103
 20
12.1363690827
 30
0.0
 10
14.2997369424
 20
12.1394726544
 30
0.0
 10
14.3003449108
 20
12.1408405721
 30
0.0
 10
14.3006741047
 20
12.1414632463
 30
0.0
  0
SPLINE
  5
301
100
AcDbEntity
  8
0
100
AcDbSpline
 62
7
  6
CONTINUOUS
 70
0
 71
3
 72
15
 73
11
 74
0
 42
0.0000001
 43
0.0000001
 44
0.0000000001
 40
0.0
 40
0.0
 40
0.0
 40
0.0
 40
0.0754976112
 40
0.1628912185
 40
0.2653796425
 40
0.3841141375
 40
0.5187460894
 40
0.6681146779
 40
0.8296813377
 40
1.0
 40
1.0
 40
1.0
 40
1.0
 10
14.311643246
 20
12.0403465051
 30
0.0
 10
14.3112424937
 20
12.0404409319
 30
0.0
 10
14.310416647
 20
12.0408178552
 30
0.0
 10
14.3093139062
 20
12.0417741595
 30
0.0
 10
14.3082877665
 20
12.0431194836
 30
0.0
 10
14.3073572693
 20
12.0448286886
 30
0.0
 10
14.3065325248
 20
12.0468683633
 30
0.0
 10
14.3058344452
 20
12.0491988569
 30
0.0
 10
14.3052749356
 20
12.0517651651
 30
0.0
 10
14.3050077981
 20
12.0535567719
 30
0.0
 10
14.3048992802
 20
12.0544792447
 30
0.0
  0
SPLINE
  5
302
100
AcDbEntity
  8
0
100
AcDbSpline
 62
7
  6
CONTINUOUS
 70
0
 71
3
 72
9
 73
5
 74
0
 42
0.0000001
 43
0.0000001
 44
0.0000000001
 40
0.0
 40
0.0
 40
0.0
 40
0.0
 40
0.5028801435
 40
1.0
 40
1.0
 40
1.0
 40
1.0
 10
14.311643246
 20
12.0403465051
 30
0.0
 10
14.3146294782
 20
12.039642878
 30
0.0
 10
14.320651121
 20
12.0385736754
 30
0.0
 10
14.3267572377
 20
12.0382130591
 30
0.0
 10
14.3297901029
 20
12.03821307
 30
0.0
  0
SPLINE
  5
303
100
AcDbEntity
  8
0
100
AcDbSpline
 62
7
  6
CONTINUOUS
 70
0
 71
3
 72
9
 73
5
 74
0
 42
0.0000001
 43
0.0000001
 44
0.0000000001
 40
0.0
 40
0.0
 40
0.0
 40
0.0
 40
0.4733011959
 40
1.0
 40
1.0
 40
1.0
 40
1.0
 10
14.363354432
 20
11.8830255028
 30
0.0
 10
14.3638769423
 20
11.8841660493
 30
0.0
 10
14.3648217013
 20
11.8866495139
 30
0.0
 10
14.3655197177
 20
11.8892101942
 30
0.0
 10
14.3658341315
 20
11.8905704018
 30
0.0
  0
SPLINE
  5
304
100
AcDbEntity
  8
0
100
AcDbSpline
 62
7
  6
CONTINUOUS
 70
0
 71
3
 72
9
 73
5
 74
0
 42
0.0000001
 43
0.0000001
 44
0.0000000001
 40
0.0
 40
0.0
 40
0.0
 40
0.0
 40
0.4869215011
 40
1.0
 40
1.0
 40
1.0
 40
1.0
 10
14.363354432
 20
11.8830255028
 30
0.0
 10
14.3597289205
 20
11.8751116614
 30
0.0
 10
14.3527286459
 20
11.8586524295
 30
0.0
 10
14.3465242224
 20
11.8418793242
 30
0.0
 10
14.3435246687
 20
11.8332112505
 30
0.0
  0
SPLINE
  5
305
100
AcDbEntity
  8
0
100
AcDbSpline
 62
7
  6
CONTINUOUS
 70
0
 71
3
 72
13
 73
9
 74
0
 42
0.0000001
 43
0.0000001
 44
0.0000000001
 40
0.0
 40
0.0
 40
0.0
 40
0.0
 40
0.1237435063
 40
0.2530459567
 40
0.5169469522
 40
0.7720314432
 40
0.890627456
 40
1.0
 40
1.0
 40
1.0
 40
1.0
 10
14.3423657881
 20
11.8110574021
 30
0.0
 10
14.3421910124
 20
11.8119645661
 30
0.0
 10
14.3419004067
 20
11.8138329558
 30
0.0
 10
14.3415412513
 20
11.8176774669
 30
0.0
 10
14.3415132589
 20
11.8225283727
 30
0.0
 10
14.3420284562
 20
11.8272738404
 30
0.0
 10
14.3427791068
 20
11.8308037333
 30
0.0
 10
14.3432576389
 20
11.832439591
 30
0.0
 10
14.3435246687
 20
11.8332112505
 30
0.0
  0
SPLINE
  5
306
100
AcDbEntity
  8
0
100
AcDbSpline
 62
7
  6
CONTINUOUS
 70
0
 71
3
 72
9
 73
5
 74
0
 42
0.0000001
 43
0.0000001
 44
0.0000000001
 40
0.0
 40
0.0
 40
0.0
 40
0.0
 40
0.4819995763
 40
1.0
 40
1.0
 40
1.0
 40
1.0
 10
14.4257595956
 20
11.6138862177
 30
0.0
 10
14.4261707313
 20
11.6152554571
 30
0.0
 10
14.4268859322
 20
11.6181383549
 30
0.0
 10
14.4273735431
 20
11.6210669137
 30
0.0
 10
14.4275742378
 20
11.622590162
 30
0.0
  0
SPLINE
  5
307
100
AcDbEntity
  8
0
100
AcDbSpline
 62
7
  6
CONTINUOUS
 70
0
 71
3
 72
9
 73
5
 74
0
 42
0.0000001
 43
0.0000001
 44
0.0000000001
 40
0.0
 40
0.0
 40
0.0
 40
0.0
 40
0.4907591481
 40
1.0
 40
1.0
 40
1.0
 40
1.0
 10
14.4257595956
 20
11.6138862177
 30
0.0
 10
14.4228766852
 20
11.6042850195
 30
0.0
 10
14.4173981572
 20
11.5846005957
 30
0.0
 10
14.4126453893
 20
11.5647295155
 30
0.0
 10
14.4103963526
 20
11.5545733527
 30
0.0
  0
SPLINE
  5
308
100
AcDbEntity
  8
0
100
AcDbSpline
 62
7
  6
CONTINUOUS
 70
0
 71
3
 72
13
 73
9
 74
0
 42
0.0000001
 43
0.0000001
 44
0.0000000001
 40
0.0
 40
0.0
 40
0.0
 40
0.0
 40
0.1124386141
 40
0.2333450595
 40
0.4903820063
 40
0.7524211858
 40
0.8794034577
 40
1.0
 40
1.0
 40
1.0
 40
1.0
 10
14.4110564744
 20
11.532284889
 30
0.0
 10
14.4108083053
 20
11.5330911458
 30
0.0
 10
14.4103684841
 20
11.5347879799
 30
0.0
 10
14.4096999281
 20
11.5384081783
 30
0.0
 10
14.4092891175
 20
11.5432047566
 30
0.0
 10
14.4094223659
 20
11.5480613717
 30
0.0
 10
14.4098679436
 20
11.55186072
 30
0.0
 10
14.4102007295
 20
11.553689961
 30
0.0
 10
14.4103963526
 20
11.5545733527
 30
0.0
  0
SPLINE
  5
309
100
AcDbEntity
  8
0
100
AcDbSpline
 62
7
  6
CONTINUOUS
 70
0
 71
3
 72
9
 73
5
 74
0
 42
0.0000001
 43
0.0000001
 44
0.0000000001
 40
0.0
 40
0.0
 40
0.0
 40
0.0
 40
0.489955519
 40
1.0
 40
1.0
 40
1.0
 40
1.0
 10
14.5085918183
 20
11.383946587
 30
0.0
 10
14.5088782671
 20
11.385479497
 30
0.0
 10
14.5093409896
 20
11.3886317095
 30
0.0
 10
14.5095879916
 20
11.3918074808
 30
0.0
 10
14.5096620946
 20
11.3934291724
 30
0.0
  0
SPLINE
  5
30A
100
AcDbEntity
  8
0
100
AcDbSpline
 62
7
  6
CONTINUOUS
 70
0
 71
3
 72
12
 73
8
 74
0
 42
0.0000001
 43
0.0000001
 44
0.0000000001
 40
0.0
 40
0.0
 40
0.0
 40
0.0
 40
0.1013367204
 40
0.2137849752
 40
0.4635324564
 40
0.7323131097
 40
1.0
 40
1.0
 40
1.0
 40
1.0
 10
14.5008168166
 20
11.2962783999
 30
0.0
 10
14.5005036066
 20
11.2969455861
 30
0.0
 10
14.4999293101
 20
11.2983941771
 30
0.0
 10
14.4989715747
 20
11.3016298474
 30
0.0
 10
14.4981871644
 20
11.3061683152
 30
0.0
 10
14.4978938964
 20
11.3118894192
 30
0.0
 10
14.4981274923
 20
11.3157951452
 30
0.0
 10
14.4983665429
 20
11.3177273661
 30
0.0
  0
SPLINE
  5
30B
100
AcDbEntity
  8
0
100
AcDbSpline
 62
7
  6
CONTINUOUS
 70
0
 71
3
 72
13
 73
9
 74
0
 42
0.0000001
 43
0.0000001
 44
0.0000000001
 40
0.0
 40
0.0
 40
0.0
 40
0.0
 40
0.0903394128
 40
0.1939703565
 40
0.3096178576
 40
0.435646217
 40
0.7109119812
 40
1.0
 40
1.0
 40
1.0
 40
1.0
 10
14.6077238571
 20
11.1133525508
 30
0.0
 10
14.6073576347
 20
11.113845797
 30
0.0
 10
14.606669116
 20
11.1149778062
 30
0.0
 10
14.605803969
 20
11.1169011456
 30
0.0
 10
14.6050555443
 20
11.1191304921
 30
0.0
 10
14.6042159805
 20
11.1225473545
 30
0.0
 10
14.6035896466
 20
11.1272140307
 30
0.0
 10
14.6035151746
 20
11.1310601481
 30
0.0
 10
14.6035905202
 20
11.1330245968
 30
0.0
  0
SPLINE
  5
30C
100
AcDbEntity
  8
0
100
AcDbSpline
 62
7
  6
CONTINUOUS
 70
0
 71
3
 72
13
 73
9
 74
0
 42
0.0000001
 43
0.0000001
 44
0.0000000001
 40
0.0
 40
0.0
 40
0.0
 40
0.0
 40
0.0804127801
 40
0.1749820737
 40
0.2840263261
 40
0.4068900808
 40
0.6879739359
 40
1.0
 40
1.0
 40
1.0
 40
1.0
 10
14.7271052452
 20
10.9915020792
 30
0.0
 10
14.7267054676
 20
10.9917901889
 30
0.0
 10
14.7259274827
 20
10.9925448572
 30
0.0
 10
14.7249242831
 20
10.9939746025
 30
0.0
 10
14.7240129986
 20
10.9957619036
 30
0.0
 10
14.7229014288
 20
10.9987075051
 30
0.0
 10
14.7219156618
 20
11.0030019476
 30
0.0
 10
14.7215526059
 20
11.0066271241
 30
0.0
 10
14.7214694918
 20
11.0085374421
 30
0.0
  0
SPLINE
  5
30D
100
AcDbEntity
  8
0
100
AcDbSpline
 62
7
  6
CONTINUOUS
 70
0
 71
3
 72
15
 73
11
 74
0
 42
0.0000001
 43
0.0000001
 44
0.0000000001
 40
0.0
 40
0.0
 40
0.0
 40
0.0
 40
0.0754059974
 40
0.1619415059
 40
0.2634086211
 40
0.3813646179
 40
0.5156979074
 40
0.6653887143
 40
0.8279649355
 40
1.0
 40
1.0
 40
1.0
 40
1.0
 10
14.8537434414
 20
10.9360524354
 30
0.0
 10
14.8533453833
 20
10.9361181154
 30
0.0
 10
14.8525166654
 20
10.9364343588
 30
0.0
 10
14.8513994474
 20
10.9373161164
 30
0.0
 10
14.8503578739
 20
10.9385914973
 30
0.0
 10
14.8494093821
 20
10.9402361416
 30
0.0
 10
14.848563496
 20
10.9422178741
 30
0.0
 10
14.8478412688
 20
10.9444987227
 30
0.0
 10
14.8472550111
 20
10.9470248703
 30
0.0
 10
14.8469696578
 20
10.9487937639
 30
0.0
 10
14.846851581
 20
10.9497065881
 30
0.0
  0
SPLINE
  5
30E
100
AcDbEntity
  8
0
100
AcDbSpline
 62
7
  6
CONTINUOUS
 70
0
 71
3
 72
11
 73
7
 74
0
 42
0.0000001
 43
0.0000001
 44
0.0000000001
 40
0.0
 40
0.0
 40
0.0
 40
0.0
 40
0.2306566764
 40
0.4779715152
 40
0.7366164175
 40
1.0
 40
1.0
 40
1.0
 40
1.0
 10
14.5403100627
 20
13.6449134254
 30
0.0
 10
14.5416652587
 20
13.6496010941
 30
0.0
 10
14.544008012
 20
13.6594527043
 30
0.0
 10
14.5464226419
 20
13.6748609861
 30
0.0
 10
14.5478134883
 20
13.6910892845
 30
0.0
 10
14.5480362743
 20
13.7021398678
 30
0.0
 10
14.5479671436
 20
13.7077114198
 30
0.0
  0
SPLINE
  5
30F
100
AcDbEntity
  8
0
100
AcDbSpline
 62
7
  6
CONTINUOUS
 70
0
 71
3
 72
15
 73
11
 74
0
 42
0.0000001
 43
0.0000001
 44
0.0000000001
 40
0.0
 40
0.0
 40
0.0
 40
0.0
 40
0.0995622188
 40
0.2100876233
 40
0.3300989493
 40
0.4577491046
 40
0.5908796027
 40
0.7272535445
 40
0.8645429388
 40
1.0
 40
1.0
 40
1.0
 40
1.0
 10
14.4445075288
 20
13.394058273
 30
0.0
 10
14.4460886145
 20
13.3971758391
 30
0.0
 10
14.4490119745
 20
13.4039663774
 30
0.0
 10
14.4525759493
 20
13.4150074257
 30
0.0
 10
14.4554939244
 20
13.4272517752
 30
0.0
 10
14.4577020732
 20
13.4404468056
 30
0.0
 10
14.4591552726
 20
13.4543229542
 30
0.0
 10
14.4598222617
 20
13.4685974926
 30
0.0
 10
14.4596843809
 20
13.4829678854
 30
0.0
 10
14.4590567372
 20
13.4925295468
 30
0.0
 10
14.4586030638
 20
13.4972636831
 30
0.0
  0
SPLINE
  5
310
100
AcDbEntity
  8
AXIS
100
AcDbSpline
 62
7
  6
CONTINUOUS
 70
0
 71
3
 72
11
 73
7
 74
0
 42
0.0000001
 43
0.0000001
 44
0.0000000001
 40
0.0
 40
0.0
 40
0.0
 40
0.0
 40
0.2287968741
 40
0.4668987874
 40
0.7221014604
 40
1.0
 40
1.0
 40
1.0
 40
1.0
 10
16.3961731359
 20
13.3012030379
 30
0.0
 10
16.3944310186
 20
13.3012030469
 30
0.0
 10
16.3908643001
 20
13.3008011862
 30
0.0
 10
16.3856256448
 20
13.299014439
 30
0.0
 10
16.3805020097
 20
13.2960852698
 30
0.0
 10
16.3773336864
 20
13.29352091
 30
0.0
 10
16.3757779453
 20
13.2920866567
 30
0.0
  0
SPLINE
  5
311
100
AcDbEntity
  8
AXIS
100
AcDbSpline
 62
7
  6
CONTINUOUS
 70
0
 71
3
 72
15
 73
11
 74
0
 42
0.0000001
 43
0.0000001
 44
0.0000000001
 40
0.0
 40
0.0
 40
0.0
 40
0.0
 40
0.1134848712
 40
0.2281848438
 40
0.3452682199
 40
0.4658173232
 40
0.5907956378
 40
0.7210417388
 40
0.8572532327
 40
1.0
 40
1.0
 40
1.0
 40
1.0
 10
16.161908214
 20
11.1405549969
 30
0.0
 10
16.1697377523
 20
11.1405549492
 30
0.0
 10
16.1854948175
 20
11.14144989
 30
0.0
 10
16.2090221979
 20
11.145461033
 30
0.0
 10
16.2324451124
 20
11.1521320777
 30
0.0
 10
16.2557095197
 20
11.1614435707
 30
0.0
 10
16.2787721466
 20
11.1733670684
 30
0.0
 10
16.3015880217
 20
11.1878772203
 30
0.0
 10
16.3241164753
 20
11.2049376433
 30
0.0
 10
16.3385661928
 20
11.2176788551
 30
0.0
 10
16.3457335265
 20
11.2244330958
 30
0.0
  0
SPLINE
  5
312
100
AcDbEntity
  8
AXIS
100
AcDbSpline
 62
7
  6
CONTINUOUS
 70
0
 71
3
 72
9
 73
5
 74
0
 42
0.0000001
 43
0.0000001
 44
0.0000000001
 40
0.0
 40
0.0
 40
0.0
 40
0.0
 40
0.4832887725
 40
1.0
 40
1.0
 40
1.0
 40
1.0
 10
16.3470384253
 20
11.2256677451
 30
0.0
 10
16.3577270602
 20
11.2358216096
 30
0.0
 10
16.3788216164
 20
11.2579220132
 30
0.0
 10
16.3980080846
 20
11.2816796145
 30
0.0
 10
16.407475361
 20
11.2942819947
 30
0.0
  0
SPLINE
  5
313
100
AcDbEntity
  8
AXIS
100
AcDbSpline
 62
7
  6
CONTINUOUS
 70
0
 71
3
 72
9
 73
5
 74
0
 42
0.0000001
 43
0.0000001
 44
0.0000000001
 40
0.0
 40
0.0
 40
0.0
 40
0.0
 40
0.484811573
 40
1.0
 40
1.0
 40
1.0
 40
1.0
 10
16.407475361
 20
11.2942819947
 30
0.0
 10
16.4174199652
 20
11.3075197705
 30
0.0
 10
16.4369304032
 20
11.3355858973
 30
0.0
 10
16.4546287607
 20
11.3648187624
 30
0.0
 10
16.4633282276
 20
11.3801119696
 30
0.0
  0
SPLINE
  5
314
100
AcDbEntity
  8
AXIS
100
AcDbSpline
 62
7
  6
CONTINUOUS
 70
0
 71
3
 72
11
 73
7
 74
0
 42
0.0000001
 43
0.0000001
 44
0.0000000001
 40
0.0
 40
0.0
 40
0.0
 40
0.0
 40
0.2279592109
 40
0.4710250657
 40
0.7286683852
 40
1.0
 40
1.0
 40
1.0
 40
1.0
 10
16.4633282276
 20
11.3801119696
 30
0.0
 10
16.4747067754
 20
11.4001148607
 30
0.0
 10
16.4967543209
 20
11.4422896759
 30
0.0
 10
16.5268737684
 20
11.5094403264
 30
0.0
 10
16.5549573072
 20
11.5821779976
 30
0.0
 10
16.571804636
 20
11.632873759
 30
0.0
 10
16.5798918317
 20
11.6590439339
 30
0.0
  0
SPLINE
  5
315
100
AcDbEntity
  8
AXIS
100
AcDbSpline
 62
7
  6
CONTINUOUS
 70
0
 71
3
 72
16
 73
12
 74
0
 42
0.0000001
 43
0.0000001
 44
0.0000000001
 40
0.0
 40
0.0
 40
0.0
 40
0.0
 40
0.1087302269
 40
0.2192549681
 40
0.3332614719
 40
0.4522610874
 40
0.5140659076
 40
0.5775800278
 40
0.7101756944
 40
0.8508230126
 40
1.0
 40
1.0
 40
1.0
 40
1.0
 10
16.161908214
 20
11.5558051028
 30
0.0
 10
16.1551049463
 20
11.5558054673
 30
0.0
 10
16.1413673627
 20
11.5567813527
 30
0.0
 10
16.120913262
 20
11.5611413602
 30
0.0
 10
16.1006112034
 20
11.5683784172
 30
0.0
 10
16.0840852703
 20
11.5766737418
 30
0.0
 10
16.0710283098
 20
11.5846351922
 30
0.0
 10
16.0577063892
 20
11.5937551437
 30
0.0
 10
16.041246293
 20
11.6069657775
 30
0.0
 10
16.0221568581
 20
11.6252871709
 30
0.0
 10
16.01008541
 20
11.6388462314
 30
0.0
 10
16.0041193056
 20
11.6460246488
 30
0.0
  0
SPLINE
  5
316
100
AcDbEntity
  8
AXIS
100
AcDbSpline
 62
7
  6
CONTINUOUS
 70
0
 71
3
 72
11
 73
7
 74
0
 42
0.0000001
 43
0.0000001
 44
0.0000000001
 40
0.0
 40
0.0
 40
0.0
 40
0.0
 40
0.2433184061
 40
0.4893737047
 40
0.7407935701
 40
1.0
 40
1.0
 40
1.0
 40
1.0
 10
16.161908214
 20
13.8810549889
 30
0.0
 10
16.1699360553
 20
13.8810549399
 30
0.0
 10
16.1860971613
 20
13.8801136804
 30
0.0
 10
16.2102224587
 20
13.8758954437
 30
0.0
 10
16.2342318976
 20
13.8688811728
 30
0.0
 10
16.2498478311
 20
13.862469171
 30
0.0
 10
16.2575934323
 20
13.8588438427
 30
0.0
  0
SPLINE
  5
317
100
AcDbEntity
  8
AXIS
100
AcDbSpline
 62
7
  6
CONTINUOUS
 70
0
 71
3
 72
9
 73
5
 74
0
 42
0.0000001
 43
0.0000001
 44
0.0000000001
 40
0.0
 40
0.0
 40
0.0
 40
0.0
 40
0.4828558204
 40
1.0
 40
1.0
 40
1.0
 40
1.0
 10
16.2575934323
 20
13.8588438427
 30
0.0
 10
16.2700393955
 20
13.8530185101
 30
0.0
 10
16.2949016388
 20
13.8389435218
 30
0.0
 10
16.317663437
 20
13.8217327287
 30
0.0
 10
16.3288989012
 20
13.8122262973
 30
0.0
  0
SPLINE
  5
318
100
AcDbEntity
  8
AXIS
100
AcDbSpline
 62
7
  6
CONTINUOUS
 70
0
 71
3
 72
9
 73
5
 74
0
 42
0.0000001
 43
0.0000001
 44
0.0000000001
 40
0.0
 40
0.0
 40
0.0
 40
0.0
 40
0.4826139834
 40
1.0
 40
1.0
 40
1.0
 40
1.0
 10
16.3369349408
 20
13.8052444995
 30
0.0
 10
16.3480952356
 20
13.7952935283
 30
0.0
 10
16.3701339316
 20
13.7734390243
 30
0.0
 10
16.3901305334
 20
13.7497244181
 30
0.0
 10
16.3999974811
 20
13.7370913394
 30
0.0
  0
SPLINE
  5
319
100
AcDbEntity
  8
AXIS
100
AcDbSpline
 62
7
  6
CONTINUOUS
 70
0
 71
3
 72
11
 73
7
 74
0
 42
0.0000001
 43
0.0000001
 44
0.0000000001
 40
0.0
 40
0.0
 40
0.0
 40
0.0
 40
0.2280806259
 40
0.4707984506
 40
0.72816914
 40
1.0
 40
1.0
 40
1.0
 40
1.0
 10
16.3999974811
 20
13.7370913394
 30
0.0
 10
16.4101310823
 20
13.7241168529
 30
0.0
 10
16.430022386
 20
13.6965232403
 30
0.0
 10
16.4579112111
 20
13.6519366851
 30
0.0
 10
16.4846762093
 20
13.6030374678
 30
0.0
 10
16.5012593703
 20
13.568607221
 30
0.0
 10
16.5093684398
 20
13.5507405228
 30
0.0
  0
SPLINE
  5
31A
100
AcDbEntity
  8
AXIS
100
AcDbSpline
 62
7
  6
CONTINUOUS
 70
0
 71
3
 72
26
 73
22
 74
0
 42
0.0000001
 43
0.0000001
 44
0.0000000001
 40
0.0
 40
0.0
 40
0.0
 40
0.0
 40
0.0258301192
 40
0.0525032216
 40
0.0799851157
 40
0.108238233
 40
0.1668861106
 40
0.2280901675
 40
0.2914515154
 40
0.3565415538
 40
0.4229088922
 40
0.4900859823
 40
0.5575952423
 40
0.6249550337
 40
0.6916854487
 40
0.7573142331
 40
0.8213839812
 40
0.8834539866
 40
0.9431201785
 40
0.9719350053
 40
1.0
 40
1.0
 40
1.0
 40
1.0
 10
16.53467146
 20
13.4912610266
 30
0.0
 10
16.5406098206
 20
13.4763731734
 30
0.0
 10
16.5521952089
 20
13.4459160916
 30
0.0
 10
16.5684682346
 20
13.3990193923
 30
0.0
 10
16.583888244
 20
13.3502557986
 30
0.0
 10
16.6035097346
 20
13.2820362799
 30
0.0
 10
16.6255836597
 20
13.1927829445
 30
0.0
 10
16.6478871411
 20
13.0812672267
 30
0.0
 10
16.6661364856
 20
12.9649701504
 30
0.0
 10
16.6801768364
 20
12.8448668031
 30
0.0
 10
16.6898893988
 20
12.7219624458
 30
0.0
 10
16.695191895
 20
12.5972874385
 30
0.0
 10
16.6960393808
 20
12.4718871122
 30
0.0
 10
16.692424602
 20
12.3468131592
 30
0.0
 10
16.6843779623
 20
12.2231145352
 30
0.0
 10
16.6719679737
 20
12.1018280432
 30
0.0
 10
16.6552993745
 20
11.9839705194
 30
0.0
 10
16.6345146958
 20
11.8705272042
 30
0.0
 10
16.6136730044
 20
11.7794222194
 30
0.0
 10
16.5950006995
 20
11.7095472974
 30
0.0
 10
16.5850336538
 20
11.6756828761
 30
0.0
 10
16.5798918317
 20
11.6590439339
 30
0.0
  0
SPLINE
  5
31B
100
AcDbEntity
  8
0
100
AcDbSpline
 62
7
  6
CONTINUOUS
 70
0
 71
3
 72
15
 73
11
 74
0
 42
0.0000001
 43
0.0000001
 44
0.0000000001
 40
0.0
 40
0.0
 40
0.0
 40
0.0
 40
0.176926828
 40
0.3421141828
 40
0.4922467762
 40
0.6251362521
 40
0.740325012
 40
0.8386499793
 40
0.9232385874
 40
1.0
 40
1.0
 40
1.0
 40
1.0
 10
14.8986026772
 20
14.076360816
 30
0.0
 10
14.8987496266
 20
14.0772394504
 30
0.0
 10
14.8990896649
 20
14.0789298039
 30
0.0
 10
14.8997561533
 20
14.081319546
 30
0.0
 10
14.9005499825
 20
14.0834359262
 30
0.0
 10
14.9014578526
 20
14.0852291549
 30
0.0
 10
14.902458994
 20
14.0866666208
 30
0.0
 10
14.9035466546
 20
14.0877194347
 30
0.0
 10
14.9047087495
 20
14.0883606079
 30
0.0
 10
14.9055349135
 20
14.0884846094
 30
0.0
 10
14.9059208625
 20
14.0884640023
 30
0.0
  0
SPLINE
  5
31C
100
AcDbEntity
  8
0
100
AcDbSpline
 62
7
  6
CONTINUOUS
 70
0
 71
3
 72
15
 73
11
 74
0
 42
0.0000001
 43
0.0000001
 44
0.0000000001
 40
0.0
 40
0.0
 40
0.0
 40
0.0
 40
0.1639394199
 40
0.3215151573
 40
0.4692581757
 40
0.6044651259
 40
0.725588886
 40
0.8316360039
 40
0.9226304772
 40
1.0
 40
1.0
 40
1.0
 40
1.0
 10
14.7717288092
 20
14.0450626314
 30
0.0
 10
14.7718024438
 20
14.0460138891
 30
0.0
 10
14.7720026865
 20
14.0478756979
 30
0.0
 10
14.7724638411
 20
14.0505693668
 30
0.0
 10
14.7730720193
 20
14.0530625279
 30
0.0
 10
14.7738169873
 20
14.0552963597
 30
0.0
 10
14.7746790138
 20
14.0572256949
 30
0.0
 10
14.7756467019
 20
14.0588124333
 30
0.0
 10
14.7766976472
 20
14.0600258619
 30
0.0
 10
14.7775028415
 20
14.0606103185
 30
0.0
 10
14.7779071446
 20
14.0608085365
 30
0.0
  0
SPLINE
  5
31D
100
AcDbEntity
  8
0
100
AcDbSpline
 62
7
  6
CONTINUOUS
 70
0
 71
3
 72
21
 73
17
 74
0
 42
0.0000001
 43
0.0000001
 44
0.0000000001
 40
0.0
 40
0.0
 40
0.0
 40
0.0
 40
0.0380589465
 40
0.0806713707
 40
0.127988026
 40
0.1799616819
 40
0.2363801759
 40
0.2968687166
 40
0.3609841016
 40
0.4281895894
 40
0.5694454983
 40
0.7154605439
 40
0.7885707033
 40
0.8608538325
 40
0.9315908265
 40
1.0
 40
1.0
 40
1.0
 40
1.0
 10
14.3657366555
 20
13.1054865427
 30
0.0
 10
14.3671139991
 20
13.1066917917
 30
0.0
 10
14.369806789
 20
13.109509743
 30
0.0
 10
14.3734259581
 20
13.1145044298
 30
0.0
 10
14.3768165734
 20
13.1204393038
 30
0.0
 10
14.3799438084
 20
13.1272517366
 30
0.0
 10
14.3827746408
 20
13.1348705452
 30
0.0
 10
14.3852817624
 20
13.1432122919
 30
0.0
 10
14.3874320237
 20
13.1521867453
 30
0.0
 10
14.389835176
 20
13.1650772634
 30
0.0
 10
14.3917638154
 20
13.1820385045
 30
0.0
 10
14.3922861842
 20
13.1993812351
 30
0.0
 10
14.3918497305
 20
13.2133913384
 30
0.0
 10
14.391091851
 20
13.2237604858
 30
0.0
 10
14.3899139347
 20
13.233862499
 30
0.0
 10
14.3888398884
 20
13.2404701461
 30
0.0
 10
14.3882306258
 20
13.2437029681
 30
0.0
  0
SPLINE
  5
31E
100
AcDbEntity
  8
0
100
AcDbSpline
 62
7
  6
CONTINUOUS
 70
0
 71
3
 72
13
 73
9
 74
0
 42
0.0000001
 43
0.0000001
 44
0.0000000001
 40
0.0
 40
0.0
 40
0.0
 40
0.0
 40
0.2982376228
 40
0.5760186527
 40
0.7008959521
 40
0.813975259
 40
0.9139338672
 40
1.0
 40
1.0
 40
1.0
 40
1.0
 10
14.6501614855
 20
13.9467100259
 30
0.0
 10
14.6501514322
 20
13.9486627572
 30
0.0
 10
14.6503461046
 20
13.9524381469
 30
0.0
 10
14.6511215279
 20
13.9569768902
 30
0.0
 10
14.6520752815
 20
13.9602200533
 30
0.0
 10
14.6528937924
 20
13.9622800503
 30
0.0
 10
14.6538189613
 20
13.9640109655
 30
0.0
 10
14.6545470664
 20
13.9649969939
 30
0.0
 10
14.6549299481
 20
13.9654104781
 30
0.0
  0
SPLINE
  5
31F
100
AcDbEntity
  8
0
100
AcDbSpline
 62
7
  6
CONTINUOUS
 70
0
 71
3
 72
11
 73
7
 74
0
 42
0.0000001
 43
0.0000001
 44
0.0000000001
 40
0.0
 40
0.0
 40
0.0
 40
0.0
 40
0.3039451136
 40
0.5666519884
 40
0.7940656387
 40
1.0
 40
1.0
 40
1.0
 40
1.0
 10
14.5645726198
 20
13.8442815618
 30
0.0
 10
14.5648595414
 20
13.8447477683
 30
0.0
 10
14.5654524403
 20
13.8455844223
 30
0.0
 10
14.5664826836
 20
13.846590707
 30
0.0
 10
14.5675801546
 20
13.8472311921
 30
0.0
 10
14.5683661497
 20
13.847381721
 30
0.0
 10
14.5687370499
 20
13.8473817343
 30
0.0
  0
SPLINE
  5
320
100
AcDbEntity
  8
0
100
AcDbSpline
 62
7
  6
CONTINUOUS
 70
0
 71
3
 72
13
 73
9
 74
0
 42
0.0000001
 43
0.0000001
 44
0.0000000001
 40
0.0
 40
0.0
 40
0.0
 40
0.0
 40
0.2761611909
 40
0.5475792671
 40
0.6750718488
 40
0.7942568288
 40
0.9031663312
 40
1.0
 40
1.0
 40
1.0
 40
1.0
 10
14.5392137813
 20
13.7856014802
 30
0.0
 10
14.5390413359
 20
13.7875573205
 30
0.0
 10
14.5389342147
 20
13.7914585623
 30
0.0
 10
14.5393365281
 20
13.7962533354
 30
0.0
 10
14.540000912
 20
13.7998790861
 30
0.0
 10
14.5406373447
 20
13.8023286142
 30
0.0
 10
14.5414042577
 20
13.8045106151
 30
0.0
 10
14.5420275302
 20
13.805838524
 30
0.0
 10
14.5423639665
 20
13.80643918
 30
0.0
  0
SPLINE
  5
321
100
AcDbEntity
  8
0
100
AcDbSpline
 62
7
  6
CONTINUOUS
 70
0
 71
3
 72
9
 73
5
 74
0
 42
0.0000001
 43
0.0000001
 44
0.0000000001
 40
0.0
 40
0.0
 40
0.0
 40
0.0
 40
0.2545620957
 40
1.0
 40
1.0
 40
1.0
 40
1.0
 10
14.5479671436
 20
13.7077114198
 30
0.0
 10
14.5479569161
 20
13.7085356995
 30
0.0
 10
14.5478645315
 20
13.7117727347
 30
0.0
 10
14.547566703
 20
13.7150049771
 30
0.0
 10
14.5472140649
 20
13.7173930167
 30
0.0
  0
SPLINE
  5
322
100
AcDbEntity
  8
0
100
AcDbSpline
 62
7
  6
CONTINUOUS
 70
0
 71
3
 72
14
 73
10
 74
0
 42
0.0000001
 43
0.0000001
 44
0.0000000001
 40
0.0
 40
0.0
 40
0.0
 40
0.0
 40
0.3229267135
 40
0.4648809933
 40
0.5933374445
 40
0.7087592107
 40
0.8129329677
 40
0.9087208391
 40
1.0
 40
1.0
 40
1.0
 40
1.0
 10
14.46378832
 20
13.6397151563
 30
0.0
 10
14.4641193266
 20
13.6405453213
 30
0.0
 10
14.4646700752
 20
13.6417160892
 30
0.0
 10
14.4655697541
 20
13.6430925471
 30
0.0
 10
14.466250204
 20
13.6439190372
 30
0.0
 10
14.4669617258
 20
13.6445738567
 30
0.0
 10
14.4676993205
 20
13.6450502224
 30
0.0
 10
14.4684576191
 20
13.6453418179
 30
0.0
 10
14.4689775039
 20
13.6454078112
 30
0.0
 10
14.4692301249
 20
13.6454073303
 30
0.0
  0
SPLINE
  5
323
100
AcDbEntity
  8
0
100
AcDbSpline
 62
7
  6
CONTINUOUS
 70
0
 71
3
 72
13
 73
9
 74
0
 42
0.0000001
 43
0.0000001
 44
0.0000000001
 40
0.0
 40
0.0
 40
0.0
 40
0.0
 40
0.1252500199
 40
0.2556589594
 40
0.5204383235
 40
0.774582737
 40
0.8920788645
 40
1.0
 40
1.0
 40
1.0
 40
1.0
 10
14.4437346439
 20
13.5687782109
 30
0.0
 10
14.4435699004
 20
13.5696955643
 30
0.0
 10
14.4432995391
 20
13.5715803325
 30
0.0
 10
14.4429815927
 20
13.5754418091
 30
0.0
 10
14.4430033308
 20
13.5802845327
 30
0.0
 10
14.4435676839
 20
13.5850003741
 30
0.0
 10
14.4443566673
 20
13.588483249
 30
0.0
 10
14.4448531359
 20
13.5900881935
 30
0.0
 10
14.4451288734
 20
13.5908424508
 30
0.0
  0
SPLINE
  5
324
100
AcDbEntity
  8
0
100
AcDbSpline
 62
7
  6
CONTINUOUS
 70
0
 71
3
 72
9
 73
5
 74
0
 42
0.0000001
 43
0.0000001
 44
0.0000000001
 40
0.0
 40
0.0
 40
0.0
 40
0.0
 40
0.2557344261
 40
1.0
 40
1.0
 40
1.0
 40
1.0
 10
14.4437346439
 20
13.5687782109
 30
0.0
 10
14.4446969266
 20
13.5634198599
 30
0.0
 10
14.4486261857
 20
13.5424975289
 30
0.0
 10
14.4532305421
 20
13.5217001668
 30
0.0
 10
14.4570825748
 20
13.5063316428
 30
0.0
  0
SPLINE
  5
325
100
AcDbEntity
  8
0
100
AcDbSpline
 62
7
  6
CONTINUOUS
 70
0
 71
3
 72
9
 73
5
 74
0
 42
0.0000001
 43
0.0000001
 44
0.0000000001
 40
0.0
 40
0.0
 40
0.0
 40
0.0
 40
0.514696179
 40
1.0
 40
1.0
 40
1.0
 40
1.0
 10
14.4586030638
 20
13.4972636831
 30
0.0
 10
14.45845248
 20
13.498835043
 30
0.0
 10
14.4580594305
 20
13.5018794201
 30
0.0
 10
14.4574444434
 20
13.5048878891
 30
0.0
 10
14.4570825748
 20
13.5063316428
 30
0.0
  0
SPLINE
  5
326
100
AcDbEntity
  8
0
100
AcDbSpline
 62
7
  6
CONTINUOUS
 70
0
 71
3
 72
21
 73
17
 74
0
 42
0.0000001
 43
0.0000001
 44
0.0000000001
 40
0.0
 40
0.0
 40
0.0
 40
0.0
 40
0.0407115417
 40
0.0864642198
 40
0.1371503769
 40
0.1925002972
 40
0.2521302854
 40
0.3155304256
 40
0.382069788
 40
0.4510698945
 40
0.5934320543
 40
0.7364412061
 40
0.8062462935
 40
0.8739355125
 40
0.9387763721
 40
1.0
 40
1.0
 40
1.0
 40
1.0
 10
14.3245736708
 20
12.8049464683
 30
0.0
 10
14.3260163501
 20
12.8065425358
 30
0.0
 10
14.3288022922
 20
12.8101863769
 30
0.0
 10
14.3324903231
 20
12.8164399172
 30
0.0
 10
14.3358769415
 20
12.8237234994
 30
0.0
 10
14.3389202473
 20
12.8319406391
 30
0.0
 10
14.3415828313
 20
12.8409902645
 30
0.0
 10
14.3438306302
 20
12.8507582807
 30
0.0
 10
14.34563672
 20
12.8611200528
 30
0.0
 10
14.3474361688
 20
12.8757004811
 30
0.0
 10
14.348424633
 20
12.8944284228
 30
0.0
 10
14.3477802214
 20
12.9132133971
 30
0.0
 10
14.3462550676
 20
12.9279630022
 30
0.0
 10
14.344643075
 20
12.9385382217
 30
0.0
 10
14.3425751927
 20
12.9485710493
 30
0.0
 10
14.3408617744
 20
12.9550141014
 30
0.0
 10
14.3399254429
 20
12.9581110947
 30
0.0
  0
SPLINE
  5
327
100
AcDbEntity
  8
0
100
AcDbSpline
 62
7
  6
CONTINUOUS
 70
0
 71
3
 72
14
 73
10
 74
0
 42
0.0000001
 43
0.0000001
 44
0.0000000001
 40
0.0
 40
0.0
 40
0.0
 40
0.0
 40
0.3349125566
 40
0.4815496857
 40
0.6122716043
 40
0.7272244274
 40
0.8278631921
 40
0.917137099
 40
1.0
 40
1.0
 40
1.0
 40
1.0
 10
14.3817690415
 20
13.3858099596
 30
0.0
 10
14.3820965243
 20
13.3870720399
 30
0.0
 10
14.3826756439
 20
13.3888652908
 30
0.0
 10
14.3837037695
 20
13.3910193718
 30
0.0
 10
14.384510221
 20
13.3923210622
 30
0.0
 10
14.3853752219
 20
13.3933622133
 30
0.0
 10
14.3862908819
 20
13.3941307421
 30
0.0
 10
14.3872537078
 20
13.3946072201
 30
0.0
 10
14.3879277633
 20
13.3947165198
 30
0.0
 10
14.3882503636
 20
13.3947166528
 30
0.0
  0
SPLINE
  5
328
100
AcDbEntity
  8
0
100
AcDbSpline
 62
7
  6
CONTINUOUS
 70
0
 71
3
 72
13
 73
9
 74
0
 42
0.0000001
 43
0.0000001
 44
0.0000000001
 40
0.0
 40
0.0
 40
0.0
 40
0.0
 40
0.1138972317
 40
0.2358971832
 40
0.4938482011
 40
0.7549984584
 40
0.8808845101
 40
1.0
 40
1.0
 40
1.0
 40
1.0
 10
14.3678969696
 20
13.3057164352
 30
0.0
 10
14.3676579718
 20
13.306538097
 30
0.0
 10
14.3672369132
 20
13.3082618306
 30
0.0
 10
14.3666078531
 20
13.3119206286
 30
0.0
 10
14.3662468383
 20
13.3167360299
 30
0.0
 10
14.3664301291
 20
13.3215898674
 30
0.0
 10
14.3669164259
 20
13.3253633596
 30
0.0
 10
14.3672689543
 20
13.3271718618
 30
0.0
 10
14.3674743088
 20
13.3280429021
 30
0.0
  0
SPLINE
  5
329
100
AcDbEntity
  8
0
100
AcDbSpline
 62
7
  6
CONTINUOUS
 70
0
 71
3
 72
9
 73
5
 74
0
 42
0.0000001
 43
0.0000001
 44
0.0000000001
 40
0.0
 40
0.0
 40
0.0
 40
0.0
 40
0.5114839845
 40
1.0
 40
1.0
 40
1.0
 40
1.0
 10
14.3678969696
 20
13.3057164352
 30
0.0
 10
14.3706077611
 20
13.2963968757
 30
0.0
 10
14.3762559178
 20
13.278275235
 30
0.0
 10
14.3826690549
 20
13.2604082802
 30
0.0
 10
14.3860091792
 20
13.2517609772
 30
0.0
  0
SPLINE
  5
32A
100
AcDbEntity
  8
0
100
AcDbSpline
 62
7
  6
CONTINUOUS
 70
0
 71
3
 72
9
 73
5
 74
0
 42
0.0000001
 43
0.0000001
 44
0.0000000001
 40
0.0
 40
0.0
 40
0.0
 40
0.0
 40
0.5230721782
 40
1.0
 40
1.0
 40
1.0
 40
1.0
 10
14.3882306258
 20
13.2437029681
 30
0.0
 10
14.3879604424
 20
13.2451365942
 30
0.0
 10
14.3873434794
 20
13.2478597808
 30
0.0
 10
14.3864884602
 20
13.2505201587
 30
0.0
 10
14.3860091792
 20
13.2517609772
 30
0.0
  0
SPLINE
  5
32B
100
AcDbEntity
  8
AXIS
100
AcDbSpline
 62
7
  6
CONTINUOUS
 70
0
 71
3
 72
22
 73
18
 74
0
 42
0.0000001
 43
0.0000001
 44
0.0000000001
 40
0.0
 40
0.0
 40
0.0
 40
0.0
 40
0.0843595478
 40
0.1655873745
 40
0.243612452
 40
0.3183822891
 40
0.3898972539
 40
0.4581999371
 40
0.5233583713
 40
0.5854746747
 40
0.6446907254
 40
0.7011886461
 40
0.8069156282
 40
0.8568920865
 40
0.9054248427
 40
0.9529653137
 40
1.0
 40
1.0
 40
1.0
 40
1.0
 10
15.9208650426
 20
13.2380501799
 30
0.0
 10
15.9249470901
 20
13.2469721182
 30
0.0
 10
15.9332511831
 20
13.2643535502
 30
0.0
 10
15.9463878155
 20
13.2894647044
 30
0.0
 10
15.9599442647
 20
13.3130752575
 30
0.0
 10
15.973894147
 20
13.3351309273
 30
0.0
 10
15.9882093038
 20
13.3555869616
 30
0.0
 10
16.0028615394
 20
13.3744066252
 30
0.0
 10
16.0178263562
 20
13.3915549755
 30
0.0
 10
16.0330763974
 20
13.4069985317
 30
0.0
 10
16.0485861469
 20
13.4207113318
 30
0.0
 10
16.0691068565
 20
13.4362974814
 30
0.0
 10
16.0905471935
 20
13.4488370284
 30
0.0
 10
16.1126245433
 20
13.4576958598
 30
0.0
 10
16.1289902971
 20
13.4623683483
 30
0.0
 10
16.1454283713
 20
13.4651770453
 30
0.0
 10
16.1564378509
 20
13.4658041196
 30
0.0
 10
16.1619082143
 20
13.4658045024
 30
0.0
  0
SPLINE
  5
32C
100
AcDbEntity
  8
AXIS
100
AcDbSpline
 62
7
  6
CONTINUOUS
 70
0
 71
3
 72
23
 73
19
 74
0
 42
0.0000001
 43
0.0000001
 44
0.0000000001
 40
0.0
 40
0.0
 40
0.0
 40
0.0
 40
0.0505031131
 40
0.1040663389
 40
0.1604290243
 40
0.2193361209
 40
0.2804992085
 40
0.3435926332
 40
0.4082718038
 40
0.4741779422
 40
0.5409372869
 40
0.6081686548
 40
0.6754866563
 40
0.7425034744
 40
0.8088303578
 40
0.8740990247
 40
0.9379546591
 40
1.0
 40
1.0
 40
1.0
 40
1.0
 10
15.9142111928
 20
11.7984560983
 30
0.0
 10
15.9063516719
 20
11.8164776132
 30
0.0
 10
15.8913140907
 20
11.8541245621
 30
0.0
 10
15.8712580571
 20
11.9132972454
 30
0.0
 10
15.853159292
 20
11.9765070104
 30
0.0
 10
15.8371386343
 20
12.0433178548
 30
0.0
 10
15.8233024666
 20
12.11328617
 30
0.0
 10
15.8117471688
 20
12.1859416787
 30
0.0
 10
15.8025493464
 20
12.2607926767
 30
0.0
 10
15.7957752471
 20
12.3373338058
 30
0.0
 10
15.7914663407
 20
12.415047781
 30
0.0
 10
15.7896567318
 20
12.4934095975
 30
0.0
 10
15.7903553353
 20
12.5718893566
 30
0.0
 10
15.7935596201
 20
12.6499545933
 30
0.0
 10
15.7992455545
 20
12.7270787462
 30
0.0
 10
15.8073759909
 20
12.8027471087
 30
0.0
 10
15.817898293
 20
12.8764364785
 30
0.0
 10
15.8265927684
 20
12.9246863161
 30
0.0
 10
15.8313465047
 20
12.948368085
 30
0.0
  0
SPLINE
  5
32D
100
AcDbEntity
  8
0
100
AcDbSpline
 62
7
  6
CONTINUOUS
 70
0
 71
3
 72
21
 73
17
 74
0
 42
0.0000001
 43
0.0000001
 44
0.0000000001
 40
0.0
 40
0.0
 40
0.0
 40
0.0
 40
0.0487080898
 40
0.1021326992
 40
0.159809211
 40
0.2212191126
 40
0.2858002267
 40
0.3529098761
 40
0.4917546292
 40
0.6317483951
 40
0.7002718801
 40
0.76679283
 40
0.8306289034
 40
0.8911652296
 40
0.9478111828
 40
1.0
 40
1.0
 40
1.0
 40
1.0
 10
14.313183301
 20
12.4949558266
 30
0.0
 10
14.3144519592
 20
12.497263133
 30
0.0
 10
14.3168544377
 20
12.5022446012
 30
0.0
 10
14.3199586807
 20
12.5103145555
 30
0.0
 10
14.3226873883
 20
12.5192393658
 30
0.0
 10
14.325005563
 20
12.528899267
 30
0.0
 10
14.3268837922
 20
12.5391726226
 30
0.0
 10
14.3287901293
 20
12.553677663
 30
0.0
 10
14.3299128302
 20
12.5723726163
 30
0.0
 10
14.3294002121
 20
12.5911695553
 30
0.0
 10
14.3279830287
 20
12.6059746736
 30
0.0
 10
14.3264486522
 20
12.6166203623
 30
0.0
 10
14.3244554465
 20
12.6267503429
 30
0.0
 10
14.3220287912
 20
12.6362364651
 30
0.0
 10
14.3191999027
 20
12.6449510245
 30
0.0
 10
14.3169802832
 20
12.6504079076
 30
0.0
 10
14.3157986833
 20
12.6529697982
 30
0.0
  0
SPLINE
  5
32E
100
AcDbEntity
  8
AXIS
100
AcDbSpline
 62
7
  6
CONTINUOUS
 70
0
 71
3
 72
25
 73
21
 74
0
 42
0.0000001
 43
0.0000001
 44
0.0000000001
 40
0.0
 40
0.0
 40
0.0
 40
0.0
 40
0.0834429685
 40
0.167070459
 40
0.249953994
 40
0.3313213197
 40
0.4104573963
 40
0.4866599936
 40
0.5592529022
 40
0.6276520031
 40
0.6913534989
 40
0.7499777657
 40
0.803281586
 40
0.851225541
 40
0.8940323347
 40
0.9322864667
 40
0.9500452716
 40
0.9671043027
 40
0.983676999
 40
1.0
 40
1.0
 40
1.0
 40
1.0
 10
15.9142111928
 20
11.7984560983
 30
0.0
 10
15.9139661809
 20
11.7930317176
 30
0.0
 10
15.9137026379
 20
11.7821594685
 30
0.0
 10
15.9139694536
 20
11.7658920134
 30
0.0
 10
15.9149006953
 20
11.7497838975
 30
0.0
 10
15.916482119
 20
11.7340201153
 30
0.0
 10
15.918698608
 20
11.7187717901
 30
0.0
 10
15.9215216205
 20
11.7042045775
 30
0.0
 10
15.9249236433
 20
11.6904794597
 30
0.0
 10
15.928863809
 20
11.6777468902
 30
0.0
 10
15.9333009825
 20
11.6661452766
 30
0.0
 10
15.9381853415
 20
11.6557984776
 30
0.0
 10
15.9434670718
 20
11.6468158882
 30
0.0
 10
15.9490960167
 20
11.639289956
 30
0.0
 10
15.9550208126
 20
11.6332989387
 30
0.0
 10
15.9603069003
 20
11.6295557602
 30
0.0
 10
15.9645980697
 20
11.6274849784
 30
0.0
 10
15.967770138
 20
11.6263984461
 30
0.0
 10
15.9709635247
 20
11.6257449363
 30
0.0
 10
15.9731068655
 20
11.6255987835
 30
0.0
 10
15.9741690574
 20
11.6255985983
 30
0.0
  0
SPLINE
  5
32F
100
AcDbEntity
  8
AXIS
100
AcDbSpline
 62
7
  6
CONTINUOUS
 70
0
 71
3
 72
30
 73
26
 74
0
 42
0.0000001
 43
0.0000001
 44
0.0000000001
 40
0.0
 40
0.0
 40
0.0
 40
0.0
 40
0.0706743706
 40
0.1452129149
 40
0.2224192572
 40
0.301176415
 40
0.3803041295
 40
0.4585817996
 40
0.5348274038
 40
0.6079131603
 40
0.6767991094
 40
0.7093834456
 40
0.7405921745
 40
0.77033571
 40
0.7985469165
 40
0.8251766341
 40
0.8501901986
 40
0.8735815344
 40
0.8953819543
 40
0.9156543926
 40
0.9345060783
 40
0.9521074156
 40
0.9686870388
 40
0.9845343691
 40
1.0
 40
1.0
 40
1.0
 40
1.0
 10
15.8313465047
 20
12.948368085
 30
0.0
 10
15.8294345251
 20
12.9559143094
 30
0.0
 10
15.8260625703
 20
12.9715637776
 30
0.0
 10
15.8223711281
 20
12.9957962413
 30
0.0
 10
15.8199682175
 20
13.0210847742
 30
0.0
 10
15.8188948812
 20
13.0469692084
 30
0.0
 10
15.8191668535
 20
13.0729925157
 30
0.0
 10
15.8207851294
 20
13.0986899539
 30
0.0
 10
15.8237149009
 20
13.1236023364
 30
0.0
 10
15.8279065387
 20
13.1472845635
 30
0.0
 10
15.832465921
 20
13.1659807809
 30
0.0
 10
15.8367222737
 20
13.1799650006
 30
0.0
 10
15.8401152286
 20
13.1896964648
 30
0.0
 10
15.843755101
 20
13.1988220391
 30
0.0
 10
15.8476248229
 20
13.207301694
 30
0.0
 10
15.8517057857
 20
13.2150989588
 30
0.0
 10
15.8559816938
 20
13.2221787097
 30
0.0
 10
15.860435526
 20
13.2285090443
 30
0.0
 10
15.865046631
 20
13.2340641399
 30
0.0
 10
15.8697971508
 20
13.2388196212
 30
0.0
 10
15.8746718768
 20
13.2427502759
 30
0.0
 10
15.8796501434
 20
13.2458382634
 30
0.0
 10
15.8847128718
 20
13.2480663377
 30
0.0
 10
15.8898369152
 20
13.2494126203
 30
0.0
 10
15.8932930641
 20
13.2497136318
 30
0.0
 10
15.89499658
 20
13.2497136696
 30
0.0
  0
SPLINE
  5
330
100
AcDbEntity
  8
0
100
AcDbSpline
 62
7
  6
CONTINUOUS
 70
0
 71
3
 72
21
 73
17
 74
0
 42
0.0000001
 43
0.0000001
 44
0.0000000001
 40
0.0
 40
0.0
 40
0.0
 40
0.0
 40
0.0574826464
 40
0.1189540631
 40
0.1837211484
 40
0.2511042397
 40
0.3204234424
 40
0.3909478466
 40
0.5324342882
 40
0.6693899241
 40
0.7343407044
 40
0.7960152758
 40
0.8538423139
 40
0.9073549316
 40
0.9561663693
 40
1.0
 40
1.0
 40
1.0
 40
1.0
 10
14.3271401145
 20
12.1856578694
 30
0.0
 10
14.3281806633
 20
12.1885543067
 30
0.0
 10
14.3301080654
 20
12.1946306419
 30
0.0
 10
14.3324975478
 20
12.2041778975
 30
0.0
 10
14.3344505828
 20
12.2143640773
 30
0.0
 10
14.3359421117
 20
12.2250515798
 30
0.0
 10
14.3369531751
 20
12.2361046793
 30
0.0
 10
14.3376435426
 20
12.2511557799
 30
0.0
 10
14.3372653306
 20
12.2698611584
 30
0.0
 10
14.3352564327
 20
12.2881666946
 30
0.0
 10
14.3326515122
 20
12.302042525
 30
0.0
 10
14.3302947727
 20
12.3116388687
 30
0.0
 10
14.3275313555
 20
12.3204872996
 30
0.0
 10
14.3243957869
 20
12.3284776886
 30
0.0
 10
14.3209277258
 20
12.3355035163
 30
0.0
 10
14.3182848688
 20
12.3397169732
 30
0.0
 10
14.3169048023
 20
12.3416152176
 30
0.0
  0
SPLINE
  5
331
100
AcDbEntity
  8
0
100
AcDbSpline
 62
7
  6
CONTINUOUS
 70
0
 71
3
 72
21
 73
17
 74
0
 42
0.0000001
 43
0.0000001
 44
0.0000000001
 40
0.0
 40
0.0
 40
0.0
 40
0.0
 40
0.0668916791
 40
0.13678359
 40
0.2088056819
 40
0.282156422
 40
0.4297151445
 40
0.573088395
 40
0.6412778233
 40
0.7061680854
 40
0.7671425788
 40
0.8236554131
 40
0.8753153468
 40
0.9219031923
 40
0.9633858588
 40
1.0
 40
1.0
 40
1.0
 40
1.0
 10
14.3658341315
 20
11.8905704018
 30
0.0
 10
14.3666079781
 20
11.8939181944
 30
0.0
 10
14.367990002
 20
11.9008113553
 30
0.0
 10
14.3695602717
 20
11.9114256813
 30
0.0
 10
14.3706518178
 20
11.9224336104
 30
0.0
 10
14.3714513757
 20
11.9374638317
 30
0.0
 10
14.3712037758
 20
11.9561998186
 30
0.0
 10
14.3693270604
 20
11.9745807381
 30
0.0
 10
14.3668253425
 20
11.9885652273
 30
0.0
 10
14.3645357908
 20
11.9982725347
 30
0.0
 10
14.3618369643
 20
12.0072503827
 30
0.0
 10
14.3587610744
 20
12.0153852032
 30
0.0
 10
14.3553467361
 20
12.022575731
 30
0.0
 10
14.3516332764
 20
12.0287359378
 30
0.0
 10
14.3476636718
 20
12.0337848177
 30
0.0
 10
14.3447038097
 20
12.0365315603
 30
0.0
 10
14.3431954571
 20
12.037655042
 30
0.0
  0
SPLINE
  5
332
100
AcDbEntity
  8
0
100
AcDbSpline
 62
7
  6
CONTINUOUS
 70
0
 71
3
 72
18
 73
14
 74
0
 42
0.0000001
 43
0.0000001
 44
0.0000000001
 40
0.0
 40
0.0
 40
0.0
 40
0.0
 40
0.1366077595
 40
0.2765056574
 40
0.4160184916
 40
0.551877023
 40
0.6808478823
 40
0.7418253982
 40
0.8000224771
 40
0.8551436515
 40
0.9069580083
 40
0.9552865708
 40
1.0
 40
1.0
 40
1.0
 40
1.0
 10
14.4275742378
 20
11.622590162
 30
0.0
 10
14.428294594
 20
11.6280575749
 30
0.0
 10
14.4293454015
 20
11.6391808464
 30
0.0
 10
14.4298101892
 20
11.6559797776
 30
0.0
 10
14.4291727852
 20
11.6727441914
 30
0.0
 10
14.4274539288
 20
11.6889885978
 30
0.0
 10
14.4251246202
 20
11.7019482177
 30
0.0
 10
14.4227286361
 20
11.711677656
 30
0.0
 10
14.420737196
 20
11.7184288862
 30
0.0
 10
14.4185296206
 20
11.7247222168
 30
0.0
 10
14.4161227937
 20
11.7305136589
 30
0.0
 10
14.4135359746
 20
11.7357627135
 30
0.0
 10
14.4116265505
 20
11.7390029365
 30
0.0
 10
14.4106399671
 20
11.7405144737
 30
0.0
  0
SPLINE
  5
333
100
AcDbEntity
  8
0
100
AcDbSpline
 62
7
  6
CONTINUOUS
 70
0
 71
3
 72
13
 73
9
 74
0
 42
0.0000001
 43
0.0000001
 44
0.0000000001
 40
0.0
 40
0.0
 40
0.0
 40
0.0
 40
0.1333967611
 40
0.267155619
 40
0.5295324429
 40
0.7767545888
 40
0.8918994247
 40
1.0
 40
1.0
 40
1.0
 40
1.0
 10
14.5096620946
 20
11.3934291724
 30
0.0
 10
14.5098260196
 20
11.3970165546
 30
0.0
 10
14.5099998894
 20
11.4042090961
 30
0.0
 10
14.5097507362
 20
11.4184654732
 30
0.0
 10
14.508361803
 20
11.4357513501
 30
0.0
 10
14.5055116607
 20
11.4523568761
 30
0.0
 10
14.5023644311
 20
11.4646307605
 30
0.0
 10
14.5005230523
 20
11.4703569801
 30
0.0
 10
14.4995340954
 20
11.473093923
 30
0.0
  0
SPLINE
  5
334
100
AcDbEntity
  8
0
100
AcDbSpline
 62
7
  6
CONTINUOUS
 70
0
 71
3
 72
9
 73
5
 74
0
 42
0.0000001
 43
0.0000001
 44
0.0000000001
 40
0.0
 40
0.0
 40
0.0
 40
0.0
 40
0.5117616874
 40
1.0
 40
1.0
 40
1.0
 40
1.0
 10
14.6085100686
 20
11.213102868
 30
0.0
 10
14.6082804816
 20
11.2194492139
 30
0.0
 10
14.6073685425
 20
11.2318380552
 30
0.0
 10
14.6054757559
 20
11.2441195824
 30
0.0
 10
14.6042710382
 20
11.2500571924
 30
0.0
  0
SPLINE
  5
335
100
AcDbEntity
  8
AXIS
100
AcDbSpline
 62
7
  6
CONTINUOUS
 70
0
 71
3
 72
14
 73
10
 74
0
 42
0.0000001
 43
0.0000001
 44
0.0000000001
 40
0.0
 40
0.0
 40
0.0
 40
0.0
 40
0.1042544114
 40
0.2109032558
 40
0.3221727029
 40
0.4399595421
 40
0.7004167123
 40
0.8451574351
 40
1.0
 40
1.0
 40
1.0
 40
1.0
 10
15.9741690574
 20
11.6255985983
 30
0.0
 10
15.9754783942
 20
11.6255983701
 30
0.0
 10
15.9781323267
 20
11.6258209505
 30
0.0
 10
15.9820700506
 20
11.6268200081
 30
0.0
 10
15.9859648053
 20
11.6284741715
 30
0.0
 10
15.9912526368
 20
11.6316415612
 30
0.0
 10
15.9962026378
 20
11.636050292
 30
0.0
 10
16.0007982612
 20
11.6413778005
 30
0.0
 10
16.0030242786
 20
11.6444175766
 30
0.0
 10
16.0041193056
 20
11.6460246488
 30
0.0
  0
SPLINE
  5
336
100
AcDbEntity
  8
AXIS
100
AcDbSpline
 62
7
  6
CONTINUOUS
 70
0
 71
3
 72
11
 73
7
 74
0
 42
0.0000001
 43
0.0000001
 44
0.0000000001
 40
0.0
 40
0.0
 40
0.0
 40
0.0
 40
0.2285043718
 40
0.4664636777
 40
0.7217507002
 40
1.0
 40
1.0
 40
1.0
 40
1.0
 10
15.89499658
 20
13.2497136696
 30
0.0
 10
15.897207198
 20
13.2497137188
 30
0.0
 10
15.9017349407
 20
13.2491991445
 30
0.0
 10
15.9083818766
 20
13.2469110926
 30
0.0
 10
15.9148800365
 20
13.2431627351
 30
0.0
 10
15.9188942999
 20
13.2398838402
 30
0.0
 10
15.9208650426
 20
13.2380501799
 30
0.0
  0
SPLINE
  5
337
100
AcDbEntity
  8
AXIS
100
AcDbSpline
 62
7
  6
CONTINUOUS
 70
0
 71
3
 72
23
 73
19
 74
0
 42
0.0000001
 43
0.0000001
 44
0.0000000001
 40
0.0
 40
0.0
 40
0.0
 40
0.0
 40
0.0862887269
 40
0.1696053967
 40
0.2497735987
 40
0.3266780214
 40
0.4002355902
 40
0.4703837982
 40
0.5370840348
 40
0.6003379142
 40
0.6601892168
 40
0.7167311163
 40
0.7701138473
 40
0.8205538032
 40
0.8683444654
 40
0.9138608942
 40
0.9575655938
 40
1.0
 40
1.0
 40
1.0
 40
1.0
 10
15.7439245962
 20
13.3625660519
 30
0.0
 10
15.7496689017
 20
13.3811546312
 30
0.0
 10
15.7615105566
 20
13.4175245637
 30
0.0
 10
15.7806876795
 20
13.470487485
 30
0.0
 10
15.8009282702
 20
13.5207812199
 30
0.0
 10
15.8221714161
 20
13.5682604321
 30
0.0
 10
15.8443610968
 20
13.6127962033
 30
0.0
 10
15.8674347929
 20
13.6542688121
 30
0.0
 10
15.8913319603
 20
13.6925630076
 30
0.0
 10
15.9159869541
 20
13.7275737452
 30
0.0
 10
15.9413351319
 20
13.7592050536
 30
0.0
 10
15.967310819
 20
13.7873699979
 30
0.0
 10
15.9938475909
 20
13.8119905091
 30
0.0
 10
16.0208808811
 20
13.8329938807
 30
0.0
 10
16.0483417207
 20
13.8503172507
 30
0.0
 10
16.0761647638
 20
13.8638978229
 30
0.0
 10
16.1042659995
 20
13.8736844488
 30
0.0
 10
16.1233389103
 20
13.8776874281
 30
0.0
 10
16.1328140803
 20
13.8790161159
 30
0.0
  0
SPLINE
  5
338
100
AcDbEntity
  8
AXIS
100
AcDbSpline
 62
7
  6
CONTINUOUS
 70
0
 71
3
 72
11
 73
7
 74
0
 42
0.0000001
 43
0.0000001
 44
0.0000000001
 40
0.0
 40
0.0
 40
0.0
 40
0.0
 40
0.2302922967
 40
0.4741077164
 40
0.7309601465
 40
1.0
 40
1.0
 40
1.0
 40
1.0
 10
15.9151541186
 20
11.753309621
 30
0.0
 10
15.9220673663
 20
11.7661746192
 30
0.0
 10
15.9354876895
 20
11.7931019424
 30
0.0
 10
15.9539513712
 20
11.8356424358
 30
0.0
 10
15.9712427996
 20
11.8813085371
 30
0.0
 10
15.9817068274
 20
11.9129873311
 30
0.0
 10
15.9867443832
 20
11.9292888676
 30
0.0
  0
SPLINE
  5
339
100
AcDbEntity
  8
AXIS
100
AcDbSpline
 62
7
  6
CONTINUOUS
 70
0
 71
3
 72
19
 73
15
 74
0
 42
0.0000001
 43
0.0000001
 44
0.0000000001
 40
0.0
 40
0.0
 40
0.0
 40
0.0
 40
0.0494233621
 40
0.099249504
 40
0.1498686403
 40
0.2016484984
 40
0.2549285046
 40
0.3100105932
 40
0.3671540829
 40
0.4265814533
 40
0.5529506543
 40
0.6903013828
 40
0.8392822365
 40
1.0
 40
1.0
 40
1.0
 40
1.0
 10
16.1619082143
 20
13.4658045024
 30
0.0
 10
16.1666598727
 20
13.4658048349
 30
0.0
 10
16.1762085394
 20
13.4653338803
 30
0.0
 10
16.1904823944
 20
13.4632161837
 30
0.0
 10
16.2047098053
 20
13.4596939666
 30
0.0
 10
16.2188667203
 20
13.4547748127
 30
0.0
 10
16.2329314144
 20
13.4484661026
 30
0.0
 10
16.2468827219
 20
13.4407798721
 30
0.0
 10
16.2607023118
 20
13.431731901
 30
0.0
 10
16.2793060772
 20
13.4175825526
 30
0.0
 10
16.3021047655
 20
13.3963538058
 30
0.0
 10
16.3280496084
 20
13.3662497615
 30
0.0
 10
16.352990861
 20
13.3311827515
 30
0.0
 10
16.3682902447
 20
13.305602942
 30
0.0
 10
16.3757779453
 20
13.2920866567
 30
0.0
  0
SPLINE
  5
33A
100
AcDbEntity
  8
AXIS
100
AcDbSpline
 62
7
  6
CONTINUOUS
 70
0
 71
3
 72
28
 73
24
 74
0
 42
0.0000001
 43
0.0000001
 44
0.0000000001
 40
0.0
 40
0.0
 40
0.0
 40
0.0
 40
0.0233562481
 40
0.0477551261
 40
0.0731730298
 40
0.0995790725
 40
0.1269344744
 40
0.1551970059
 40
0.1843190873
 40
0.2142475311
 40
0.2762937785
 40
0.3408537144
 40
0.4073986348
 40
0.4753670839
 40
0.5441756998
 40
0.6132288309
 40
0.6819263415
 40
0.7496754451
 40
0.8158944386
 40
0.8800242607
 40
0.9415619779
 40
0.9712029324
 40
1.0
 40
1.0
 40
1.0
 40
1.0
 10
15.9169949167
 20
11.7326972894
 30
0.0
 10
15.9222249775
 20
11.7422546184
 30
0.0
 10
15.9324694898
 20
11.7620443202
 30
0.0
 10
15.9469065826
 20
11.7929821296
 30
0.0
 10
15.9607164255
 20
11.8257542389
 30
0.0
 10
15.9738627034
 20
11.8602768416
 30
0.0
 10
15.9863149599
 20
11.8964614094
 30
0.0
 10
15.9980389614
 20
11.9342165278
 30
0.0
 10
16.0090047033
 20
11.9734461993
 30
0.0
 10
16.0227446762
 20
12.0282423775
 30
0.0
 10
16.0377549564
 20
12.0997330336
 30
0.0
 10
16.0521517974
 20
12.1887021317
 30
0.0
 10
16.0629912369
 20
12.2809554204
 30
0.0
 10
16.0701614002
 20
12.3755516757
 30
0.0
 10
16.0735899029
 20
12.4715272412
 30
0.0
 10
16.073240201
 20
12.5679031874
 30
0.0
 10
16.0691151226
 20
12.6636971893
 30
0.0
 10
16.0612585315
 20
12.7579319155
 30
0.0
 10
16.0497520891
 20
12.8496462593
 30
0.0
 10
16.0347131726
 20
12.9379113036
 30
0.0
 10
16.0191762218
 20
13.0087049961
 30
0.0
 10
16.0050328922
 20
13.0628579454
 30
0.0
 10
15.9974225442
 20
13.0890377436
 30
0.0
 10
15.993481968
 20
13.1018794462
 30
0.0
  0
SPLINE
  5
33B
100
AcDbEntity
  8
AXIS
100
AcDbSpline
 62
7
  6
CONTINUOUS
 70
0
 71
3
 72
23
 73
19
 74
0
 42
0.0000001
 43
0.0000001
 44
0.0000000001
 40
0.0
 40
0.0
 40
0.0
 40
0.0
 40
0.0563597092
 40
0.1151902322
 40
0.17615699
 40
0.2389449753
 40
0.3032069226
 40
0.3685761151
 40
0.4346772987
 40
0.5011280165
 40
0.5675414613
 40
0.6335312273
 40
0.698715968
 40
0.7627222997
 40
0.8251862373
 40
0.8857639945
 40
0.9441448651
 40
1.0
 40
1.0
 40
1.0
 40
1.0
 10
15.9903213011
 20
13.0805546223
 30
0.0
 10
15.9965942701
 20
13.0595763684
 30
0.0
 10
16.0083858089
 20
13.0163871399
 30
0.0
 10
16.0235806336
 20
12.9496389484
 30
0.0
 10
16.0365797168
 20
12.8798868271
 30
0.0
 10
16.0472936437
 20
12.8076154392
 30
0.0
 10
16.0556516618
 20
12.7333133596
 30
0.0
 10
16.0615929103
 20
12.6574886329
 30
0.0
 10
16.0650776497
 20
12.5806606125
 30
0.0
 10
16.0660826619
 20
12.503354633
 30
0.0
 10
16.0645988364
 20
12.4260996336
 30
0.0
 10
16.060638589
 20
12.3494241877
 30
0.0
 10
16.0542284258
 20
12.2738525663
 30
0.0
 10
16.0454113141
 20
12.1999023452
 30
0.0
 10
16.0342512968
 20
12.1280790769
 30
0.0
 10
16.0208221518
 20
12.0588682106
 30
0.0
 10
16.0052162827
 20
11.9927505917
 30
0.0
 10
15.993151259
 20
11.9500215251
 30
0.0
 10
15.9867443832
 20
11.9292888676
 30
0.0
  0
SPLINE
  5
33C
100
AcDbEntity
  8
AXIS
100
AcDbSpline
 62
7
  6
CONTINUOUS
 70
0
 71
3
 72
42
 73
38
 74
0
 42
0.0000001
 43
0.0000001
 44
0.0000000001
 40
0.0
 40
0.0
 40
0.0
 40
0.0
 40
0.0331078175
 40
0.0675079781
 40
0.1030529781
 40
0.1396074433
 40
0.1770372041
 40
0.2151943013
 40
0.253922842
 40
0.2930640469
 40
0.3324569281
 40
0.3719388001
 40
0.4113455399
 40
0.4505140206
 40
0.4892827283
 40
0.5274929088
 40
0.5649904291
 40
0.6016255193
 40
0.6372566067
 40
0.6717482818
 40
0.7049771349
 40
0.7368285626
 40
0.7672041027
 40
0.7960184076
 40
0.8232073465
 40
0.8487270143
 40
0.8725622375
 40
0.8947297646
 40
0.915287516
 40
0.934343479
 40
0.9520653389
 40
0.9605035429
 40
0.9687034283
 40
0.9767061268
 40
0.9845570323
 40
0.9923046718
 40
1.0
 40
1.0
 40
1.0
 40
1.0
 10
16.454012465
 20
13.1018794462
 30
0.0
 10
16.4594884856
 20
13.0840339777
 30
0.0
 10
16.4699059969
 20
13.0474134307
 30
0.0
 10
16.4837279302
 20
12.9909664644
 30
0.0
 10
16.4959823836
 20
12.9321721908
 30
0.0
 10
16.5066112025
 20
12.8713288893
 30
0.0
 10
16.5155604698
 20
12.8087285087
 30
0.0
 10
16.5227909642
 20
12.7446732561
 30
0.0
 10
16.5282632879
 20
12.6794758897
 30
0.0
 10
16.5319522132
 20
12.6134557806
 30
0.0
 10
16.5338389722
 20
12.5469348493
 30
0.0
 10
16.5339143593
 20
12.4802375641
 30
0.0
 10
16.5321789476
 20
12.4136893196
 30
0.0
 10
16.5286392034
 20
12.3476151569
 30
0.0
 10
16.5233154958
 20
12.282337339
 30
0.0
 10
16.5162301834
 20
12.2181745616
 30
0.0
 10
16.5074226506
 20
12.155439436
 30
0.0
 10
16.4969308778
 20
12.094438216
 30
0.0
 10
16.4848121462
 20
12.0354675135
 30
0.0
 10
16.471119743
 20
11.9788150219
 30
0.0
 10
16.455927003
 20
11.9247552162
 30
0.0
 10
16.4393019568
 20
11.8735513708
 30
0.0
 10
16.4213314533
 20
11.8254500848
 30
0.0
 10
16.4020971693
 20
11.7806845528
 30
0.0
 10
16.3816960178
 20
11.7394683647
 30
0.0
 10
16.360221047
 20
11.7019993612
 30
0.0
 10
16.3377740804
 20
11.6684543595
 30
0.0
 10
16.3144553084
 20
11.6389923134
 30
0.0
 10
16.2903627542
 20
11.6137535984
 30
0.0
 10
16.2656014796
 20
11.5928634659
 30
0.0
 10
16.2441339761
 20
11.5789525699
 30
0.0
 10
16.2268032816
 20
11.5702590784
 30
0.0
 10
16.2139294251
 20
11.5649970279
 30
0.0
 10
16.200986258
 20
11.5608964319
 30
0.0
 10
16.1879899786
 20
11.5579616654
 30
0.0
 10
16.1749590058
 20
11.5561977085
 30
0.0
 10
16.1662469707
 20
11.5558048703
 30
0.0
 10
16.161908214
 20
11.5558051028
 30
0.0
  0
SPLINE
  5
33D
100
AcDbEntity
  8
AXIS
100
AcDbSpline
 62
7
  6
CONTINUOUS
 70
0
 71
3
 72
27
 73
23
 74
0
 42
0.0000001
 43
0.0000001
 44
0.0000000001
 40
0.0
 40
0.0
 40
0.0
 40
0.0
 40
0.0793529677
 40
0.1601806959
 40
0.2414261377
 40
0.3221799962
 40
0.4015533365
 40
0.478645026
 40
0.5526011374
 40
0.6226473743
 40
0.6881002519
 40
0.7189289906
 40
0.7484070287
 40
0.8031408657
 40
0.8521220387
 40
0.8744912991
 40
0.8954976744
 40
0.9337180443
 40
0.9512581169
 40
0.9679860557
 40
0.9841407578
 40
1.0
 40
1.0
 40
1.0
 40
1.0
 10
16.454012465
 20
13.1018794462
 30
0.0
 10
16.4546896121
 20
13.1077063541
 30
0.0
 10
16.4557663568
 20
13.119503824
 30
0.0
 10
16.4565702402
 20
13.1373388206
 30
0.0
 10
16.4565642721
 20
13.1552958769
 30
0.0
 10
16.455752653
 20
13.1731269003
 30
0.0
 10
16.4541446942
 20
13.1905958404
 30
0.0
 10
16.4517648121
 20
13.207469639
 30
0.0
 10
16.448642425
 20
13.2235211695
 30
0.0
 10
16.444822548
 20
13.2385356521
 30
0.0
 10
16.4410272953
 20
13.2502425497
 30
0.0
 10
16.437659116
 20
13.258910212
 30
0.0
 10
16.434253559
 20
13.2667049603
 30
0.0
 10
16.4297252907
 20
13.275465438
 30
0.0
 10
16.424553399
 20
13.2832514753
 30
0.0
 10
16.4201833324
 20
13.2885063735
 30
0.0
 10
16.4159700713
 20
13.2928270056
 30
0.0
 10
16.4114744996
 20
13.2963685758
 30
0.0
 10
16.4067371013
 20
13.2988986022
 30
0.0
 10
16.4032414195
 20
13.3002253215
 30
0.0
 10
16.3997158321
 20
13.3010246979
 30
0.0
 10
16.3973455211
 20
13.3012030318
 30
0.0
 10
16.3961731359
 20
13.3012030379
 30
0.0
  0
SPLINE
  5
33E
100
AcDbEntity
  8
AXIS
100
AcDbSpline
 62
7
  6
CONTINUOUS
 70
0
 71
3
 72
42
 73
38
 74
0
 42
0.0000001
 43
0.0000001
 44
0.0000000001
 40
0.0
 40
0.0
 40
0.0
 40
0.0
 40
0.0326186694
 40
0.066482265
 40
0.1014615516
 40
0.1374366843
 40
0.1742759272
 40
0.2118388798
 40
0.2499810515
 40
0.2885542075
 40
0.3274066561
 40
0.3663848902
 40
0.4053346309
 40
0.4441016886
 40
0.4825332503
 40
0.5204785949
 40
0.5577907083
 40
0.5943267786
 40
0.6299498343
 40
0.6645299564
 40
0.6979450114
 40
0.730083273
 40
0.7608438748
 40
0.7901395327
 40
0.8178990223
 40
0.8440690219
 40
0.8686193979
 40
0.8915463777
 40
0.9128791361
 40
0.9326876762
 40
0.942058948
 40
0.9510985715
 40
0.9682729517
 40
0.9764785067
 40
0.9844738947
 40
0.9922996463
 40
1.0
 40
1.0
 40
1.0
 40
1.0
 10
15.7439245962
 20
13.3625660519
 30
0.0
 10
15.7362151381
 20
13.3376182364
 30
0.0
 10
15.7215260644
 20
13.2864493116
 30
0.0
 10
15.7019691682
 20
13.2076009379
 30
0.0
 10
15.6845494953
 20
13.1255043709
 30
0.0
 10
15.6693487224
 20
13.0405488276
 30
0.0
 10
15.6564353315
 20
12.9531252211
 30
0.0
 10
15.6458726349
 20
12.8636402853
 30
0.0
 10
15.6377084517
 20
12.7725116091
 30
0.0
 10
15.6319814095
 20
12.6801634716
 30
0.0
 10
15.6287191973
 20
12.5870260001
 30
0.0
 10
15.6279355456
 20
12.4935333419
 30
0.0
 10
15.6296358188
 20
12.4001211982
 30
0.0
 10
15.6338109654
 20
12.3072248374
 30
0.0
 10
15.6404413296
 20
12.2152771801
 30
0.0
 10
15.6494970349
 20
12.1247066404
 30
0.0
 10
15.660933826
 20
12.0359349658
 30
0.0
 10
15.674699643
 20
11.9493755924
 30
0.0
 10
15.6907293699
 20
11.8654312139
 30
0.0
 10
15.7089472497
 20
11.7844920562
 30
0.0
 10
15.729269814
 20
11.7069343159
 30
0.0
 10
15.7516001226
 20
11.6331173014
 30
0.0
 10
15.775835489
 20
11.5633829055
 30
0.0
 10
15.8018634597
 20
11.4980530073
 30
0.0
 10
15.8295625864
 20
11.4374275317
 30
0.0
 10
15.8588088613
 20
11.3817846901
 30
0.0
 10
15.8894683279
 20
11.3313770957
 30
0.0
 10
15.9214084015
 20
11.2864320367
 30
0.0
 10
15.9544908103
 20
11.2471573533
 30
0.0
 10
15.9834189391
 20
11.2187904688
 30
0.0
 10
16.0070097895
 20
11.1992812905
 30
0.0
 10
16.0300140597
 20
11.1824609389
 30
0.0
 10
16.0537809677
 20
11.1683166148
 30
0.0
 10
16.0781347905
 20
11.1572773537
 30
0.0
 10
16.0962327958
 20
11.1507036349
 30
0.0
 10
16.1144130459
 20
11.1457250509
 30
0.0
 10
16.1266520414
 20
11.1434596397
 30
0.0
 10
16.1327563632
 20
11.1426019777
 30
0.0
  0
ENDSEC
  0
SECTION
  2
OBJECTS
  0
DICTIONARY
  5
C
100
AcDbDictionary
280
0
281
1
  3
ACAD_GROUP
350
D
  3
ACAD_MLINESTYLE
350
17
  3
ACAD_LAYOUT
350
1A
  3
ACAD_PLOTSETTINGS
350
19
  3
ACAD_PLOTSTYLENAME
350
E
  0
DICTIONARY
  5
D
102
{ACAD_REACTORS
330
C
102
}
100
AcDbDictionary
280
0
281
1
  0
ACDBDICTIONARYWDFLT
  5
E
102
{ACAD_REACTORS
330
C
102
}
100
AcDbDictionary
281
1
  3
Normal
350
F
100
AcDbDictionaryWithDefault
340
F
  0
DICTIONARY
  5
17
102
{ACAD_REACTORS
330
C
102
}
100
AcDbDictionary
280
0
281
1
  3
Standard
350
18
  0
DICTIONARY
  5
19
102
{ACAD_REACTORS
330
C
102
}
100
AcDbDictionary
281
1
  0
DICTIONARY
  5
1A
102
{ACAD_REACTORS
330
C
102
}
100
AcDbDictionary
281
1
  3
Model
350
33F
  3
Layout1
350
340
  0
ACDBPLACEHOLDER
  5
F
102
{ACAD_REACTORS
330
E
102
}
  0
MLINESTYLE
  5
18
102
{ACAD_REACTORS
330
17
102
}
100
AcDbMlineStyle
  2
STANDARD
 70
0
  3

 62
256
 51
90.0
 52
90.0
 71
2
 49
0.5
 62
256
  6
BYLAYER
 49
-0.5
 62
256
  6
BYLAYER
  0
LAYOUT
  5
33F
102
{ACAD_REACTORS
330
1A
102
}
100
AcDbPlotSettings
  1

  2
none_device
  4
ANSI_C_(22.00_x_17.00_Inches)
  6

 40
0.0
 41
0.0
 42
0.0
 43
0.0
 44
558.8
 45
431.8
 46
0.0
 47
0.0
 48
0.0
 49
0.0
140
0.0
141
0.0
142
1.0
143
1.0
 70
1024
 72
0
 73
0
 74
0
  7

 75
0
147
1.0
148
0.0
149
0.0
100
AcDbLayout
  1
Model
 70
0
 71
0
 10
0.0
 20
0.0
 11
22.0
 21
17.0
 12
0.0
 22
0.0
 32
0.0
 14
0.0
 24
0.0
 34
0.0
 15
0.0
 25
0.0
 35
0.0
146
0.0
 13
0.0
 23
0.0
 33
0.0
 16
1.0
 26
0.0
 36
0.0
 17
0.0
 27
1.0
 37
0.0
 76
0
330
224
345
0
346
0
  0
LAYOUT
  5
340
102
{ACAD_REACTORS
330
1A
102
}
100
AcDbPlotSettings
  1

  2
none_device
  4
ANSI_C_(22.00_x_17.00_Inches)
  6

 40
0.0
 41
0.0
 42
0.0
 43
0.0
 44
558.8
 45
431.8
 46
0.0
 47
0.0
 48
0.0
 49
0.0
140
0.0
141
0.0
142
1.0
143
1.0
 70
0
 72
0
 73
0
 74
0
  7

 75
0
147
1.0
148
0.0
149
0.0
100
AcDbLayout
  1
Layout1
 70
0
 71
1
 10
0.0
 20
0.0
 11
22.0
 21
17.0
 12
0.0
 22
0.0
 32
0.0
 14
0.0
 24
0.0
 34
0.0
 15
0.0
 25
0.0
 35
0.0
146
0.0
 13
0.0
 23
0.0
 33
0.0
 16
1.0
 26
0.0
 36
0.0
 17
0.0
 27
1.0
 37
0.0
 76
0
330
225
345
0
346
0
  0
ENDSEC
  0
EOF