999
DXF file: _cgs_temp_output.dxf
999
Pro/ENGINEER 2016360 by Parametric Technology Corporation
  0
SECTION
  2
HEADER
  9
$ACADVER
  1
AC1021
  9
$DWGCODEPAGE
  3
ANSI_1252
  9
$EXTMAX
 10
22.0
 20
17.0
 30
0.0
  9
$EXTMIN
 10
0.0
 20
0.0
 30
0.0
  9
$LIMMIN
 10
0.0
 20
0.0
  9
$LIMMAX
 10
22.0
 20
17.0
  9
$VIEWCTR
 10
11.0
 20
8.5
  9
$VIEWSIZE
 40
17.0
  9
$CLAYER
  8
0
  9
$LTSCALE
 40
1.21
  9
$CELTYPE
  6
BYLAYER
  9
$DIMSCALE
 40
1.0
  9
$DIMASZ
 40
0.1875
  9
$DIMEXO
 40
0.0625
  9
$DIMDLI
 40
0.836
  9
$DIMEXE
 40
0.125
  9
$DIMCEN
 40
0.198
  9
$DIMLFAC
 40
1.0
  9
$DIMBLK
  1
_CLOSED
  9
$DIMALT
 70
0
  9
$DIMALTF
 40
25.4
  9
$DIMTXT
 40
0.15625
  9
$DIMTOL
 70
0
  9
$DIMLIM
 70
0
  9
$DIMTFAC
 40
1.0
  9
$DIMGAP
 40
0.09
  9
$DIMDSEP
 70
46
  9
$AUNITS
 70
0
  9
$PDMODE
 70
3
  9
$PDSIZE
 40
0.3125
  9
$HANDSEED
  5
3A2
  9
$TILEMODE
 70
1
  9
$MEASUREMENT
 70
0
  9
$INSUNITS
 70
1
  0
ENDSEC
  0
SECTION
  2
CLASSES
  0
CLASS
  1
ACDBDICTIONARYWDFLT
  2
AcDbDictionaryWithDefault
  3
AutoCAD 2000
 90
0
 91
1
280
0
281
0
  0
CLASS
  1
ACDBPLACEHOLDER
  2
AcDbPlaceHolder
  3
AutoCAD 2000
 90
0
 91
1
280
0
281
0
  0
CLASS
  1
LAYOUT
  2
AcDbLayout
  3
AutoCAD 2000
 90
0
 91
0
280
0
281
0
  0
ENDSEC
  0
SECTION
  2
TABLES
  0
TABLE
  2
VPORT
  5
8
100
AcDbSymbolTable
 70
2
  0
VPORT
  5
1F4
100
AcDbSymbolTableRecord
100
AcDbViewportTableRecord
  2
*ACTIVE
 70
0
 10
0.0
 20
0.0
 11
1.0
 21
1.0
 12
11.0
 22
8.5
 13
0.0
 23
0.0
 14
1.0
 24
1.0
 15
0.0
 25
0.0
 16
0.0
 26
0.0
 36
1.0
 17
0.0
 27
0.0
 37
0.0
 40
17.0
 41
1.2941176471
 42
50.0
 43
0.0
 44
0.0
 50
0.0
 51
0.0
 71
0
 72
100
 73
1
 74
1
 75
0
 76
0
 77
0
 78
0
  0
ENDTAB
  0
TABLE
  2
LTYPE
  5
5
100
AcDbSymbolTable
 70
6
  0
LTYPE
  5
14
100
AcDbSymbolTableRecord
100
AcDbLinetypeTableRecord
  2
BYBLOCK
 70
0
  3

 72
65
 73
0
 40
0.0
  0
LTYPE
  5
15
100
AcDbSymbolTableRecord
100
AcDbLinetypeTableRecord
  2
BYLAYER
 70
0
  3

 72
65
 73
0
 40
0.0
  0
LTYPE
  5
16
100
AcDbSymbolTableRecord
100
AcDbLinetypeTableRecord
  2
CONTINUOUS
 70
64
  3
Solid line
 72
65
 73
0
 40
0.0
  0
LTYPE
  5
1F5
100
AcDbSymbolTableRecord
100
AcDbLinetypeTableRecord
  2
CENTER
 70
64
  3
____ _ ____ _ ____ _ ____ _ ____ _ ____ _ ____
 72
65
 73
4
 40
0.6
 49
0.375
 74
0
 49
-0.075
 74
0
 49
0.075
 74
0
 49
-0.075
 74
0
  0
LTYPE
  5
1F6
100
AcDbSymbolTableRecord
100
AcDbLinetypeTableRecord
  2
HIDDEN
 70
64
  3
- - - - - - - - - - - - - - - - - - - -
 72
65
 73
2
 40
0.2
 49
0.1
 74
0
 49
-0.1
 74
0
  0
LTYPE
  5
1F7
100
AcDbSymbolTableRecord
100
AcDbLinetypeTableRecord
  2
PHANTOM
 70
64
  3
_____ _ _ _____ _ _ _____ _ _ _____
 72
65
 73
6
 40
0.8
 49
0.45
 74
0
 49
-0.05
 74
0
 49
0.1
 74
0
 49
-0.05
 74
0
 49
0.1
 74
0
 49
-0.05
 74
0
  0
LTYPE
  5
1F8
100
AcDbSymbolTableRecord
100
AcDbLinetypeTableRecord
  2
DOT
 70
64
  3
. . . . . . . . . . . . . . . . . . . .
 72
65
 73
2
 40
0.2
 49
0.1
 74
0
 49
-0.1
 74
0
  0
LTYPE
  5
1F9
100
AcDbSymbolTableRecord
100
AcDbLinetypeTableRecord
  2
DASHED
 70
64
  3
- - - - - - - - - - - - - - - - - - - -
 72
65
 73
2
 40
0.2
 49
0.1
 74
0
 49
-0.1
 74
0
  0
ENDTAB
  0
TABLE
  2
LAYER
  5
2
100
AcDbSymbolTable
 70
36
  0
LAYER
  5
10
100
AcDbSymbolTableRecord
100
AcDbLayerTableRecord
  2
0
 70
0
 62
7
  6
CONTINUOUS
370
-3
390
F
  0
LAYER
  5
1FA
100
AcDbSymbolTableRecord
100
AcDbLayerTableRecord
  2
DEFAULT_1
 70
0
 62
7
  6
CENTER
370
-3
390
F
  0
LAYER
  5
1FB
100
AcDbSymbolTableRecord
100
AcDbLayerTableRecord
  2
DEFAULT_2
 70
0
 62
8
  6
HIDDEN
370
-3
390
F
  0
LAYER
  5
1FC
100
AcDbSymbolTableRecord
100
AcDbLayerTableRecord
  2
DEFAULT_3
 70
0
 62
7
  6
PHANTOM
370
-3
390
F
  0
LAYER
  5
1FD
100
AcDbSymbolTableRecord
100
AcDbLayerTableRecord
  2
01_ALL_DTM_PLN
 70
0
 62
7
  6
CONTINUOUS
370
-3
390
F
  0
LAYER
  5
1FE
100
AcDbSymbolTableRecord
100
AcDbLayerTableRecord
  2
01__ASM_ALL_DTM_PLN
 70
0
 62
7
  6
CONTINUOUS
370
-3
390
F
  0
LAYER
  5
1FF
100
AcDbSymbolTableRecord
100
AcDbLayerTableRecord
  2
01__ASM_DEF_DTM_PLN
 70
0
 62
7
  6
CONTINUOUS
370
-3
390
F
  0
LAYER
  5
200
100
AcDbSymbolTableRecord
100
AcDbLayerTableRecord
  2
01___PRT_ALL_DTM_PLN
 70
0
 62
7
  6
CONTINUOUS
370
-3
390
F
  0
LAYER
  5
201
100
AcDbSymbolTableRecord
100
AcDbLayerTableRecord
  2
01___PRT_DEF_DTM_PLN
 70
0
 62
7
  6
CONTINUOUS
370
-3
390
F
  0
LAYER
  5
202
100
AcDbSymbolTableRecord
100
AcDbLayerTableRecord
  2
02_ALL_AXES
 70
0
 62
7
  6
CONTINUOUS
370
-3
390
F
  0
LAYER
  5
203
100
AcDbSymbolTableRecord
100
AcDbLayerTableRecord
  2
02__ASM_ALL_AXES
 70
0
 62
7
  6
CONTINUOUS
370
-3
390
F
  0
LAYER
  5
204
100
AcDbSymbolTableRecord
100
AcDbLayerTableRecord
  2
02___PRT_ALL_AXES
 70
0
 62
7
  6
CONTINUOUS
370
-3
390
F
  0
LAYER
  5
205
100
AcDbSymbolTableRecord
100
AcDbLayerTableRecord
  2
03_ALL_CURVES
 70
0
 62
7
  6
CONTINUOUS
370
-3
390
F
  0
LAYER
  5
206
100
AcDbSymbolTableRecord
100
AcDbLayerTableRecord
  2
03__ASM_ALL_CURVES
 70
0
 62
7
  6
CONTINUOUS
370
-3
390
F
  0
LAYER
  5
207
100
AcDbSymbolTableRecord
100
AcDbLayerTableRecord
  2
03___PRT_ALL_CURVES
 70
0
 62
7
  6
CONTINUOUS
370
-3
390
F
  0
LAYER
  5
208
100
AcDbSymbolTableRecord
100
AcDbLayerTableRecord
  2
04_ALL_DTM_PNT
 70
0
 62
7
  6
CONTINUOUS
370
-3
390
F
  0
LAYER
  5
209
100
AcDbSymbolTableRecord
100
AcDbLayerTableRecord
  2
04__ASM_ALL_DTM_PNT
 70
0
 62
7
  6
CONTINUOUS
370
-3
390
F
  0
LAYER
  5
20A
100
AcDbSymbolTableRecord
100
AcDbLayerTableRecord
  2
04___PRT_ALL_DTM_PNT
 70
0
 62
7
  6
CONTINUOUS
370
-3
390
F
  0
LAYER
  5
20B
100
AcDbSymbolTableRecord
100
AcDbLayerTableRecord
  2
05_ALL_DTM_CSYS
 70
0
 62
7
  6
CONTINUOUS
370
-3
390
F
  0
LAYER
  5
20C
100
AcDbSymbolTableRecord
100
AcDbLayerTableRecord
  2
05__ASM_ALL_DTM_CSYS
 70
0
 62
7
  6
CONTINUOUS
370
-3
390
F
  0
LAYER
  5
20D
100
AcDbSymbolTableRecord
100
AcDbLayerTableRecord
  2
05__ASM_DEF_DTM_CSYS
 70
0
 62
7
  6
CONTINUOUS
370
-3
390
F
  0
LAYER
  5
20E
100
AcDbSymbolTableRecord
100
AcDbLayerTableRecord
  2
05___PRT_ALL_DTM_CSYS
 70
0
 62
7
  6
CONTINUOUS
370
-3
390
F
  0
LAYER
  5
20F
100
AcDbSymbolTableRecord
100
AcDbLayerTableRecord
  2
05___PRT_DEF_DTM_CSYS
 70
0
 62
7
  6
CONTINUOUS
370
-3
390
F
  0
LAYER
  5
210
100
AcDbSymbolTableRecord
100
AcDbLayerTableRecord
  2
06_ALL_SURFS
 70
0
 62
7
  6
CONTINUOUS
370
-3
390
F
  0
LAYER
  5
211
100
AcDbSymbolTableRecord
100
AcDbLayerTableRecord
  2
06__ASM_ALL_SURFS
 70
0
 62
7
  6
CONTINUOUS
370
-3
390
F
  0
LAYER
  5
212
100
AcDbSymbolTableRecord
100
AcDbLayerTableRecord
  2
06___PRT_ALL_SURFS
 70
0
 62
7
  6
CONTINUOUS
370
-3
390
F
  0
LAYER
  5
213
100
AcDbSymbolTableRecord
100
AcDbLayerTableRecord
  2
07__ASM_ALL_SKELETONS
 70
0
 62
7
  6
CONTINUOUS
370
-3
390
F
  0
LAYER
  5
214
100
AcDbSymbolTableRecord
100
AcDbLayerTableRecord
  2
LAYER_AXIS
 70
0
 62
7
  6
CONTINUOUS
370
-3
390
F
  0
LAYER
  5
215
100
AcDbSymbolTableRecord
100
AcDbLayerTableRecord
  2
LAYER_CHAMFER_FEAT
 70
0
 62
7
  6
CONTINUOUS
370
-3
390
F
  0
LAYER
  5
216
100
AcDbSymbolTableRecord
100
AcDbLayerTableRecord
  2
LAYER_CUT_FEAT
 70
0
 62
7
  6
CONTINUOUS
370
-3
390
F
  0
LAYER
  5
217
100
AcDbSymbolTableRecord
100
AcDbLayerTableRecord
  2
LAYER_DIM
 70
0
 62
7
  6
CONTINUOUS
370
-3
390
F
  0
LAYER
  5
218
100
AcDbSymbolTableRecord
100
AcDbLayerTableRecord
  2
LAYER_FEATURE
 70
0
 62
7
  6
CONTINUOUS
370
-3
390
F
  0
LAYER
  5
219
100
AcDbSymbolTableRecord
100
AcDbLayerTableRecord
  2
LAYER_GEOM_FEAT
 70
0
 62
7
  6
CONTINUOUS
370
-3
390
F
  0
LAYER
  5
21A
100
AcDbSymbolTableRecord
100
AcDbLayerTableRecord
  2
LAYER_NOGEOM_FEAT
 70
0
 62
7
  6
CONTINUOUS
370
-3
390
F
  0
LAYER
  5
21B
100
AcDbSymbolTableRecord
100
AcDbLayerTableRecord
  2
LAYER_PARAMETER_DIM
 70
0
 62
7
  6
CONTINUOUS
370
-3
390
F
  0
LAYER
  5
21C
100
AcDbSymbolTableRecord
100
AcDbLayerTableRecord
  2
LAYER_PROTRUSION_FEAT
 70
0
 62
7
  6
CONTINUOUS
370
-3
390
F
  0
LAYER
  5
21D
100
AcDbSymbolTableRecord
100
AcDbLayerTableRecord
  2
LAYER_ROUND_FEAT
 70
0
 62
7
  6
CONTINUOUS
370
-3
390
F
  0
ENDTAB
  0
TABLE
  2
STYLE
  5
3
100
AcDbSymbolTable
 70
1
  0
STYLE
  5
11
100
AcDbSymbolTableRecord
100
AcDbTextStyleTableRecord
  2
STANDARD
 70
0
 40
0.0
 41
0.8
 50
0.0
 71
0
 42
0.2
  3
txt
  4

  0
STYLE
  5
21E
100
AcDbSymbolTableRecord
100
AcDbTextStyleTableRecord
  2
TEXTSTYLE_1
 70
0
 40
0.0
 41
0.8
 50
0.0
 71
0
 42
0.2
  3
gdt
  4

  0
ENDTAB
  0
TABLE
  2
VIEW
  5
6
100
AcDbSymbolTable
 70
0
  0
ENDTAB
  0
TABLE
  2
UCS
  5
7
100
AcDbSymbolTable
 70
0
  0
ENDTAB
  0
TABLE
  2
APPID
  5
9
100
AcDbSymbolTable
 70
1
  0
APPID
  5
21F
100
AcDbSymbolTableRecord
100
AcDbRegAppTableRecord
  2
ACAD
 70
0
  0
ENDTAB
  0
TABLE
  2
BLOCK_RECORD
  5
1
100
AcDbSymbolTable
 70
0
  0
BLOCK_RECORD
  5
220
100
AcDbSymbolTableRecord
100
AcDbBlockTableRecord
  2
*Model_Space
  0
BLOCK_RECORD
  5
221
100
AcDbSymbolTableRecord
100
AcDbBlockTableRecord
  2
*Paper_Space
  0
ENDTAB
  0
TABLE
  2
DIMSTYLE
  5
A
100
AcDbSymbolTable
 70
1
100
AcDbDimStyleTable
 71
0
  0
DIMSTYLE
105
222
100
AcDbSymbolTableRecord
100
AcDbDimStyleTableRecord
  2
STANDARD
 70
0
  3

  4

 40
1.0
 41
0.1875
 42
0.0625
 43
0.38
 44
0.125
 45
0.0
 46
0.0
 47
0.0001
 48
0.0001
140
0.15625
141
0.09
142
0.0
143
25.4
144
1.0
145
0.0
146
1.0
147
0.09
 71
0.0
 72
0.0
 73
1
 74
1
 75
0
 76
0
 77
0
 78
4
 79
1
170
0
171
3
172
0
173
0
174
0
175
0
176
0
177
0
178
0
270
2
179
4
271
4
272
4
273
2
274
2
275
0
280
0
281
0
282
0
283
1
284
4
285
0
286
0
287
3
288
0
340
11
278
46
  0
ENDTAB
  0
ENDSEC
  0
SECTION
  2
BLOCKS
  0
BLOCK
  5
20
100
AcDbEntity
  8
0
100
AcDbBlockBegin
  2
*Model_Space
 70
0
 10
0.0
 20
0.0
 30
0.0
  3
*Model_Space
  1

  0
ENDBLK
  5
21
100
AcDbEntity
  8
0
100
AcDbBlockEnd
  0
BLOCK
  5
1C
100
AcDbEntity
  8
0
100
AcDbBlockBegin
  2
*Paper_Space
 70
0
 10
0.0
 20
0.0
 30
0.0
  3
*Paper_Space
  1

  0
ENDBLK
  5
1D
100
AcDbEntity
  8
0
100
AcDbBlockEnd
  0
ENDSEC
  0
SECTION
  2
ENTITIES
  0
MTEXT
  5
223
100
AcDbEntity
  8
0
100
AcDbMText
 62
7
  6
CONTINUOUS
  7
STANDARD
 71
1
 72
1
 10
15.9560215477
 20
0.9479130325
 30
0.0
 11
1.0
 21
0.0
 31
0.0
 44
0.9
  1
SCALE: 1:1.000
 40
0.3
 41
3.36
  0
LINE
  5
224
100
AcDbEntity
  8
0
100
AcDbLine
 62
7
  6
CONTINUOUS
 10
0.0
 20
0.0
 11
0.0
 21
17.0
  0
LINE
  5
225
100
AcDbEntity
  8
0
100
AcDbLine
 62
7
  6
CONTINUOUS
 10
0.0
 20
0.0
 11
22.0
 21
0.0
  0
LINE
  5
226
100
AcDbEntity
  8
0
100
AcDbLine
 62
7
  6
CONTINUOUS
 10
0.0
 20
17.0
 11
22.0
 21
17.0
  0
LINE
  5
227
100
AcDbEntity
  8
0
100
AcDbLine
 62
7
  6
CONTINUOUS
 10
22.0
 20
0.0
 11
22.0
 21
17.0
  0
LINE
  5
228
100
AcDbEntity
  8
LAYER_FEATURE
100
AcDbLine
 62
7
  6
CONTINUOUS
 10
6.5403672762
 20
4.4551198968
 11
6.4756551916
 21
4.4551198968
  0
LINE
  5
229
100
AcDbEntity
  8
LAYER_FEATURE
100
AcDbLine
 62
7
  6
CONTINUOUS
 10
5.2703672762
 20
4.4551198968
 11
5.3350793607
 21
4.4551198968
  0
LINE
  5
22A
100
AcDbEntity
  8
0
100
AcDbLine
 62
7
  6
CONTINUOUS
 10
5.3653672762
 20
4.5436287629
 11
6.4453672762
 21
4.5436287629
  0
LINE
  5
22B
100
AcDbEntity
  8
LAYER_FEATURE
100
AcDbLine
 62
7
  6
CONTINUOUS
 10
5.3653672762
 20
4.5436938428
 11
6.4453672762
 21
4.5436938428
  0
LINE
  5
22C
100
AcDbEntity
  8
LAYER_FEATURE
100
AcDbLine
 62
7
  6
CONTINUOUS
 10
5.3653672762
 20
4.54614231
 11
6.4453672762
 21
4.54614231
  0
LINE
  5
22D
100
AcDbEntity
  8
0
100
AcDbLine
 62
7
  6
CONTINUOUS
 10
5.3653672762
 20
4.577952442
 11
6.4453672762
 21
4.577952442
  0
LINE
  5
22E
100
AcDbEntity
  8
LAYER_FEATURE
100
AcDbLine
 62
7
  6
CONTINUOUS
 10
5.3653672762
 20
4.5787688812
 11
6.4453672762
 21
4.5787688812
  0
LINE
  5
22F
100
AcDbEntity
  8
LAYER_FEATURE
100
AcDbLine
 62
7
  6
CONTINUOUS
 10
5.3653672762
 20
4.5860201897
 11
6.4453672762
 21
4.5860201897
  0
LINE
  5
230
100
AcDbEntity
  8
02___PRT_ALL_AXES
100
AcDbLine
 62
7
  6
CONTINUOUS
 10
5.2653672762
 20
4.7011198968
 11
5.2653672762
 21
6.3391198968
  0
LINE
  5
231
100
AcDbEntity
  8
LAYER_FEATURE
100
AcDbLine
 62
7
  6
CONTINUOUS
 10
5.2703672762
 20
6.5851198968
 11
5.2703672762
 21
4.4551198968
  0
LINE
  5
232
100
AcDbEntity
  8
0
100
AcDbLine
 62
7
  6
CONTINUOUS
 10
5.3653672762
 20
4.6476376403
 11
6.4453672762
 21
4.6476376403
  0
LINE
  5
233
100
AcDbEntity
  8
LAYER_FEATURE
100
AcDbLine
 62
7
  6
CONTINUOUS
 10
5.3653672762
 20
4.6500195112
 11
6.4453672762
 21
4.6500195112
  0
LINE
  5
234
100
AcDbEntity
  8
LAYER_FEATURE
100
AcDbLine
 62
7
  6
CONTINUOUS
 10
5.3653672762
 20
4.6617949973
 11
6.4453672762
 21
4.6617949973
  0
LINE
  5
235
100
AcDbEntity
  8
LAYER_FEATURE
100
AcDbLine
 62
7
  6
CONTINUOUS
 10
5.3350793607
 20
6.5851198968
 11
5.3350793607
 21
4.4551198968
  0
LINE
  5
236
100
AcDbEntity
  8
LAYER_FEATURE
100
AcDbLine
 62
7
  6
CONTINUOUS
 10
5.3653672762
 20
6.5101546754
 11
5.3653672762
 21
4.5300851181
  0
LINE
  5
237
100
AcDbEntity
  8
02___PRT_ALL_AXES
100
AcDbLine
 62
7
  6
CONTINUOUS
 10
6.5453672762
 20
4.7451198968
 11
6.9323672762
 21
4.7451198968
  0
LINE
  5
238
100
AcDbEntity
  8
0
100
AcDbLine
 62
7
  6
CONTINUOUS
 10
5.3653672762
 20
4.7500063947
 11
6.4453672762
 21
4.7500063947
  0
LINE
  5
239
100
AcDbEntity
  8
LAYER_FEATURE
100
AcDbLine
 62
7
  6
CONTINUOUS
 10
5.3653672762
 20
4.7547076111
 11
6.4453672762
 21
4.7547076111
  0
LINE
  5
23A
100
AcDbEntity
  8
LAYER_FEATURE
100
AcDbLine
 62
7
  6
CONTINUOUS
 10
5.3653672762
 20
4.7705547494
 11
6.4453672762
 21
4.7705547494
  0
LINE
  5
23B
100
AcDbEntity
  8
LAYER_FEATURE
100
AcDbLine
 62
7
  6
CONTINUOUS
 10
6.5403672762
 20
4.702046592
 11
6.5453672762
 21
4.7011198968
  0
LINE
  5
23C
100
AcDbEntity
  8
LAYER_FEATURE
100
AcDbLine
 62
7
  6
CONTINUOUS
 10
5.2653672762
 20
4.7011198968
 11
5.2703672762
 21
4.702046592
  0
LINE
  5
23D
100
AcDbEntity
  8
0
100
AcDbLine
 62
7
  6
CONTINUOUS
 10
5.3653672762
 20
4.8811247315
 11
6.4453672762
 21
4.8811247315
  0
LINE
  5
23E
100
AcDbEntity
  8
LAYER_FEATURE
100
AcDbLine
 62
7
  6
CONTINUOUS
 10
5.3653672762
 20
4.8888100759
 11
6.4453672762
 21
4.8888100759
  0
LINE
  5
23F
100
AcDbEntity
  8
LAYER_FEATURE
100
AcDbLine
 62
7
  6
CONTINUOUS
 10
5.3653672762
 20
4.9081198698
 11
6.4453672762
 21
4.9081198698
  0
LINE
  5
240
100
AcDbEntity
  8
0
100
AcDbLine
 62
7
  6
CONTINUOUS
 10
5.3653672762
 20
5.0359538465
 11
6.4453672762
 21
5.0359538465
  0
LINE
  5
241
100
AcDbEntity
  8
LAYER_FEATURE
100
AcDbLine
 62
7
  6
CONTINUOUS
 10
5.3653672762
 20
5.047173423
 11
6.4453672762
 21
5.047173423
  0
LINE
  5
242
100
AcDbEntity
  8
LAYER_FEATURE
100
AcDbLine
 62
7
  6
CONTINUOUS
 10
5.3653672762
 20
5.069203808
 11
6.4453672762
 21
5.069203808
  0
LINE
  5
243
100
AcDbEntity
  8
LAYER_FEATURE
100
AcDbLine
 62
7
  6
CONTINUOUS
 10
5.3350793607
 20
4.4551198968
 11
5.3653672762
 21
4.5300851181
  0
LINE
  5
244
100
AcDbEntity
  8
0
100
AcDbLine
 62
7
  6
CONTINUOUS
 10
5.3653672762
 20
5.2086121847
 11
6.4453672762
 21
5.2086121847
  0
LINE
  5
245
100
AcDbEntity
  8
LAYER_FEATURE
100
AcDbLine
 62
7
  6
CONTINUOUS
 10
5.3653672762
 20
5.2237118379
 11
6.4453672762
 21
5.2237118379
  0
LINE
  5
246
100
AcDbEntity
  8
LAYER_FEATURE
100
AcDbLine
 62
7
  6
CONTINUOUS
 10
5.3653672762
 20
5.2476161986
 11
6.4453672762
 21
5.2476161986
  0
LINE
  5
247
100
AcDbEntity
  8
LAYER_FEATURE
100
AcDbLine
 62
7
  6
CONTINUOUS
 10
5.3350793607
 20
6.5851198968
 11
5.3653672762
 21
6.5101546754
  0
LINE
  5
248
100
AcDbEntity
  8
LAYER_FEATURE
100
AcDbLine
 62
7
  6
CONTINUOUS
 10
5.3653672762
 20
5.4116410483
 11
6.4453672762
 21
5.4116410483
  0
LINE
  5
249
100
AcDbEntity
  8
LAYER_FEATURE
100
AcDbLine
 62
7
  6
CONTINUOUS
 10
5.3653672762
 20
5.4365007535
 11
6.4453672762
 21
5.4365007535
  0
LINE
  5
24A
100
AcDbEntity
  8
LAYER_FEATURE
100
AcDbLine
 62
7
  6
CONTINUOUS
 10
6.4756551916
 20
6.5851198968
 11
6.4453672762
 21
6.5101546754
  0
LINE
  5
24B
100
AcDbEntity
  8
LAYER_FEATURE
100
AcDbLine
 62
7
  6
CONTINUOUS
 10
6.4756551916
 20
4.4551198968
 11
6.4453672762
 21
4.5300851181
  0
LINE
  5
24C
100
AcDbEntity
  8
LAYER_FEATURE
100
AcDbLine
 62
7
  6
CONTINUOUS
 10
5.3653672762
 20
5.60373904
 11
6.4453672762
 21
5.60373904
  0
LINE
  5
24D
100
AcDbEntity
  8
LAYER_FEATURE
100
AcDbLine
 62
7
  6
CONTINUOUS
 10
5.3653672762
 20
5.6285987452
 11
6.4453672762
 21
5.6285987452
  0
LINE
  5
24E
100
AcDbEntity
  8
LAYER_FEATURE
100
AcDbLine
 62
7
  6
CONTINUOUS
 10
5.3653672762
 20
5.7926235949
 11
6.4453672762
 21
5.7926235949
  0
LINE
  5
24F
100
AcDbEntity
  8
LAYER_FEATURE
100
AcDbLine
 62
7
  6
CONTINUOUS
 10
6.4453672762
 20
6.5101546754
 11
6.4453672762
 21
4.5300851181
  0
LINE
  5
250
100
AcDbEntity
  8
LAYER_FEATURE
100
AcDbLine
 62
7
  6
CONTINUOUS
 10
6.4756551916
 20
6.5851198968
 11
6.4756551916
 21
4.4551198968
  0
LINE
  5
251
100
AcDbEntity
  8
LAYER_FEATURE
100
AcDbLine
 62
7
  6
CONTINUOUS
 10
5.3653672762
 20
5.8165279556
 11
6.4453672762
 21
5.8165279556
  0
LINE
  5
252
100
AcDbEntity
  8
0
100
AcDbLine
 62
7
  6
CONTINUOUS
 10
5.3653672762
 20
5.8316276088
 11
6.4453672762
 21
5.8316276088
  0
LINE
  5
253
100
AcDbEntity
  8
LAYER_FEATURE
100
AcDbLine
 62
7
  6
CONTINUOUS
 10
6.5403672762
 20
6.5851198968
 11
6.5403672762
 21
4.4551198968
  0
LINE
  5
254
100
AcDbEntity
  8
02___PRT_ALL_AXES
100
AcDbLine
 62
7
  6
CONTINUOUS
 10
6.5453672762
 20
4.7011198968
 11
6.5453672762
 21
6.3391198968
  0
LINE
  5
255
100
AcDbEntity
  8
LAYER_FEATURE
100
AcDbLine
 62
7
  6
CONTINUOUS
 10
5.3653672762
 20
5.9710359855
 11
6.4453672762
 21
5.9710359855
  0
LINE
  5
256
100
AcDbEntity
  8
LAYER_FEATURE
100
AcDbLine
 62
7
  6
CONTINUOUS
 10
5.3653672762
 20
5.9930663705
 11
6.4453672762
 21
5.9930663705
  0
LINE
  5
257
100
AcDbEntity
  8
0
100
AcDbLine
 62
7
  6
CONTINUOUS
 10
5.3653672762
 20
6.004285947
 11
6.4453672762
 21
6.004285947
  0
LINE
  5
258
100
AcDbEntity
  8
LAYER_FEATURE
100
AcDbLine
 62
7
  6
CONTINUOUS
 10
5.3653672762
 20
6.1321199237
 11
6.4453672762
 21
6.1321199237
  0
LINE
  5
259
100
AcDbEntity
  8
LAYER_FEATURE
100
AcDbLine
 62
7
  6
CONTINUOUS
 10
5.3653672762
 20
6.1514297176
 11
6.4453672762
 21
6.1514297176
  0
LINE
  5
25A
100
AcDbEntity
  8
0
100
AcDbLine
 62
7
  6
CONTINUOUS
 10
5.3653672762
 20
6.159115062
 11
6.4453672762
 21
6.159115062
  0
LINE
  5
25B
100
AcDbEntity
  8
LAYER_FEATURE
100
AcDbLine
 62
7
  6
CONTINUOUS
 10
5.2653672762
 20
6.3391198968
 11
5.2703672762
 21
6.3381932015
  0
LINE
  5
25C
100
AcDbEntity
  8
LAYER_FEATURE
100
AcDbLine
 62
7
  6
CONTINUOUS
 10
6.5403672762
 20
6.3381932015
 11
6.5453672762
 21
6.3391198968
  0
LINE
  5
25D
100
AcDbEntity
  8
LAYER_CHAMFER_FEAT
100
AcDbLine
 62
7
  6
CONTINUOUS
 10
6.9323672762
 20
6.2951198968
 11
6.9323672762
 21
4.7451198968
  0
LINE
  5
25E
100
AcDbEntity
  8
LAYER_FEATURE
100
AcDbLine
 62
7
  6
CONTINUOUS
 10
5.3653672762
 20
6.2696850441
 11
6.4453672762
 21
6.2696850441
  0
LINE
  5
25F
100
AcDbEntity
  8
LAYER_FEATURE
100
AcDbLine
 62
7
  6
CONTINUOUS
 10
5.3653672762
 20
6.2855321824
 11
6.4453672762
 21
6.2855321824
  0
LINE
  5
260
100
AcDbEntity
  8
0
100
AcDbLine
 62
7
  6
CONTINUOUS
 10
5.3653672762
 20
6.2902333988
 11
6.4453672762
 21
6.2902333988
  0
LINE
  5
261
100
AcDbEntity
  8
02___PRT_ALL_AXES
100
AcDbLine
 62
7
  6
CONTINUOUS
 10
6.5453672762
 20
6.2951198968
 11
6.9323672762
 21
6.2951198968
  0
LINE
  5
262
100
AcDbEntity
  8
LAYER_CHAMFER_FEAT
100
AcDbLine
 62
7
  6
CONTINUOUS
 10
6.9953672762
 20
6.2321198968
 11
6.9953672762
 21
4.8081198968
  0
LINE
  5
263
100
AcDbEntity
  8
LAYER_FEATURE
100
AcDbLine
 62
7
  6
CONTINUOUS
 10
5.3653672762
 20
6.3784447962
 11
6.4453672762
 21
6.3784447962
  0
LINE
  5
264
100
AcDbEntity
  8
LAYER_FEATURE
100
AcDbLine
 62
7
  6
CONTINUOUS
 10
5.3653672762
 20
6.3902202823
 11
6.4453672762
 21
6.3902202823
  0
LINE
  5
265
100
AcDbEntity
  8
0
100
AcDbLine
 62
7
  6
CONTINUOUS
 10
5.3653672762
 20
6.3926021532
 11
6.4453672762
 21
6.3926021532
  0
LINE
  5
266
100
AcDbEntity
  8
LAYER_FEATURE
100
AcDbLine
 62
7
  6
CONTINUOUS
 10
5.3653672762
 20
6.4542196038
 11
6.4453672762
 21
6.4542196038
  0
LINE
  5
267
100
AcDbEntity
  8
LAYER_FEATURE
100
AcDbLine
 62
7
  6
CONTINUOUS
 10
5.3653672762
 20
6.4614709123
 11
6.4453672762
 21
6.4614709123
  0
LINE
  5
268
100
AcDbEntity
  8
LAYER_CUT_FEAT
100
AcDbLine
 62
7
  6
CONTINUOUS
 10
5.3653672762
 20
6.4622873515
 11
6.4453672762
 21
6.4622873515
  0
LINE
  5
269
100
AcDbEntity
  8
LAYER_FEATURE
100
AcDbLine
 62
7
  6
CONTINUOUS
 10
5.3653672762
 20
6.4940974835
 11
6.4453672762
 21
6.4940974835
  0
LINE
  5
26A
100
AcDbEntity
  8
LAYER_FEATURE
100
AcDbLine
 62
7
  6
CONTINUOUS
 10
6.4453672762
 20
6.4965459507
 11
5.3653672762
 21
6.4965459507
  0
LINE
  5
26B
100
AcDbEntity
  8
0
100
AcDbLine
 62
7
  6
CONTINUOUS
 10
5.3653672762
 20
6.4966110306
 11
6.4453672762
 21
6.4966110306
  0
LINE
  5
26C
100
AcDbEntity
  8
LAYER_FEATURE
100
AcDbLine
 62
7
  6
CONTINUOUS
 10
6.5403672762
 20
6.5851198968
 11
6.4756551916
 21
6.5851198968
  0
LINE
  5
26D
100
AcDbEntity
  8
LAYER_FEATURE
100
AcDbLine
 62
7
  6
CONTINUOUS
 10
5.2703672762
 20
6.5851198968
 11
5.3350793607
 21
6.5851198968
  0
LINE
  5
26E
100
AcDbEntity
  8
LAYER_CHAMFER_FEAT
100
AcDbLine
 62
7
  6
CONTINUOUS
 10
6.9323672762
 20
4.7451198968
 11
6.9953672762
 21
4.8081198968
  0
LINE
  5
26F
100
AcDbEntity
  8
LAYER_CHAMFER_FEAT
100
AcDbLine
 62
7
  6
CONTINUOUS
 10
6.9323672762
 20
6.2951198968
 11
6.9953672762
 21
6.2321198968
  0
LINE
  5
270
100
AcDbEntity
  8
LAYER_FEATURE
100
AcDbLine
 62
7
  6
CONTINUOUS
 10
5.2108720839
 20
11.5350477814
 11
5.2755841684
 21
11.5350477814
  0
LINE
  5
271
100
AcDbEntity
  8
LAYER_FEATURE
100
AcDbLine
 62
7
  6
CONTINUOUS
 10
6.4161599993
 20
11.5350477814
 11
6.4808720839
 21
11.5350477814
  0
LINE
  5
272
100
AcDbEntity
  8
0
100
AcDbLine
 62
7
  6
CONTINUOUS
 10
5.3058720839
 20
11.6235566475
 11
6.3858720839
 21
11.6235566475
  0
LINE
  5
273
100
AcDbEntity
  8
LAYER_FEATURE
100
AcDbLine
 62
7
  6
CONTINUOUS
 10
5.3058720839
 20
11.6236217274
 11
6.3858720839
 21
11.6236217274
  0
LINE
  5
274
100
AcDbEntity
  8
LAYER_FEATURE
100
AcDbLine
 62
7
  6
CONTINUOUS
 10
5.3058720839
 20
11.6260701946
 11
6.3858720839
 21
11.6260701946
  0
LINE
  5
275
100
AcDbEntity
  8
0
100
AcDbLine
 62
7
  6
CONTINUOUS
 10
5.3058720839
 20
11.6578803266
 11
6.3858720839
 21
11.6578803266
  0
LINE
  5
276
100
AcDbEntity
  8
LAYER_FEATURE
100
AcDbLine
 62
7
  6
CONTINUOUS
 10
5.3058720839
 20
11.6586967658
 11
6.3858720839
 21
11.6586967658
  0
LINE
  5
277
100
AcDbEntity
  8
LAYER_FEATURE
100
AcDbLine
 62
7
  6
CONTINUOUS
 10
5.3058720839
 20
11.6659480743
 11
6.3858720839
 21
11.6659480743
  0
LINE
  5
278
100
AcDbEntity
  8
02___PRT_ALL_AXES
100
AcDbLine
 62
7
  6
CONTINUOUS
 10
5.2058720839
 20
11.7810477814
 11
5.2058720839
 21
13.4190477814
  0
LINE
  5
279
100
AcDbEntity
  8
LAYER_FEATURE
100
AcDbLine
 62
7
  6
CONTINUOUS
 10
5.2108720839
 20
11.5350477814
 11
5.2108720839
 21
13.6650477814
  0
LINE
  5
27A
100
AcDbEntity
  8
0
100
AcDbLine
 62
7
  6
CONTINUOUS
 10
5.3058720839
 20
11.7275655249
 11
6.3858720839
 21
11.7275655249
  0
LINE
  5
27B
100
AcDbEntity
  8
LAYER_FEATURE
100
AcDbLine
 62
7
  6
CONTINUOUS
 10
5.3058720839
 20
11.7299473958
 11
6.3858720839
 21
11.7299473958
  0
LINE
  5
27C
100
AcDbEntity
  8
LAYER_FEATURE
100
AcDbLine
 62
7
  6
CONTINUOUS
 10
5.3058720839
 20
11.7417228819
 11
6.3858720839
 21
11.7417228819
  0
LINE
  5
27D
100
AcDbEntity
  8
LAYER_FEATURE
100
AcDbLine
 62
7
  6
CONTINUOUS
 10
5.2755841684
 20
11.5350477814
 11
5.2755841684
 21
13.6650477814
  0
LINE
  5
27E
100
AcDbEntity
  8
LAYER_FEATURE
100
AcDbLine
 62
7
  6
CONTINUOUS
 10
5.3058720839
 20
11.6100130741
 11
5.3058720839
 21
13.5900824886
  0
LINE
  5
27F
100
AcDbEntity
  8
LAYER_CHAMFER_FEAT
100
AcDbLine
 62
7
  6
CONTINUOUS
 10
6.4858720839
 20
11.8250477814
 11
6.8728720839
 21
11.8250477814
  0
LINE
  5
280
100
AcDbEntity
  8
0
100
AcDbLine
 62
7
  6
CONTINUOUS
 10
5.3058720839
 20
11.8299342793
 11
6.3858720839
 21
11.8299342793
  0
LINE
  5
281
100
AcDbEntity
  8
LAYER_FEATURE
100
AcDbLine
 62
7
  6
CONTINUOUS
 10
5.3058720839
 20
11.8346354957
 11
6.3858720839
 21
11.8346354957
  0
LINE
  5
282
100
AcDbEntity
  8
LAYER_FEATURE
100
AcDbLine
 62
7
  6
CONTINUOUS
 10
5.3058720839
 20
11.850482634
 11
6.3858720839
 21
11.850482634
  0
LINE
  5
283
100
AcDbEntity
  8
02___PRT_ALL_AXES
100
AcDbLine
 62
7
  6
CONTINUOUS
 10
6.4858720839
 20
11.7810477814
 11
6.4808720839
 21
11.7819744766
  0
LINE
  5
284
100
AcDbEntity
  8
02___PRT_ALL_AXES
100
AcDbLine
 62
7
  6
CONTINUOUS
 10
5.2108720839
 20
11.7819744766
 11
5.2058720839
 21
11.7810477814
  0
LINE
  5
285
100
AcDbEntity
  8
0
100
AcDbLine
 62
7
  6
CONTINUOUS
 10
5.3058720839
 20
11.9610526161
 11
6.3858720839
 21
11.9610526161
  0
LINE
  5
286
100
AcDbEntity
  8
LAYER_FEATURE
100
AcDbLine
 62
7
  6
CONTINUOUS
 10
5.3058720839
 20
11.9687379605
 11
6.3858720839
 21
11.9687379605
  0
LINE
  5
287
100
AcDbEntity
  8
LAYER_FEATURE
100
AcDbLine
 62
7
  6
CONTINUOUS
 10
5.3058720839
 20
11.9880477544
 11
6.3858720839
 21
11.9880477544
  0
LINE
  5
288
100
AcDbEntity
  8
0
100
AcDbLine
 62
7
  6
CONTINUOUS
 10
5.3058720839
 20
12.1158817311
 11
6.3858720839
 21
12.1158817311
  0
LINE
  5
289
100
AcDbEntity
  8
LAYER_FEATURE
100
AcDbLine
 62
7
  6
CONTINUOUS
 10
5.3058720839
 20
12.1271013077
 11
6.3858720839
 21
12.1271013077
  0
LINE
  5
28A
100
AcDbEntity
  8
LAYER_FEATURE
100
AcDbLine
 62
7
  6
CONTINUOUS
 10
5.3058720839
 20
12.1491316926
 11
6.3858720839
 21
12.1491316926
  0
LINE
  5
28B
100
AcDbEntity
  8
LAYER_FEATURE
100
AcDbLine
 62
7
  6
CONTINUOUS
 10
5.2755841684
 20
11.5350477814
 11
5.3058720839
 21
11.6100130027
  0
LINE
  5
28C
100
AcDbEntity
  8
0
100
AcDbLine
 62
7
  6
CONTINUOUS
 10
5.3058720839
 20
12.2885400693
 11
6.3858720839
 21
12.2885400693
  0
LINE
  5
28D
100
AcDbEntity
  8
LAYER_FEATURE
100
AcDbLine
 62
7
  6
CONTINUOUS
 10
5.3058720839
 20
12.3036397226
 11
6.3858720839
 21
12.3036397226
  0
LINE
  5
28E
100
AcDbEntity
  8
LAYER_FEATURE
100
AcDbLine
 62
7
  6
CONTINUOUS
 10
5.3058720839
 20
12.3275440832
 11
6.3858720839
 21
12.3275440832
  0
LINE
  5
28F
100
AcDbEntity
  8
LAYER_FEATURE
100
AcDbLine
 62
7
  6
CONTINUOUS
 10
5.2755841684
 20
13.6650477814
 11
5.3058720839
 21
13.59008256
  0
LINE
  5
290
100
AcDbEntity
  8
LAYER_FEATURE
100
AcDbLine
 62
7
  6
CONTINUOUS
 10
5.3058720839
 20
12.4915689329
 11
6.3858720839
 21
12.4915689329
  0
LINE
  5
291
100
AcDbEntity
  8
LAYER_FEATURE
100
AcDbLine
 62
7
  6
CONTINUOUS
 10
6.3858720839
 20
12.5164286381
 11
5.3058720839
 21
12.5164286381
  0
LINE
  5
292
100
AcDbEntity
  8
LAYER_FEATURE
100
AcDbLine
 62
7
  6
CONTINUOUS
 10
6.3858720839
 20
13.59008256
 11
6.4161599993
 21
13.6650477814
  0
LINE
  5
293
100
AcDbEntity
  8
LAYER_FEATURE
100
AcDbLine
 62
7
  6
CONTINUOUS
 10
6.3858720839
 20
11.6100130027
 11
6.4161599993
 21
11.5350477814
  0
LINE
  5
294
100
AcDbEntity
  8
LAYER_FEATURE
100
AcDbLine
 62
7
  6
CONTINUOUS
 10
6.3858720839
 20
12.6836669246
 11
5.3058720839
 21
12.6836669246
  0
LINE
  5
295
100
AcDbEntity
  8
LAYER_FEATURE
100
AcDbLine
 62
7
  6
CONTINUOUS
 10
5.3058720839
 20
12.7085266298
 11
6.3858720839
 21
12.7085266298
  0
LINE
  5
296
100
AcDbEntity
  8
LAYER_FEATURE
100
AcDbLine
 62
7
  6
CONTINUOUS
 10
5.3058720839
 20
12.8725514795
 11
6.3858720839
 21
12.8725514795
  0
LINE
  5
297
100
AcDbEntity
  8
LAYER_FEATURE
100
AcDbLine
 62
7
  6
CONTINUOUS
 10
6.3858720839
 20
11.610013067
 11
6.3858720839
 21
13.5900824958
  0
LINE
  5
298
100
AcDbEntity
  8
LAYER_FEATURE
100
AcDbLine
 62
7
  6
CONTINUOUS
 10
6.4161599993
 20
11.5350477814
 11
6.4161599993
 21
13.6650477814
  0
LINE
  5
299
100
AcDbEntity
  8
LAYER_FEATURE
100
AcDbLine
 62
7
  6
CONTINUOUS
 10
5.3058720839
 20
12.8964558402
 11
6.3858720839
 21
12.8964558402
  0
LINE
  5
29A
100
AcDbEntity
  8
0
100
AcDbLine
 62
7
  6
CONTINUOUS
 10
5.3058720839
 20
12.9115554934
 11
6.3858720839
 21
12.9115554934
  0
LINE
  5
29B
100
AcDbEntity
  8
LAYER_FEATURE
100
AcDbLine
 62
7
  6
CONTINUOUS
 10
6.4808720839
 20
11.5350477814
 11
6.4808720839
 21
13.6650477814
  0
LINE
  5
29C
100
AcDbEntity
  8
02___PRT_ALL_AXES
100
AcDbLine
 62
7
  6
CONTINUOUS
 10
6.4858720839
 20
11.7810477814
 11
6.4858720839
 21
13.4190477814
  0
LINE
  5
29D
100
AcDbEntity
  8
LAYER_FEATURE
100
AcDbLine
 62
7
  6
CONTINUOUS
 10
5.3058720839
 20
13.0509638701
 11
6.3858720839
 21
13.0509638701
  0
LINE
  5
29E
100
AcDbEntity
  8
LAYER_FEATURE
100
AcDbLine
 62
7
  6
CONTINUOUS
 10
5.3058720839
 20
13.0729942551
 11
6.3858720839
 21
13.0729942551
  0
LINE
  5
29F
100
AcDbEntity
  8
0
100
AcDbLine
 62
7
  6
CONTINUOUS
 10
5.3058720839
 20
13.0842138316
 11
6.3858720839
 21
13.0842138316
  0
LINE
  5
2A0
100
AcDbEntity
  8
LAYER_FEATURE
100
AcDbLine
 62
7
  6
CONTINUOUS
 10
5.3058720839
 20
13.2120478083
 11
6.3858720839
 21
13.2120478083
  0
LINE
  5
2A1
100
AcDbEntity
  8
LAYER_FEATURE
100
AcDbLine
 62
7
  6
CONTINUOUS
 10
5.3058720839
 20
13.2313576022
 11
6.3858720839
 21
13.2313576022
  0
LINE
  5
2A2
100
AcDbEntity
  8
0
100
AcDbLine
 62
7
  6
CONTINUOUS
 10
5.3058720839
 20
13.2390429466
 11
6.3858720839
 21
13.2390429466
  0
LINE
  5
2A3
100
AcDbEntity
  8
02___PRT_ALL_AXES
100
AcDbLine
 62
7
  6
CONTINUOUS
 10
5.2108720839
 20
13.4181210861
 11
5.2058720839
 21
13.4190477814
  0
LINE
  5
2A4
100
AcDbEntity
  8
02___PRT_ALL_AXES
100
AcDbLine
 62
7
  6
CONTINUOUS
 10
6.4858720839
 20
13.4190477814
 11
6.4808720839
 21
13.4181210861
  0
LINE
  5
2A5
100
AcDbEntity
  8
LAYER_CHAMFER_FEAT
100
AcDbLine
 62
7
  6
CONTINUOUS
 10
6.8728720839
 20
13.3750477814
 11
6.8728720839
 21
11.8250477814
  0
LINE
  5
2A6
100
AcDbEntity
  8
LAYER_FEATURE
100
AcDbLine
 62
7
  6
CONTINUOUS
 10
5.3058720839
 20
13.3496129287
 11
6.3858720839
 21
13.3496129287
  0
LINE
  5
2A7
100
AcDbEntity
  8
LAYER_FEATURE
100
AcDbLine
 62
7
  6
CONTINUOUS
 10
5.3058720839
 20
13.365460067
 11
6.3858720839
 21
13.365460067
  0
LINE
  5
2A8
100
AcDbEntity
  8
0
100
AcDbLine
 62
7
  6
CONTINUOUS
 10
5.3058720839
 20
13.3701612834
 11
6.3858720839
 21
13.3701612834
  0
LINE
  5
2A9
100
AcDbEntity
  8
LAYER_CHAMFER_FEAT
100
AcDbLine
 62
7
  6
CONTINUOUS
 10
6.4858720839
 20
13.3750477814
 11
6.8728720839
 21
13.3750477814
  0
LINE
  5
2AA
100
AcDbEntity
  8
LAYER_CHAMFER_FEAT
100
AcDbLine
 62
7
  6
CONTINUOUS
 10
6.9358720839
 20
13.3120477814
 11
6.9358720839
 21
11.8880477814
  0
LINE
  5
2AB
100
AcDbEntity
  8
LAYER_FEATURE
100
AcDbLine
 62
7
  6
CONTINUOUS
 10
5.3058720839
 20
13.4583726808
 11
6.3858720839
 21
13.4583726808
  0
LINE
  5
2AC
100
AcDbEntity
  8
LAYER_FEATURE
100
AcDbLine
 62
7
  6
CONTINUOUS
 10
5.3058720839
 20
13.4701481669
 11
6.3858720839
 21
13.4701481669
  0
LINE
  5
2AD
100
AcDbEntity
  8
0
100
AcDbLine
 62
7
  6
CONTINUOUS
 10
5.3058720839
 20
13.4725300379
 11
6.3858720839
 21
13.4725300379
  0
LINE
  5
2AE
100
AcDbEntity
  8
LAYER_FEATURE
100
AcDbLine
 62
7
  6
CONTINUOUS
 10
5.3058720839
 20
13.5341474884
 11
6.3858720839
 21
13.5341474884
  0
LINE
  5
2AF
100
AcDbEntity
  8
LAYER_FEATURE
100
AcDbLine
 62
7
  6
CONTINUOUS
 10
5.3058720839
 20
13.5413987969
 11
6.3858720839
 21
13.5413987969
  0
LINE
  5
2B0
100
AcDbEntity
  8
0
100
AcDbLine
 62
7
  6
CONTINUOUS
 10
5.3058720839
 20
13.5422152362
 11
6.3858720839
 21
13.5422152362
  0
LINE
  5
2B1
100
AcDbEntity
  8
LAYER_FEATURE
100
AcDbLine
 62
7
  6
CONTINUOUS
 10
5.3058720839
 20
13.5740253681
 11
6.3858720839
 21
13.5740253681
  0
LINE
  5
2B2
100
AcDbEntity
  8
LAYER_FEATURE
100
AcDbLine
 62
7
  6
CONTINUOUS
 10
5.3058720839
 20
13.5764738353
 11
6.3858720839
 21
13.5764738353
  0
LINE
  5
2B3
100
AcDbEntity
  8
0
100
AcDbLine
 62
7
  6
CONTINUOUS
 10
5.3058720839
 20
13.5765389152
 11
6.3858720839
 21
13.5765389152
  0
LINE
  5
2B4
100
AcDbEntity
  8
LAYER_FEATURE
100
AcDbLine
 62
7
  6
CONTINUOUS
 10
5.2108720839
 20
13.6650477814
 11
5.2755841684
 21
13.6650477814
  0
LINE
  5
2B5
100
AcDbEntity
  8
LAYER_FEATURE
100
AcDbLine
 62
7
  6
CONTINUOUS
 10
6.4161599993
 20
13.6650477814
 11
6.4808720839
 21
13.6650477814
  0
LINE
  5
2B6
100
AcDbEntity
  8
LAYER_CHAMFER_FEAT
100
AcDbLine
 62
7
  6
CONTINUOUS
 10
6.9358720839
 20
11.8880477814
 11
6.8728720839
 21
11.8250477814
  0
LINE
  5
2B7
100
AcDbEntity
  8
LAYER_CHAMFER_FEAT
100
AcDbLine
 62
7
  6
CONTINUOUS
 10
6.9358720839
 20
13.3120477814
 11
6.8728720839
 21
13.3750477814
  0
LINE
  5
2B8
100
AcDbEntity
  8
LAYER_FEATURE
100
AcDbLine
 62
7
  6
CONTINUOUS
 10
14.7454302812
 20
11.4458049929
 11
14.8050340581
 21
11.4458049929
  0
LINE
  5
2B9
100
AcDbEntity
  8
LAYER_FEATURE
100
AcDbLine
 62
7
  6
CONTINUOUS
 10
15.8555739666
 20
11.4458049929
 11
15.9151777435
 21
11.4458049929
  0
LINE
  5
2BA
100
AcDbEntity
  8
LAYER_FEATURE
100
AcDbLine
 62
7
  6
CONTINUOUS
 10
14.8343361683
 20
11.5308116353
 11
15.6933980647
 21
11.5308116353
  0
LINE
  5
2BB
100
AcDbEntity
  8
0
100
AcDbLine
 62
7
  6
CONTINUOUS
 10
14.7707817821
 20
11.5441913517
 11
15.6815422966
 21
11.5441913517
  0
LINE
  5
2BC
100
AcDbEntity
  8
LAYER_FEATURE
100
AcDbLine
 62
7
  6
CONTINUOUS
 10
14.769427998
 20
11.5444677595
 11
15.6813190547
 21
11.5444677595
  0
LINE
  5
2BD
100
AcDbEntity
  8
LAYER_FEATURE
100
AcDbLine
 62
7
  6
CONTINUOUS
 10
14.7598573597
 20
11.5489380112
 11
15.6777086367
 21
11.5489380112
  0
LINE
  5
2BE
100
AcDbEntity
  8
0
100
AcDbLine
 62
7
  6
CONTINUOUS
 10
14.7002120121
 20
11.5934773146
 11
15.6450417751
 21
11.5934773146
  0
LINE
  5
2BF
100
AcDbEntity
  8
LAYER_FEATURE
100
AcDbLine
 62
7
  6
CONTINUOUS
 10
14.6972338613
 20
11.5948493521
 11
15.6441295161
 21
11.5948493521
  0
LINE
  5
2C0
100
AcDbEntity
  8
LAYER_FEATURE
100
AcDbLine
 62
7
  6
CONTINUOUS
 10
14.688186733
 20
11.6040283959
 11
15.6380943221
 21
11.6040283959
  0
LINE
  5
2C1
100
AcDbEntity
  8
0
100
AcDbLine
 62
7
  6
CONTINUOUS
 10
14.6347425614
 20
11.677170218
 11
15.5974868244
 21
11.677170218
  0
LINE
  5
2C2
100
AcDbEntity
  8
LAYER_FEATURE
100
AcDbLine
 62
7
  6
CONTINUOUS
 10
14.6302544925
 20
11.6804306063
 11
15.5959514011
 21
11.6804306063
  0
LINE
  5
2C3
100
AcDbEntity
  8
LAYER_FEATURE
100
AcDbLine
 62
7
  6
CONTINUOUS
 10
14.6220785502
 20
11.6939656966
 11
15.5895772852
 21
11.6939656966
  0
LINE
  5
2C4
100
AcDbEntity
  8
02___PRT_ALL_AXES
100
AcDbLine
 62
7
  6
CONTINUOUS
 10
15.9197830485
 20
11.7358049929
 11
16.2762336532
 21
11.7358049929
  0
LINE
  5
2C5
100
AcDbEntity
  8
0
100
AcDbLine
 62
7
  6
CONTINUOUS
 10
14.576889384
 20
11.7920537906
 11
15.5495553189
 21
11.7920537906
  0
LINE
  5
2C6
100
AcDbEntity
  8
02___PRT_ALL_AXES
100
AcDbLine
 62
7
  6
CONTINUOUS
 10
15.8947913807
 20
11.6943233191
 11
15.8624886324
 21
11.7008434373
  0
LINE
  5
2C7
100
AcDbEntity
  8
LAYER_FEATURE
100
AcDbLine
 62
7
  6
CONTINUOUS
 10
14.5710638711
 20
11.7979226826
 11
15.5475126079
 21
11.7979226826
  0
LINE
  5
2C8
100
AcDbEntity
  8
LAYER_FEATURE
100
AcDbLine
 62
7
  6
CONTINUOUS
 10
14.5640733117
 20
11.8152936734
 11
15.5415945027
 21
11.8152936734
  0
LINE
  5
2C9
100
AcDbEntity
  8
0
100
AcDbLine
 62
7
  6
CONTINUOUS
 10
14.5288757453
 20
11.9337131212
 11
15.5070526839
 21
11.9337131212
  0
LINE
  5
2CA
100
AcDbEntity
  8
LAYER_FEATURE
100
AcDbLine
 62
7
  6
CONTINUOUS
 10
14.5219366595
 20
11.9428104262
 11
15.5048432121
 21
11.9428104262
  0
LINE
  5
2CB
100
AcDbEntity
  8
LAYER_FEATURE
100
AcDbLine
 62
7
  6
CONTINUOUS
 10
14.5164001263
 20
11.9633497601
 11
15.4998548028
 21
11.9633497601
  0
LINE
  5
2CC
100
AcDbEntity
  8
0
100
AcDbLine
 62
7
  6
CONTINUOUS
 10
14.4924960112
 20
12.0967053836
 11
15.4735674492
 21
12.0967053836
  0
LINE
  5
2CD
100
AcDbEntity
  8
LAYER_FEATURE
100
AcDbLine
 62
7
  6
CONTINUOUS
 10
14.4924071616
 20
12.0967072429
 11
14.4924960112
 21
12.0967054059
  0
LINE
  5
2CE
100
AcDbEntity
  8
LAYER_FEATURE
100
AcDbLine
 62
7
  6
CONTINUOUS
 10
14.4847607889
 20
12.1095258825
 11
15.4714769727
 21
12.1095258825
  0
LINE
  5
2CF
100
AcDbEntity
  8
LAYER_FEATURE
100
AcDbLine
 62
7
  6
CONTINUOUS
 10
14.4808910477
 20
12.1324442445
 11
15.4679777179
 21
12.1324442445
  0
LINE
  5
2D0
100
AcDbEntity
  8
0
100
AcDbLine
 62
7
  6
CONTINUOUS
 10
14.4686411081
 20
12.2749439251
 11
15.4511971446
 21
12.2749439251
  0
LINE
  5
2D1
100
AcDbEntity
  8
LAYER_FEATURE
100
AcDbLine
 62
7
  6
CONTINUOUS
 10
14.4609649071
 20
12.2916622699
 11
15.4497731288
 21
12.2916622699
  0
LINE
  5
2D2
100
AcDbEntity
  8
LAYER_FEATURE
100
AcDbLine
 62
7
  6
CONTINUOUS
 10
14.45891067
 20
12.3160789202
 11
15.4478936118
 21
12.3160789202
  0
LINE
  5
2D3
100
AcDbEntity
  8
LAYER_FEATURE
100
AcDbLine
 62
7
  6
CONTINUOUS
 10
14.4514634766
 20
12.4822201894
 11
15.4410662179
 21
12.4822201894
  0
LINE
  5
2D4
100
AcDbEntity
  8
LAYER_FEATURE
100
AcDbLine
 62
7
  6
CONTINUOUS
 10
14.4513036868
 20
12.5071968097
 11
15.440910732
 21
12.5071968097
  0
LINE
  5
2D5
100
AcDbEntity
  8
LAYER_FEATURE
100
AcDbLine
 62
7
  6
CONTINUOUS
 10
14.456621632
 20
12.6738766067
 11
15.4457803467
 21
12.6738766067
  0
LINE
  5
2D6
100
AcDbEntity
  8
LAYER_FEATURE
100
AcDbLine
 62
7
  6
CONTINUOUS
 10
14.45836243
 20
12.6984533596
 11
15.4473969762
 21
12.6984533596
  0
LINE
  5
2D7
100
AcDbEntity
  8
LAYER_FEATURE
100
AcDbLine
 62
7
  6
CONTINUOUS
 10
14.4762411483
 20
12.8592662735
 11
15.4637549307
 21
12.8592662735
  0
LINE
  5
2D8
100
AcDbEntity
  8
LAYER_FEATURE
100
AcDbLine
 62
7
  6
CONTINUOUS
 10
14.4798156363
 20
12.8824986881
 11
15.4669788451
 21
12.8824986881
  0
LINE
  5
2D9
100
AcDbEntity
  8
LAYER_CUT_FEAT
100
AcDbLine
 62
7
  6
CONTINUOUS
 10
14.4875617722
 20
12.8959723051
 11
15.4690061922
 21
12.8959723051
  0
LINE
  5
2DA
100
AcDbEntity
  8
LAYER_FEATURE
100
AcDbLine
 62
7
  6
CONTINUOUS
 10
14.4875617722
 20
12.8959723046
 11
14.4872939105
 21
12.8959553971
  0
LINE
  5
2DB
100
AcDbEntity
  8
LAYER_FEATURE
100
AcDbLine
 62
7
  6
CONTINUOUS
 10
14.5095680585
 20
13.0312647686
 11
15.493748829
 21
13.0312647686
  0
LINE
  5
2DC
100
AcDbEntity
  8
LAYER_FEATURE
100
AcDbLine
 62
7
  6
CONTINUOUS
 10
15.4985373576
 20
13.0522600363
 11
14.5148388709
 21
13.0522600363
  0
LINE
  5
2DD
100
AcDbEntity
  8
0
100
AcDbLine
 62
7
  6
CONTINUOUS
 10
14.5219392595
 20
13.0619496301
 11
15.5007473269
 21
13.0619496301
  0
LINE
  5
2DE
100
AcDbEntity
  8
02___PRT_ALL_AXES
100
AcDbLine
 62
7
  6
CONTINUOUS
 10
15.8947913807
 20
13.3272866667
 11
15.8624886324
 21
13.3207665485
  0
LINE
  5
2DF
100
AcDbEntity
  8
LAYER_FEATURE
100
AcDbLine
 62
7
  6
CONTINUOUS
 10
15.5340670612
 20
13.1832622864
 11
14.555321628
 21
13.1832622864
  0
LINE
  5
2E0
100
AcDbEntity
  8
LAYER_FEATURE
100
AcDbLine
 62
7
  6
CONTINUOUS
 10
14.5620862105
 20
13.2012135708
 11
15.5398476162
 21
13.2012135708
  0
LINE
  5
2E1
100
AcDbEntity
  8
0
100
AcDbLine
 62
7
  6
CONTINUOUS
 10
14.568114924
 20
13.2075825616
 11
15.5419452113
 21
13.2075825616
  0
LINE
  5
2E2
100
AcDbEntity
  8
02___PRT_ALL_AXES
100
AcDbLine
 62
7
  6
CONTINUOUS
 10
15.9197830485
 20
13.2858049929
 11
16.2762336532
 21
13.2858049929
  0
LINE
  5
2E3
100
AcDbEntity
  8
LAYER_FEATURE
100
AcDbLine
 62
7
  6
CONTINUOUS
 10
14.611743573
 20
13.3094176476
 11
15.5813170969
 21
13.3094176476
  0
LINE
  5
2E4
100
AcDbEntity
  8
LAYER_FEATURE
100
AcDbLine
 62
7
  6
CONTINUOUS
 10
14.6197419664
 20
13.3236350909
 11
15.5876455304
 21
13.3236350909
  0
LINE
  5
2E5
100
AcDbEntity
  8
0
100
AcDbLine
 62
7
  6
CONTINUOUS
 10
14.6244673247
 20
13.3272841697
 11
15.5893067334
 21
13.3272841697
  0
LINE
  5
2E6
100
AcDbEntity
  8
LAYER_FEATURE
100
AcDbLine
 62
7
  6
CONTINUOUS
 10
14.6766656296
 20
13.4048827723
 11
15.6302810212
 21
13.4048827723
  0
LINE
  5
2E7
100
AcDbEntity
  8
LAYER_FEATURE
100
AcDbLine
 62
7
  6
CONTINUOUS
 10
14.6855904601
 20
13.4148200061
 11
15.636485747
 21
13.4148200061
  0
LINE
  5
2E8
100
AcDbEntity
  8
0
100
AcDbLine
 62
7
  6
CONTINUOUS
 10
14.6888308705
 20
13.4164543885
 11
15.6375062417
 21
13.4164543885
  0
LINE
  5
2E9
100
AcDbEntity
  8
LAYER_FEATURE
100
AcDbLine
 62
7
  6
CONTINUOUS
 10
14.7475928797
 20
13.4659889893
 11
15.6721753576
 21
13.4659889893
  0
LINE
  5
2EA
100
AcDbEntity
  8
LAYER_FEATURE
100
AcDbLine
 62
7
  6
CONTINUOUS
 10
14.7571011711
 20
13.4712641313
 11
15.6765309506
 21
13.4712641313
  0
LINE
  5
2EB
100
AcDbEntity
  8
0
100
AcDbLine
 62
7
  6
CONTINUOUS
 10
14.7587321063
 20
13.4716664566
 11
15.6768665123
 21
13.4716664566
  0
LINE
  5
2EC
100
AcDbEntity
  8
LAYER_FEATURE
100
AcDbLine
 62
7
  6
CONTINUOUS
 10
14.8217996288
 20
13.490388021
 11
15.6930289222
 21
13.490388021
  0
LINE
  5
2ED
100
AcDbEntity
  8
LAYER_FEATURE
100
AcDbLine
 62
7
  6
CONTINUOUS
 10
14.8315259829
 20
13.4907983505
 11
15.693410537
 21
13.4907983505
  0
LINE
  5
2EE
100
AcDbEntity
  8
LAYER_FEATURE
100
AcDbLine
 62
7
  6
CONTINUOUS
 10
14.7454302812
 20
13.5758049929
 11
14.8050340581
 21
13.5758049929
  0
LINE
  5
2EF
100
AcDbEntity
  8
LAYER_FEATURE
100
AcDbLine
 62
7
  6
CONTINUOUS
 10
15.8555739666
 20
13.5758049929
 11
15.9151777435
 21
13.5758049929
  0
LINE
  5
2F0
100
AcDbEntity
  8
LAYER_CHAMFER_FEAT
100
AcDbLine
 62
7
  6
CONTINUOUS
 10
16.4038323148
 20
11.8084797013
 11
16.4514866211
 21
11.8655719508
  0
LINE
  5
2F1
100
AcDbEntity
  8
LAYER_CHAMFER_FEAT
100
AcDbLine
 62
7
  6
CONTINUOUS
 10
16.4038323148
 20
13.2131302845
 11
16.4514866211
 21
13.156038035
  0
CIRCLE
  5
2F2
100
AcDbEntity
  8
LAYER_FEATURE
100
AcDbCircle
 62
7
  6
CONTINUOUS
 10
15.5603552569
 20
5.4606247044
 40
1.065
  0
CIRCLE
  5
2F3
100
AcDbEntity
  8
LAYER_FEATURE
100
AcDbCircle
 62
7
  6
CONTINUOUS
 10
15.5603552569
 20
5.4606247044
 40
0.9900347787
  0
CIRCLE
  5
2F4
100
AcDbEntity
  8
02___PRT_ALL_AXES
100
AcDbCircle
 62
7
  6
CONTINUOUS
 10
15.5603552569
 20
5.4606247044
 40
0.819
  0
CIRCLE
  5
2F5
100
AcDbEntity
  8
LAYER_CHAMFER_FEAT
100
AcDbCircle
 62
7
  6
CONTINUOUS
 10
15.5603552569
 20
5.4606247044
 40
0.775
  0
CIRCLE
  5
2F6
100
AcDbEntity
  8
LAYER_CHAMFER_FEAT
100
AcDbCircle
 62
7
  6
CONTINUOUS
 10
15.5603552569
 20
5.4606247044
 40
0.712
  0
CIRCLE
  5
2F7
100
AcDbEntity
  8
02___PRT_ALL_AXES
100
AcDbCircle
 62
7
  6
CONTINUOUS
 10
15.5603552569
 20
5.4606247044
 40
0.25
  0
ARC
  5
2F8
100
AcDbEntity
  8
LAYER_FEATURE
100
AcDbCircle
 62
7
  6
CONTINUOUS
 10
15.5555330347
 20
12.2041919542
 40
1.0650043451
100
AcDbArc
 50
201.4175044961
 51
202.4248877352
  0
ARC
  5
2F9
100
AcDbEntity
  8
LAYER_FEATURE
100
AcDbCircle
 62
7
  6
CONTINUOUS
 10
15.5576529571
 20
11.5892294994
 40
0.804835734
100
AcDbArc
 50
180.2882723191
 51
181.5410791076
  0
ARC
  5
2FA
100
AcDbEntity
  8
LAYER_FEATURE
100
AcDbCircle
 62
7
  6
CONTINUOUS
 10
15.4622888026
 20
11.586893802
 40
0.780270293
100
AcDbArc
 50
175.8694570997
 51
177.1494248136
  0
ARC
  5
2FB
100
AcDbEntity
  8
LAYER_FEATURE
100
AcDbCircle
 62
7
  6
CONTINUOUS
 10
15.2974433416
 20
11.6292497495
 40
0.6845757518
100
AcDbArc
 50
171.1680452734
 51
172.5658142859
  0
ARC
  5
2FC
100
AcDbEntity
  8
LAYER_FEATURE
100
AcDbCircle
 62
7
  6
CONTINUOUS
 10
15.1758668937
 20
12.0192475475
 40
0.6422536975
100
AcDbArc
 50
210.4289437032
 51
211.8396474414
  0
ARC
  5
2FD
100
AcDbEntity
  8
LAYER_FEATURE
100
AcDbCircle
 62
7
  6
CONTINUOUS
 10
15.0901908777
 20
11.7229210978
 40
0.540619556
100
AcDbArc
 50
165.8089385111
 51
167.446400179
  0
ARC
  5
2FE
100
AcDbEntity
  8
LAYER_FEATURE
100
AcDbCircle
 62
7
  6
CONTINUOUS
 10
14.8775122756
 20
11.8666820067
 40
0.3808553586
100
AcDbArc
 50
159.2297007031
 51
161.2999124429
  0
ARC
  5
2FF
100
AcDbEntity
  8
LAYER_FEATURE
100
AcDbCircle
 62
7
  6
CONTINUOUS
 10
14.9405397981
 20
11.843706727
 40
0.3480341533
100
AcDbArc
 50
223.5243864469
 51
225.6462498933
  0
ARC
  5
300
100
AcDbEntity
  8
LAYER_FEATURE
100
AcDbCircle
 62
7
  6
CONTINUOUS
 10
14.6950935611
 20
12.050704001
 40
0.2371753189
100
AcDbArc
 50
150.4737306229
 51
153.3155337846
  0
ARC
  5
301
100
AcDbEntity
  8
LAYER_FEATURE
100
AcDbCircle
 62
7
  6
CONTINUOUS
 10
14.5572839101
 20
11.5841999036
 40
0.1955459567
100
AcDbArc
 50
0.2872161895
 51
2.7199851248
  0
ARC
  5
302
100
AcDbEntity
  8
LAYER_FEATURE
100
AcDbCircle
 62
7
  6
CONTINUOUS
 10
14.4913864176
 20
11.6569710222
 40
0.1931578059
100
AcDbArc
 50
355.880750052
 51
359.0706537389
  0
ARC
  5
303
100
AcDbEntity
  8
LAYER_FEATURE
100
AcDbCircle
 62
7
  6
CONTINUOUS
 10
14.845583034
 20
11.7199930957
 40
0.1913340879
100
AcDbArc
 50
243.3818811333
 51
246.5454635615
  0
ARC
  5
304
100
AcDbEntity
  8
LAYER_FEATURE
100
AcDbCircle
 62
7
  6
CONTINUOUS
 10
14.4493812528
 20
11.760924486
 40
0.1736477497
100
AcDbArc
 50
351.1995296329
 51
354.6242238698
  0
ARC
  5
305
100
AcDbEntity
  8
LAYER_FEATURE
100
AcDbCircle
 62
7
  6
CONTINUOUS
 10
14.4295843757
 20
11.8898179835
 40
0.1407434934
100
AcDbArc
 50
345.8691669279
 51
349.8090472263
  0
ARC
  5
306
100
AcDbEntity
  8
LAYER_FEATURE
100
AcDbCircle
 62
7
  6
CONTINUOUS
 10
14.7186952512
 20
11.6239207689
 40
0.0357554402
100
AcDbArc
 50
177.1513511594
 51
181.1036174818
  0
ARC
  5
307
100
AcDbEntity
  8
LAYER_FEATURE
100
AcDbCircle
 62
7
  6
CONTINUOUS
 10
14.7880648767
 20
11.5685199144
 40
0.0349690573
100
AcDbArc
 50
181.5327997882
 51
185.5342915256
  0
ARC
  5
308
100
AcDbEntity
  8
LAYER_FEATURE
100
AcDbCircle
 62
7
  6
CONTINUOUS
 10
14.6514681826
 20
11.7135465703
 40
0.0331236362
100
AcDbArc
 50
172.5784055585
 51
176.7478552273
  0
ARC
  5
309
100
AcDbEntity
  8
LAYER_FEATURE
100
AcDbCircle
 62
7
  6
CONTINUOUS
 10
14.8552061874
 20
11.5486605081
 40
0.0290527346
100
AcDbArc
 50
188.8496303217
 51
190.4241609464
  0
ARC
  5
30A
100
AcDbEntity
  8
LAYER_FEATURE
100
AcDbCircle
 62
7
  6
CONTINUOUS
 10
15.6202961707
 20
12.7921981228
 40
1.1345051594
100
AcDbArc
 50
158.8676680555
 51
159.8365036168
  0
ARC
  5
30B
100
AcDbEntity
  8
LAYER_FEATURE
100
AcDbCircle
 62
7
  6
CONTINUOUS
 10
15.5436165617
 20
13.4605950787
 40
0.802667812
100
AcDbArc
 50
181.0699884403
 51
181.6923150514
  0
ARC
  5
30C
100
AcDbEntity
  8
LAYER_FEATURE
100
AcDbCircle
 62
7
  6
CONTINUOUS
 10
15.5973275371
 20
13.4280382856
 40
0.7847825293
100
AcDbArc
 50
176.6676853066
 51
176.8131007377
  0
ARC
  5
30D
100
AcDbEntity
  8
LAYER_FEATURE
100
AcDbCircle
 62
7
  6
CONTINUOUS
 10
15.4098432504
 20
13.4532616198
 40
0.7414761488
100
AcDbArc
 50
185.5435541816
 51
186.1994089348
  0
ARC
  5
30E
100
AcDbEntity
  8
LAYER_FEATURE
100
AcDbCircle
 62
7
  6
CONTINUOUS
 10
15.2228806614
 20
12.9749651196
 40
0.6966685254
100
AcDbArc
 50
149.9681141499
 51
151.3097571038
  0
ARC
  5
30F
100
AcDbEntity
  8
LAYER_FEATURE
100
AcDbCircle
 62
7
  6
CONTINUOUS
 10
15.2171506321
 20
13.3958999382
 40
0.6185487686
100
AcDbArc
 50
190.4042617047
 51
191.144056868
  0
ARC
  5
310
100
AcDbEntity
  8
LAYER_FEATURE
100
AcDbCircle
 62
7
  6
CONTINUOUS
 10
14.9951919971
 20
13.2840094491
 40
0.4587892061
100
AcDbArc
 50
196.0668682895
 51
196.9718116044
  0
ARC
  5
311
100
AcDbEntity
  8
LAYER_FEATURE
100
AcDbCircle
 62
7
  6
CONTINUOUS
 10
14.9653297644
 20
13.1546040809
 40
0.3820555013
100
AcDbArc
 50
137.0707645135
 51
139.0739317091
  0
ARC
  5
312
100
AcDbEntity
  8
LAYER_FEATURE
100
AcDbCircle
 62
7
  6
CONTINUOUS
 10
14.7928535297
 20
13.1260208938
 40
0.3071049551
100
AcDbArc
 50
203.1995244091
 51
204.3783119926
  0
ARC
  5
313
100
AcDbEntity
  8
LAYER_FEATURE
100
AcDbCircle
 62
7
  6
CONTINUOUS
 10
14.8524294434
 20
13.2882308868
 40
0.2063701725
100
AcDbArc
 50
117.5116227817
 51
120.5308686971
  0
ARC
  5
314
100
AcDbEntity
  8
LAYER_FEATURE
100
AcDbCircle
 62
7
  6
CONTINUOUS
 10
14.5478469389
 20
13.4311385138
 40
0.1935372069
100
AcDbArc
 50
355.6486305206
 51
1.703112968
  0
ARC
  5
315
100
AcDbEntity
  8
LAYER_FEATURE
100
AcDbCircle
 62
7
  6
CONTINUOUS
 10
14.6303591091
 20
12.9319666485
 40
0.1800764842
100
AcDbArc
 50
212.9374818692
 51
214.6193461501
  0
ARC
  5
316
100
AcDbEntity
  8
LAYER_FEATURE
100
AcDbCircle
 62
7
  6
CONTINUOUS
 10
14.4046851834
 20
13.1058706888
 40
0.157901508
100
AcDbArc
 50
358.3819233727
 51
4.2931978496
  0
ARC
  5
317
100
AcDbEntity
  8
LAYER_FEATURE
100
AcDbCircle
 62
7
  6
CONTINUOUS
 10
14.4585546408
 20
13.2418702618
 40
0.1548984053
100
AcDbArc
 50
353.9453398631
 51
359.9329024447
  0
ARC
  5
318
100
AcDbEntity
  8
LAYER_FEATURE
100
AcDbCircle
 62
7
  6
CONTINUOUS
 10
14.83293581
 20
13.3418993706
 40
0.1489056542
100
AcDbArc
 50
90.5424800714
 51
94.2889739136
  0
ARC
  5
319
100
AcDbEntity
  8
LAYER_FEATURE
100
AcDbCircle
 62
7
  6
CONTINUOUS
 10
14.5307122574
 20
13.3487963431
 40
0.1429237207
100
AcDbArc
 50
351.3385955659
 51
355.5065726545
  0
ARC
  5
31A
100
AcDbEntity
  8
LAYER_FEATURE
100
AcDbCircle
 62
7
  6
CONTINUOUS
 10
14.5267113004
 20
12.7213734539
 40
0.0962258042
100
AcDbArc
 50
227.3088779272
 51
229.8625736427
  0
ARC
  5
31B
100
AcDbEntity
  8
LAYER_FEATURE
100
AcDbCircle
 62
7
  6
CONTINUOUS
 10
14.4777927103
 20
12.5134411387
 40
0.0552533528
100
AcDbArc
 50
248.986432308
 51
252.6864828839
  0
ARC
  5
31C
100
AcDbEntity
  8
LAYER_FEATURE
100
AcDbCircle
 62
7
  6
CONTINUOUS
 10
14.4740982357
 20
12.6681924817
 40
0.0483405491
100
AcDbArc
 50
91.9233793426
 51
100.0966163192
  0
ARC
  5
31D
100
AcDbEntity
  8
LAYER_FEATURE
100
AcDbCircle
 62
7
  6
CONTINUOUS
 10
14.7765949893
 20
13.4462795153
 40
0.0355126611
100
AcDbArc
 50
175.2314690014
 51
181.0862691439
  0
ARC
  5
31E
100
AcDbEntity
  8
LAYER_FEATURE
100
AcDbCircle
 62
7
  6
CONTINUOUS
 10
14.7069051647
 20
13.3850074636
 40
0.0352321656
100
AcDbArc
 50
179.6097981869
 51
185.4956831804
  0
ARC
  5
31F
100
AcDbEntity
  8
LAYER_FEATURE
100
AcDbCircle
 62
7
  6
CONTINUOUS
 10
16.82931305
 20
12.5032123738
 40
2.377777612
100
AcDbArc
 50
184.5139025468
 51
185.1043360895
  0
ARC
  5
320
100
AcDbEntity
  8
LAYER_FEATURE
100
AcDbCircle
 62
7
  6
CONTINUOUS
 10
16.4861681441
 20
12.4592472741
 40
2.0317323774
100
AcDbArc
 50
189.2562045961
 51
189.9116647959
  0
ARC
  5
321
100
AcDbEntity
  8
LAYER_FEATURE
100
AcDbCircle
 62
7
  6
CONTINUOUS
 10
16.024866966
 20
12.3589525597
 40
1.5594786891
100
AcDbArc
 50
194.6951644633
 51
195.4767278673
  0
ARC
  5
322
100
AcDbEntity
  8
LAYER_FEATURE
100
AcDbCircle
 62
7
  6
CONTINUOUS
 10
16.9671302077
 20
12.5108031806
 40
2.5158291058
100
AcDbArc
 50
180.0821319322
 51
180.6509663141
  0
ARC
  5
323
100
AcDbEntity
  8
LAYER_FEATURE
100
AcDbCircle
 62
7
  6
CONTINUOUS
 10
16.8636874436
 20
12.5157315554
 40
2.4122553096
100
AcDbArc
 50
175.6558389447
 51
176.2410499236
  0
ARC
  5
324
100
AcDbEntity
  8
LAYER_FEATURE
100
AcDbCircle
 62
7
  6
CONTINUOUS
 10
16.5459989218
 20
12.5527091019
 40
2.0923371001
100
AcDbArc
 50
170.9313478022
 51
171.5750249177
  0
ARC
  5
325
100
AcDbEntity
  8
LAYER_FEATURE
100
AcDbCircle
 62
7
  6
CONTINUOUS
 10
16.095221519
 20
12.644349455
 40
1.6321765703
100
AcDbArc
 50
165.5273300489
 51
166.2872219477
  0
SPLINE
  5
326
100
AcDbEntity
  8
LAYER_CHAMFER_FEAT
100
AcDbSpline
 62
7
  6
CONTINUOUS
 70
0
 71
3
 72
60
 73
56
 74
0
 42
0.0000001
 43
0.0000001
 44
0.0000000001
 40
0.0
 40
0.0
 40
0.0
 40
0.0
 40
0.010161397
 40
0.0206685928
 40
0.0315252899
 40
0.0427335077
 40
0.0542937101
 40
0.0662049654
 40
0.0784650761
 40
0.0910706631
 40
0.1040172762
 40
0.1172994955
 40
0.1309109883
 40
0.1448445801
 40
0.1590923373
 40
0.1736456096
 40
0.1884950725
 40
0.203630797
 40
0.2190422857
 40
0.2347184966
 40
0.2506479022
 40
0.2668185229
 40
0.2832179425
 40
0.2998333555
 40
0.3166516001
 40
0.3336591721
 40
0.3681859762
 40
0.4033009534
 40
0.4388867715
 40
0.474823233
 40
0.5109880434
 40
0.5472575502
 40
0.5835074852
 40
0.619613695
 40
0.6554528766
 40
0.6909033107
 40
0.7258456214
 40
0.7430901585
 40
0.7601643646
 40
0.7770543202
 40
0.7937464113
 40
0.810227345
 40
0.8264841733
 40
0.8425043395
 40
0.8582757002
 40
0.8737865472
 40
0.8890256598
 40
0.9039823408
 40
0.9186464346
 40
0.9330083834
 40
0.9470593174
 40
0.960790984
 40
0.9741958578
 40
0.9872677029
 40
1.0
 40
1.0
 40
1.0
 40
1.0
 10
16.4514866211
 20
11.865571951
 30
0.0
 10
16.4541942589
 20
11.8688158349
 30
0.0
 10
16.4595653887
 20
11.8755288109
 30
0.0
 10
16.4673611249
 20
11.8860715441
 30
0.0
 10
16.4750222209
 20
11.8972444507
 30
0.0
 10
16.4825408672
 20
11.9090361044
 30
0.0
 10
16.489909648
 20
11.9214347283
 30
0.0
 10
16.4971211971
 20
11.9344278574
 30
0.0
 10
16.5041682849
 20
11.9480024599
 30
0.0
 10
16.5110438535
 20
11.9621448894
 30
0.0
 10
16.5177410089
 20
11.9768409225
 30
0.0
 10
16.5242530024
 20
11.9920757839
 30
0.0
 10
16.5305732793
 20
12.0078341402
 30
0.0
 10
16.5366954859
 20
12.024100118
 30
0.0
 10
16.5426134399
 20
12.0408573373
 30
0.0
 10
16.5483211639
 20
12.0580889152
 30
0.0
 10
16.5538129132
 20
12.0757774766
 30
0.0
 10
16.5590831384
 20
12.0939051894
 30
0.0
 10
16.5641265036
 20
12.1124537763
 30
0.0
 10
16.5689379296
 20
12.1314045227
 30
0.0
 10
16.5735125549
 20
12.1507383104
 30
0.0
 10
16.5778457408
 20
12.1704356349
 30
0.0
 10
16.5819331211
 20
12.1904766187
 30
0.0
 10
16.5857705633
 20
12.2108410229
 30
0.0
 10
16.589354195
 20
12.2315083392
 30
0.0
 10
16.5938112441
 20
12.2595805506
 30
0.0
 10
16.598714085
 20
12.2952817651
 30
0.0
 10
16.603504156
 20
12.3387804915
 30
0.0
 10
16.6072104698
 20
12.3829731907
 30
0.0
 10
16.6098180067
 20
12.4276814191
 30
0.0
 10
16.6113161677
 20
12.4727249396
 30
0.0
 10
16.6116988979
 20
12.5179220542
 30
0.0
 10
16.6109646377
 20
12.5630904659
 30
0.0
 10
16.6091163541
 20
12.6080479673
 30
0.0
 10
16.6061615671
 20
12.6526132968
 30
0.0
 10
16.6021122359
 20
12.6966064982
 30
0.0
 10
16.5978208462
 20
12.7327998981
 30
0.0
 10
16.593846289
 20
12.7613258913
 30
0.0
 10
16.5906163228
 20
12.7823743208
 30
0.0
 10
16.5871276427
 20
12.8031485009
 30
0.0
 10
16.5833837707
 20
12.8236275067
 30
0.0
 10
16.5793884988
 20
12.8437906563
 30
0.0
 10
16.575145849
 20
12.8636175986
 30
0.0
 10
16.5706601202
 20
12.8830883261
 30
0.0
 10
16.5659358524
 20
12.9021831943
 30
0.0
 10
16.5609778052
 20
12.9208829334
 30
0.0
 10
16.5557909916
 20
12.9391686817
 30
0.0
 10
16.5503806615
 20
12.9570220006
 30
0.0
 10
16.5447522674
 20
12.9744248819
 30
0.0
 10
16.5389114875
 20
12.9913597886
 30
0.0
 10
16.5328642237
 20
13.0078096536
 30
0.0
 10
16.5266165884
 20
13.0237578655
 30
0.0
 10
16.5201748163
 20
13.0391885208
 30
0.0
 10
16.5135454867
 20
13.0540857847
 30
0.0
 10
16.5089441564
 20
13.0637807429
 30
0.0
 10
16.5066117181
 20
13.0685337526
 30
0.0
  0
SPLINE
  5
327
100
AcDbEntity
  8
02___PRT_ALL_AXES
100
AcDbSpline
 62
7
  6
CONTINUOUS
 70
0
 71
3
 72
23
 73
19
 74
0
 42
0.0000001
 43
0.0000001
 44
0.0000000001
 40
0.0
 40
0.0
 40
0.0
 40
0.0
 40
0.0721695432
 40
0.142412958
 40
0.2108257668
 40
0.2775161952
 40
0.3426056832
 40
0.4062292153
 40
0.4685351038
 40
0.5296848718
 40
0.5898523641
 40
0.6492226552
 40
0.7079904882
 40
0.766358168
 40
0.824533251
 40
0.8827258401
 40
0.9411458085
 40
1.0
 40
1.0
 40
1.0
 40
1.0
 10
16.0227156262
 20
11.7356315536
 30
0.0
 10
16.0201905307
 20
11.7334205025
 30
0.0
 10
16.0151182265
 20
11.7291581712
 30
0.0
 10
16.0073417469
 20
11.7231816128
 30
0.0
 10
15.9995074037
 20
11.7177143437
 30
0.0
 10
15.9916202896
 20
11.7127601906
 30
0.0
 10
15.9836853433
 20
11.708322519
 30
0.0
 10
15.9757076461
 20
11.7044043899
 30
0.0
 10
15.9676922874
 20
11.7010086392
 30
0.0
 10
15.9596444853
 20
11.6981377086
 30
0.0
 10
15.9515695178
 20
11.6957937637
 30
0.0
 10
15.9434727604
 20
11.6939786302
 30
0.0
 10
15.9353596932
 20
11.6926936941
 30
0.0
 10
15.9272358455
 20
11.691940051
 30
0.0
 10
15.9191068586
 20
11.691718264
 30
0.0
 10
15.9109782516
 20
11.6920285553
 30
0.0
 10
15.9028560759
 20
11.6928706074
 30
0.0
 10
15.8974743447
 20
11.6937817772
 30
0.0
 10
15.8947913807
 20
11.6943233194
 30
0.0
  0
SPLINE
  5
328
100
AcDbEntity
  8
LAYER_CHAMFER_FEAT
100
AcDbSpline
 62
7
  6
CONTINUOUS
 70
0
 71
3
 72
23
 73
19
 74
0
 42
0.0000001
 43
0.0000001
 44
0.0000000001
 40
0.0
 40
0.0
 40
0.0
 40
0.0
 40
0.0756512531
 40
0.1491004477
 40
0.2204005837
 40
0.2896161559
 40
0.3568243523
 40
0.4221155295
 40
0.4855943087
 40
0.5473801274
 40
0.6076076484
 40
0.666427196
 40
0.7240043199
 40
0.7805193815
 40
0.8361662976
 40
0.8911507673
 40
0.9456880448
 40
1.0
 40
1.0
 40
1.0
 40
1.0
 10
16.4038323145
 20
13.2131302826
 30
0.0
 10
16.4013813244
 20
13.2160666865
 30
0.0
 10
16.3964503731
 20
13.2217713258
 30
0.0
 10
16.3888536328
 20
13.2299274263
 30
0.0
 10
16.3811723126
 20
13.2375491506
 30
0.0
 10
16.3734120475
 20
13.2446306292
 30
0.0
 10
16.3655784553
 20
13.2511666099
 30
0.0
 10
16.3576771585
 20
13.2571520877
 30
0.0
 10
16.3497138681
 20
13.2625824797
 30
0.0
 10
16.3416943485
 20
13.2674535625
 30
0.0
 10
16.3336243967
 20
13.2717614101
 30
0.0
 10
16.3255099534
 20
13.2755025626
 30
0.0
 10
16.317357004
 20
13.2786738259
 30
0.0
 10
16.3091716776
 20
13.2812724707
 30
0.0
 10
16.3009602708
 20
13.2832961873
 30
0.0
 10
16.2927290117
 20
13.2847430485
 30
0.0
 10
16.2844849487
 20
13.28561176
 30
0.0
 10
16.2789796423
 20
13.2858049825
 30
0.0
 10
16.2762336532
 20
13.2858049876
 30
0.0
  0
SPLINE
  5
329
100
AcDbEntity
  8
02___PRT_ALL_AXES
100
AcDbSpline
 62
7
  6
CONTINUOUS
 70
0
 71
3
 72
23
 73
19
 74
0
 42
0.0000001
 43
0.0000001
 44
0.0000000001
 40
0.0
 40
0.0
 40
0.0
 40
0.0
 40
0.0588406227
 40
0.1172467986
 40
0.1754259057
 40
0.2335883216
 40
0.291944652
 40
0.3507029139
 40
0.4100658942
 40
0.4702286754
 40
0.5313767175
 40
0.593684151
 40
0.6573126657
 40
0.7224108602
 40
0.7891137155
 40
0.8575428286
 40
0.9278064493
 40
1.0
 40
1.0
 40
1.0
 40
1.0
 10
15.8947913809
 20
13.3272866609
 30
0.0
 10
15.8974778684
 20
13.3278289095
 30
0.0
 10
15.9028666952
 20
13.3287410814
 30
0.0
 10
15.9109996433
 20
13.3295831664
 30
0.0
 10
15.9191390202
 20
13.3298921323
 30
0.0
 10
15.9272787587
 20
13.3296675911
 30
0.0
 10
15.9354133097
 20
13.3289097693
 30
0.0
 10
15.9435370211
 20
13.3276193005
 30
0.0
 10
15.9516443215
 20
13.3257971829
 30
0.0
 10
15.9597297319
 20
13.3234449155
 30
0.0
 10
15.9677878413
 20
13.320564271
 30
0.0
 10
15.9758133469
 20
13.3171574334
 30
0.0
 10
15.9838010402
 20
13.3132269114
 30
0.0
 10
15.9917457652
 20
13.3087754709
 30
0.0
 10
15.9996424713
 20
13.3038062744
 30
0.0
 10
16.0074861692
 20
13.2983226532
 30
0.0
 10
16.0152717476
 20
13.2923284615
 30
0.0
 10
16.0203497627
 20
13.2880538271
 30
0.0
 10
16.022877669
 20
13.2858364248
 30
0.0
  0
SPLINE
  5
32A
100
AcDbEntity
  8
LAYER_CHAMFER_FEAT
100
AcDbSpline
 62
7
  6
CONTINUOUS
 70
0
 71
3
 72
23
 73
19
 74
0
 42
0.0000001
 43
0.0000001
 44
0.0000000001
 40
0.0
 40
0.0
 40
0.0
 40
0.0
 40
0.0543119539
 40
0.1088492237
 40
0.1638337081
 40
0.2194806048
 40
0.2759956757
 40
0.3335728064
 40
0.3923923246
 40
0.4526198861
 40
0.5144056648
 40
0.5778844617
 40
0.6431756499
 40
0.7103838039
 40
0.7795994317
 40
0.8508995144
 40
0.9243487347
 40
1.0
 40
1.0
 40
1.0
 40
1.0
 10
16.2762336532
 20
11.7358049982
 30
0.0
 10
16.2789796422
 20
11.7358049932
 30
0.0
 10
16.2844849471
 20
11.7359982448
 30
0.0
 10
16.2927290148
 20
11.7368669157
 30
0.0
 10
16.3009602664
 20
11.7383138187
 30
0.0
 10
16.3091716807
 20
11.7403375026
 30
0.0
 10
16.3173570041
 20
11.7429361609
 30
0.0
 10
16.3255099483
 20
11.7461074329
 30
0.0
 10
16.3336244053
 20
11.7498485597
 30
0.0
 10
16.3416943388
 20
11.7541564391
 30
0.0
 10
16.3497138747
 20
11.759027496
 30
0.0
 10
16.3576771579
 20
11.7644578994
 30
0.0
 10
16.365578449
 20
11.7704433825
 30
0.0
 10
16.3734120584
 20
11.7769793454
 30
0.0
 10
16.3811723005
 20
11.7840608465
 30
0.0
 10
16.3888536417
 20
11.7916825516
 30
0.0
 10
16.3964503689
 20
11.7998386637
 30
0.0
 10
16.4013813281
 20
11.8055432988
 30
0.0
 10
16.4038323137
 20
11.8084797073
 30
0.0
  0
SPLINE
  5
32B
100
AcDbEntity
  8
LAYER_FEATURE
100
AcDbSpline
 62
7
  6
CONTINUOUS
 70
0
 71
3
 72
23
 73
19
 74
0
 42
0.0000001
 43
0.0000001
 44
0.0000000001
 40
0.0
 40
0.0
 40
0.0
 40
0.0
 40
0.0552808111
 40
0.1107563212
 40
0.1666187081
 40
0.2230552448
 40
0.2802461066
 40
0.3383626395
 40
0.3975658397
 40
0.4580053517
 40
0.5198188801
 40
0.5831317215
 40
0.6480569218
 40
0.7146953859
 40
0.7831362258
 40
0.8534574418
 40
0.9257262727
 40
1.0
 40
1.0
 40
1.0
 40
1.0
 10
14.8050340581
 20
13.5758049925
 30
0.0
 10
14.8085097238
 20
13.5758049901
 30
0.0
 10
14.8154753765
 20
13.5755798393
 30
0.0
 10
14.8259090119
 20
13.574567543
 30
0.0
 10
14.8363290418
 20
13.572881286
 30
0.0
 10
14.8467279459
 20
13.5705223512
 30
0.0
 10
14.8570990503
 20
13.5674926014
 30
0.0
 10
14.8674355659
 20
13.5637942551
 30
0.0
 10
14.8777308871
 20
13.5594300291
 30
0.0
 10
14.8879785079
 20
13.5544030403
 30
0.0
 10
14.8981719887
 20
13.5487167325
 30
0.0
 10
14.9083050238
 20
13.5423750097
 30
0.0
 10
14.9183713387
 20
13.5353820717
 30
0.0
 10
14.9283647323
 20
13.5277425001
 30
0.0
 10
14.9382790751
 20
13.5194612835
 30
0.0
 10
14.9481082753
 20
13.5105436635
 30
0.0
 10
14.9578461654
 20
13.5009955106
 30
0.0
 10
14.9641854677
 20
13.4943063221
 30
0.0
 10
14.9673391583
 20
13.4908622953
 30
0.0
  0
SPLINE
  5
32C
100
AcDbEntity
  8
LAYER_FEATURE
100
AcDbSpline
 62
7
  6
CONTINUOUS
 70
0
 71
3
 72
23
 73
19
 74
0
 42
0.0000001
 43
0.0000001
 44
0.0000000001
 40
0.0
 40
0.0
 40
0.0
 40
0.0
 40
0.0552855309
 40
0.1107656132
 40
0.1666322895
 40
0.2230726856
 40
0.2802668625
 40
0.3383860603
 40
0.3975911581
 40
0.4580317499
 40
0.5198454485
 40
0.5831575061
 40
0.6480809571
 40
0.7147166382
 40
0.7831536898
 40
0.8534700958
 40
0.9257330844
 40
1.0
 40
1.0
 40
1.0
 40
1.0
 10
14.8050340581
 20
11.4458049933
 30
0.0
 10
14.808508265
 20
11.4458049908
 30
0.0
 10
14.8154709819
 20
11.4460299638
 30
0.0
 10
14.8259002346
 20
11.4470413945
 30
0.0
 10
14.8363158964
 20
11.4487262469
 30
0.0
 10
14.846710463
 20
11.451083193
 30
0.0
 10
14.8570772657
 20
11.4541103992
 30
0.0
 10
14.8674095195
 20
11.4578056556
 30
0.0
 10
14.8777006397
 20
11.4621662216
 30
0.0
 10
14.8879441115
 20
11.4671890218
 30
0.0
 10
14.8981335161
 20
11.4728705903
 30
0.0
 10
14.9082625539
 20
11.4792070365
 30
0.0
 10
14.9183249447
 20
11.4861941841
 30
0.0
 10
14.928314517
 20
11.4938274302
 30
0.0
 10
14.938225129
 20
11.5021018188
 30
0.0
 10
14.9480507031
 20
11.5110121076
 30
0.0
 10
14.9577850895
 20
11.5205524272
 30
0.0
 10
14.9641221901
 20
11.5272361933
 30
0.0
 10
14.9672748024
 20
11.5306774291
 30
0.0
  0
SPLINE
  5
32D
100
AcDbEntity
  8
LAYER_FEATURE
100
AcDbSpline
 62
7
  6
CONTINUOUS
 70
0
 71
3
 72
39
 73
35
 74
0
 42
0.0000001
 43
0.0000001
 44
0.0000000001
 40
0.0
 40
0.0
 40
0.0
 40
0.0
 40
0.022871647
 40
0.045814463
 40
0.0688987955
 40
0.0921934094
 40
0.1157647548
 40
0.1396763771
 40
0.1639884185
 40
0.1887572131
 40
0.2140350881
 40
0.2398701373
 40
0.2663062443
 40
0.2933830647
 40
0.3211361156
 40
0.34959697
 40
0.3787933284
 40
0.4087493281
 40
0.4394856475
 40
0.4710197647
 40
0.5033661762
 40
0.5365365164
 40
0.5705398693
 40
0.6053828153
 40
0.6410697014
 40
0.6776027534
 40
0.7149821905
 40
0.7532064508
 40
0.792272181
 40
0.8321744805
 40
0.8729069104
 40
0.9144616178
 40
0.956829463
 40
1.0
 40
1.0
 40
1.0
 40
1.0
 10
15.9151777435
 20
13.5758049869
 30
0.0
 10
15.9184438661
 20
13.5758049837
 30
0.0
 10
15.9249880023
 20
13.5756062599
 30
0.0
 10
15.934791927
 20
13.5747125782
 30
0.0
 10
15.944584645
 20
13.5732238402
 30
0.0
 10
15.9543599397
 20
13.571140988
 30
0.0
 10
15.9641122786
 20
13.5684654496
 30
0.0
 10
15.9738360349
 20
13.5651989627
 30
0.0
 10
15.9835256934
 20
13.5613435904
 30
0.0
 10
15.9931758382
 20
13.5569017888
 30
0.0
 10
16.0027810794
 20
13.5518762202
 30
0.0
 10
16.0123361459
 20
13.5462699492
 30
0.0
 10
16.0218357827
 20
13.5400862563
 30
0.0
 10
16.0312747993
 20
13.5333287405
 30
0.0
 10
16.0406480695
 20
13.5260013067
 30
0.0
 10
16.0499504552
 20
13.5181080909
 30
0.0
 10
16.0591769259
 20
13.5096535943
 30
0.0
 10
16.068322419
 20
13.5006425386
 30
0.0
 10
16.0773819555
 20
13.4910799849
 30
0.0
 10
16.0863505835
 20
13.4809712737
 30
0.0
 10
16.0952233633
 20
13.47032202
 30
0.0
 10
16.1039954585
 20
13.4591381749
 30
0.0
 10
16.1126620046
 20
13.4474259305
 30
0.0
 10
16.1212182551
 20
13.4351918149
 30
0.0
 10
16.1296594749
 20
13.4224426177
 30
0.0
 10
16.1379809899
 20
13.4091854185
 30
0.0
 10
16.1461782204
 20
13.3954275965
 30
0.0
 10
16.1542465883
 20
13.3811767799
 30
0.0
 10
16.1621816543
 20
13.366440907
 30
0.0
 10
16.1699789892
 20
13.351228159
 30
0.0
 10
16.1776342671
 20
13.3355470034
 30
0.0
 10
16.1851432512
 20
13.3194061514
 30
0.0
 10
16.192501711
 20
13.3028146338
 30
0.0
 10
16.1972601384
 20
13.2915637534
 30
0.0
 10
16.1996144979
 20
13.2858661783
 30
0.0
  0
SPLINE
  5
32E
100
AcDbEntity
  8
LAYER_FEATURE
100
AcDbSpline
 62
7
  6
CONTINUOUS
 70
0
 71
3
 72
39
 73
35
 74
0
 42
0.0000001
 43
0.0000001
 44
0.0000000001
 40
0.0
 40
0.0
 40
0.0
 40
0.0
 40
0.0228731383
 40
0.0458174256
 40
0.0689031965
 40
0.0921991862
 40
0.1157718452
 40
0.1396846906
 40
0.1639978554
 40
0.1887676743
 40
0.2140464382
 40
0.2398822723
 40
0.266319018
 40
0.2933963525
 40
0.3211497879
 40
0.3496108735
 40
0.3788073551
 40
0.4087633192
 40
0.439499495
 40
0.4710333371
 40
0.5033793434
 40
0.5365491855
 40
0.5705519003
 40
0.6053941345
 40
0.6410801935
 40
0.6776123327
 40
0.7149907871
 40
0.7532139638
 40
0.7922785752
 40
0.8321796696
 40
0.8729108603
 40
0.9144642911
 40
0.9568308087
 40
1.0
 40
1.0
 40
1.0
 40
1.0
 10
15.9151777435
 20
11.4458049989
 30
0.0
 10
15.9184433243
 20
11.4458049957
 30
0.0
 10
15.9249863702
 20
11.4460036724
 30
0.0
 10
15.9347886697
 20
11.4468970302
 30
0.0
 10
15.9445797606
 20
11.448385303
 30
0.0
 10
15.9543534481
 20
11.4504674355
 30
0.0
 10
15.9641041807
 20
11.4531421054
 30
0.0
 10
15.9738263509
 20
11.4564075056
 30
0.0
 10
15.9835144442
 20
11.4602615941
 30
0.0
 10
15.9931630289
 20
11.464701948
 30
0.0
 10
16.0027667562
 20
11.4697258362
 30
0.0
 10
16.0123203073
 20
11.4753302831
 30
0.0
 10
16.0218184772
 20
11.4815119335
 30
0.0
 10
16.0312560478
 20
11.4882672383
 30
0.0
 10
16.0406278973
 20
11.4955922862
 30
0.0
 10
16.0499289193
 20
11.503482915
 30
0.0
 10
16.0591540323
 20
11.51193468
 30
0.0
 10
16.0682982387
 20
11.5209428026
 30
0.0
 10
16.0773565075
 20
11.5305022754
 30
0.0
 10
16.0863239192
 20
11.5406077334
 30
0.0
 10
16.0951955397
 20
11.5512535651
 30
0.0
 10
16.1039664994
 20
11.5624338469
 30
0.0
 10
16.1126319937
 20
11.574142353
 30
0.0
 10
16.1211872147
 20
11.5863725997
 30
0.0
 10
16.1296274802
 20
11.5991177714
 30
0.0
 10
16.1379480945
 20
11.6123708068
 30
0.0
 10
16.1461444705
 20
11.6261243351
 30
0.0
 10
16.1542120717
 20
11.6403707147
 30
0.0
 10
16.162146403
 20
11.6551020384
 30
0.0
 10
16.1699430957
 20
11.6703101051
 30
0.0
 10
16.1775977827
 20
11.6859864711
 30
0.0
 10
16.1851062442
 20
11.7021224239
 30
0.0
 10
16.192464267
 20
11.7187089306
 30
0.0
 10
16.1972224355
 20
11.7299564413
 30
0.0
 10
16.1995766832
 20
11.7356523134
 30
0.0
  0
SPLINE
  5
32F
100
AcDbEntity
  8
02___PRT_ALL_AXES
100
AcDbSpline
 62
7
  6
CONTINUOUS
 70
0
 71
3
 72
26
 73
22
 74
0
 42
0.0000001
 43
0.0000001
 44
0.0000000001
 40
0.0
 40
0.0
 40
0.0
 40
0.0
 40
0.0239261138
 40
0.047910922
 40
0.0720125643
 40
0.0962881559
 40
0.1455658136
 40
0.1961803165
 40
0.2485101711
 40
0.3028867549
 40
0.3309380015
 40
0.3596024642
 40
0.4188698009
 40
0.4808868413
 40
0.5457994632
 40
0.6137156356
 40
0.6847102273
 40
0.7588281847
 40
0.8360876461
 40
0.9164889468
 40
1.0
 40
1.0
 40
1.0
 40
1.0
 10
16.3342604958
 20
12.2608049989
 30
0.0
 10
16.3335800379
 20
12.2608049965
 30
0.0
 10
16.3322171665
 20
12.2608417145
 30
0.0
 10
16.330174878
 20
12.2610068909
 30
0.0
 10
16.3281343613
 20
12.2612820831
 30
0.0
 10
16.3254042947
 20
12.2617979221
 30
0.0
 10
16.3219897736
 20
12.2627245213
 30
0.0
 10
16.3179384891
 20
12.2642690211
 30
0.0
 10
16.313919003
 20
12.2662478898
 30
0.0
 10
16.3106361009
 20
12.2682345739
 30
0.0
 10
16.3080342788
 20
12.2700280927
 30
0.0
 10
16.3053915455
 20
12.2720032422
 30
0.0
 10
16.30211973
 20
12.274744493
 30
0.0
 10
16.2982947267
 20
12.2784116171
 30
0.0
 10
16.2945340847
 20
12.2824859258
 30
0.0
 10
16.290844177
 20
12.2869601077
 30
0.0
 10
16.2872311342
 20
12.2918264013
 30
0.0
 10
16.2837011034
 20
12.2970763202
 30
0.0
 10
16.2802600229
 20
12.3027008443
 30
0.0
 10
16.2769139544
 20
12.3086900309
 30
0.0
 10
16.2747902266
 20
12.3128411065
 30
0.0
 10
16.273743915
 20
12.3149732655
 30
0.0
  0
SPLINE
  5
330
100
AcDbEntity
  8
LAYER_CHAMFER_FEAT
100
AcDbSpline
 62
7
  6
CONTINUOUS
 70
0
 71
3
 72
15
 73
11
 74
0
 42
0.0000001
 43
0.0000001
 44
0.0000000001
 40
0.0
 40
0.0
 40
0.0
 40
0.0
 40
0.1375052764
 40
0.2714668394
 40
0.4018487804
 40
0.5286395206
 40
0.6518353036
 40
0.7714433907
 40
0.8874859632
 40
1.0
 40
1.0
 40
1.0
 40
1.0
 10
16.5066117181
 20
13.0685337526
 30
0.0
 10
16.5045185971
 20
13.0727990847
 30
0.0
 10
16.5002872912
 20
13.0811717363
 30
0.0
 10
16.4937158134
 20
13.0934050027
 30
0.0
 10
16.4870075387
 20
13.1051394259
 30
0.0
 10
16.4801683156
 20
13.1163647678
 30
0.0
 10
16.4732039162
 20
13.1270715955
 30
0.0
 10
16.4661201616
 20
13.1372507934
 30
0.0
 10
16.4589231959
 20
13.1468934942
 30
0.0
 10
16.453977861
 20
13.1530534075
 30
0.0
 10
16.451486621
 20
13.1560380345
 30
0.0
  0
SPLINE
  5
331
100
AcDbEntity
  8
02___PRT_ALL_AXES
100
AcDbSpline
 62
7
  6
CONTINUOUS
 70
0
 71
3
 72
58
 73
54
 74
0
 42
0.0000001
 43
0.0000001
 44
0.0000000001
 40
0.0
 40
0.0
 40
0.0
 40
0.0
 40
0.0139505596
 40
0.0283504386
 40
0.0431883831
 40
0.0584536949
 40
0.074133406
 40
0.0902130914
 40
0.1066772426
 40
0.1235091252
 40
0.1406909784
 40
0.1582040822
 40
0.1941432976
 40
0.2311624275
 40
0.2690849124
 40
0.3077257175
 40
0.3468932919
 40
0.3863913997
 40
0.4260209018
 40
0.4655815203
 40
0.5048735722
 40
0.5436997255
 40
0.5818667724
 40
0.6191874378
 40
0.6554823
 40
0.6731924204
 40
0.6905834351
 40
0.7076360687
 40
0.7243319566
 40
0.7406536938
 40
0.7565849985
 40
0.7721107672
 40
0.7872171646
 40
0.8018918266
 40
0.8161239305
 40
0.8299043551
 40
0.8432259329
 40
0.8560835728
 40
0.8684745248
 40
0.8803987071
 40
0.8918589326
 40
0.9028613167
 40
0.9134157095
 40
0.9235360647
 40
0.9332409871
 40
0.9425542257
 40
0.9515050873
 40
0.9601288915
 40
0.9684671725
 40
0.976567614
 40
0.9844836961
 40
0.9922738201
 40
1.0
 40
1.0
 40
1.0
 40
1.0
 10
16.273743915
 20
12.3149732655
 30
0.0
 10
16.2727463709
 20
12.3170060465
 30
0.0
 10
16.2707848044
 20
12.321169585
 30
0.0
 10
16.2679840824
 20
12.3275967769
 30
0.0
 10
16.2652819356
 20
12.3342966984
 30
0.0
 10
16.2626824393
 20
12.3412591988
 30
0.0
 10
16.2601893914
 20
12.348474052
 30
0.0
 10
16.2578065296
 20
12.3559305324
 30
0.0
 10
16.2555374054
 20
12.3636175552
 30
0.0
 10
16.2533853825
 20
12.3715236891
 30
0.0
 10
16.2513536617
 20
12.3796372081
 30
0.0
 10
16.2487871682
 20
12.3908116968
 30
0.0
 10
16.2459091691
 20
12.405215259
 30
0.0
 10
16.2430079108
 20
12.4229806995
 30
0.0
 10
16.2406472827
 20
12.4412681658
 30
0.0
 10
16.2388414135
 20
12.4599688689
 30
0.0
 10
16.2376011282
 20
12.4789717638
 30
0.0
 10
16.2369338697
 20
12.4981638962
 30
0.0
 10
16.2368436255
 20
12.5174311815
 30
0.0
 10
16.2373309356
 20
12.5366590725
 30
0.0
 10
16.2383928911
 20
12.5557332673
 30
0.0
 10
16.2400231202
 20
12.5745403793
 30
0.0
 10
16.2422118475
 20
12.5929687133
 30
0.0
 10
16.2449459711
 20
12.610908631
 30
0.0
 10
16.2476871673
 20
12.6254798455
 30
0.0
 10
16.2501469697
 20
12.6368048503
 30
0.0
 10
16.2521019886
 20
12.6450417927
 30
0.0
 10
16.2541792202
 20
12.6530788538
 30
0.0
 10
16.2563755788
 20
12.6609041096
 30
0.0
 10
16.258687808
 20
12.6685059142
 30
0.0
 10
16.2611124506
 20
12.6758729765
 30
0.0
 10
16.263645893
 20
12.682994355
 30
0.0
 10
16.2662843897
 20
12.6898594703
 30
0.0
 10
16.2690240014
 20
12.6964581443
 30
0.0
 10
16.2718606658
 20
12.7027805951
 30
0.0
 10
16.2747902022
 20
12.7088174495
 30
0.0
 10
16.2778082597
 20
12.7145597852
 30
0.0
 10
16.2809104008
 20
12.7199991113
 30
0.0
 10
16.2840920887
 20
12.7251273867
 30
0.0
 10
16.2873486512
 20
12.7299370596
 30
0.0
 10
16.2906753733
 20
12.7344210285
 30
0.0
 10
16.2940674646
 20
12.7385726673
 30
0.0
 10
16.2975200467
 20
12.7423858519
 30
0.0
 10
16.3010282398
 20
12.7458548909
 30
0.0
 10
16.3045871052
 20
12.7489745594
 30
0.0
 10
16.3081916435
 20
12.7517400944
 30
0.0
 10
16.3118368409
 20
12.7541470946
 30
0.0
 10
16.3155175554
 20
12.7561915866
 30
0.0
 10
16.3192285094
 20
12.7578700058
 30
0.0
 10
16.3229641885
 20
12.7591791439
 30
0.0
 10
16.3267189388
 20
12.760116346
 30
0.0
 10
16.3304861853
 20
12.7606795703
 30
0.0
 10
16.3330064389
 20
12.7608049824
 30
0.0
 10
16.3342604958
 20
12.7608049869
 30
0.0
  0
SPLINE
  5
332
100
AcDbEntity
  8
LAYER_FEATURE
100
AcDbSpline
 62
7
  6
CONTINUOUS
 70
0
 71
3
 72
40
 73
36
 74
0
 42
0.0000001
 43
0.0000001
 44
0.0000000001
 40
0.0
 40
0.0
 40
0.0
 40
0.0
 40
0.0443811139
 40
0.0879667349
 40
0.1307332134
 40
0.1726614725
 40
0.2137326659
 40
0.2539296163
 40
0.2932370197
 40
0.331641343
 40
0.369131063
 40
0.4056967748
 40
0.4413313788
 40
0.4760302962
 40
0.5097916243
 40
0.5426163818
 40
0.5745088053
 40
0.6054765756
 40
0.6355311223
 40
0.6646880074
 40
0.692967238
 40
0.7203936252
 40
0.746997217
 40
0.7728136618
 40
0.7978845448
 40
0.8101562374
 40
0.8222600457
 40
0.8459899735
 40
0.8691376753
 40
0.8917708177
 40
0.9139634692
 40
0.9357956004
 40
0.9573523562
 40
0.9787230683
 40
1.0
 40
1.0
 40
1.0
 40
1.0
 10
14.4205606932
 20
13.1728196091
 30
0.0
 10
14.4229564255
 20
13.1805722019
 30
0.0
 10
14.4278290932
 20
13.1959004242
 30
0.0
 10
14.4354538591
 20
13.2185551681
 30
0.0
 10
14.4433236371
 20
13.2406506177
 30
0.0
 10
14.4514320879
 20
13.2621690707
 30
0.0
 10
14.4597728711
 20
13.2830937112
 30
0.0
 10
14.4683393867
 20
13.303407993
 30
0.0
 10
14.4771248803
 20
13.3230958841
 30
0.0
 10
14.4861224311
 20
13.3421418701
 30
0.0
 10
14.4953249389
 20
13.3605309443
 30
0.0
 10
14.5047251718
 20
13.3782486138
 30
0.0
 10
14.5143157491
 20
13.3952809221
 30
0.0
 10
14.5240891284
 20
13.411614471
 30
0.0
 10
14.5340376572
 20
13.4272364045
 30
0.0
 10
14.5441535698
 20
13.4421344229
 30
0.0
 10
14.554428957
 20
13.4562968185
 30
0.0
 10
14.564855822
 20
13.4697124496
 30
0.0
 10
14.575426091
 20
13.4823707395
 30
0.0
 10
14.5861315716
 20
13.4942617186
 30
0.0
 10
14.5969640083
 20
13.5053760005
 30
0.0
 10
14.6079150719
 20
13.5157047393
 30
0.0
 10
14.6189764269
 20
13.5252397429
 30
0.0
 10
14.6301393629
 20
13.5339731971
 30
0.0
 10
14.6395861626
 20
13.5406241756
 30
0.0
 10
14.6471831896
 20
13.5455264889
 30
0.0
 10
14.6547024284
 20
13.5500908846
 30
0.0
 10
14.664153679
 20
13.5552969638
 30
0.0
 10
14.6756374317
 20
13.560759089
 30
0.0
 10
14.6871793729
 20
13.5653898384
 30
0.0
 10
14.6987701153
 20
13.5691848413
 30
0.0
 10
14.7104002502
 20
13.5721404893
 30
0.0
 10
14.7220603713
 20
13.5742538187
 30
0.0
 10
14.7337398609
 20
13.5755227016
 30
0.0
 10
14.7415401606
 20
13.5758049953
 30
0.0
 10
14.7454302812
 20
13.5758049925
 30
0.0
  0
SPLINE
  5
333
100
AcDbEntity
  8
LAYER_FEATURE
100
AcDbSpline
 62
7
  6
CONTINUOUS
 70
0
 71
3
 72
76
 73
72
 74
0
 42
0.0000001
 43
0.0000001
 44
0.0000000001
 40
0.0
 40
0.0
 40
0.0
 40
0.0
 40
0.0163579391
 40
0.0330507417
 40
0.0500637526
 40
0.0673820244
 40
0.084989678
 40
0.1028703208
 40
0.1210069567
 40
0.139382079
 40
0.1579777035
 40
0.1767754153
 40
0.1957564115
 40
0.2149015424
 40
0.2341913517
 40
0.2536061156
 40
0.2731258815
 40
0.2927305059
 40
0.3123996917
 40
0.332113026
 40
0.3518500167
 40
0.3715901299
 40
0.3913128258
 40
0.4109975959
 40
0.4306239992
 40
0.4501716995
 40
0.4696205027
 40
0.488950394
 40
0.5081415762
 40
0.5271745075
 40
0.5460299407
 40
0.5646889633
 40
0.583133038
 40
0.6013440452
 40
0.619304327
 40
0.6369967322
 40
0.6544046631
 40
0.6715121251
 40
0.6883037798
 40
0.7047650006
 40
0.7208819329
 40
0.7366415605
 40
0.7520317762
 40
0.7670414586
 40
0.7816605585
 40
0.7958801945
 40
0.8096927595
 40
0.8230920417
 40
0.8360733608
 40
0.8486337234
 40
0.8607719972
 40
0.8724891095
 40
0.8837882721
 40
0.8946752333
 40
0.9051585595
 40
0.9152499414
 40
0.9249645215
 40
0.9343212298
 40
0.9433431047
 40
0.9520575728
 40
0.9604966435
 40
0.964624963
 40
0.9686985664
 40
0.9727227343
 40
0.9767030087
 40
0.9806451665
 40
0.9845552067
 40
0.9884393115
 40
0.9923038238
 40
0.996155205
 40
1.0
 40
1.0
 40
1.0
 40
1.0
 10
15.5307043786
 20
13.1728196091
 30
0.0
 10
15.5276626498
 20
13.1629765711
 30
0.0
 10
15.5217205366
 20
13.1430255173
 30
0.0
 10
15.5133091291
 20
13.1126359311
 30
0.0
 10
15.5053169161
 20
13.0815085509
 30
0.0
 10
15.497753742
 20
13.0496817645
 30
0.0
 10
15.4906288784
 20
13.017194422
 30
0.0
 10
15.4839510694
 20
12.9840863724
 30
0.0
 10
15.4777285148
 20
12.9503981608
 30
0.0
 10
15.4719688535
 20
12.9161710718
 30
0.0
 10
15.4666791581
 20
12.8814470487
 30
0.0
 10
15.4618659222
 20
12.8462686496
 30
0.0
 10
15.4575350555
 20
12.8106789927
 30
0.0
 10
15.4536918761
 20
12.7747217023
 30
0.0
 10
15.4503411032
 20
12.7384408559
 30
0.0
 10
15.4474868523
 20
12.7018809292
 30
0.0
 10
15.445132629
 20
12.6650867416
 30
0.0
 10
15.4432813258
 20
12.6281034016
 30
0.0
 10
15.4419352158
 20
12.5909762505
 30
0.0
 10
15.4410959512
 20
12.5537508071
 30
0.0
 10
15.4407645623
 20
12.5164727109
 30
0.0
 10
15.4409414558
 20
12.4791876658
 30
0.0
 10
15.4416264145
 20
12.4419413845
 30
0.0
 10
15.4428185976
 20
12.4047795321
 30
0.0
 10
15.4445165419
 20
12.3677476699
 30
0.0
 10
15.4467181629
 20
12.3308911992
 30
0.0
 10
15.4494207561
 20
12.2942553051
 30
0.0
 10
15.4526210014
 20
12.2578849007
 30
0.0
 10
15.4563149686
 20
12.2218245721
 30
0.0
 10
15.4604981212
 20
12.1861185236
 30
0.0
 10
15.4651653226
 20
12.1508105228
 30
0.0
 10
15.4703108421
 20
12.1159438476
 30
0.0
 10
15.4759283626
 20
12.0815612317
 30
0.0
 10
15.4820109875
 20
12.047704812
 30
0.0
 10
15.4885512477
 20
12.0144160751
 30
0.0
 10
15.4955411142
 20
11.9817358073
 30
0.0
 10
15.5029720071
 20
11.9497040436
 30
0.0
 10
15.5108348072
 20
11.9183600184
 30
0.0
 10
15.5191198676
 20
11.8877421168
 30
0.0
 10
15.5278170259
 20
11.8578878265
 30
0.0
 10
15.5369156189
 20
11.8288336907
 30
0.0
 10
15.5464044939
 20
11.800615261
 30
0.0
 10
15.5562720257
 20
11.7732670523
 30
0.0
 10
15.5665061338
 20
11.7468225011
 30
0.0
 10
15.5770942999
 20
11.721313923
 30
0.0
 10
15.5880235865
 20
11.6967724726
 30
0.0
 10
15.5992806571
 20
11.6732281045
 30
0.0
 10
15.6108517986
 20
11.6507095364
 30
0.0
 10
15.6227229448
 20
11.6292442134
 30
0.0
 10
15.6348796996
 20
11.6088582748
 30
0.0
 10
15.6473073676
 20
11.5895765272
 30
0.0
 10
15.6599909835
 20
11.5714224229
 30
0.0
 10
15.6729153435
 20
11.5544180426
 30
0.0
 10
15.6860650372
 20
11.5385840872
 30
0.0
 10
15.6994244797
 20
11.5239398775
 30
0.0
 10
15.7129779313
 20
11.5105033705
 30
0.0
 10
15.7267095386
 20
11.4982911735
 30
0.0
 10
15.7406032427
 20
11.4873186142
 30
0.0
 10
15.7546430705
 20
11.4775996686
 30
0.0
 10
15.768811953
 20
11.4691474295
 30
0.0
 10
15.7808015423
 20
11.4631249323
 30
0.0
 10
15.7904264866
 20
11.4589715389
 30
0.0
 10
15.7976133991
 20
11.456201722
 30
0.0
 10
15.8048184258
 20
11.4537556341
 30
0.0
 10
15.8120394259
 20
11.4516339814
 30
0.0
 10
15.8192741458
 20
11.4498375503
 30
0.0
 10
15.8265203185
 20
11.4483668716
 30
0.0
 10
15.8337756708
 20
11.4472225142
 30
0.0
 10
15.84103796
 20
11.4464048166
 30
0.0
 10
15.8483047039
 20
11.4459140888
 30
0.0
 10
15.8531524969
 20
11.4458050012
 30
0.0
 10
15.8555739666
 20
11.4458049989
 30
0.0
  0
SPLINE
  5
334
100
AcDbEntity
  8
LAYER_FEATURE
100
AcDbSpline
 62
7
  6
CONTINUOUS
 70
0
 71
3
 72
76
 73
72
 74
0
 42
0.0000001
 43
0.0000001
 44
0.0000000001
 40
0.0
 40
0.0
 40
0.0
 40
0.0
 40
0.0163579319
 40
0.0330507458
 40
0.0500637514
 40
0.0673820247
 40
0.0849896778
 40
0.1028703205
 40
0.1210069566
 40
0.1393820792
 40
0.1579777039
 40
0.1767754155
 40
0.1957564115
 40
0.2149015422
 40
0.2341913514
 40
0.2536061154
 40
0.2731258816
 40
0.292730506
 40
0.3123996917
 40
0.3321130259
 40
0.3518500166
 40
0.3715901299
 40
0.391312826
 40
0.4109975959
 40
0.4306239989
 40
0.450171699
 40
0.4696205022
 40
0.4889503939
 40
0.5081415766
 40
0.5271745082
 40
0.5460299411
 40
0.5646889628
 40
0.5831330367
 40
0.601344044
 40
0.6193043266
 40
0.636996733
 40
0.6544046645
 40
0.6715121261
 40
0.6883037794
 40
0.7047649988
 40
0.7208819308
 40
0.7366415595
 40
0.7520317768
 40
0.7670414605
 40
0.7816605603
 40
0.7958801947
 40
0.8096927578
 40
0.8230920391
 40
0.836073359
 40
0.8486337234
 40
0.8607719989
 40
0.8724891115
 40
0.8837882728
 40
0.8946752324
 40
0.9051585573
 40
0.9152499392
 40
0.9249645208
 40
0.9343212306
 40
0.943343106
 40
0.9520575736
 40
0.9604966434
 40
0.9646249637
 40
0.9686985657
 40
0.9727227351
 40
0.976703008
 40
0.9806451669
 40
0.9845552064
 40
0.9884393115
 40
0.9923038239
 40
0.996155205
 40
1.0
 40
1.0
 40
1.0
 40
1.0
 10
14.4205606932
 20
13.1728196091
 30
0.0
 10
14.4175189657
 20
13.1629765754
 30
0.0
 10
14.4115768524
 20
13.1430255188
 30
0.0
 10
14.403165444
 20
13.1126359337
 30
0.0
 10
14.3951732309
 20
13.0815085487
 30
0.0
 10
14.3876100566
 20
13.0496817652
 30
0.0
 10
14.3804851926
 20
13.0171944222
 30
0.0
 10
14.3738073834
 20
12.9840863728
 30
0.0
 10
14.3675848289
 20
12.950398161
 30
0.0
 10
14.3618251688
 20
12.9161710714
 30
0.0
 10
14.3565354736
 20
12.8814470479
 30
0.0
 10
14.3517222375
 20
12.8462686491
 30
0.0
 10
14.3473913703
 20
12.8106789926
 30
0.0
 10
14.34354819
 20
12.7747217027
 30
0.0
 10
14.3401974165
 20
12.7384408565
 30
0.0
 10
14.3373431656
 20
12.7018809295
 30
0.0
 10
14.3349889442
 20
12.6650867415
 30
0.0
 10
14.3331376421
 20
12.6281034012
 30
0.0
 10
14.331791532
 20
12.5909762503
 30
0.0
 10
14.3309522665
 20
12.5537508071
 30
0.0
 10
14.3306208762
 20
12.5164727109
 30
0.0
 10
14.3307977685
 20
12.4791876657
 30
0.0
 10
14.331482727
 20
12.4419413843
 30
0.0
 10
14.332674912
 20
12.4047795321
 30
0.0
 10
14.3343728584
 20
12.3677476704
 30
0.0
 10
14.3365744799
 20
12.3308912
 30
0.0
 10
14.339277072
 20
12.2942553056
 30
0.0
 10
14.3424773157
 20
12.2578849005
 30
0.0
 10
14.3461712813
 20
12.2218245711
 30
0.0
 10
14.3503544331
 20
12.1861185221
 30
0.0
 10
14.3550216361
 20
12.1508105222
 30
0.0
 10
14.3601671581
 20
12.1159438486
 30
0.0
 10
14.3657846801
 20
12.081561234
 30
0.0
 10
14.3718673042
 20
12.0477048139
 30
0.0
 10
14.3784075626
 20
12.0144160755
 30
0.0
 10
14.3853974271
 20
11.9817358055
 30
0.0
 10
14.3928283188
 20
11.9497040406
 30
0.0
 10
14.4006911199
 20
11.9183600163
 30
0.0
 10
14.4089761827
 20
11.8877421175
 30
0.0
 10
14.4176733431
 20
11.8578878299
 30
0.0
 10
14.4267719362
 20
11.8288336946
 30
0.0
 10
14.4362608095
 20
11.8006152627
 30
0.0
 10
14.4461283392
 20
11.7732670506
 30
0.0
 10
14.4563624457
 20
11.7468224968
 30
0.0
 10
14.4669506122
 20
11.7213139191
 30
0.0
 10
14.4778799008
 20
11.6967724721
 30
0.0
 10
14.4891369734
 20
11.6732281081
 30
0.0
 10
14.5007081159
 20
11.6507095419
 30
0.0
 10
14.512579261
 20
11.6292442171
 30
0.0
 10
14.5247360138
 20
11.6088582741
 30
0.0
 10
14.5371636799
 20
11.5895765224
 30
0.0
 10
14.5498472957
 20
11.5714224174
 30
0.0
 10
14.5627716574
 20
11.5544180404
 30
0.0
 10
14.5759213527
 20
11.5385840898
 30
0.0
 10
14.5892807962
 20
11.5239398837
 30
0.0
 10
14.6028342477
 20
11.5105033764
 30
0.0
 10
14.6165658535
 20
11.4982911748
 30
0.0
 10
14.6304595557
 20
11.4873186095
 30
0.0
 10
14.6444993837
 20
11.4775996626
 30
0.0
 10
14.658668266
 20
11.4691474232
 30
0.0
 10
14.6706578606
 20
11.4631249392
 30
0.0
 10
14.6802827975
 20
11.4589715301
 30
0.0
 10
14.6874697187
 20
11.456201735
 30
0.0
 10
14.694674735
 20
11.4537556185
 30
0.0
 10
14.7018957451
 20
11.4516339971
 30
0.0
 10
14.7091304573
 20
11.4498375389
 30
0.0
 10
14.7163766346
 20
11.4483668788
 30
0.0
 10
14.7236319851
 20
11.4472225146
 30
0.0
 10
14.7308942741
 20
11.4464048096
 30
0.0
 10
14.738161019
 20
11.4459141008
 30
0.0
 10
14.7430088114
 20
11.445804995
 30
0.0
 10
14.7454302812
 20
11.4458049933
 30
0.0
  0
SPLINE
  5
335
100
AcDbEntity
  8
LAYER_FEATURE
100
AcDbSpline
 62
7
  6
CONTINUOUS
 70
0
 71
3
 72
40
 73
36
 74
0
 42
0.0000001
 43
0.0000001
 44
0.0000000001
 40
0.0
 40
0.0
 40
0.0
 40
0.0
 40
0.0443811459
 40
0.087966727
 40
0.1307332077
 40
0.1726614786
 40
0.2137326651
 40
0.2539296147
 40
0.2932370217
 40
0.3316413439
 40
0.3691310612
 40
0.405696776
 40
0.4413313808
 40
0.4760302945
 40
0.5097916238
 40
0.542616385
 40
0.5745088043
 40
0.6054765731
 40
0.6355311261
 40
0.6646880078
 40
0.6929672345
 40
0.7203936285
 40
0.7469972191
 40
0.7728136586
 40
0.7978845461
 40
0.8101562346
 40
0.8222600486
 40
0.8459899713
 40
0.8691376742
 40
0.8917708204
 40
0.9139634688
 40
0.9357955988
 40
0.9573523573
 40
0.9787230689
 40
1.0
 40
1.0
 40
1.0
 40
1.0
 10
15.5307043786
 20
13.1728196091
 30
0.0
 10
15.5331001127
 20
13.1805722075
 30
0.0
 10
15.5379727791
 20
13.1959004287
 30
0.0
 10
15.5455975459
 20
13.2185551712
 30
0.0
 10
15.5534673228
 20
13.2406506161
 30
0.0
 10
15.5615757722
 20
13.262169071
 30
0.0
 10
15.5699165567
 20
13.2830937119
 30
0.0
 10
15.5784830733
 20
13.3034079924
 30
0.0
 10
15.5872685646
 20
13.3230958849
 30
0.0
 10
15.5962661159
 20
13.3421418706
 30
0.0
 10
15.605468626
 20
13.3605309435
 30
0.0
 10
15.6148688566
 20
13.3782486145
 30
0.0
 10
15.6244594331
 20
13.3952809233
 30
0.0
 10
15.6342328153
 20
13.4116144701
 30
0.0
 10
15.6441813434
 20
13.4272364042
 30
0.0
 10
15.6542972527
 20
13.442134425
 30
0.0
 10
15.6645726432
 20
13.4562968179
 30
0.0
 10
15.67499951
 20
13.4697124476
 30
0.0
 10
15.6855697732
 20
13.4823707427
 30
0.0
 10
15.6962752568
 20
13.494261719
 30
0.0
 10
15.7071076974
 20
13.5053759967
 30
0.0
 10
15.7180587545
 20
13.5157047426
 30
0.0
 10
15.7291201105
 20
13.5252397457
 30
0.0
 10
15.7402830532
 20
13.5339731902
 30
0.0
 10
15.7497298434
 20
13.5406241811
 30
0.0
 10
15.7573268791
 20
13.5455264829
 30
0.0
 10
15.7648461084
 20
13.550090893
 30
0.0
 10
15.7742973678
 20
13.5552969576
 30
0.0
 10
15.7857811179
 20
13.5607590867
 30
0.0
 10
15.7973230557
 20
13.5653898465
 30
0.0
 10
15.8089138018
 20
13.569184839
 30
0.0
 10
15.8205439371
 20
13.5721404814
 30
0.0
 10
15.8322040553
 20
13.5742538288
 30
0.0
 10
15.8438835467
 20
13.5755227017
 30
0.0
 10
15.8516838462
 20
13.5758049907
 30
0.0
 10
15.8555739666
 20
13.5758049869
 30
0.0
  0
SPLINE
  5
336
100
AcDbEntity
  8
LAYER_FEATURE
100
AcDbSpline
 62
7
  6
CONTINUOUS
 70
0
 71
3
 72
20
 73
16
 74
0
 42
0.0000001
 43
0.0000001
 44
0.0000000001
 40
0.0
 40
0.0
 40
0.0
 40
0.0
 40
0.0452265105
 40
0.0910481841
 40
0.1380319601
 40
0.1866937667
 40
0.2374832685
 40
0.2907775494
 40
0.4059448467
 40
0.468314913
 40
0.5340269318
 40
0.6031555204
 40
0.6757304122
 40
0.8311610704
 40
1.0
 40
1.0
 40
1.0
 40
1.0
 10
14.568114924
 20
13.2075825574
 30
0.0
 10
14.5679753846
 20
13.2075825554
 30
0.0
 10
14.5676941583
 20
13.2075648339
 30
0.0
 10
14.567274742
 20
13.2074853373
 30
0.0
 10
14.566857687
 20
13.2073532575
 30
0.0
 10
14.5664441719
 20
13.2071690884
 30
0.0
 10
14.5660351204
 20
13.2069334672
 30
0.0
 10
14.5654827573
 20
13.2065415386
 30
0.0
 10
14.564958126
 20
13.2060548688
 30
0.0
 10
14.5644616593
 20
13.2054917094
 30
0.0
 10
14.5640881554
 20
13.2050108471
 30
0.0
 10
14.5637243572
 20
13.2044840135
 30
0.0
 10
14.5632421938
 20
13.2037038901
 30
0.0
 10
14.5626726411
 20
13.2026182211
 30
0.0
 10
14.5622768255
 20
13.20169837
 30
0.0
 10
14.5620862105
 20
13.2012135708
 30
0.0
  0
SPLINE
  5
337
100
AcDbEntity
  8
LAYER_FEATURE
100
AcDbSpline
 62
7
  6
CONTINUOUS
 70
0
 71
3
 72
15
 73
11
 74
0
 42
0.0000001
 43
0.0000001
 44
0.0000000001
 40
0.0
 40
0.0
 40
0.0
 40
0.0
 40
0.1006810404
 40
0.2042883103
 40
0.3134538676
 40
0.4303289506
 40
0.5565238219
 40
0.6931381492
 40
0.8408703125
 40
1.0
 40
1.0
 40
1.0
 40
1.0
 10
14.6244673247
 20
13.3272841657
 30
0.0
 10
14.6242580419
 20
13.3272841616
 30
0.0
 10
14.6238323774
 20
13.3272436728
 30
0.0
 10
14.6232029125
 20
13.3270632671
 30
0.0
 10
14.6225825742
 20
13.326765394
 30
0.0
 10
14.6219747995
 20
13.3263529936
 30
0.0
 10
14.6213821128
 20
13.3258290665
 30
0.0
 10
14.6208069671
 20
13.3251966747
 30
0.0
 10
14.6202519893
 20
13.3244592429
 30
0.0
 10
14.6199098225
 20
13.3239201148
 30
0.0
 10
14.6197419664
 20
13.3236350909
 30
0.0
  0
SPLINE
  5
338
100
AcDbEntity
  8
LAYER_FEATURE
100
AcDbSpline
 62
7
  6
CONTINUOUS
 70
0
 71
3
 72
14
 73
10
 74
0
 42
0.0000001
 43
0.0000001
 44
0.0000000001
 40
0.0
 40
0.0
 40
0.0
 40
0.0
 40
0.1115426423
 40
0.2245358636
 40
0.3403619305
 40
0.4602747017
 40
0.5853767352
 40
0.7166042087
 40
1.0
 40
1.0
 40
1.0
 40
1.0
 10
14.6888308705
 20
13.4164543863
 30
0.0
 10
14.6886921937
 20
13.4164543837
 30
0.0
 10
14.6884127321
 20
13.4164368753
 30
0.0
 10
14.6879959098
 20
13.4163583801
 30
0.0
 10
14.6875814133
 20
13.416227915
 30
0.0
 10
14.6871703821
 20
13.4160460374
 30
0.0
 10
14.6867637238
 20
13.4158132865
 30
0.0
 10
14.6862146566
 20
13.4154262538
 30
0.0
 10
14.6858335439
 20
13.4150750562
 30
0.0
 10
14.6855904601
 20
13.4148200061
 30
0.0
  0
LINE
  5
339
100
AcDbEntity
  8
LAYER_FEATURE
100
AcDbLine
 62
7
  6
CONTINUOUS
 10
14.7587321063
 20
13.4716664573
 11
14.7571011711
 21
13.4712641313
  0
SPLINE
  5
33A
100
AcDbEntity
  8
02___PRT_ALL_AXES
100
AcDbSpline
 62
7
  6
CONTINUOUS
 70
0
 71
3
 72
39
 73
35
 74
0
 42
0.0000001
 43
0.0000001
 44
0.0000000001
 40
0.0
 40
0.0
 40
0.0
 40
0.0
 40
0.0431151641
 40
0.0855277556
 40
0.1272174794
 40
0.1681687462
 40
0.208366344
 40
0.2477956236
 40
0.2864435364
 40
0.3242983226
 40
0.3613495599
 40
0.397588375
 40
0.4330074455
 40
0.4676012263
 40
0.501365982
 40
0.5342999594
 40
0.5664035894
 40
0.5976795454
 40
0.6281330518
 40
0.6577719951
 40
0.6866071531
 40
0.7146524909
 40
0.7419252919
 40
0.7684465281
 40
0.7942410506
 40
0.8193378452
 40
0.8437703466
 40
0.8675765552
 40
0.8907993
 40
0.9134862995
 40
0.9356901667
 40
0.9574683657
 40
0.9788829057
 40
1.0
 40
1.0
 40
1.0
 40
1.0
 10
15.6699537597
 20
13.0199035569
 30
0.0
 10
15.6716368348
 20
13.0253499897
 30
0.0
 10
15.6750553045
 20
13.0361296693
 30
0.0
 10
15.6803855698
 20
13.052083769
 30
0.0
 10
15.6858735528
 20
13.0676814062
 30
0.0
 10
15.691515547
 20
13.0829120998
 30
0.0
 10
15.6973078568
 20
13.0977659724
 30
0.0
 10
15.7032467113
 20
13.1122332387
 30
0.0
 10
15.7093281658
 20
13.1263043697
 30
0.0
 10
15.7155482336
 20
13.1399701189
 30
0.0
 10
15.7219028378
 20
13.1532215032
 30
0.0
 10
15.7283877811
 20
13.1660498222
 30
0.0
 10
15.7349988385
 20
13.1784466367
 30
0.0
 10
15.741731652
 20
13.1904038168
 30
0.0
 10
15.7485818205
 20
13.2019135098
 30
0.0
 10
15.7555448764
 20
13.2129681547
 30
0.0
 10
15.7626162449
 20
13.2235605127
 30
0.0
 10
15.7697913475
 20
13.2336836162
 30
0.0
 10
15.7770654921
 20
13.243330836
 30
0.0
 10
15.7844339586
 20
13.252495839
 30
0.0
 10
15.7918919896
 20
13.2611725917
 30
0.0
 10
15.7994347339
 20
13.2693554105
 30
0.0
 10
15.8070573593
 20
13.2770388768
 30
0.0
 10
15.8147549425
 20
13.2842179253
 30
0.0
 10
15.8225225409
 20
13.2908877891
 30
0.0
 10
15.8303551945
 20
13.2970439837
 30
0.0
 10
15.838247854
 20
13.302682389
 30
0.0
 10
15.8461954843
 20
13.30779912
 30
0.0
 10
15.8541929553
 20
13.3123906437
 30
0.0
 10
15.8622351011
 20
13.3164537266
 30
0.0
 10
15.8703166622
 20
13.3199853886
 30
0.0
 10
15.8784324155
 20
13.3229830853
 30
0.0
 10
15.8865765138
 20
13.3254443999
 30
0.0
 10
15.8920545352
 20
13.3267342479
 30
0.0
 10
15.8947913809
 20
13.3272866609
 30
0.0
  0
SPLINE
  5
33B
100
AcDbEntity
  8
LAYER_CHAMFER_FEAT
100
AcDbSpline
 62
7
  6
CONTINUOUS
 70
0
 71
3
 72
94
 73
90
 74
0
 42
0.0000001
 43
0.0000001
 44
0.0000000001
 40
0.0
 40
0.0
 40
0.0
 40
0.0
 40
0.005764708
 40
0.0113895671
 40
0.0168772086
 40
0.0222307838
 40
0.0274539491
 40
0.0325509451
 40
0.0375265816
 40
0.0423863109
 40
0.0517806643
 40
0.056331853
 40
0.0607955193
 40
0.0651804401
 40
0.0694960541
 40
0.0737523945
 40
0.077960054
 40
0.0821300894
 40
0.0862739437
 40
0.0904033276
 40
0.0945301073
 40
0.0986661762
 40
0.1028233278
 40
0.1070131372
 40
0.1112468413
 40
0.115535248
 40
0.1198886414
 40
0.1243167287
 40
0.1288285779
 40
0.1381340794
 40
0.1429449587
 40
0.1478691655
 40
0.1529124247
 40
0.1580798224
 40
0.1633758454
 40
0.1688044016
 40
0.1743688593
 40
0.1800720739
 40
0.1859164223
 40
0.1919038327
 40
0.1980358122
 40
0.2043134786
 40
0.2107375793
 40
0.217308525
 40
0.2240263999
 40
0.2308909973
 40
0.2379018209
 40
0.2450581229
 40
0.2523588973
 40
0.25980292
 40
0.2751141482
 40
0.2909784363
 40
0.3073788775
 40
0.3242959549
 40
0.3417078117
 40
0.3595904884
 40
0.3779181323
 40
0.3966631869
 40
0.4157965633
 40
0.4352877992
 40
0.4551052057
 40
0.4752160064
 40
0.4955864692
 40
0.5161820331
 40
0.5369674301
 40
0.5579068041
 40
0.5789638272
 40
0.6001018141
 40
0.6212838349
 40
0.6424728274
 40
0.6636317082
 40
0.6847234846
 40
0.7057113662
 40
0.7265588774
 40
0.7472299713
 40
0.7676891449
 40
0.7879015574
 40
0.8078331504
 40
0.8274507733
 40
0.8467223124
 40
0.8656168275
 40
0.8841046955
 40
0.9021577645
 40
0.9197495206
 40
0.9368552678
 40
0.9534523363
 40
0.9695202907
 40
0.9850412298
 40
1.0
 40
1.0
 40
1.0
 40
1.0
 10
16.451486621
 20
13.1560380345
 30
0.0
 10
16.449607363
 20
13.1582894772
 30
0.0
 10
16.445830127
 20
13.1626846014
 30
0.0
 10
16.440036402
 20
13.1690229173
 30
0.0
 10
16.4341877542
 20
13.1750220418
 30
0.0
 10
16.4282872663
 20
13.1806788437
 30
0.0
 10
16.4223378276
 20
13.185990373
 30
0.0
 10
16.4163425862
 20
13.1909538639
 30
0.0
 10
16.4103042118
 20
13.1955668452
 30
0.0
 10
16.4022916556
 20
13.2011826408
 30
0.0
 10
16.3941099701
 20
13.2061707336
 30
0.0
 10
16.3857843397
 20
13.2104658836
 30
0.0
 10
16.3795779302
 20
13.2132925964
 30
0.0
 10
16.3733474516
 20
13.2157564821
 30
0.0
 10
16.3670960059
 20
13.2178563121
 30
0.0
 10
16.3608268793
 20
13.2195907444
 30
0.0
 10
16.354543404
 20
13.220958839
 30
0.0
 10
16.3482489196
 20
13.2219596745
 30
0.0
 10
16.3419468336
 20
13.2225927221
 30
0.0
 10
16.3356405561
 20
13.2228574998
 30
0.0
 10
16.3293335269
 20
13.2227539265
 30
0.0
 10
16.3230291853
 20
13.2222819849
 30
0.0
 10
16.3167309536
 20
13.2214420494
 30
0.0
 10
16.3104422472
 20
13.2202345658
 30
0.0
 10
16.304166429
 20
13.2186603446
 30
0.0
 10
16.2979068397
 20
13.2167202609
 30
0.0
 10
16.291666798
 20
13.2144155467
 30
0.0
 10
16.2854494028
 20
13.2117473771
 30
0.0
 10
16.2771094751
 20
13.2076660408
 30
0.0
 10
16.2689076382
 20
13.2028867701
 30
0.0
 10
16.2608718481
 20
13.1974745674
 30
0.0
 10
16.2548156711
 20
13.1930157903
 30
0.0
 10
16.2488012879
 20
13.1882054342
 30
0.0
 10
16.242831404
 20
13.1830458648
 30
0.0
 10
16.2369091344
 20
13.1775398081
 30
0.0
 10
16.2310374368
 20
13.1716901202
 30
0.0
 10
16.2252192976
 20
13.1654998243
 30
0.0
 10
16.2194576587
 20
13.1589721195
 30
0.0
 10
16.2137554484
 20
13.1521103677
 30
0.0
 10
16.2081155669
 20
13.144918101
 30
0.0
 10
16.2025408839
 20
13.1373990204
 30
0.0
 10
16.1970342496
 20
13.1295569887
 30
0.0
 10
16.1915984681
 20
13.1213960419
 30
0.0
 10
16.1862363321
 20
13.1129203691
 30
0.0
 10
16.1809505729
 20
13.1041343342
 30
0.0
 10
16.1757439179
 20
13.0950424475
 30
0.0
 10
16.1706190171
 20
13.0856493908
 30
0.0
 10
16.1655785314
 20
13.0759599931
 30
0.0
 10
16.1606249997
 20
13.0659792238
 30
0.0
 10
16.154078402
 20
13.0521603996
 30
0.0
 10
16.1461401637
 20
13.0341840524
 30
0.0
 10
16.1370887858
 20
13.0117327861
 30
0.0
 10
16.1284431555
 20
12.9882498292
 30
0.0
 10
16.1202211092
 20
12.9637835845
 30
0.0
 10
16.1124395562
 20
12.93838423
 30
0.0
 10
16.10511454
 20
12.9121039827
 30
0.0
 10
16.0982611694
 20
12.8849968821
 30
0.0
 10
16.0918935908
 20
12.8571187034
 30
0.0
 10
16.0860249532
 20
12.8285268309
 30
0.0
 10
16.0806673797
 20
12.7992801386
 30
0.0
 10
16.0758319404
 20
12.7694388657
 30
0.0
 10
16.0715286281
 20
12.7390644894
 30
0.0
 10
16.0677663374
 20
12.708219597
 30
0.0
 10
16.0645528452
 20
12.6769677543
 30
0.0
 10
16.0618947946
 20
12.6453733732
 30
0.0
 10
16.0597976805
 20
12.6135015775
 30
0.0
 10
16.0582658386
 20
12.5814180672
 30
0.0
 10
16.0573024359
 20
12.5491889824
 30
0.0
 10
16.0569094642
 20
12.5168807652
 30
0.0
 10
16.0570877359
 20
12.4845600221
 30
0.0
 10
16.0578368826
 20
12.4522933857
 30
0.0
 10
16.0591553552
 20
12.4201473761
 30
0.0
 10
16.061040428
 20
12.388188263
 30
0.0
 10
16.0634882037
 20
12.356481928
 30
0.0
 10
16.0664936219
 20
12.3250937274
 30
0.0
 10
16.0700504696
 20
12.2940883565
 30
0.0
 10
16.0741513943
 20
12.263529715
 30
0.0
 10
16.0787879194
 20
12.2334807733
 30
0.0
 10
16.0839504626
 20
12.2040034411
 30
0.0
 10
16.0896283561
 20
12.1751584381
 30
0.0
 10
16.0958098696
 20
12.147005166
 30
0.0
 10
16.1024822364
 20
12.119601584
 30
0.0
 10
16.1096316816
 20
12.0930040847
 30
0.0
 10
16.1172434528
 20
12.0672673793
 30
0.0
 10
16.1253018595
 20
12.0424443635
 30
0.0
 10
16.1337902896
 20
12.0185860637
 30
0.0
 10
16.1426913354
 20
11.9957413231
 30
0.0
 10
16.1519865334
 20
11.9739573877
 30
0.0
 10
16.1585567558
 20
11.9599079462
 30
0.0
 10
16.1619092735
 20
11.9530762333
 30
0.0
  0
SPLINE
  5
33C
100
AcDbEntity
  8
02___PRT_ALL_AXES
100
AcDbSpline
 62
7
  6
CONTINUOUS
 70
0
 71
3
 72
28
 73
24
 74
0
 42
0.0000001
 43
0.0000001
 44
0.0000000001
 40
0.0
 40
0.0
 40
0.0
 40
0.0
 40
0.0835099858
 40
0.1639061957
 40
0.2411638917
 40
0.3152793558
 40
0.3862714903
 40
0.4541854404
 40
0.519095855
 40
0.5811108629
 40
0.6403762309
 40
0.6970796112
 40
0.7514543965
 40
0.7778611823
 40
0.8037957612
 40
0.8293011294
 40
0.854423187
 40
0.8792107176
 40
0.9037150437
 40
0.9279898382
 40
0.9520906769
 40
0.976074682
 40
1.0
 40
1.0
 40
1.0
 40
1.0
 10
15.7321816479
 20
11.9037266379
 30
0.0
 10
15.7354252808
 20
11.8971168091
 30
0.0
 10
15.7420087706
 20
11.8842485087
 30
0.0
 10
15.7523816486
 20
11.8656820551
 30
0.0
 10
15.7630488981
 20
11.8482461384
 30
0.0
 10
15.7739920354
 20
11.8319713408
 30
0.0
 10
15.7851924509
 20
11.8168858361
 30
0.0
 10
15.796631184
 20
11.8030158602
 30
0.0
 10
15.8082891154
 20
11.7903855842
 30
0.0
 10
15.8201468772
 20
11.7790172473
 30
0.0
 10
15.8321852631
 20
11.7689310576
 30
0.0
 10
15.84438387
 20
11.7601459386
 30
0.0
 10
15.8547677914
 20
11.7538622011
 30
0.0
 10
15.8631220035
 20
11.7495282387
 30
0.0
 10
15.8693526983
 20
11.746643787
 30
0.0
 10
15.8756060885
 20
11.7440953539
 30
0.0
 10
15.8818795536
 20
11.7418841689
 30
0.0
 10
15.8881702498
 20
11.7400112505
 30
0.0
 10
15.8944753988
 20
11.7384775998
 30
0.0
 10
15.900792115
 20
11.7372839106
 30
0.0
 10
15.9071176093
 20
11.736430867
 30
0.0
 10
15.9134487352
 20
11.7359188366
 30
0.0
 10
15.9176736289
 20
11.7358049971
 30
0.0
 10
15.9197830485
 20
11.7358049993
 30
0.0
  0
SPLINE
  5
33D
100
AcDbEntity
  8
LAYER_FEATURE
100
AcDbSpline
 62
7
  6
CONTINUOUS
 70
0
 71
3
 72
68
 73
64
 74
0
 42
0.0000001
 43
0.0000001
 44
0.0000000001
 40
0.0
 40
0.0
 40
0.0
 40
0.0
 40
0.0038535318
 40
0.0077400475
 40
0.0116649517
 40
0.0156334455
 40
0.0237194567
 40
0.0320366582
 40
0.0406180723
 40
0.0494926247
 40
0.054048263
 40
0.0586861851
 40
0.0682178021
 40
0.0781058518
 40
0.0883643741
 40
0.0990043414
 40
0.1100339333
 40
0.1214588052
 40
0.1332823326
 40
0.1455058312
 40
0.1581287516
 40
0.17114885
 40
0.1845623486
 40
0.1983640734
 40
0.2125475762
 40
0.2271052391
 40
0.2420283678
 40
0.2573072823
 40
0.2729313949
 40
0.28888928
 40
0.3051687343
 40
0.3217568346
 40
0.3386399948
 40
0.3558040171
 40
0.3732341382
 40
0.3909150706
 40
0.4088310446
 40
0.4269658508
 40
0.4453028789
 40
0.4638251538
 40
0.4825153693
 40
0.5013559233
 40
0.5203289543
 40
0.5585990256
 40
0.5971796213
 40
0.6359217839
 40
0.6746754791
 40
0.7132905944
 40
0.7516179432
 40
0.770628029
 40
0.7895111686
 40
0.8082494278
 40
0.8268251216
 40
0.8452208486
 40
0.8634195279
 40
0.881404433
 40
0.89915923
 40
0.9166680076
 40
0.9339153231
 40
0.950886276
 40
0.9675663698
 40
0.9839421509
 40
1.0
 40
1.0
 40
1.0
 40
1.0
 10
15.8624886324
 20
11.7008434375
 30
0.0
 10
15.8607051919
 20
11.7012034156
 30
0.0
 10
15.8571378447
 20
11.7020020203
 30
0.0
 10
15.8518162684
 20
11.7034265352
 30
0.0
 10
15.8465049136
 20
11.7050819226
 30
0.0
 10
15.8393953882
 20
11.7076116152
 30
0.0
 10
15.8305287089
 20
11.7113651132
 30
0.0
 10
15.8200250732
 20
11.7167554772
 30
0.0
 10
15.8096022572
 20
11.7230530594
 30
0.0
 10
15.8010690508
 20
11.7289979403
 30
0.0
 10
15.7942955592
 20
11.7341853818
 30
0.0
 10
15.7874360014
 20
11.7397646425
 30
0.0
 10
15.7789335561
 20
11.7473055751
 30
0.0
 10
15.7689479913
 20
11.7571439522
 30
0.0
 10
15.75909908
 20
11.7678415362
 30
0.0
 10
15.7493978972
 20
11.7793858966
 30
0.0
 10
15.7398550962
 20
11.7917639612
 30
0.0
 10
15.7304813028
 20
11.8049616667
 30
0.0
 10
15.7212869823
 20
11.8189640595
 30
0.0
 10
15.7122824519
 20
11.8337552727
 30
0.0
 10
15.7034778526
 20
11.8493185408
 30
0.0
 10
15.694883122
 20
11.8656362049
 30
0.0
 10
15.6865079881
 20
11.8826897397
 30
0.0
 10
15.6783619505
 20
11.9004597737
 30
0.0
 10
15.670454266
 20
11.9189261105
 30
0.0
 10
15.6627939336
 20
11.9380677481
 30
0.0
 10
15.6553896724
 20
11.9578628997
 30
0.0
 10
15.6482499208
 20
11.9782890251
 30
0.0
 10
15.6413828221
 20
11.9993228586
 30
0.0
 10
15.6347962153
 20
12.0209404354
 30
0.0
 10
15.6284976225
 20
12.0431171161
 30
0.0
 10
15.6224942328
 20
12.0658276139
 30
0.0
 10
15.6167929038
 20
12.0890460286
 30
0.0
 10
15.6114001501
 20
12.112745878
 30
0.0
 10
15.6063221378
 20
12.1369001268
 30
0.0
 10
15.6015646724
 20
12.161481216
 30
0.0
 10
15.5971331886
 20
12.1864610942
 30
0.0
 10
15.5930327517
 20
12.2118112528
 30
0.0
 10
15.5892680506
 20
12.2375027586
 30
0.0
 10
15.5858433916
 20
12.2635062923
 30
0.0
 10
15.5827626967
 20
12.2897921553
 30
0.0
 10
15.580029464
 20
12.3163303983
 30
0.0
 10
15.5768436781
 20
12.3521119573
 30
0.0
 10
15.573756454
 20
12.3972547709
 30
0.0
 10
15.5714886943
 20
12.4517899097
 30
0.0
 10
15.5706578061
 20
12.5065943472
 30
0.0
 10
15.5712676074
 20
12.5614179836
 30
0.0
 10
15.5733153014
 20
12.6160106337
 30
0.0
 10
15.5762198618
 20
12.6612265003
 30
0.0
 10
15.5792604934
 20
12.6970855567
 30
0.0
 10
15.5818863942
 20
12.7236952072
 30
0.0
 10
15.5848607592
 20
12.7500617508
 30
0.0
 10
15.5881802085
 20
12.7761551461
 30
0.0
 10
15.5918409452
 20
12.8019455906
 30
0.0
 10
15.5958387825
 20
12.8274036502
 30
0.0
 10
15.6001691467
 20
12.8525002688
 30
0.0
 10
15.6048270874
 20
12.8772068047
 30
0.0
 10
15.6098072805
 20
12.9014950609
 30
0.0
 10
15.6151040376
 20
12.9253373367
 30
0.0
 10
15.6207113006
 20
12.9487063781
 30
0.0
 10
15.6266226693
 20
12.9715756751
 30
0.0
 10
15.632831366
 20
12.9939188909
 30
0.0
 10
15.6372080457
 20
13.0085945072
 30
0.0
 10
15.6394464808
 20
13.0158380857
 30
0.0
  0
SPLINE
  5
33E
100
AcDbEntity
  8
02___PRT_ALL_AXES
100
AcDbSpline
 62
7
  6
CONTINUOUS
 70
0
 71
3
 72
68
 73
64
 74
0
 42
0.0000001
 43
0.0000001
 44
0.0000000001
 40
0.0
 40
0.0
 40
0.0
 40
0.0
 40
0.0038535318
 40
0.0077400475
 40
0.0116649517
 40
0.0156334455
 40
0.0237194567
 40
0.0320366582
 40
0.0406180723
 40
0.0494926247
 40
0.054048263
 40
0.0586861851
 40
0.0682178021
 40
0.0781058518
 40
0.0883643741
 40
0.0990043414
 40
0.1100339333
 40
0.1214588052
 40
0.1332823326
 40
0.1455058312
 40
0.1581287516
 40
0.17114885
 40
0.1845623486
 40
0.1983640734
 40
0.2125475762
 40
0.2271052391
 40
0.2420283678
 40
0.2573072823
 40
0.2729313949
 40
0.28888928
 40
0.3051687343
 40
0.3217568346
 40
0.3386399948
 40
0.3558040171
 40
0.3732341382
 40
0.3909150706
 40
0.4088310446
 40
0.4269658508
 40
0.4453028789
 40
0.4638251538
 40
0.4825153693
 40
0.5013559233
 40
0.5203289543
 40
0.5585990256
 40
0.5971796213
 40
0.6359217839
 40
0.6746754791
 40
0.7132905944
 40
0.7516179432
 40
0.770628029
 40
0.7895111686
 40
0.8082494278
 40
0.8268251216
 40
0.8452208486
 40
0.8634195279
 40
0.881404433
 40
0.89915923
 40
0.9166680076
 40
0.9339153231
 40
0.950886276
 40
0.9675663698
 40
0.9839421509
 40
1.0
 40
1.0
 40
1.0
 40
1.0
 10
15.8947913807
 20
11.6943233194
 30
0.0
 10
15.8929935836
 20
11.6946861952
 30
0.0
 10
15.8893975197
 20
11.6954912287
 30
0.0
 10
15.8840331052
 20
11.6969272108
 30
0.0
 10
15.8786789945
 20
11.6985959239
 30
0.0
 10
15.871512238
 20
11.7011459803
 30
0.0
 10
15.8625741827
 20
11.7049296937
 30
0.0
 10
15.8519859937
 20
11.7103634495
 30
0.0
 10
15.841479275
 20
11.7167117267
 30
0.0
 10
15.832877377
 20
11.7227044634
 30
0.0
 10
15.8260493593
 20
11.7279336633
 30
0.0
 10
15.8191345827
 20
11.7335578366
 30
0.0
 10
15.8105636935
 20
11.741159473
 30
0.0
 10
15.8004977458
 20
11.7510770482
 30
0.0
 10
15.7905695517
 20
11.7618607468
 30
0.0
 10
15.7807902753
 20
11.7734980383
 30
0.0
 10
15.7711706555
 20
11.7859757452
 30
0.0
 10
15.7617214039
 20
11.799279691
 30
0.0
 10
15.75245307
 20
11.8133948018
 30
0.0
 10
15.743376054
 20
11.828305083
 30
0.0
 10
15.7345005784
 20
11.843993634
 30
0.0
 10
15.7258366609
 20
11.8604426539
 30
0.0
 10
15.7173941079
 20
11.8776334681
 30
0.0
 10
15.7091824955
 20
11.8955465492
 30
0.0
 10
15.7012111549
 20
11.9141615384
 30
0.0
 10
15.6934891574
 20
11.9334572645
 30
0.0
 10
15.6860252926
 20
11.9534117653
 30
0.0
 10
15.6788280667
 20
11.9740023192
 30
0.0
 10
15.6719056884
 20
11.9952054732
 30
0.0
 10
15.66526606
 20
12.0169970695
 30
0.0
 10
15.6589167641
 20
12.0393522705
 30
0.0
 10
15.6528650477
 20
12.0622455857
 30
0.0
 10
15.6471178234
 20
12.0856509067
 30
0.0
 10
15.6416816585
 20
12.1095415377
 30
0.0
 10
15.6365627687
 20
12.133890226
 30
0.0
 10
15.6317670062
 20
12.1586691909
 30
0.0
 10
15.6272998493
 20
12.1838501548
 30
0.0
 10
15.6231664043
 20
12.2094043799
 30
0.0
 10
15.6193713977
 20
12.2353027001
 30
0.0
 10
15.6159191705
 20
12.2615155599
 30
0.0
 10
15.6128136762
 20
12.2880130218
 30
0.0
 10
15.6100584413
 20
12.3147648952
 30
0.0
 10
15.6068470101
 20
12.3508344926
 30
0.0
 10
15.6037349341
 20
12.3963407018
 30
0.0
 10
15.6014489191
 20
12.4513148435
 30
0.0
 10
15.6006113423
 20
12.5065604519
 30
0.0
 10
15.6012260525
 20
12.5618254137
 30
0.0
 10
15.6032902302
 20
12.6168575297
 30
0.0
 10
15.6062181722
 20
12.66243738
 30
0.0
 10
15.6092832806
 20
12.6985850986
 30
0.0
 10
15.6119303196
 20
12.7254089544
 30
0.0
 10
15.6149286279
 20
12.7519877463
 30
0.0
 10
15.6182747985
 20
12.7782911912
 30
0.0
 10
15.6219650038
 20
12.8042892464
 30
0.0
 10
15.6259950234
 20
12.8299522411
 30
0.0
 10
15.6303602466
 20
12.8552508852
 30
0.0
 10
15.6350556833
 20
12.8801563065
 30
0.0
 10
15.6400759665
 20
12.904640081
 30
0.0
 10
15.6454153621
 20
12.928674285
 30
0.0
 10
15.651067763
 20
12.9522314451
 30
0.0
 10
15.6570267177
 20
12.9752848379
 30
0.0
 10
15.6632853939
 20
12.9978079146
 30
0.0
 10
15.6676973055
 20
13.0126016683
 30
0.0
 10
15.6699537597
 20
13.0199035569
 30
0.0
  0
SPLINE
  5
33F
100
AcDbEntity
  8
LAYER_CHAMFER_FEAT
100
AcDbSpline
 62
7
  6
CONTINUOUS
 70
0
 71
3
 72
75
 73
71
 74
0
 42
0.0000001
 43
0.0000001
 44
0.0000000001
 40
0.0
 40
0.0
 40
0.0
 40
0.0
 40
0.0038601584
 40
0.0077283485
 40
0.0116125388
 40
0.0155205797
 40
0.0194601386
 40
0.0234386601
 40
0.0274633113
 40
0.0315409492
 40
0.0398790149
 40
0.0485026059
 40
0.0574532448
 40
0.0667662428
 40
0.076470926
 40
0.0865910246
 40
0.0971451438
 40
0.1081472588
 40
0.119607194
 40
0.1315310723
 40
0.1439217209
 40
0.1567790302
 40
0.170100268
 40
0.183880353
 40
0.1981120921
 40
0.2127863855
 40
0.22789241
 40
0.2434177792
 40
0.259348683
 40
0.2756700126
 40
0.2923654727
 40
0.3094176808
 40
0.3268082606
 40
0.3445179292
 40
0.3625265759
 40
0.3808133375
 40
0.3993566676
 40
0.4181344035
 40
0.4371238295
 40
0.4563017403
 40
0.4756445012
 40
0.4951281068
 40
0.5147282381
 40
0.5344203184
 40
0.5541795693
 40
0.5739810654
 40
0.5937997897
 40
0.6136106883
 40
0.6333887242
 40
0.6531089314
 40
0.6727464698
 40
0.69227668
 40
0.71167514
 40
0.7309177198
 40
0.7499806392
 40
0.7688405249
 40
0.7874744704
 40
0.8058600972
 40
0.8239756198
 40
0.8417999107
 40
0.8593125685
 40
0.8764939911
 40
0.8933254522
 40
0.9097891854
 40
0.9258684763
 40
0.9415477505
 40
0.9568127287
 40
0.9716503767
 40
0.9860495014
 40
1.0
 40
1.0
 40
1.0
 40
1.0
 10
16.2762336532
 20
13.2858049876
 30
0.0
 10
16.2742912911
 20
13.2858049912
 30
0.0
 10
16.2704018378
 20
13.2857084988
 30
0.0
 10
16.2645724957
 20
13.2852744708
 30
0.0
 10
16.2587475186
 20
13.2845513438
 30
0.0
 10
16.2529293566
 20
13.2835393496
 30
0.0
 10
16.2471201717
 20
13.2822389937
 30
0.0
 10
16.2413222376
 20
13.280650775
 30
0.0
 10
16.2355376393
 20
13.2787753261
 30
0.0
 10
16.2277889825
 20
13.275871694
 30
0.0
 10
16.2181301927
 20
13.2715033616
 30
0.0
 10
16.2067204177
 20
13.2651655441
 30
0.0
 10
16.1954201931
 20
13.2577037937
 30
0.0
 10
16.1842461373
 20
13.2491306713
 30
0.0
 10
16.1732136633
 20
13.239459675
 30
0.0
 10
16.1623382663
 20
13.2287056602
 30
0.0
 10
16.15163524
 20
13.2168848063
 30
0.0
 10
16.1411197805
 20
13.2040147065
 30
0.0
 10
16.1308069355
 20
13.1901144067
 30
0.0
 10
16.1207115787
 20
13.1752044261
 30
0.0
 10
16.1108483709
 20
13.1593067574
 30
0.0
 10
16.1012317177
 20
13.1424448567
 30
0.0
 10
16.0918757303
 20
13.1246436217
 30
0.0
 10
16.0827941894
 20
13.1059293636
 30
0.0
 10
16.0740005122
 20
13.0863297726
 30
0.0
 10
16.065507716
 20
13.0658738807
 30
0.0
 10
16.0573283969
 20
13.0445920147
 30
0.0
 10
16.0494747038
 20
13.0225157488
 30
0.0
 10
16.041958315
 20
12.999677856
 30
0.0
 10
16.0347904172
 20
12.976112258
 30
0.0
 10
16.027981687
 20
12.9518539736
 30
0.0
 10
16.0215422696
 20
12.926939067
 30
0.0
 10
16.0154817613
 20
12.9014045925
 30
0.0
 10
16.0098091976
 20
12.8752885353
 30
0.0
 10
16.0045330384
 20
12.8486297541
 30
0.0
 10
15.9996611542
 20
12.8214679217
 30
0.0
 10
15.9952008141
 20
12.7938434658
 30
0.0
 10
15.9911586753
 20
12.7657975089
 30
0.0
 10
15.9875407675
 20
12.7373718069
 30
0.0
 10
15.9843524881
 20
12.708608685
 30
0.0
 10
15.9815985945
 20
12.6795509737
 30
0.0
 10
15.9792831964
 20
12.6502419439
 30
0.0
 10
15.97740975
 20
12.6207252432
 30
0.0
 10
15.9759810531
 20
12.5910448302
 30
0.0
 10
15.9749992387
 20
12.5612449092
 30
0.0
 10
15.9744657701
 20
12.5313698636
 30
0.0
 10
15.9743814425
 20
12.501464189
 30
0.0
 10
15.9747463814
 20
12.4715724266
 30
0.0
 10
15.9755600425
 20
12.4417390966
 30
0.0
 10
15.9768212124
 20
12.4120086321
 30
0.0
 10
15.978528011
 20
12.3824253128
 30
0.0
 10
15.9806778901
 20
12.3530331975
 30
0.0
 10
15.9832676394
 20
12.3238760582
 30
0.0
 10
15.9862933934
 20
12.2949973148
 30
0.0
 10
15.9897506368
 20
12.2664399702
 30
0.0
 10
15.9936342109
 20
12.2382465465
 30
0.0
 10
15.9979383222
 20
12.2104590208
 30
0.0
 10
16.0026565502
 20
12.1831187616
 30
0.0
 10
16.0077818536
 20
12.1562664646
 30
0.0
 10
16.0133065857
 20
12.1299420931
 30
0.0
 10
16.019222506
 20
12.1041848176
 30
0.0
 10
16.0255207934
 20
12.0790329577
 30
0.0
 10
16.0321920591
 20
12.0545239234
 30
0.0
 10
16.0392263635
 20
12.0306941569
 30
0.0
 10
16.0466132291
 20
12.0075790825
 30
0.0
 10
16.054341657
 20
11.9852130193
 30
0.0
 10
16.062400146
 20
11.9636292396
 30
0.0
 10
16.0707767519
 20
11.9428596064
 30
0.0
 10
16.0794589313
 20
11.9229352978
 30
0.0
 10
16.0855398016
 20
11.9100283905
 30
0.0
 10
16.0886322525
 20
11.9037266379
 30
0.0
  0
SPLINE
  5
340
100
AcDbEntity
  8
LAYER_FEATURE
100
AcDbSpline
 62
7
  6
CONTINUOUS
 70
0
 71
3
 72
9
 73
5
 74
0
 42
0.0000001
 43
0.0000001
 44
0.0000000001
 40
0.0
 40
0.0
 40
0.0
 40
0.0
 40
0.4807494644
 40
1.0
 40
1.0
 40
1.0
 40
1.0
 10
14.5088639771
 20
12.895947076
 30
0.0
 10
14.5094287018
 20
12.8965001836
 30
0.0
 10
14.5105394862
 20
12.8977168288
 30
0.0
 10
14.5115331922
 20
12.8990294629
 30
0.0
 10
14.5120222813
 20
12.899729265
 30
0.0
  0
SPLINE
  5
341
100
AcDbEntity
  8
02___PRT_ALL_AXES
100
AcDbSpline
 62
7
  6
CONTINUOUS
 70
0
 71
3
 72
75
 73
71
 74
0
 42
0.0000001
 43
0.0000001
 44
0.0000000001
 40
0.0
 40
0.0
 40
0.0
 40
0.0
 40
0.0038601585
 40
0.0077283483
 40
0.0116125393
 40
0.015520579
 40
0.0194601393
 40
0.0234386594
 40
0.0274633116
 40
0.0315409493
 40
0.0398790157
 40
0.0485026066
 40
0.0574532448
 40
0.0667662422
 40
0.0764709254
 40
0.0865910245
 40
0.0971451441
 40
0.1081472584
 40
0.1196071927
 40
0.1315310708
 40
0.1439217201
 40
0.1567790309
 40
0.1701002701
 40
0.1838803551
 40
0.1981120922
 40
0.2127863833
 40
0.2278924071
 40
0.2434177775
 40
0.2593486833
 40
0.2756700147
 40
0.2923654748
 40
0.3094176815
 40
0.3268082597
 40
0.3445179275
 40
0.3625265746
 40
0.3808133373
 40
0.3993566684
 40
0.4181344042
 40
0.4371238298
 40
0.4563017402
 40
0.475644501
 40
0.4951281068
 40
0.5147282381
 40
0.5344203185
 40
0.5541795693
 40
0.5739810654
 40
0.5937997898
 40
0.6136106885
 40
0.6333887241
 40
0.6531089311
 40
0.6727464695
 40
0.6922766805
 40
0.711675141
 40
0.7309177209
 40
0.7499806396
 40
0.7688405241
 40
0.7874744688
 40
0.8058600962
 40
0.8239756202
 40
0.8417999124
 40
0.8593125707
 40
0.8764939922
 40
0.8933254517
 40
0.9097891837
 40
0.9258684754
 40
0.9415477516
 40
0.956812725
 40
0.9716503909
 40
0.9860494776
 40
1.0
 40
1.0
 40
1.0
 40
1.0
 10
15.9197830485
 20
13.2858049865
 30
0.0
 10
15.9178406863
 20
13.2858049844
 30
0.0
 10
15.9139512335
 20
13.2857084987
 30
0.0
 10
15.9081218897
 20
13.2852744801
 30
0.0
 10
15.9022969163
 20
13.2845513299
 30
0.0
 10
15.8964787484
 20
13.283539366
 30
0.0
 10
15.8906695708
 20
13.2822389799
 30
0.0
 10
15.8848716293
 20
13.2806507874
 30
0.0
 10
15.8790870367
 20
13.2787753209
 30
0.0
 10
15.8713383757
 20
13.2758716987
 30
0.0
 10
15.8616795896
 20
13.2715033562
 30
0.0
 10
15.8502698133
 20
13.2651655422
 30
0.0
 10
15.8389695884
 20
13.2577037934
 30
0.0
 10
15.827795532
 20
13.2491306727
 30
0.0
 10
15.816763058
 20
13.2394596764
 30
0.0
 10
15.8058876615
 20
13.2287056605
 30
0.0
 10
15.795184636
 20
13.2168848057
 30
0.0
 10
15.7846691758
 20
13.2040147075
 30
0.0
 10
15.7743563298
 20
13.1901144094
 30
0.0
 10
15.7642609727
 20
13.1752044292
 30
0.0
 10
15.7543977653
 20
13.159306759
 30
0.0
 10
15.7447811132
 20
13.1424448556
 30
0.0
 10
15.7354251272
 20
13.1246436183
 30
0.0
 10
15.726343587
 20
13.1059293603
 30
0.0
 10
15.7175499076
 20
13.0863297726
 30
0.0
 10
15.709057109
 20
13.0658738843
 30
0.0
 10
15.7008777891
 20
13.0445920196
 30
0.0
 10
15.693024097
 20
13.0225157519
 30
0.0
 10
15.6855077103
 20
12.9996778558
 30
0.0
 10
15.678339815
 20
12.976112255
 30
0.0
 10
15.6715310852
 20
12.9518539703
 30
0.0
 10
15.6650916658
 20
12.9269390659
 30
0.0
 10
15.6590311552
 20
12.9014045938
 30
0.0
 10
15.6533585902
 20
12.875288538
 30
0.0
 10
15.648082431
 20
12.8486297564
 30
0.0
 10
15.6432105486
 20
12.8214679223
 30
0.0
 10
15.6387502109
 20
12.793843465
 30
0.0
 10
15.6347080721
 20
12.7657975079
 30
0.0
 10
15.6310901632
 20
12.7373718065
 30
0.0
 10
15.6279018828
 20
12.7086086852
 30
0.0
 10
15.6251479888
 20
12.679550974
 30
0.0
 10
15.622832591
 20
12.6502419441
 30
0.0
 10
15.6209591454
 20
12.6207252432
 30
0.0
 10
15.6195304484
 20
12.5910448302
 30
0.0
 10
15.6185486331
 20
12.5612449093
 30
0.0
 10
15.618015164
 20
12.5313698636
 30
0.0
 10
15.6179308367
 20
12.5014641889
 30
0.0
 10
15.6182957767
 20
12.4715724265
 30
0.0
 10
15.6191094393
 20
12.4417390968
 30
0.0
 10
15.6203706101
 20
12.4120086326
 30
0.0
 10
15.6220774071
 20
12.3824253129
 30
0.0
 10
15.6242272834
 20
12.3530331967
 30
0.0
 10
15.6268170313
 20
12.3238760566
 30
0.0
 10
15.6298427861
 20
12.2949973132
 30
0.0
 10
15.6333000316
 20
12.2664399698
 30
0.0
 10
15.6371836082
 20
12.2382465478
 30
0.0
 10
15.6414877208
 20
12.210459023
 30
0.0
 10
15.646205947
 20
12.1831187629
 30
0.0
 10
15.651331248
 20
12.1562664638
 30
0.0
 10
15.6568559783
 20
12.1299420902
 30
0.0
 10
15.6627718984
 20
12.1041848143
 30
0.0
 10
15.6690701873
 20
12.0790329559
 30
0.0
 10
15.6757414557
 20
12.0545239243
 30
0.0
 10
15.6827757608
 20
12.0306941591
 30
0.0
 10
15.6901626252
 20
12.0075790834
 30
0.0
 10
15.6978910522
 20
11.9852130211
 30
0.0
 10
15.7059495403
 20
11.9636292328
 30
0.0
 10
15.7143261461
 20
11.9428596131
 30
0.0
 10
15.7230083218
 20
11.9229353008
 30
0.0
 10
15.7290891916
 20
11.9100284012
 30
0.0
 10
15.7321816479
 20
11.9037266379
 30
0.0
  0
SPLINE
  5
342
100
AcDbEntity
  8
02___PRT_ALL_AXES
100
AcDbSpline
 62
7
  6
CONTINUOUS
 70
0
 71
3
 72
26
 73
22
 74
0
 42
0.0000001
 43
0.0000001
 44
0.0000000001
 40
0.0
 40
0.0
 40
0.0
 40
0.0
 40
0.0239261138
 40
0.047910922
 40
0.0720125643
 40
0.0962881559
 40
0.1455658136
 40
0.1961803165
 40
0.2485101711
 40
0.3028867549
 40
0.3309380015
 40
0.3596024642
 40
0.4188698009
 40
0.4808868413
 40
0.5457994632
 40
0.6137156356
 40
0.6847102273
 40
0.7588281847
 40
0.8360876461
 40
0.9164889468
 40
1.0
 40
1.0
 40
1.0
 40
1.0
 10
16.3342604958
 20
12.7608049869
 30
0.0
 10
16.3349409537
 20
12.7608049893
 30
0.0
 10
16.3363038251
 20
12.7607682713
 30
0.0
 10
16.3383461136
 20
12.7606030949
 30
0.0
 10
16.3403866304
 20
12.7603279027
 30
0.0
 10
16.343116697
 20
12.7598120638
 30
0.0
 10
16.3465312181
 20
12.7588854646
 30
0.0
 10
16.3505825025
 20
12.7573409648
 30
0.0
 10
16.3546019886
 20
12.755362096
 30
0.0
 10
16.3578848907
 20
12.7533754119
 30
0.0
 10
16.3604867128
 20
12.7515818931
 30
0.0
 10
16.3631294461
 20
12.7496067437
 30
0.0
 10
16.3664012616
 20
12.7468654928
 30
0.0
 10
16.3702262649
 20
12.7431983687
 30
0.0
 10
16.3739869069
 20
12.7391240601
 30
0.0
 10
16.3776768146
 20
12.7346498781
 30
0.0
 10
16.3812898574
 20
12.7297835845
 30
0.0
 10
16.3848198882
 20
12.7245336656
 30
0.0
 10
16.3882609687
 20
12.7189091416
 30
0.0
 10
16.3916070372
 20
12.712919955
 30
0.0
 10
16.393730765
 20
12.7087688794
 30
0.0
 10
16.3947770767
 20
12.7066367203
 30
0.0
  0
SPLINE
  5
343
100
AcDbEntity
  8
LAYER_CHAMFER_FEAT
100
AcDbSpline
 62
7
  6
CONTINUOUS
 70
0
 71
3
 72
28
 73
24
 74
0
 42
0.0000001
 43
0.0000001
 44
0.0000000001
 40
0.0
 40
0.0
 40
0.0
 40
0.0
 40
0.0835098736
 40
0.163906257
 40
0.2411638575
 40
0.3152793555
 40
0.3862714757
 40
0.4541854298
 40
0.5190958453
 40
0.581110857
 40
0.6403762297
 40
0.697079615
 40
0.7514544048
 40
0.777861172
 40
0.8037957703
 40
0.82930112
 40
0.8544231944
 40
0.879210711
 40
0.9037150481
 40
0.9279898347
 40
0.9520906784
 40
0.9760746809
 40
1.0
 40
1.0
 40
1.0
 40
1.0
 10
16.0886322525
 20
11.9037266379
 30
0.0
 10
16.0918758811
 20
11.897116818
 30
0.0
 10
16.0984593757
 20
11.8842485142
 30
0.0
 10
16.1088322475
 20
11.8656820606
 30
0.0
 10
16.1194995078
 20
11.848246139
 30
0.0
 10
16.1304426389
 20
11.8319713454
 30
0.0
 10
16.1416430575
 20
11.8168858405
 30
0.0
 10
16.1530817892
 20
11.8030158647
 30
0.0
 10
16.1647397208
 20
11.7903855878
 30
0.0
 10
16.1765974824
 20
11.7790172497
 30
0.0
 10
16.1886358671
 20
11.7689310561
 30
0.0
 10
16.2008344765
 20
11.7601459406
 30
0.0
 10
16.2112183876
 20
11.7538621845
 30
0.0
 10
16.2195726164
 20
11.7495282548
 30
0.0
 10
16.2258032941
 20
11.7466437692
 30
0.0
 10
16.2320567016
 20
11.7440953749
 30
0.0
 10
16.2383301508
 20
11.7418841487
 30
0.0
 10
16.2446208606
 20
11.7400112716
 30
0.0
 10
16.2509259989
 20
11.7384775819
 30
0.0
 10
16.2572427227
 20
11.737283928
 30
0.0
 10
16.2635682121
 20
11.7364308551
 30
0.0
 10
16.2698993406
 20
11.7359188453
 30
0.0
 10
16.2741242334
 20
11.7358050021
 30
0.0
 10
16.2762336532
 20
11.7358049982
 30
0.0
  0
SPLINE
  5
344
100
AcDbEntity
  8
LAYER_CHAMFER_FEAT
100
AcDbSpline
 62
7
  6
CONTINUOUS
 70
0
 71
3
 72
46
 73
42
 74
0
 42
0.0000001
 43
0.0000001
 44
0.0000000001
 40
0.0
 40
0.0
 40
0.0
 40
0.0
 40
0.0439484753
 40
0.0865523783
 40
0.1277991488
 40
0.167685339
 40
0.2062121687
 40
0.243388348
 40
0.2792304043
 40
0.3137634438
 40
0.3470221995
 40
0.3790520335
 40
0.4099099437
 40
0.4396655776
 40
0.4684021639
 40
0.4962172394
 40
0.5232229396
 40
0.5495457703
 40
0.5624971719
 40
0.5753313855
 40
0.5880676953
 40
0.6007259527
 40
0.6133264835
 40
0.6258899499
 40
0.6384372503
 40
0.6509893792
 40
0.6635673048
 40
0.6761918305
 40
0.6888834784
 40
0.7016623739
 40
0.7145481124
 40
0.7275597028
 40
0.7540276
 40
0.7812086974
 40
0.8092262465
 40
0.8381890103
 40
0.8681911923
 40
0.89931285
 40
0.9316206253
 40
0.9651687324
 40
1.0
 40
1.0
 40
1.0
 40
1.0
 10
16.1619092735
 20
11.9530762333
 30
0.0
 10
16.1643768557
 20
11.9480478295
 30
0.0
 10
16.1693737948
 20
11.9382113866
 30
0.0
 10
16.1771818407
 20
11.9239140559
 30
0.0
 10
16.1851780554
 20
11.9103180323
 30
0.0
 10
16.1933527854
 20
11.8974397145
 30
0.0
 10
16.2016965319
 20
11.8852942838
 30
0.0
 10
16.2101994743
 20
11.8738961951
 30
0.0
 10
16.2188516967
 20
11.8632589765
 30
0.0
 10
16.2276431739
 20
11.853395295
 30
0.0
 10
16.2365637792
 20
11.844316949
 30
0.0
 10
16.2456032834
 20
11.836034854
 30
0.0
 10
16.2547513751
 20
11.8285590912
 30
0.0
 10
16.2639976648
 20
11.821898936
 30
0.0
 10
16.2733315897
 20
11.8160628977
 30
0.0
 10
16.2827425644
 20
11.8110586495
 30
0.0
 10
16.2922191122
 20
11.8068932265
 30
0.0
 10
16.3002058535
 20
11.8041108897
 30
0.0
 10
16.3066028715
 20
11.8023204467
 30
0.0
 10
16.3113837912
 20
11.8011969599
 30
0.0
 10
16.3161716912
 20
11.8002861939
 30
0.0
 10
16.3209651921
 20
11.7995884401
 30
0.0
 10
16.32576279
 20
11.7991038858
 30
0.0
 10
16.3305630182
 20
11.7988327416
 30
0.0
 10
16.3353643882
 20
11.7987750836
 30
0.0
 10
16.3401654181
 20
11.7989309014
 30
0.0
 10
16.3449646208
 20
11.7993002024
 30
0.0
 10
16.3497605161
 20
11.7998828074
 30
0.0
 10
16.3545516335
 20
11.8006785403
 30
0.0
 10
16.3593364732
 20
11.8016871545
 30
0.0
 10
16.3641136662
 20
11.8029083025
 30
0.0
 10
16.3705066454
 20
11.8048300077
 30
0.0
 10
16.3784859289
 20
11.8077763119
 30
0.0
 10
16.3879483017
 20
11.8121351432
 30
0.0
 10
16.3973425444
 20
11.817331282
 30
0.0
 10
16.4066572547
 20
11.8233574977
 30
0.0
 10
16.415881905
 20
11.8302059398
 30
0.0
 10
16.4250059369
 20
11.837867928
 30
0.0
 10
16.4340190444
 20
11.8463340559
 30
0.0
 10
16.4429107328
 20
11.8555937934
 30
0.0
 10
16.448641958
 20
11.862163904
 30
0.0
 10
16.4514866211
 20
11.865571951
 30
0.0
  0
SPLINE
  5
345
100
AcDbEntity
  8
02___PRT_ALL_AXES
100
AcDbSpline
 62
7
  6
CONTINUOUS
 70
0
 71
3
 72
58
 73
54
 74
0
 42
0.0000001
 43
0.0000001
 44
0.0000000001
 40
0.0
 40
0.0
 40
0.0
 40
0.0
 40
0.0139505596
 40
0.0283504386
 40
0.0431883831
 40
0.0584536949
 40
0.074133406
 40
0.0902130914
 40
0.1066772426
 40
0.1235091252
 40
0.1406909784
 40
0.1582040822
 40
0.1941432976
 40
0.2311624275
 40
0.2690849124
 40
0.3077257175
 40
0.3468932919
 40
0.3863913997
 40
0.4260209018
 40
0.4655815203
 40
0.5048735722
 40
0.5436997255
 40
0.5818667724
 40
0.6191874378
 40
0.6554823
 40
0.6731924204
 40
0.6905834351
 40
0.7076360687
 40
0.7243319566
 40
0.7406536938
 40
0.7565849985
 40
0.7721107672
 40
0.7872171646
 40
0.8018918266
 40
0.8161239305
 40
0.8299043551
 40
0.8432259329
 40
0.8560835728
 40
0.8684745248
 40
0.8803987071
 40
0.8918589326
 40
0.9028613167
 40
0.9134157095
 40
0.9235360647
 40
0.9332409871
 40
0.9425542257
 40
0.9515050873
 40
0.9601288915
 40
0.9684671725
 40
0.976567614
 40
0.9844836961
 40
0.9922738201
 40
1.0
 40
1.0
 40
1.0
 40
1.0
 10
16.3947770767
 20
12.7066367203
 30
0.0
 10
16.3957746207
 20
12.7046039393
 30
0.0
 10
16.3977361872
 20
12.7004404008
 30
0.0
 10
16.4005369093
 20
12.6940132089
 30
0.0
 10
16.403239056
 20
12.6873132874
 30
0.0
 10
16.4058385524
 20
12.680350787
 30
0.0
 10
16.4083316002
 20
12.6731359338
 30
0.0
 10
16.410714462
 20
12.6656794534
 30
0.0
 10
16.4129835862
 20
12.6579924307
 30
0.0
 10
16.4151356091
 20
12.6500862968
 30
0.0
 10
16.41716733
 20
12.6419727777
 30
0.0
 10
16.4197338234
 20
12.630798289
 30
0.0
 10
16.4226118225
 20
12.6163947268
 30
0.0
 10
16.4255130808
 20
12.5986292863
 30
0.0
 10
16.4278737089
 20
12.5803418201
 30
0.0
 10
16.4296795781
 20
12.5616411169
 30
0.0
 10
16.4309198635
 20
12.5426382221
 30
0.0
 10
16.4315871219
 20
12.5234460897
 30
0.0
 10
16.4316773661
 20
12.5041788043
 30
0.0
 10
16.431190056
 20
12.4849509133
 30
0.0
 10
16.4301281005
 20
12.4658767185
 30
0.0
 10
16.4284978714
 20
12.4470696066
 30
0.0
 10
16.4263091441
 20
12.4286412725
 30
0.0
 10
16.4235750206
 20
12.4107013548
 30
0.0
 10
16.4208338244
 20
12.3961301403
 30
0.0
 10
16.4183740219
 20
12.3848051356
 30
0.0
 10
16.416419003
 20
12.3765681932
 30
0.0
 10
16.4143417714
 20
12.368531132
 30
0.0
 10
16.4121454128
 20
12.3607058763
 30
0.0
 10
16.4098331837
 20
12.3531040716
 30
0.0
 10
16.407408541
 20
12.3457370093
 30
0.0
 10
16.4048750986
 20
12.3386156308
 30
0.0
 10
16.4022366019
 20
12.3317505155
 30
0.0
 10
16.3994969902
 20
12.3251518415
 30
0.0
 10
16.3966603258
 20
12.3188293907
 30
0.0
 10
16.3937307894
 20
12.3127925363
 30
0.0
 10
16.3907127319
 20
12.3070502006
 30
0.0
 10
16.3876105908
 20
12.3016108745
 30
0.0
 10
16.3844289029
 20
12.2964825991
 30
0.0
 10
16.3811723404
 20
12.2916729262
 30
0.0
 10
16.3778456183
 20
12.2871889573
 30
0.0
 10
16.374453527
 20
12.2830373185
 30
0.0
 10
16.3710009449
 20
12.2792241339
 30
0.0
 10
16.3674927518
 20
12.2757550949
 30
0.0
 10
16.3639338864
 20
12.2726354264
 30
0.0
 10
16.3603293481
 20
12.2698698915
 30
0.0
 10
16.3566841507
 20
12.2674628912
 30
0.0
 10
16.3530034362
 20
12.2654183992
 30
0.0
 10
16.3492924822
 20
12.26373998
 30
0.0
 10
16.3455568031
 20
12.2624308419
 30
0.0
 10
16.3418020528
 20
12.2614936398
 30
0.0
 10
16.3380348063
 20
12.2609304155
 30
0.0
 10
16.3355145527
 20
12.2608050034
 30
0.0
 10
16.3342604958
 20
12.2608049989
 30
0.0
  0
SPLINE
  5
346
100
AcDbEntity
  8
LAYER_FEATURE
100
AcDbSpline
 62
7
  6
CONTINUOUS
 70
0
 71
3
 72
40
 73
36
 74
0
 42
0.0000001
 43
0.0000001
 44
0.0000000001
 40
0.0
 40
0.0
 40
0.0
 40
0.0
 40
0.0443811139
 40
0.0879667349
 40
0.1307332134
 40
0.1726614725
 40
0.2137326659
 40
0.2539296163
 40
0.2932370197
 40
0.331641343
 40
0.369131063
 40
0.4056967748
 40
0.4413313788
 40
0.4760302962
 40
0.5097916243
 40
0.5426163818
 40
0.5745088053
 40
0.6054765756
 40
0.6355311223
 40
0.6646880074
 40
0.692967238
 40
0.7203936252
 40
0.746997217
 40
0.7728136618
 40
0.7978845448
 40
0.8101562374
 40
0.8222600457
 40
0.8459899735
 40
0.8691376753
 40
0.8917708177
 40
0.9139634692
 40
0.9357956004
 40
0.9573523562
 40
0.9787230683
 40
1.0
 40
1.0
 40
1.0
 40
1.0
 10
14.4801644701
 20
13.1728196091
 30
0.0
 10
14.4825602025
 20
13.1805722019
 30
0.0
 10
14.4874328701
 20
13.1959004242
 30
0.0
 10
14.4950576361
 20
13.2185551681
 30
0.0
 10
14.5029274141
 20
13.2406506177
 30
0.0
 10
14.5110358648
 20
13.2621690707
 30
0.0
 10
14.519376648
 20
13.2830937112
 30
0.0
 10
14.5279431636
 20
13.303407993
 30
0.0
 10
14.5367286572
 20
13.3230958841
 30
0.0
 10
14.545726208
 20
13.3421418701
 30
0.0
 10
14.5549287158
 20
13.3605309443
 30
0.0
 10
14.5643289487
 20
13.3782486138
 30
0.0
 10
14.573919526
 20
13.3952809221
 30
0.0
 10
14.5836929053
 20
13.411614471
 30
0.0
 10
14.5936414342
 20
13.4272364045
 30
0.0
 10
14.6037573467
 20
13.4421344229
 30
0.0
 10
14.6140327339
 20
13.4562968185
 30
0.0
 10
14.6244595989
 20
13.4697124496
 30
0.0
 10
14.6350298679
 20
13.4823707395
 30
0.0
 10
14.6457353485
 20
13.4942617186
 30
0.0
 10
14.6565677852
 20
13.5053760005
 30
0.0
 10
14.6675188488
 20
13.5157047393
 30
0.0
 10
14.6785802038
 20
13.5252397429
 30
0.0
 10
14.6897431399
 20
13.5339731971
 30
0.0
 10
14.6991899396
 20
13.5406241756
 30
0.0
 10
14.7067869666
 20
13.5455264889
 30
0.0
 10
14.7143062054
 20
13.5500908846
 30
0.0
 10
14.7237574559
 20
13.5552969638
 30
0.0
 10
14.7352412086
 20
13.560759089
 30
0.0
 10
14.7467831499
 20
13.5653898384
 30
0.0
 10
14.7583738923
 20
13.5691848413
 30
0.0
 10
14.7700040271
 20
13.5721404893
 30
0.0
 10
14.7816641483
 20
13.5742538187
 30
0.0
 10
14.7933436379
 20
13.5755227016
 30
0.0
 10
14.8011439375
 20
13.5758049953
 30
0.0
 10
14.8050340581
 20
13.5758049925
 30
0.0
  0
SPLINE
  5
347
100
AcDbEntity
  8
LAYER_FEATURE
100
AcDbSpline
 62
7
  6
CONTINUOUS
 70
0
 71
3
 72
22
 73
18
 74
0
 42
0.0000001
 43
0.0000001
 44
0.0000000001
 40
0.0
 40
0.0
 40
0.0
 40
0.0
 40
0.1743653321
 40
0.2565751215
 40
0.3352114088
 40
0.4101289506
 40
0.4812103651
 40
0.5483864853
 40
0.6116375606
 40
0.6710039896
 40
0.7265991369
 40
0.7786217863
 40
0.8273750775
 40
0.8732790155
 40
0.9168832438
 40
0.9588633937
 40
1.0
 40
1.0
 40
1.0
 40
1.0
 10
14.5148388709
 20
13.0522600363
 30
0.0
 10
14.5150272583
 20
13.0529765573
 30
0.0
 10
14.5153372728
 20
13.0540229617
 30
0.0
 10
14.5158189584
 20
13.0553636429
 30
0.0
 10
14.5161958708
 20
13.0562921235
 30
0.0
 10
14.5165940678
 20
13.0571599406
 30
0.0
 10
14.5170121505
 20
13.0579639143
 30
0.0
 10
14.5174485662
 20
13.058701106
 30
0.0
 10
14.5179017771
 20
13.0593688313
 30
0.0
 10
14.5183702035
 20
13.0599646642
 30
0.0
 10
14.5188522444
 20
13.0604864422
 30
0.0
 10
14.5193463519
 20
13.060932191
 30
0.0
 10
14.5198509326
 20
13.0613001772
 30
0.0
 10
14.5203643979
 20
13.0615887441
 30
0.0
 10
14.520885059
 20
13.0617963421
 30
0.0
 10
14.5214107083
 20
13.061921616
 30
0.0
 10
14.5217644714
 20
13.0619496293
 30
0.0
 10
14.5219392595
 20
13.0619496304
 30
0.0
  0
SPLINE
  5
348
100
AcDbEntity
  8
LAYER_FEATURE
100
AcDbSpline
 62
7
  6
CONTINUOUS
 70
0
 71
3
 72
18
 73
14
 74
0
 42
0.0000001
 43
0.0000001
 44
0.0000000001
 40
0.0
 40
0.0
 40
0.0
 40
0.0
 40
0.1409280179
 40
0.2796415383
 40
0.4148771306
 40
0.5454215421
 40
0.6701469861
 40
0.7300100721
 40
0.7880467146
 40
0.8441518614
 40
0.8982310324
 40
0.9502028863
 40
1.0
 40
1.0
 40
1.0
 40
1.0
 10
14.5625237291
 20
13.1014120222
 30
0.0
 10
14.562470156
 20
13.099504995
 30
0.0
 10
14.5622868261
 20
13.0957225846
 30
0.0
 10
14.5617809368
 20
13.0901275019
 30
0.0
 10
14.561051107
 20
13.0846987389
 30
0.0
 10
14.560105385
 20
13.079495684
 30
0.0
 10
14.5591332513
 20
13.0753396249
 30
0.0
 10
14.5582510033
 20
13.0721754431
 30
0.0
 10
14.5575515743
 20
13.0699257374
 30
0.0
 10
14.5568073373
 20
13.0677731131
 30
0.0
 10
14.5560202758
 20
13.0657234218
 30
0.0
 10
14.5551925896
 20
13.063782288
 30
0.0
 10
14.5546023383
 20
13.062536943
 30
0.0
 10
14.5543002321
 20
13.0619343113
 30
0.0
  0
SPLINE
  5
349
100
AcDbEntity
  8
LAYER_FEATURE
100
AcDbSpline
 62
7
  6
CONTINUOUS
 70
0
 71
3
 72
14
 73
10
 74
0
 42
0.0000001
 43
0.0000001
 44
0.0000000001
 40
0.0
 40
0.0
 40
0.0
 40
0.0
 40
0.1141237601
 40
0.2320062556
 40
0.353342569
 40
0.4778142818
 40
0.6050804574
 40
0.7347838809
 40
1.0
 40
1.0
 40
1.0
 40
1.0
 10
14.5563837576
 20
13.1500883355
 30
0.0
 10
14.556749888
 20
13.1488888079
 30
0.0
 10
14.5574521495
 20
13.1464372344
 30
0.0
 10
14.5584028218
 20
13.1426717683
 30
0.0
 10
14.559265386
 20
13.1387686012
 30
0.0
 10
14.5600368167
 20
13.1347414252
 30
0.0
 10
14.5607144202
 20
13.1306041872
 30
0.0
 10
14.5614953177
 20
13.1249185753
 30
0.0
 10
14.5619238633
 20
13.1205975388
 30
0.0
 10
14.5621436242
 20
13.1176912494
 30
0.0
  0
LINE
  5
34A
100
AcDbEntity
  8
LAYER_FEATURE
100
AcDbLine
 62
7
  6
CONTINUOUS
 10
14.5543233942
 20
13.1570353937
 11
14.553635934
 21
13.1602160901
  0
SPLINE
  5
34B
100
AcDbEntity
  8
LAYER_FEATURE
100
AcDbSpline
 62
7
  6
CONTINUOUS
 70
0
 71
3
 72
17
 73
13
 74
0
 42
0.0000001
 43
0.0000001
 44
0.0000000001
 40
0.0
 40
0.0
 40
0.0
 40
0.0
 40
0.1272616833
 40
0.2581892835
 40
0.3906199378
 40
0.5223386474
 40
0.6511537001
 40
0.774958654
 40
0.8343726861
 40
0.8918173046
 40
0.9470937503
 40
1.0
 40
1.0
 40
1.0
 40
1.0
 10
14.553635934
 20
13.1602160901
 30
0.0
 10
14.5534854586
 20
13.1611937362
 30
0.0
 10
14.5532423005
 20
13.1631871696
 30
0.0
 10
14.5530466637
 20
13.1662184768
 30
0.0
 10
14.5530168604
 20
13.1692906581
 30
0.0
 10
14.5531535204
 20
13.1723435212
 30
0.0
 10
14.5534538937
 20
13.1753172875
 30
0.0
 10
14.5538407155
 20
13.1777133494
 30
0.0
 10
14.5542306271
 20
13.1795431723
 30
0.0
 10
14.5545552727
 20
13.1808414489
 30
0.0
 10
14.554914487
 20
13.1820779954
 30
0.0
 10
14.5551819508
 20
13.182875514
 30
0.0
 10
14.555321628
 20
13.1832622864
 30
0.0
  0
SPLINE
  5
34C
100
AcDbEntity
  8
LAYER_FEATURE
100
AcDbSpline
 62
7
  6
CONTINUOUS
 70
0
 71
3
 72
11
 73
7
 74
0
 42
0.0000001
 43
0.0000001
 44
0.0000000001
 40
0.0
 40
0.0
 40
0.0
 40
0.0
 40
0.2356190329
 40
0.4818952188
 40
0.7372526172
 40
1.0
 40
1.0
 40
1.0
 40
1.0
 10
14.6091998069
 20
13.2075576676
 30
0.0
 10
14.6095953026
 20
13.2089404232
 30
0.0
 10
14.6103312492
 20
13.2117897235
 30
0.0
 10
14.6112567569
 20
13.2161950514
 30
0.0
 10
14.6120228178
 20
13.2207987493
 30
0.0
 10
14.6124182073
 20
13.2239373379
 30
0.0
 10
14.6125889799
 20
13.2255320134
 30
0.0
  0
SPLINE
  5
34D
100
AcDbEntity
  8
LAYER_FEATURE
100
AcDbSpline
 62
7
  6
CONTINUOUS
 70
0
 71
3
 72
13
 73
9
 74
0
 42
0.0000001
 43
0.0000001
 44
0.0000000001
 40
0.0
 40
0.0
 40
0.0
 40
0.0
 40
0.2573342655
 40
0.5117403676
 40
0.6369189227
 40
0.7602542091
 40
0.8813965462
 40
1.0
 40
1.0
 40
1.0
 40
1.0
 10
14.61345294
 20
13.2416888644
 30
0.0
 10
14.6134582502
 20
13.2446790073
 30
0.0
 10
14.6133324952
 20
13.2506263562
 30
0.0
 10
14.6128334578
 20
13.2580132093
 30
0.0
 10
14.612228628
 20
13.2638261107
 30
0.0
 10
14.611678559
 20
13.2680865153
 30
0.0
 10
14.6110315999
 20
13.2722559596
 30
0.0
 10
14.6105314458
 20
13.2749968838
 30
0.0
 10
14.6102650109
 20
13.2763490205
 30
0.0
  0
LINE
  5
34E
100
AcDbEntity
  8
LAYER_FEATURE
100
AcDbLine
 62
7
  6
CONTINUOUS
 10
14.6083394092
 20
13.2876587744
 11
14.608772017
 21
13.2841947912
  0
SPLINE
  5
34F
100
AcDbEntity
  8
LAYER_FEATURE
100
AcDbSpline
 62
7
  6
CONTINUOUS
 70
0
 71
3
 72
18
 73
14
 74
0
 42
0.0000001
 43
0.0000001
 44
0.0000000001
 40
0.0
 40
0.0
 40
0.0
 40
0.0
 40
0.0476726964
 40
0.0982266166
 40
0.1515337117
 40
0.2074534159
 40
0.2658079836
 40
0.3263962132
 40
0.4533583191
 40
0.5864017804
 40
0.7233766735
 40
0.8620125405
 40
1.0
 40
1.0
 40
1.0
 40
1.0
 10
14.611743573
 20
13.3094176476
 30
0.0
 10
14.6115759467
 20
13.3091059594
 30
0.0
 10
14.6112508596
 20
13.3084526905
 30
0.0
 10
14.6108048866
 20
13.3074194446
 30
0.0
 10
14.6103881585
 20
13.3063084462
 30
0.0
 10
14.6100027347
 20
13.305125218
 30
0.0
 10
14.6096504744
 20
13.3038754709
 30
0.0
 10
14.6092206982
 20
13.3021009226
 30
0.0
 10
14.6087822066
 20
13.2997597851
 30
0.0
 10
14.6084182659
 20
13.2968336747
 30
0.0
 10
14.6082160576
 20
13.2938051099
 30
0.0
 10
14.6081795896
 20
13.2907335024
 30
0.0
 10
14.6082669807
 20
13.2886805773
 30
0.0
 10
14.6083394092
 20
13.2876587744
 30
0.0
  0
SPLINE
  5
350
100
AcDbEntity
  8
LAYER_FEATURE
100
AcDbSpline
 62
7
  6
CONTINUOUS
 70
0
 71
3
 72
11
 73
7
 74
0
 42
0.0000001
 43
0.0000001
 44
0.0000000001
 40
0.0
 40
0.0
 40
0.0
 40
0.0
 40
0.2498524938
 40
0.5017881357
 40
0.7528251264
 40
1.0
 40
1.0
 40
1.0
 40
1.0
 10
14.6731966774
 20
13.3375990221
 30
0.0
 10
14.6734313631
 20
13.3405581903
 30
0.0
 10
14.6737604099
 20
13.3465133456
 30
0.0
 10
14.6738419234
 20
13.3554601916
 30
0.0
 10
14.6735142964
 20
13.3643695939
 30
0.0
 10
14.6730204001
 20
13.3702708122
 30
0.0
 10
14.6727031962
 20
13.3731902778
 30
0.0
  0
SPLINE
  5
351
100
AcDbEntity
  8
LAYER_FEATURE
100
AcDbSpline
 62
7
  6
CONTINUOUS
 70
0
 71
3
 72
20
 73
16
 74
0
 42
0.0000001
 43
0.0000001
 44
0.0000000001
 40
0.0
 40
0.0
 40
0.0
 40
0.0
 40
0.0426283721
 40
0.0884577748
 40
0.1374981942
 40
0.1897167398
 40
0.2450220111
 40
0.3032812979
 40
0.3643284152
 40
0.4279665871
 40
0.4939740104
 40
0.5621079882
 40
0.7036800049
 40
0.8504455134
 40
1.0
 40
1.0
 40
1.0
 40
1.0
 10
14.6766656296
 20
13.4048827723
 30
0.0
 10
14.6764763829
 20
13.4046596807
 30
0.0
 10
14.6761054146
 20
13.4041780477
 30
0.0
 10
14.6755894578
 20
13.403387072
 30
0.0
 10
14.6750964498
 20
13.4025054212
 30
0.0
 10
14.6746287716
 20
13.4015374631
 30
0.0
 10
14.6741886299
 20
13.4004878034
 30
0.0
 10
14.6737781693
 20
13.3993615451
 30
0.0
 10
14.6733994014
 20
13.3981641674
 30
0.0
 10
14.6730541905
 20
13.3969015211
 30
0.0
 10
14.6727442182
 20
13.3955797808
 30
0.0
 10
14.6723753145
 20
13.3937236329
 30
0.0
 10
14.6720156233
 20
13.3913021061
 30
0.0
 10
14.6717484665
 20
13.3883073865
 30
0.0
 10
14.6716803306
 20
13.3862737373
 30
0.0
 10
14.6716738162
 20
13.3852474036
 30
0.0
  0
SPLINE
  5
352
100
AcDbEntity
  8
LAYER_FEATURE
100
AcDbSpline
 62
7
  6
CONTINUOUS
 70
0
 71
3
 72
21
 73
17
 74
0
 42
0.0000001
 43
0.0000001
 44
0.0000000001
 40
0.0
 40
0.0
 40
0.0
 40
0.0
 40
0.0385769057
 40
0.0801472768
 40
0.1250125997
 40
0.1733693631
 40
0.2253067221
 40
0.2808331319
 40
0.3398925444
 40
0.4023736707
 40
0.4681202159
 40
0.5369387133
 40
0.6086032788
 40
0.682861639
 40
0.8380123034
 40
1.0
 40
1.0
 40
1.0
 40
1.0
 10
14.7475928797
 20
13.4659889893
 30
0.0
 10
14.7473907806
 20
13.4658652746
 30
0.0
 10
14.74698904
 20
13.4655778832
 30
0.0
 10
14.7464212936
 20
13.4650587144
 30
0.0
 10
14.7458698968
 20
13.4644393605
 30
0.0
 10
14.7453373318
 20
13.4637230189
 30
0.0
 10
14.7448258739
 20
13.4629130567
 30
0.0
 10
14.7443378879
 20
13.4620133533
 30
0.0
 10
14.7438756783
 20
13.4610282167
 30
0.0
 10
14.7434414653
 20
13.4599624012
 30
0.0
 10
14.7430373507
 20
13.4588210811
 30
0.0
 10
14.742665327
 20
13.457609816
 30
0.0
 10
14.7423272086
 20
13.4563345152
 30
0.0
 10
14.7419178955
 20
13.4545306898
 30
0.0
 10
14.7415059648
 20
13.4521603142
 30
0.0
 10
14.7412886154
 20
13.4502232119
 30
0.0
 10
14.7412052493
 20
13.4492317012
 30
0.0
  0
LINE
  5
353
100
AcDbEntity
  8
LAYER_FEATURE
100
AcDbLine
 62
7
  6
CONTINUOUS
 10
14.8142616544
 20
13.4771527868
 11
14.8138719245
 21
13.4736554027
  0
SPLINE
  5
354
100
AcDbEntity
  8
LAYER_FEATURE
100
AcDbSpline
 62
7
  6
CONTINUOUS
 70
0
 71
3
 72
22
 73
18
 74
0
 42
0.0000001
 43
0.0000001
 44
0.0000000001
 40
0.0
 40
0.0
 40
0.0
 40
0.0
 40
0.0380064019
 40
0.0775408501
 40
0.1194316353
 40
0.1643495816
 40
0.2127806896
 40
0.2650515782
 40
0.3213558337
 40
0.3817760675
 40
0.4463056194
 40
0.5148659125
 40
0.5873180553
 40
0.6634740523
 40
0.7431025467
 40
0.8259360012
 40
1.0
 40
1.0
 40
1.0
 40
1.0
 10
14.8217996288
 20
13.490388021
 30
0.0
 10
14.8215970439
 20
13.4903684175
 30
0.0
 10
14.8211865791
 20
13.4902905171
 30
0.0
 10
14.8205851454
 20
13.4900652197
 30
0.0
 10
14.8199933545
 20
13.4897323612
 30
0.0
 10
14.8194140438
 20
13.489294611
 30
0.0
 10
14.8188493976
 20
13.4887545831
 30
0.0
 10
14.8183017015
 20
13.4881150852
 30
0.0
 10
14.8177732679
 20
13.4873792198
 30
0.0
 10
14.8172664451
 20
13.486550501
 30
0.0
 10
14.816783564
 20
13.4856328902
 30
0.0
 10
14.8163269237
 20
13.4846307883
 30
0.0
 10
14.8158987219
 20
13.4835490321
 30
0.0
 10
14.8155010446
 20
13.4823928865
 30
0.0
 10
14.8151358276
 20
13.4811679773
 30
0.0
 10
14.8146872074
 20
13.4794222283
 30
0.0
 10
14.8144167958
 20
13.4780719299
 30
0.0
 10
14.8142616544
 20
13.4771527868
 30
0.0
  0
SPLINE
  5
355
100
AcDbEntity
  8
LAYER_FEATURE
100
AcDbSpline
 62
7
  6
CONTINUOUS
 70
0
 71
3
 72
39
 73
35
 74
0
 42
0.0000001
 43
0.0000001
 44
0.0000000001
 40
0.0
 40
0.0
 40
0.0
 40
0.0
 40
0.0431151641
 40
0.0855277556
 40
0.1272174794
 40
0.1681687462
 40
0.208366344
 40
0.2477956236
 40
0.2864435364
 40
0.3242983226
 40
0.3613495599
 40
0.397588375
 40
0.4330074455
 40
0.4676012263
 40
0.501365982
 40
0.5342999594
 40
0.5664035894
 40
0.5976795454
 40
0.6281330518
 40
0.6577719951
 40
0.6866071531
 40
0.7146524909
 40
0.7419252919
 40
0.7684465281
 40
0.7942410506
 40
0.8193378452
 40
0.8437703466
 40
0.8675765552
 40
0.8907993
 40
0.9134862995
 40
0.9356901667
 40
0.9574683657
 40
0.9788829057
 40
1.0
 40
1.0
 40
1.0
 40
1.0
 10
15.6394464808
 20
13.0158380857
 30
0.0
 10
15.6411161154
 20
13.0212410253
 30
0.0
 10
15.6445072865
 20
13.0319346224
 30
0.0
 10
15.6497949863
 20
13.0477613185
 30
0.0
 10
15.6552391444
 20
13.0632343989
 30
0.0
 10
15.6608360837
 20
13.0783434658
 30
0.0
 10
15.6665821383
 20
13.093078721
 30
0.0
 10
15.6724735673
 20
13.107430457
 30
0.0
 10
15.6785064576
 20
13.1213892212
 30
0.0
 10
15.6846768542
 20
13.1349458409
 30
0.0
 10
15.6909807129
 20
13.1480914046
 30
0.0
 10
15.6974138698
 20
13.1608172813
 30
0.0
 10
15.7039721338
 20
13.1731150995
 30
0.0
 10
15.7106511815
 20
13.1849767941
 30
0.0
 10
15.7174466472
 20
13.196394575
 30
0.0
 10
15.7243540987
 20
13.2073609416
 30
0.0
 10
15.7313689979
 20
13.217868713
 30
0.0
 10
15.7384868028
 20
13.2279109771
 30
0.0
 10
15.7457028588
 20
13.2374811579
 30
0.0
 10
15.7530124835
 20
13.2465729726
 30
0.0
 10
15.7604109574
 20
13.2551804359
 30
0.0
 10
15.7678934682
 20
13.2632979097
 30
0.0
 10
15.7754552221
 20
13.2709200188
 30
0.0
 10
15.7830913353
 20
13.2780417381
 30
0.0
 10
15.7907969045
 20
13.2846583388
 30
0.0
 10
15.7985670095
 20
13.2907653724
 30
0.0
 10
15.8063966412
 20
13.2963587514
 30
0.0
 10
15.8142808047
 20
13.3014346221
 30
0.0
 10
15.8222144109
 20
13.3059894797
 30
0.0
 10
15.8301923351
 20
13.3100201163
 30
0.0
 10
15.8382093599
 20
13.3135235757
 30
0.0
 10
15.8462603037
 20
13.316497334
 30
0.0
 10
15.8543393664
 20
13.3189389934
 30
0.0
 10
15.8597736423
 20
13.3202185412
 30
0.0
 10
15.8624886326
 20
13.3207665428
 30
0.0
  0
SPLINE
  5
356
100
AcDbEntity
  8
LAYER_FEATURE
100
AcDbSpline
 62
7
  6
CONTINUOUS
 70
0
 71
3
 72
104
 73
100
 74
0
 42
0.0000001
 43
0.0000001
 44
0.0000000001
 40
0.0
 40
0.0
 40
0.0
 40
0.0
 40
0.0178791339
 40
0.036226135
 40
0.0550140201
 40
0.0742139485
 40
0.0937956847
 40
0.1137276245
 40
0.1339769822
 40
0.154509919
 40
0.1752916775
 40
0.1962867086
 40
0.2174587948
 40
0.238771171
 40
0.2601866425
 40
0.2816677009
 40
0.3031766395
 40
0.3246756676
 40
0.3461270239
 40
0.3674930914
 40
0.3887365117
 40
0.4098203008
 40
0.4307079663
 40
0.4513636262
 40
0.471752131
 40
0.4918391887
 40
0.5115914951
 40
0.5309768687
 40
0.5499643939
 40
0.5685245735
 40
0.5866294911
 40
0.6042529884
 40
0.6213708605
 40
0.629733436
 40
0.6379615341
 40
0.6460527841
 40
0.6540049798
 40
0.6618160919
 40
0.6694842856
 40
0.6770079152
 40
0.6843855609
 40
0.6916160128
 40
0.6986983148
 40
0.7056317542
 40
0.7124158978
 40
0.7190506
 40
0.7255360227
 40
0.7318726674
 40
0.7380613784
 40
0.744103395
 40
0.7500003483
 40
0.7557543187
 40
0.7613678421
 40
0.7668439577
 40
0.7721862337
 40
0.7773987965
 40
0.7824863755
 40
0.787454314
 40
0.7923086197
 40
0.7970559634
 40
0.8017037149
 40
0.8062599336
 40
0.8107333716
 40
0.8151334516
 40
0.8194702265
 40
0.8237543334
 40
0.8279969116
 40
0.832209521
 40
0.8364040289
 40
0.8405924958
 40
0.8447870462
 40
0.8489997395
 40
0.853242443
 40
0.8575267147
 40
0.8618636923
 40
0.8662640117
 40
0.8707377222
 40
0.8752942466
 40
0.8799423314
 40
0.8846900371
 40
0.8895447278
 40
0.8945130744
 40
0.8996010809
 40
0.9048140884
 40
0.9101568257
 40
0.9156334142
 40
0.9212474245
 40
0.9270018889
 40
0.9328993466
 40
0.9389418721
 40
0.9451310981
 40
0.9514682612
 40
0.9579542039
 40
0.9645894291
 40
0.9713740932
 40
0.9783080548
 40
0.9853908744
 40
0.9926218432
 40
1.0
 40
1.0
 40
1.0
 40
1.0
 10
15.5852786691
 20
13.1262204803
 30
0.0
 10
15.5815927838
 20
13.114292951
 30
0.0
 10
15.5744468661
 20
13.0900250699
 30
0.0
 10
15.5645180981
 20
13.0529133143
 30
0.0
 10
15.5552561847
 20
13.0146799306
 30
0.0
 10
15.546680432
 20
12.9754042004
 30
0.0
 10
15.5388085897
 20
12.9351672407
 30
0.0
 10
15.5316569947
 20
12.8940522484
 30
0.0
 10
15.5252404794
 20
12.8521442428
 30
0.0
 10
15.5195723584
 20
12.8095299044
 30
0.0
 10
15.5146643937
 20
12.7662973883
 30
0.0
 10
15.5105267709
 20
12.722536141
 30
0.0
 10
15.5071680761
 20
12.6783367124
 30
0.0
 10
15.5045952797
 20
12.6337905665
 30
0.0
 10
15.5028137212
 20
12.5889898902
 30
0.0
 10
15.5018270982
 20
12.544027401
 30
0.0
 10
15.5016374586
 20
12.4989961536
 30
0.0
 10
15.5022451963
 20
12.453989346
 30
0.0
 10
15.5036490504
 20
12.4091001256
 30
0.0
 10
15.5058461079
 20
12.3644213947
 30
0.0
 10
15.5088318084
 20
12.3200456168
 30
0.0
 10
15.5125999545
 20
12.2760646233
 30
0.0
 10
15.5171427255
 20
12.232569422
 30
0.0
 10
15.5224506935
 20
12.1896500073
 30
0.0
 10
15.5285128438
 20
12.1473951716
 30
0.0
 10
15.5353165979
 20
12.1058923199
 30
0.0
 10
15.5428478409
 20
12.0652272853
 30
0.0
 10
15.5510909511
 20
12.025484151
 30
0.0
 10
15.5600288362
 20
11.9867450643
 30
0.0
 10
15.5696429638
 20
11.9490900907
 30
0.0
 10
15.5799134247
 20
11.9125969393
 30
0.0
 10
15.5908189082
 20
11.8773411745
 30
0.0
 10
15.6004908389
 20
11.8488357818
 30
0.0
 10
15.6085375007
 20
11.8267163096
 30
0.0
 10
15.6146700116
 20
11.8106094916
 30
0.0
 10
15.6209435906
 20
11.79486514
 30
0.0
 10
15.6273550231
 20
11.7794913659
 30
0.0
 10
15.6339009964
 20
11.7644961274
 30
0.0
 10
15.6405781072
 20
11.7498871657
 30
0.0
 10
15.6473829377
 20
11.7356720416
 30
0.0
 10
15.6543119353
 20
11.7218580852
 30
0.0
 10
15.6613615639
 20
11.7084524474
 30
0.0
 10
15.6685281512
 20
11.6954620367
 30
0.0
 10
15.6758080307
 20
11.6828935716
 30
0.0
 10
15.6831974386
 20
11.670753534
 30
0.0
 10
15.6906925728
 20
11.659048189
 30
0.0
 10
15.6982895961
 20
11.6477835858
 30
0.0
 10
15.7059845801
 20
11.6369655212
 30
0.0
 10
15.713773618
 20
11.6265996009
 30
0.0
 10
15.7216526788
 20
11.6166911488
 30
0.0
 10
15.7296177776
 20
11.6072453099
 30
0.0
 10
15.7376648137
 20
11.5982669413
 30
0.0
 10
15.7457897121
 20
11.5897607073
 30
0.0
 10
15.7539883303
 20
11.5817310111
 30
0.0
 10
15.7622564996
 20
11.5741820213
 30
0.0
 10
15.7705900464
 20
11.567117697
 30
0.0
 10
15.7789847166
 20
11.5605417093
 30
0.0
 10
15.787436296
 20
11.5544575738
 30
0.0
 10
15.79594046
 20
11.5488684788
 30
0.0
 10
15.8044929257
 20
11.543777479
 30
0.0
 10
15.8130893079
 20
11.5391873073
 30
0.0
 10
15.8217252224
 20
11.535100527
 30
0.0
 10
15.830396214
 20
11.5315194306
 30
0.0
 10
15.8390977732
 20
11.5284460538
 30
0.0
 10
15.8478253504
 20
11.5258822314
 30
0.0
 10
15.8565743059
 20
11.5238294341
 30
0.0
 10
15.8653399759
 20
11.5222889784
 30
0.0
 10
15.8741176131
 20
11.521261742
 30
0.0
 10
15.8829024523
 20
11.5207484325
 30
0.0
 10
15.8916896869
 20
11.5207493238
 30
0.0
 10
15.9004745086
 20
11.5212644418
 30
0.0
 10
15.9092521134
 20
11.5222934615
 30
0.0
 10
15.9180177322
 20
11.5238357148
 30
0.0
 10
15.9267666214
 20
11.5258902971
 30
0.0
 10
15.935494117
 20
11.5284558985
 30
0.0
 10
15.9441955744
 20
11.5315310589
 30
0.0
 10
15.9528664559
 20
11.5351139154
 30
0.0
 10
15.9615022343
 20
11.5392024689
 30
0.0
 10
15.9700984768
 20
11.5437943839
 30
0.0
 10
15.9786507756
 20
11.5488871373
 30
0.0
 10
15.987154768
 20
11.5544779599
 30
0.0
 10
15.9956061536
 20
11.5605638223
 30
0.0
 10
16.0040006177
 20
11.5671415213
 30
0.0
 10
16.0123339465
 20
11.5742075417
 30
0.0
 10
16.0206018748
 20
11.5817582224
 30
0.0
 10
16.0288002497
 20
11.5897895842
 30
0.0
 10
16.0369248755
 20
11.5982974814
 30
0.0
 10
16.0449716402
 20
11.6072774851
 30
0.0
 10
16.052936439
 20
11.6167249531
 30
0.0
 10
16.060815197
 20
11.6266350087
 30
0.0
 10
16.0686039115
 20
11.6370025186
 30
0.0
 10
16.0762985591
 20
11.6478221528
 30
0.0
 10
16.0838952373
 20
11.6590883035
 30
0.0
 10
16.0913900029
 20
11.6707951801
 30
0.0
 10
16.0987790423
 20
11.6829367223
 30
0.0
 10
16.1060585238
 20
11.6955066735
 30
0.0
 10
16.113224721
 20
11.708498553
 30
0.0
 10
16.1202739097
 20
11.7219055938
 30
0.0
 10
16.1248471839
 20
11.7310245635
 30
0.0
 10
16.1271145262
 20
11.7356505749
 30
0.0
  0
SPLINE
  5
357
100
AcDbEntity
  8
LAYER_FEATURE
100
AcDbSpline
 62
7
  6
CONTINUOUS
 70
0
 71
3
 72
76
 73
72
 74
0
 42
0.0000001
 43
0.0000001
 44
0.0000000001
 40
0.0
 40
0.0
 40
0.0
 40
0.0
 40
0.0163579391
 40
0.0330507417
 40
0.0500637526
 40
0.0673820244
 40
0.084989678
 40
0.1028703208
 40
0.1210069567
 40
0.139382079
 40
0.1579777035
 40
0.1767754153
 40
0.1957564115
 40
0.2149015424
 40
0.2341913517
 40
0.2536061156
 40
0.2731258815
 40
0.2927305059
 40
0.3123996917
 40
0.332113026
 40
0.3518500167
 40
0.3715901299
 40
0.3913128258
 40
0.4109975959
 40
0.4306239992
 40
0.4501716995
 40
0.4696205027
 40
0.488950394
 40
0.5081415762
 40
0.5271745075
 40
0.5460299407
 40
0.5646889633
 40
0.583133038
 40
0.6013440452
 40
0.619304327
 40
0.6369967322
 40
0.6544046631
 40
0.6715121251
 40
0.6883037798
 40
0.7047650006
 40
0.7208819329
 40
0.7366415605
 40
0.7520317762
 40
0.7670414586
 40
0.7816605585
 40
0.7958801945
 40
0.8096927595
 40
0.8230920417
 40
0.8360733608
 40
0.8486337234
 40
0.8607719972
 40
0.8724891095
 40
0.8837882721
 40
0.8946752333
 40
0.9051585595
 40
0.9152499414
 40
0.9249645215
 40
0.9343212298
 40
0.9433431047
 40
0.9520575728
 40
0.9604966435
 40
0.964624963
 40
0.9686985664
 40
0.9727227343
 40
0.9767030087
 40
0.9806451665
 40
0.9845552067
 40
0.9884393115
 40
0.9923038238
 40
0.996155205
 40
1.0
 40
1.0
 40
1.0
 40
1.0
 10
15.5903081556
 20
13.1728196091
 30
0.0
 10
15.5872664268
 20
13.1629765711
 30
0.0
 10
15.5813243135
 20
13.1430255173
 30
0.0
 10
15.5729129061
 20
13.1126359311
 30
0.0
 10
15.564920693
 20
13.0815085509
 30
0.0
 10
15.5573575189
 20
13.0496817645
 30
0.0
 10
15.5502326553
 20
13.017194422
 30
0.0
 10
15.5435548464
 20
12.9840863724
 30
0.0
 10
15.5373322917
 20
12.9503981608
 30
0.0
 10
15.5315726305
 20
12.9161710718
 30
0.0
 10
15.526282935
 20
12.8814470487
 30
0.0
 10
15.5214696991
 20
12.8462686496
 30
0.0
 10
15.5171388324
 20
12.8106789927
 30
0.0
 10
15.513295653
 20
12.7747217023
 30
0.0
 10
15.5099448802
 20
12.7384408559
 30
0.0
 10
15.5070906292
 20
12.7018809292
 30
0.0
 10
15.504736406
 20
12.6650867416
 30
0.0
 10
15.5028851027
 20
12.6281034016
 30
0.0
 10
15.5015389928
 20
12.5909762505
 30
0.0
 10
15.5006997282
 20
12.5537508071
 30
0.0
 10
15.5003683392
 20
12.5164727109
 30
0.0
 10
15.5005452327
 20
12.4791876658
 30
0.0
 10
15.5012301914
 20
12.4419413845
 30
0.0
 10
15.5024223746
 20
12.4047795321
 30
0.0
 10
15.5041203188
 20
12.3677476699
 30
0.0
 10
15.5063219399
 20
12.3308911992
 30
0.0
 10
15.509024533
 20
12.2942553051
 30
0.0
 10
15.5122247784
 20
12.2578849007
 30
0.0
 10
15.5159187456
 20
12.2218245721
 30
0.0
 10
15.5201018982
 20
12.1861185236
 30
0.0
 10
15.5247690995
 20
12.1508105228
 30
0.0
 10
15.529914619
 20
12.1159438476
 30
0.0
 10
15.5355321396
 20
12.0815612317
 30
0.0
 10
15.5416147644
 20
12.047704812
 30
0.0
 10
15.5481550247
 20
12.0144160751
 30
0.0
 10
15.5551448911
 20
11.9817358073
 30
0.0
 10
15.562575784
 20
11.9497040436
 30
0.0
 10
15.5704385842
 20
11.9183600184
 30
0.0
 10
15.5787236445
 20
11.8877421168
 30
0.0
 10
15.5874208029
 20
11.8578878265
 30
0.0
 10
15.5965193958
 20
11.8288336907
 30
0.0
 10
15.6060082709
 20
11.800615261
 30
0.0
 10
15.6158758026
 20
11.7732670523
 30
0.0
 10
15.6261099108
 20
11.7468225011
 30
0.0
 10
15.6366980769
 20
11.721313923
 30
0.0
 10
15.6476273634
 20
11.6967724726
 30
0.0
 10
15.6588844341
 20
11.6732281045
 30
0.0
 10
15.6704555755
 20
11.6507095364
 30
0.0
 10
15.6823267217
 20
11.6292442134
 30
0.0
 10
15.6944834765
 20
11.6088582748
 30
0.0
 10
15.7069111445
 20
11.5895765272
 30
0.0
 10
15.7195947604
 20
11.5714224229
 30
0.0
 10
15.7325191205
 20
11.5544180426
 30
0.0
 10
15.7456688142
 20
11.5385840872
 30
0.0
 10
15.7590282566
 20
11.5239398775
 30
0.0
 10
15.7725817082
 20
11.5105033705
 30
0.0
 10
15.7863133156
 20
11.4982911735
 30
0.0
 10
15.8002070196
 20
11.4873186142
 30
0.0
 10
15.8142468474
 20
11.4775996686
 30
0.0
 10
15.82841573
 20
11.4691474295
 30
0.0
 10
15.8404053193
 20
11.4631249323
 30
0.0
 10
15.8500302636
 20
11.4589715389
 30
0.0
 10
15.857217176
 20
11.456201722
 30
0.0
 10
15.8644222027
 20
11.4537556341
 30
0.0
 10
15.8716432028
 20
11.4516339814
 30
0.0
 10
15.8788779227
 20
11.4498375503
 30
0.0
 10
15.8861240954
 20
11.4483668716
 30
0.0
 10
15.8933794477
 20
11.4472225142
 30
0.0
 10
15.9006417369
 20
11.4464048166
 30
0.0
 10
15.9079084809
 20
11.4459140888
 30
0.0
 10
15.9127562738
 20
11.4458050012
 30
0.0
 10
15.9151777435
 20
11.4458049989
 30
0.0
  0
SPLINE
  5
358
100
AcDbEntity
  8
LAYER_FEATURE
100
AcDbSpline
 62
7
  6
CONTINUOUS
 70
0
 71
3
 72
23
 73
19
 74
0
 42
0.0000001
 43
0.0000001
 44
0.0000000001
 40
0.0
 40
0.0
 40
0.0
 40
0.0
 40
0.0893112458
 40
0.1758262165
 40
0.2592011886
 40
0.3391606803
 40
0.415446821
 40
0.4878417063
 40
0.5561753882
 40
0.6203327614
 40
0.6802662685
 40
0.7360094448
 40
0.787696708
 40
0.8355875424
 40
0.8800901697
 40
0.9217864263
 40
0.9614494922
 40
1.0
 40
1.0
 40
1.0
 40
1.0
 10
14.8266329606
 20
11.5434038838
 30
0.0
 10
14.8267175223
 20
11.5429448382
 30
0.0
 10
14.8268984187
 20
11.5420436924
 30
0.0
 10
14.827210415
 20
11.5407251628
 30
0.0
 10
14.8275576027
 20
11.5394660402
 30
0.0
 10
14.8279382255
 20
11.5382725744
 30
0.0
 10
14.8283504305
 20
11.537150535
 30
0.0
 10
14.8287921966
 20
11.5361053958
 30
0.0
 10
14.8292613859
 20
11.5351422263
 30
0.0
 10
14.8297557548
 20
11.5342656641
 30
0.0
 10
14.830272975
 20
11.5334798995
 30
0.0
 10
14.8308107058
 20
11.5327886846
 30
0.0
 10
14.8313666112
 20
11.532195337
 30
0.0
 10
14.8319384051
 20
11.5317027998
 30
0.0
 10
14.8325238101
 20
11.5313137835
 30
0.0
 10
14.8331205565
 20
11.53103088
 30
0.0
 10
14.8337255379
 20
11.5308566884
 30
0.0
 10
14.8341347063
 20
11.5308141242
 30
0.0
 10
14.8343361683
 20
11.5308116353
 30
0.0
  0
LINE
  5
359
100
AcDbEntity
  8
LAYER_FEATURE
100
AcDbLine
 62
7
  6
CONTINUOUS
 10
14.769427998
 20
11.5444677595
 11
14.7707817821
 21
11.5441913518
  0
SPLINE
  5
35A
100
AcDbEntity
  8
LAYER_FEATURE
100
AcDbSpline
 62
7
  6
CONTINUOUS
 70
0
 71
3
 72
21
 73
17
 74
0
 42
0.0000001
 43
0.0000001
 44
0.0000000001
 40
0.0
 40
0.0
 40
0.0
 40
0.0
 40
0.1641250006
 40
0.2435077274
 40
0.3206831228
 40
0.3953565409
 40
0.4672556035
 40
0.5361349063
 40
0.6017782307
 40
0.6640051144
 40
0.722676314
 40
0.7777026951
 40
0.8290568171
 40
0.8767839612
 40
0.9210204301
 40
1.0
 40
1.0
 40
1.0
 40
1.0
 10
14.7532588221
 20
11.5651474467
 30
0.0
 10
14.7533546314
 20
11.564165502
 30
0.0
 10
14.753537818
 20
11.562712038
 30
0.0
 10
14.7538683225
 20
11.5608126092
 30
0.0
 10
14.7541512906
 20
11.5594514254
 30
0.0
 10
14.7544706521
 20
11.5581445769
 30
0.0
 10
14.7548248386
 20
11.5568984611
 30
0.0
 10
14.7552121055
 20
11.5557191874
 30
0.0
 10
14.7556305517
 20
11.5546125075
 30
0.0
 10
14.7560781276
 20
11.5535837978
 30
0.0
 10
14.7565526642
 20
11.5526380506
 30
0.0
 10
14.7570519398
 20
11.5517797853
 30
0.0
 10
14.7575734888
 20
11.5510132065
 30
0.0
 10
14.7581153954
 20
11.5503416247
 30
0.0
 10
14.7588333993
 20
11.5496059853
 30
0.0
 10
14.7594367644
 20
11.5491582554
 30
0.0
 10
14.7598573597
 20
11.5489380112
 30
0.0
  0
SPLINE
  5
35B
100
AcDbEntity
  8
LAYER_FEATURE
100
AcDbSpline
 62
7
  6
CONTINUOUS
 70
0
 71
3
 72
13
 73
9
 74
0
 42
0.0000001
 43
0.0000001
 44
0.0000000001
 40
0.0
 40
0.0
 40
0.0
 40
0.0
 40
0.2793048326
 40
0.5344908042
 40
0.6550282666
 40
0.7720468926
 40
0.8866424663
 40
1.0
 40
1.0
 40
1.0
 40
1.0
 10
14.6972338613
 20
11.5948493521
 30
0.0
 10
14.6974603164
 20
11.5946337566
 30
0.0
 10
14.6979210536
 20
11.5942482302
 30
0.0
 10
14.6985565078
 20
11.5938737251
 30
0.0
 10
14.69906875
 20
11.5936667614
 30
0.0
 10
14.6994483608
 20
11.593557604
 30
0.0
 10
14.6998296917
 20
11.5934919413
 30
0.0
 10
14.7000851127
 20
11.5934773193
 30
0.0
 10
14.7002120121
 20
11.5934773197
 30
0.0
  0
SPLINE
  5
35C
100
AcDbEntity
  8
LAYER_FEATURE
100
AcDbSpline
 62
7
  6
CONTINUOUS
 70
0
 71
3
 72
20
 73
16
 74
0
 42
0.0000001
 43
0.0000001
 44
0.0000000001
 40
0.0
 40
0.0
 40
0.0
 40
0.0
 40
0.1515846562
 40
0.2997509459
 40
0.4420850685
 40
0.5103640475
 40
0.576363446
 40
0.6398462612
 40
0.7005984328
 40
0.758433376
 40
0.8131980312
 40
0.8647764252
 40
0.9130984359
 40
0.9581580889
 40
1.0
 40
1.0
 40
1.0
 40
1.0
 10
14.6829464436
 20
11.6232320988
 30
0.0
 10
14.6829660445
 20
11.6222088797
 30
0.0
 10
14.6830597511
 20
11.6201860851
 30
0.0
 10
14.6833647262
 20
11.6172155122
 30
0.0
 10
14.6837552786
 20
11.6148231389
 30
0.0
 10
14.6841480896
 20
11.6129970761
 30
0.0
 10
14.6844747499
 20
11.6117021769
 30
0.0
 10
14.6848358723
 20
11.6104693017
 30
0.0
 10
14.6852297
 20
11.6093044737
 30
0.0
 10
14.6856542987
 20
11.6082133768
 30
0.0
 10
14.6861075946
 20
11.607201308
 30
0.0
 10
14.6865873898
 20
11.6062731763
 30
0.0
 10
14.6870914428
 20
11.6054333814
 30
0.0
 10
14.6876173373
 20
11.6046860861
 30
0.0
 10
14.6879946316
 20
11.6042355147
 30
0.0
 10
14.688186733
 20
11.6040283959
 30
0.0
  0
SPLINE
  5
35D
100
AcDbEntity
  8
LAYER_FEATURE
100
AcDbSpline
 62
7
  6
CONTINUOUS
 70
0
 71
3
 72
11
 73
7
 74
0
 42
0.0000001
 43
0.0000001
 44
0.0000000001
 40
0.0
 40
0.0
 40
0.0
 40
0.0
 40
0.2535752384
 40
0.5060513913
 40
0.755494477
 40
1.0
 40
1.0
 40
1.0
 40
1.0
 10
14.6845188149
 20
11.6538381106
 30
0.0
 10
14.6845512104
 20
11.6558158118
 30
0.0
 10
14.68454253
 20
11.6597642294
 30
0.0
 10
14.6843107589
 20
11.6656540923
 30
0.0
 10
14.6838624149
 20
11.671460514
 30
0.0
 10
14.6834162497
 20
11.6752887715
 30
0.0
 10
14.6831562808
 20
11.6771781905
 30
0.0
  0
SPLINE
  5
35E
100
AcDbEntity
  8
LAYER_FEATURE
100
AcDbSpline
 62
7
  6
CONTINUOUS
 70
0
 71
3
 72
15
 73
11
 74
0
 42
0.0000001
 43
0.0000001
 44
0.0000000001
 40
0.0
 40
0.0
 40
0.0
 40
0.0
 40
0.1570751345
 40
0.3032895587
 40
0.4389950455
 40
0.5649392388
 40
0.6822324661
 40
0.7924278087
 40
0.8975436387
 40
1.0
 40
1.0
 40
1.0
 40
1.0
 10
14.6302544925
 20
11.6804306063
 30
0.0
 10
14.6304164225
 20
11.6801748695
 30
0.0
 10
14.6307458197
 20
11.6796913214
 30
0.0
 10
14.6312769365
 20
11.6790315718
 30
0.0
 10
14.631825165
 20
11.6784665448
 30
0.0
 10
14.6323882609
 20
11.6779990391
 30
0.0
 10
14.6329640825
 20
11.6776315284
 30
0.0
 10
14.6335504132
 20
11.6773664536
 30
0.0
 10
14.6341442617
 20
11.6772061631
 30
0.0
 10
14.6345451224
 20
11.6771702213
 30
0.0
 10
14.6347425614
 20
11.6771702235
 30
0.0
  0
SPLINE
  5
35F
100
AcDbEntity
  8
LAYER_FEATURE
100
AcDbSpline
 62
7
  6
CONTINUOUS
 70
0
 71
3
 72
19
 73
15
 74
0
 42
0.0000001
 43
0.0000001
 44
0.0000000001
 40
0.0
 40
0.0
 40
0.0
 40
0.0
 40
0.1398557158
 40
0.2798186935
 40
0.4175597117
 40
0.5508049038
 40
0.6150755892
 40
0.677437069
 40
0.7376562456
 40
0.7955198927
 40
0.8508354784
 40
0.9034361224
 40
0.9531946288
 40
1.0
 40
1.0
 40
1.0
 40
1.0
 10
14.6183978905
 20
11.7154256795
 30
0.0
 10
14.6183386887
 20
11.7144003471
 30
0.0
 10
14.6182775037
 20
11.712345171
 30
0.0
 10
14.6183529125
 20
11.7092782599
 30
0.0
 10
14.618593428
 20
11.7062684691
 30
0.0
 10
14.6189313486
 20
11.7038281116
 30
0.0
 10
14.6192833236
 20
11.7019521236
 30
0.0
 10
14.6195814198
 20
11.700612452
 30
0.0
 10
14.6199152851
 20
11.699329786
 30
0.0
 10
14.6202832783
 20
11.6981103988
 30
0.0
 10
14.6206835804
 20
11.6969602693
 30
0.0
 10
14.6211142496
 20
11.6958849463
 30
0.0
 10
14.6215731653
 20
11.69488977
 30
0.0
 10
14.6219068184
 20
11.6942634391
 30
0.0
 10
14.6220785502
 20
11.6939656966
 30
0.0
  0
SPLINE
  5
360
100
AcDbEntity
  8
LAYER_FEATURE
100
AcDbSpline
 62
7
  6
CONTINUOUS
 70
0
 71
3
 72
15
 73
11
 74
0
 42
0.0000001
 43
0.0000001
 44
0.0000000001
 40
0.0
 40
0.0
 40
0.0
 40
0.0
 40
0.1241753575
 40
0.2495963605
 40
0.3757555124
 40
0.5021519673
 40
0.6282770686
 40
0.7536240825
 40
0.8776977039
 40
1.0
 40
1.0
 40
1.0
 40
1.0
 10
14.6222652413
 20
11.7446558807
 30
0.0
 10
14.6223972621
 20
11.7460509726
 30
0.0
 10
14.6226230018
 20
11.748859049
 30
0.0
 10
14.6228468752
 20
11.7530940485
 30
0.0
 10
14.6229570666
 20
11.7573586287
 30
0.0
 10
14.6229530772
 20
11.7616325646
 30
0.0
 10
14.6228349012
 20
11.7658957029
 30
0.0
 10
14.6226031242
 20
11.7701279426
 30
0.0
 10
14.6222588256
 20
11.7743092112
 30
0.0
 10
14.6219527807
 20
11.7770731329
 30
0.0
 10
14.6217807811
 20
11.7784425607
 30
0.0
  0
SPLINE
  5
361
100
AcDbEntity
  8
LAYER_FEATURE
100
AcDbSpline
 62
7
  6
CONTINUOUS
 70
0
 71
3
 72
11
 73
7
 74
0
 42
0.0000001
 43
0.0000001
 44
0.0000000001
 40
0.0
 40
0.0
 40
0.0
 40
0.0
 40
0.2597685192
 40
0.5136681466
 40
0.7607082903
 40
1.0
 40
1.0
 40
1.0
 40
1.0
 10
14.6217807811
 20
11.7784425607
 30
0.0
 10
14.621631001
 20
11.7796350814
 30
0.0
 10
14.6213007353
 20
11.7819890623
 30
0.0
 10
14.6207059631
 20
11.785458631
 30
0.0
 10
14.6200196267
 20
11.7888146362
 30
0.0
 10
14.6194942448
 20
11.7910031542
 30
0.0
 10
14.6192159554
 20
11.7920747571
 30
0.0
  0
SPLINE
  5
362
100
AcDbEntity
  8
LAYER_FEATURE
100
AcDbSpline
 62
7
  6
CONTINUOUS
 70
0
 71
3
 72
18
 73
14
 74
0
 42
0.0000001
 43
0.0000001
 44
0.0000000001
 40
0.0
 40
0.0
 40
0.0
 40
0.0
 40
0.167528828
 40
0.321846517
 40
0.4627190238
 40
0.5904018622
 40
0.6495771654
 40
0.7058451575
 40
0.8105613037
 40
0.8597855828
 40
0.9074341831
 40
0.9539951966
 40
1.0
 40
1.0
 40
1.0
 40
1.0
 10
14.5710638711
 20
11.7979226826
 30
0.0
 10
14.5712523013
 20
11.7974739499
 30
0.0
 10
14.571642039
 20
11.7966230407
 30
0.0
 10
14.5722954053
 20
11.7954464641
 30
0.0
 10
14.5729890321
 20
11.7944301555
 30
0.0
 10
14.5736114466
 20
11.7937060967
 30
0.0
 10
14.5741259576
 20
11.7932212418
 30
0.0
 10
14.5746236417
 20
11.7928189486
 30
0.0
 10
14.5751456
 20
11.7924939768
 30
0.0
 10
14.5756852424
 20
11.7922640437
 30
0.0
 10
14.5760848833
 20
11.7921429151
 30
0.0
 10
14.576486546
 20
11.7920700387
 30
0.0
 10
14.576755735
 20
11.7920537924
 30
0.0
 10
14.576889384
 20
11.7920537945
 30
0.0
  0
SPLINE
  5
363
100
AcDbEntity
  8
LAYER_FEATURE
100
AcDbSpline
 62
7
  6
CONTINUOUS
 70
0
 71
3
 72
17
 73
13
 74
0
 42
0.0000001
 43
0.0000001
 44
0.0000000001
 40
0.0
 40
0.0
 40
0.0
 40
0.0
 40
0.1290104816
 40
0.2612043442
 40
0.3943908938
 40
0.5263420644
 40
0.6548683648
 40
0.7778816579
 40
0.8367222796
 40
0.8934830497
 40
0.9479729978
 40
1.0
 40
1.0
 40
1.0
 40
1.0
 10
14.5620937273
 20
11.8381852411
 30
0.0
 10
14.5619561242
 20
11.8371974781
 30
0.0
 10
14.5617387899
 20
11.8351886287
 30
0.0
 10
14.5615817003
 20
11.8321424272
 30
0.0
 10
14.5615908856
 20
11.8290693778
 30
0.0
 10
14.5617661904
 20
11.8260296815
 30
0.0
 10
14.5621040906
 20
11.8230828516
 30
0.0
 10
14.5625214585
 20
11.8207182142
 30
0.0
 10
14.5629349571
 20
11.8189202341
 30
0.0
 10
14.5632759823
 20
11.8176500194
 30
0.0
 10
14.5636507664
 20
11.8164444062
 30
0.0
 10
14.5639285832
 20
11.8156689196
 30
0.0
 10
14.5640733117
 20
11.8152936734
 30
0.0
  0
LINE
  5
364
100
AcDbEntity
  8
LAYER_FEATURE
100
AcDbLine
 62
7
  6
CONTINUOUS
 10
14.5624958582
 20
11.8404262923
 11
14.5620937273
 21
11.8381852411
  0
SPLINE
  5
365
100
AcDbEntity
  8
LAYER_FEATURE
100
AcDbSpline
 62
7
  6
CONTINUOUS
 70
0
 71
3
 72
15
 73
11
 74
0
 42
0.0000001
 43
0.0000001
 44
0.0000000001
 40
0.0
 40
0.0
 40
0.0
 40
0.0
 40
0.1191763129
 40
0.2409928184
 40
0.3649721316
 40
0.4906323873
 40
0.6174739973
 40
0.7449888942
 40
0.8726707604
 40
1.0
 40
1.0
 40
1.0
 40
1.0
 10
14.5681074375
 20
11.8649163315
 30
0.0
 10
14.5683443402
 20
11.8662263912
 30
0.0
 10
14.5687811913
 20
11.8688833301
 30
0.0
 10
14.5693218103
 20
11.872924955
 30
0.0
 10
14.569753199
 20
11.8770525396
 30
0.0
 10
14.5700733251
 20
11.8812465081
 30
0.0
 10
14.5702806445
 20
11.8854870935
 30
0.0
 10
14.5703741982
 20
11.8897543012
 30
0.0
 10
14.5703535125
 20
11.8940278972
 30
0.0
 10
14.5702633983
 20
11.8968755845
 30
0.0
 10
14.5701991193
 20
11.8982965143
 30
0.0
  0
SPLINE
  5
366
100
AcDbEntity
  8
LAYER_FEATURE
100
AcDbSpline
 62
7
  6
CONTINUOUS
 70
0
 71
3
 72
15
 73
11
 74
0
 42
0.0000001
 43
0.0000001
 44
0.0000000001
 40
0.0
 40
0.0
 40
0.0
 40
0.0
 40
0.1395434865
 40
0.2767732303
 40
0.4106999228
 40
0.5403723487
 40
0.6649019686
 40
0.7834752922
 40
0.8953744589
 40
1.0
 40
1.0
 40
1.0
 40
1.0
 10
14.5701991193
 20
11.8982965143
 30
0.0
 10
14.5701226203
 20
11.8999875771
 30
0.0
 10
14.5699096481
 20
11.9033392445
 30
0.0
 10
14.5694067529
 20
11.9082971417
 30
0.0
 10
14.5687267315
 20
11.9131131198
 30
0.0
 10
14.567875536
 20
11.9177453692
 30
0.0
 10
14.5668606536
 20
11.9221537796
 30
0.0
 10
14.5656909218
 20
11.9263003867
 30
0.0
 10
14.5643766373
 20
11.9301492749
 30
0.0
 10
14.563376384
 20
11.9325804989
 30
0.0
 10
14.5628507474
 20
11.9337357425
 30
0.0
  0
SPLINE
  5
367
100
AcDbEntity
  8
LAYER_FEATURE
100
AcDbSpline
 62
7
  6
CONTINUOUS
 70
0
 71
3
 72
23
 73
19
 74
0
 42
0.0000001
 43
0.0000001
 44
0.0000000001
 40
0.0
 40
0.0
 40
0.0
 40
0.0
 40
0.0884714029
 40
0.1737346683
 40
0.2555709332
 40
0.3338320912
 40
0.4083955551
 40
0.4791649593
 40
0.546090264
 40
0.6091694863
 40
0.6684602086
 40
0.7240880964
 40
0.7762623791
 40
0.8252896735
 40
0.8715858882
 40
0.9156872513
 40
0.9582439142
 40
1.0
 40
1.0
 40
1.0
 40
1.0
 10
14.5219366595
 20
11.9428104262
 30
0.0
 10
14.5220337708
 20
11.9424660294
 30
0.0
 10
14.5222352626
 20
11.9417926996
 30
0.0
 10
14.5225658445
 20
11.9408130931
 30
0.0
 10
14.5229183297
 20
11.9398851582
 30
0.0
 10
14.5232914519
 20
11.939012169
 30
0.0
 10
14.5236839282
 20
11.9381970679
 30
0.0
 10
14.5240944528
 20
11.9374426543
 30
0.0
 10
14.5245216065
 20
11.9367514989
 30
0.0
 10
14.5249640027
 20
11.9361259655
 30
0.0
 10
14.525420177
 20
11.9355681622
 30
0.0
 10
14.5258887083
 20
11.9350800107
 30
0.0
 10
14.52636816
 20
11.9346632298
 30
0.0
 10
14.5268570917
 20
11.9343193593
 30
0.0
 10
14.5273540448
 20
11.9340498775
 30
0.0
 10
14.5278574462
 20
11.9338560916
 30
0.0
 10
14.5283653117
 20
11.9337392581
 30
0.0
 10
14.5287068611
 20
11.9337131199
 30
0.0
 10
14.5288757453
 20
11.9337131207
 30
0.0
  0
SPLINE
  5
368
100
AcDbEntity
  8
LAYER_FEATURE
100
AcDbSpline
 62
7
  6
CONTINUOUS
 70
0
 71
3
 72
15
 73
11
 74
0
 42
0.0000001
 43
0.0000001
 44
0.0000000001
 40
0.0
 40
0.0
 40
0.0
 40
0.0
 40
0.1187514168
 40
0.2434668315
 40
0.3721448504
 40
0.5026572919
 40
0.6328249251
 40
0.760478453
 40
0.8835200223
 40
1.0
 40
1.0
 40
1.0
 40
1.0
 10
14.5161976915
 20
11.9867932026
 30
0.0
 10
14.5159849902
 20
11.9858817851
 30
0.0
 10
14.5156162394
 20
11.9839970235
 30
0.0
 10
14.5152328029
 20
11.9810876168
 30
0.0
 10
14.5150103054
 20
11.9780685342
 30
0.0
 10
14.5149532637
 20
11.9749989296
 30
0.0
 10
14.5150627929
 20
11.9719388185
 30
0.0
 10
14.515336725
 20
11.9689480101
 30
0.0
 10
14.5157695072
 20
11.966085082
 30
0.0
 10
14.5161712074
 20
11.9642387661
 30
0.0
 10
14.5164001263
 20
11.9633497601
 30
0.0
  0
LINE
  5
369
100
AcDbEntity
  8
LAYER_FEATURE
100
AcDbLine
 62
7
  6
CONTINUOUS
 10
14.5167623522
 20
11.9887897335
 11
14.5161976915
 21
11.9867932026
  0
LINE
  5
36A
100
AcDbEntity
  8
LAYER_FEATURE
100
AcDbLine
 62
7
  6
CONTINUOUS
 10
14.5214088479
 20
12.0017418192
 11
14.5241266577
 21
12.0099979214
  0
SPLINE
  5
36B
100
AcDbEntity
  8
LAYER_FEATURE
100
AcDbSpline
 62
7
  6
CONTINUOUS
 70
0
 71
3
 72
15
 73
11
 74
0
 42
0.0000001
 43
0.0000001
 44
0.0000000001
 40
0.0
 40
0.0
 40
0.0
 40
0.0
 40
0.1140712564
 40
0.2321731565
 40
0.3538784221
 40
0.4787414258
 40
0.6062868612
 40
0.7360190103
 40
0.8674331678
 40
1.0
 40
1.0
 40
1.0
 40
1.0
 10
14.5241266577
 20
12.0099979214
 30
0.0
 10
14.5244607184
 20
12.0111717946
 30
0.0
 10
14.5250945171
 20
12.0135743508
 30
0.0
 10
14.5259310225
 20
12.0172677391
 30
0.0
 10
14.5266669608
 20
12.0211001098
 30
0.0
 10
14.5272988457
 20
12.0250532944
 30
0.0
 10
14.5278236569
 20
12.0291086908
 30
0.0
 10
14.5282389299
 20
12.0332471925
 30
0.0
 10
14.5285426557
 20
12.0374491878
 30
0.0
 10
14.5286694497
 20
12.0402711572
 30
0.0
 10
14.5287140993
 20
12.0416888251
 30
0.0
  0
SPLINE
  5
36C
100
AcDbEntity
  8
LAYER_FEATURE
100
AcDbSpline
 62
7
  6
CONTINUOUS
 70
0
 71
3
 72
23
 73
19
 74
0
 42
0.0000001
 43
0.0000001
 44
0.0000000001
 40
0.0
 40
0.0
 40
0.0
 40
0.0
 40
0.0730984017
 40
0.1462293619
 40
0.2190470156
 40
0.2912162925
 40
0.3624024678
 40
0.4322809137
 40
0.5005373128
 40
0.5668715884
 40
0.631000935
 40
0.6926634813
 40
0.7516223326
 40
0.8076701144
 40
0.8606350782
 40
0.9103865771
 40
0.956847827
 40
1.0
 40
1.0
 40
1.0
 40
1.0
 10
14.5287140993
 20
12.0416888251
 30
0.0
 10
14.528756862
 20
12.043046582
 30
0.0
 10
14.5288029358
 20
12.0457641049
 30
0.0
 10
14.5287545947
 20
12.0498350328
 30
0.0
 10
14.5285891643
 20
12.0538856475
 30
0.0
 10
14.5283075909
 20
12.0578936251
 30
0.0
 10
14.5279114082
 20
12.0618370356
 30
0.0
 10
14.5274028186
 20
12.065694231
 30
0.0
 10
14.5267846263
 20
12.0694440777
 30
0.0
 10
14.5260602468
 20
12.0730660358
 30
0.0
 10
14.525233675
 20
12.0765402896
 30
0.0
 10
14.524309466
 20
12.0798478624
 30
0.0
 10
14.5232926979
 20
12.0829707226
 30
0.0
 10
14.5221889359
 20
12.0858919142
 30
0.0
 10
14.5210041854
 20
12.0885955921
 30
0.0
 10
14.519744778
 20
12.0910673187
 30
0.0
 10
14.5184175241
 20
12.0932935957
 30
0.0
 10
14.5174565772
 20
12.0946565313
 30
0.0
 10
14.5169646445
 20
12.0952898409
 30
0.0
  0
LINE
  5
36D
100
AcDbEntity
  8
LAYER_FEATURE
100
AcDbLine
 62
7
  6
CONTINUOUS
 10
14.5169646445
 20
12.0952898409
 11
14.515771179
 21
12.0967230315
  0
SPLINE
  5
36E
100
AcDbEntity
  8
LAYER_FEATURE
100
AcDbSpline
 62
7
  6
CONTINUOUS
 70
0
 71
3
 72
22
 73
18
 74
0
 42
0.0000001
 43
0.0000001
 44
0.0000000001
 40
0.0
 40
0.0
 40
0.0
 40
0.0
 40
0.175212069
 40
0.258407692
 40
0.3382615906
 40
0.414512303
 40
0.4869369614
 40
0.5553589842
 40
0.6196545407
 40
0.6797647064
 40
0.7357082975
 40
0.787600785
 40
0.8356776187
 40
0.8803174261
 40
0.9220676559
 40
0.9616654459
 40
1.0
 40
1.0
 40
1.0
 40
1.0
 10
14.4847607889
 20
12.1095258825
 30
0.0
 10
14.4849233118
 20
12.1086167499
 30
0.0
 10
14.485204549
 20
12.1072825836
 30
0.0
 10
14.4856678939
 20
12.1055605218
 30
0.0
 10
14.4860431849
 20
12.1043559054
 30
0.0
 10
14.4864503577
 20
12.103221806
 30
0.0
 10
14.4868874344
 20
12.1021637355
 30
0.0
 10
14.4873522915
 20
12.1011868364
 30
0.0
 10
14.4878427012
 20
12.1002958155
 30
0.0
 10
14.4883563446
 20
12.0994949371
 30
0.0
 10
14.4888908831
 20
12.0987880263
 30
0.0
 10
14.4894439754
 20
12.0981784682
 30
0.0
 10
14.490013326
 20
12.0976692587
 30
0.0
 10
14.4905966573
 20
12.0972631384
 30
0.0
 10
14.4911917372
 20
12.0969627047
 30
0.0
 10
14.491795564
 20
12.0967705876
 30
0.0
 10
14.4922052764
 20
12.0967156929
 30
0.0
 10
14.4924071616
 20
12.0967072429
 30
0.0
  0
SPLINE
  5
36F
100
AcDbEntity
  8
LAYER_FEATURE
100
AcDbSpline
 62
7
  6
CONTINUOUS
 70
0
 71
3
 72
17
 73
13
 74
0
 42
0.0000001
 43
0.0000001
 44
0.0000000001
 40
0.0
 40
0.0
 40
0.0
 40
0.0
 40
0.0532139576
 40
0.1087651573
 40
0.166448286
 40
0.2260619986
 40
0.3501418926
 40
0.4790563007
 40
0.6106928793
 40
0.7428595336
 40
0.873346174
 40
1.0
 40
1.0
 40
1.0
 40
1.0
 10
14.482473542
 20
12.1555386433
 30
0.0
 10
14.4823356634
 20
12.1551479442
 30
0.0
 10
14.4820718812
 20
12.1543429324
 30
0.0
 10
14.4817182028
 20
12.1530958811
 30
0.0
 10
14.4813993677
 20
12.1517881199
 30
0.0
 10
14.4810177899
 20
12.1499476349
 30
0.0
 10
14.4806417339
 20
12.1475411949
 30
0.0
 10
14.4803545613
 20
12.1445587591
 30
0.0
 10
14.4802314505
 20
12.1415020629
 30
0.0
 10
14.48027488
 20
12.1384309616
 30
0.0
 10
14.4804839456
 20
12.1354056284
 30
0.0
 10
14.4807360961
 20
12.1334180979
 30
0.0
 10
14.4808910477
 20
12.1324442445
 30
0.0
  0
LINE
  5
370
100
AcDbEntity
  8
LAYER_FEATURE
100
AcDbLine
 62
7
  6
CONTINUOUS
 10
14.4831790329
 20
12.1572139284
 11
14.482473542
 21
12.1555386433
  0
SPLINE
  5
371
100
AcDbEntity
  8
LAYER_FEATURE
100
AcDbSpline
 62
7
  6
CONTINUOUS
 70
0
 71
3
 72
9
 73
5
 74
0
 42
0.0000001
 43
0.0000001
 44
0.0000000001
 40
0.0
 40
0.0
 40
0.0
 40
0.0
 40
0.4848155294
 40
1.0
 40
1.0
 40
1.0
 40
1.0
 10
14.4887202401
 20
12.1675893477
 30
0.0
 10
14.4893179574
 20
12.1686438912
 30
0.0
 10
14.4904784086
 20
12.1708605464
 30
0.0
 10
14.4915106238
 20
12.1731391895
 30
0.0
 10
14.4920130585
 20
12.1743252462
 30
0.0
  0
SPLINE
  5
372
100
AcDbEntity
  8
LAYER_FEATURE
100
AcDbSpline
 62
7
  6
CONTINUOUS
 70
0
 71
3
 72
15
 73
11
 74
0
 42
0.0000001
 43
0.0000001
 44
0.0000000001
 40
0.0
 40
0.0
 40
0.0
 40
0.0
 40
0.1087195203
 40
0.2228671454
 40
0.3421053262
 40
0.466056778
 40
0.5942968009
 40
0.7263637791
 40
0.8617727899
 40
1.0
 40
1.0
 40
1.0
 40
1.0
 10
14.4920130585
 20
12.1743252462
 30
0.0
 10
14.4924328699
 20
12.175316261
 30
0.0
 10
14.4932420289
 20
12.1773698406
 30
0.0
 10
14.4943422216
 20
12.180573825
 30
0.0
 10
14.4953543546
 20
12.1839643494
 30
0.0
 10
14.4962736316
 20
12.1875253628
 30
0.0
 10
14.4970956861
 20
12.1912401758
 30
0.0
 10
14.4978166523
 20
12.1950913244
 30
0.0
 10
14.498433065
 20
12.1990605866
 30
0.0
 10
14.4987693579
 20
12.2017489422
 30
0.0
 10
14.4989199671
 20
12.2031090072
 30
0.0
  0
SPLINE
  5
373
100
AcDbEntity
  8
LAYER_FEATURE
100
AcDbSpline
 62
7
  6
CONTINUOUS
 70
0
 71
3
 72
23
 73
19
 74
0
 42
0.0000001
 43
0.0000001
 44
0.0000000001
 40
0.0
 40
0.0
 40
0.0
 40
0.0
 40
0.0667515526
 40
0.1343697084
 40
0.2025373717
 40
0.2709405135
 40
0.3392587615
 40
0.40717425
 40
0.4743717364
 40
0.5405419939
 40
0.6053842538
 40
0.668609038
 40
0.7299411026
 40
0.789122424
 40
0.8459162342
 40
0.9001092616
 40
0.9515208206
 40
1.0
 40
1.0
 40
1.0
 40
1.0
 10
14.4989199671
 20
12.2031090072
 30
0.0
 10
14.4990659727
 20
12.2044275006
 30
0.0
 10
14.4993186896
 20
12.207086331
 30
0.0
 10
14.4995798261
 20
12.2111034277
 30
0.0
 10
14.4997245841
 20
12.215159269
 30
0.0
 10
14.4997521869
 20
12.2192314954
 30
0.0
 10
14.4996624633
 20
12.2232978192
 30
0.0
 10
14.4994559203
 20
12.2273359033
 30
0.0
 10
14.4991336943
 20
12.2313236003
 30
0.0
 10
14.4986975681
 20
12.235239034
 30
0.0
 10
14.4981499501
 20
12.2390607361
 30
0.0
 10
14.4974938676
 20
12.2427677657
 30
0.0
 10
14.4967329417
 20
12.2463398245
 30
0.0
 10
14.4958713726
 20
12.2497573905
 30
0.0
 10
14.4949138988
 20
12.2530017785
 30
0.0
 10
14.493865771
 20
12.2560554031
 30
0.0
 10
14.4927327575
 20
12.2589014942
 30
0.0
 10
14.4918997496
 20
12.2607048349
 30
0.0
 10
14.4914684377
 20
12.261566322
 30
0.0
  0
SPLINE
  5
374
100
AcDbEntity
  8
LAYER_FEATURE
100
AcDbSpline
 62
7
  6
CONTINUOUS
 70
0
 71
3
 72
11
 73
7
 74
0
 42
0.0000001
 43
0.0000001
 44
0.0000000001
 40
0.0
 40
0.0
 40
0.0
 40
0.0
 40
0.274741605
 40
0.5329453501
 40
0.7745974161
 40
1.0
 40
1.0
 40
1.0
 40
1.0
 10
14.4914684377
 20
12.261566322
 30
0.0
 10
14.4910616657
 20
12.262378794
 30
0.0
 10
14.4902308758
 20
12.2639345097
 30
0.0
 10
14.4888874695
 20
12.2661178071
 30
0.0
 10
14.4874906281
 20
12.2680701355
 30
0.0
 10
14.4864933296
 20
12.2692526223
 30
0.0
 10
14.4859862196
 20
12.269798992
 30
0.0
  0
SPLINE
  5
375
100
AcDbEntity
  8
LAYER_FEATURE
100
AcDbSpline
 62
7
  6
CONTINUOUS
 70
0
 71
3
 72
11
 73
7
 74
0
 42
0.0000001
 43
0.0000001
 44
0.0000000001
 40
0.0
 40
0.0
 40
0.0
 40
0.0
 40
0.2754025586
 40
0.5323525375
 40
0.7729373722
 40
1.0
 40
1.0
 40
1.0
 40
1.0
 10
14.4859862196
 20
12.269798992
 30
0.0
 10
14.4854219381
 20
12.2704069593
 30
0.0
 10
14.4842795324
 20
12.2715360495
 30
0.0
 10
14.4824607211
 20
12.2729966054
 30
0.0
 10
14.4806053521
 20
12.274155998
 30
0.0
 10
14.4793165052
 20
12.2747379608
 30
0.0
 10
14.4786735768
 20
12.2749710772
 30
0.0
  0
LINE
  5
376
100
AcDbEntity
  8
LAYER_FEATURE
100
AcDbLine
 62
7
  6
CONTINUOUS
 10
14.4674905024
 20
12.2752592665
 11
14.4686411081
 21
12.2749439305
  0
SPLINE
  5
377
100
AcDbEntity
  8
LAYER_FEATURE
100
AcDbSpline
 62
7
  6
CONTINUOUS
 70
0
 71
3
 72
20
 73
16
 74
0
 42
0.0000001
 43
0.0000001
 44
0.0000000001
 40
0.0
 40
0.0
 40
0.0
 40
0.0
 40
0.1633890662
 40
0.3194548152
 40
0.3939903338
 40
0.4658148231
 40
0.5346803285
 40
0.6003670706
 40
0.6626898162
 40
0.7215030787
 40
0.7767096195
 40
0.8282715374
 40
0.8762206527
 40
0.9206760549
 40
1.0
 40
1.0
 40
1.0
 40
1.0
 10
14.4609649071
 20
12.2916622699
 30
0.0
 10
14.4610563829
 20
12.2906768614
 30
0.0
 10
14.4612893307
 20
12.2887547415
 30
0.0
 10
14.4617209661
 20
12.2864058813
 30
0.0
 10
14.4621454589
 20
12.2846235975
 30
0.0
 10
14.4624940764
 20
12.2833671222
 30
0.0
 10
14.4628760587
 20
12.2821765187
 30
0.0
 10
14.4632895444
 20
12.2810575915
 30
0.0
 10
14.4637325019
 20
12.2800157818
 30
0.0
 10
14.4642027825
 20
12.2790561492
 30
0.0
 10
14.4646981754
 20
12.2781832844
 30
0.0
 10
14.4652162315
 20
12.2774014676
 30
0.0
 10
14.4657550083
 20
12.2767140752
 30
0.0
 10
14.4664694321
 20
12.2759576236
 30
0.0
 10
14.4670703037
 20
12.2754922443
 30
0.0
 10
14.4674905024
 20
12.2752592665
 30
0.0
  0
SPLINE
  5
378
100
AcDbEntity
  8
LAYER_FEATURE
100
AcDbSpline
 62
7
  6
CONTINUOUS
 70
0
 71
3
 72
18
 73
14
 74
0
 42
0.0000001
 43
0.0000001
 44
0.0000000001
 40
0.0
 40
0.0
 40
0.0
 40
0.0
 40
0.0479766673
 40
0.098808206
 40
0.152361014
 40
0.2084901659
 40
0.2670143635
 40
0.3277295684
 40
0.4548095826
 40
0.5877801812
 40
0.724486873
 40
0.8626608478
 40
1.0
 40
1.0
 40
1.0
 40
1.0
 10
14.462217279
 20
12.3379367706
 30
0.0
 10
14.4620511299
 20
12.3376202954
 30
0.0
 10
14.4617291157
 20
12.3369577878
 30
0.0
 10
14.46128778
 20
12.3359114876
 30
0.0
 10
14.4608760322
 20
12.3347882928
 30
0.0
 10
14.460495908
 20
12.333593788
 30
0.0
 10
14.4601492427
 20
12.3323337417
 30
0.0
 10
14.4597275748
 20
12.3305473532
 30
0.0
 10
14.4592996238
 20
12.3281943127
 30
0.0
 10
14.4589486713
 20
12.3252576568
 30
0.0
 10
14.4587599059
 20
12.3222233226
 30
0.0
 10
14.458737066
 20
12.3191508404
 30
0.0
 10
14.4588336222
 20
12.3170992263
 30
0.0
 10
14.45891067
 20
12.3160789202
 30
0.0
  0
LINE
  5
379
100
AcDbEntity
  8
LAYER_FEATURE
100
AcDbLine
 62
7
  6
CONTINUOUS
 10
14.4630364884
 20
12.3392264296
 11
14.462217279
 21
12.3379367706
  0
LINE
  5
37A
100
AcDbEntity
  8
LAYER_FEATURE
100
AcDbLine
 62
7
  6
CONTINUOUS
 10
14.4692594617
 20
12.346626461
 11
14.4630364884
 21
12.3392264296
  0
SPLINE
  5
37B
100
AcDbEntity
  8
LAYER_FEATURE
100
AcDbSpline
 62
7
  6
CONTINUOUS
 70
0
 71
3
 72
9
 73
5
 74
0
 42
0.0000001
 43
0.0000001
 44
0.0000000001
 40
0.0
 40
0.0
 40
0.0
 40
0.0
 40
0.48151189
 40
1.0
 40
1.0
 40
1.0
 40
1.0
 10
14.4692594617
 20
12.346626461
 30
0.0
 10
14.4699296193
 20
12.3473654993
 30
0.0
 10
14.4712448955
 20
12.3489705868
 30
0.0
 10
14.4724220268
 20
12.3506782571
 30
0.0
 10
14.4730007474
 20
12.351583299
 30
0.0
  0
SPLINE
  5
37C
100
AcDbEntity
  8
LAYER_FEATURE
100
AcDbSpline
 62
7
  6
CONTINUOUS
 70
0
 71
3
 72
15
 73
11
 74
0
 42
0.0000001
 43
0.0000001
 44
0.0000000001
 40
0.0
 40
0.0
 40
0.0
 40
0.0
 40
0.1031561657
 40
0.213055699
 40
0.3295430471
 40
0.4523814035
 40
0.5812535286
 40
0.7157769469
 40
0.8555223871
 40
1.0
 40
1.0
 40
1.0
 40
1.0
 10
14.4730007474
 20
12.351583299
 30
0.0
 10
14.4734912888
 20
12.3523504401
 30
0.0
 10
14.4744473513
 20
12.3539718439
 30
0.0
 10
14.4757692528
 20
12.3565647064
 30
0.0
 10
14.4770188149
 20
12.3593842507
 30
0.0
 10
14.4781901637
 20
12.3624171744
 30
0.0
 10
14.4792778198
 20
12.3656494038
 30
0.0
 10
14.4802766963
 20
12.3690658243
 30
0.0
 10
14.481182022
 20
12.3726503324
 30
0.0
 10
14.4817122093
 20
12.375103097
 30
0.0
 10
14.4819616944
 20
12.3763537735
 30
0.0
  0
SPLINE
  5
37D
100
AcDbEntity
  8
LAYER_FEATURE
100
AcDbSpline
 62
7
  6
CONTINUOUS
 70
0
 71
3
 72
23
 73
19
 74
0
 42
0.0000001
 43
0.0000001
 44
0.0000000001
 40
0.0
 40
0.0
 40
0.0
 40
0.0
 40
0.0608480558
 40
0.1232919958
 40
0.1870497613
 40
0.2518349021
 40
0.3173484099
 40
0.3832869899
 40
0.4493433606
 40
0.5152094506
 40
0.580578669
 40
0.645148445
 40
0.7086227941
 40
0.7707147388
 40
0.8311496517
 40
0.8896662006
 40
0.9460244821
 40
1.0
 40
1.0
 40
1.0
 40
1.0
 10
14.4819616944
 20
12.3763537735
 30
0.0
 10
14.4822066785
 20
12.3775818862
 30
0.0
 10
14.4826589143
 20
12.3800793169
 30
0.0
 10
14.48321944
 20
12.3838885815
 30
0.0
 10
14.4836687936
 20
12.3877941395
 30
0.0
 10
14.4840045063
 20
12.3917744616
 30
0.0
 10
14.4842247082
 20
12.3958077772
 30
0.0
 10
14.4843281911
 20
12.399871933
 30
0.0
 10
14.4843143777
 20
12.4039446365
 30
0.0
 10
14.4841833457
 20
12.4080035357
 30
0.0
 10
14.4839358177
 20
12.4120263587
 30
0.0
 10
14.4835731641
 20
12.4159910358
 30
0.0
 10
14.4830973884
 20
12.4198758201
 30
0.0
 10
14.4825111243
 20
12.4236594249
 30
0.0
 10
14.4818176028
 20
12.4273210972
 30
0.0
 10
14.4810206589
 20
12.4308408651
 30
0.0
 10
14.4801246899
 20
12.4341993461
 30
0.0
 10
14.4794492203
 20
12.4363682136
 30
0.0
 10
14.4790944486
 20
12.4374209054
 30
0.0
  0
SPLINE
  5
37E
100
AcDbEntity
  8
LAYER_FEATURE
100
AcDbSpline
 62
7
  6
CONTINUOUS
 70
0
 71
3
 72
11
 73
7
 74
0
 42
0.0000001
 43
0.0000001
 44
0.0000000001
 40
0.0
 40
0.0
 40
0.0
 40
0.0
 40
0.2695292076
 40
0.5263875832
 40
0.7700138424
 40
1.0
 40
1.0
 40
1.0
 40
1.0
 10
14.4790944486
 20
12.4374209054
 30
0.0
 10
14.4787548416
 20
12.4384285999
 30
0.0
 10
14.4780528007
 20
12.440383868
 30
0.0
 10
14.4769008979
 20
12.4431961283
 30
0.0
 10
14.4756795245
 20
12.445807773
 30
0.0
 10
14.4747965531
 20
12.4474559669
 30
0.0
 10
14.4743430201
 20
12.4482418619
 30
0.0
  0
SPLINE
  5
37F
100
AcDbEntity
  8
LAYER_FEATURE
100
AcDbSpline
 62
7
  6
CONTINUOUS
 70
0
 71
3
 72
15
 73
11
 74
0
 42
0.0000001
 43
0.0000001
 44
0.0000000001
 40
0.0
 40
0.0
 40
0.0
 40
0.0
 40
0.1533573458
 40
0.2979146646
 40
0.4337871452
 40
0.5612595038
 40
0.6807987467
 40
0.7930943516
 40
0.8990913155
 40
1.0
 40
1.0
 40
1.0
 40
1.0
 10
14.4743430201
 20
12.4482418619
 30
0.0
 10
14.4738730933
 20
12.4490561645
 30
0.0
 10
14.4729176443
 20
12.4506141169
 30
0.0
 10
14.4713892268
 20
12.4527926275
 30
0.0
 10
14.4698126328
 20
12.4547366511
 30
0.0
 10
14.4681929439
 20
12.4564394276
 30
0.0
 10
14.4665351362
 20
12.4578949556
 30
0.0
 10
14.4648440525
 20
12.4590978558
 30
0.0
 10
14.4631252747
 20
12.4600429099
 30
0.0
 10
14.4619399892
 20
12.4605074448
 30
0.0
 10
14.4613493064
 20
12.4606912812
 30
0.0
  0
LINE
  5
380
100
AcDbEntity
  8
LAYER_FEATURE
100
AcDbLine
 62
7
  6
CONTINUOUS
 10
14.4566175196
 20
12.4628631803
 11
14.4579794651
 21
12.4618623803
  0
SPLINE
  5
381
100
AcDbEntity
  8
LAYER_FEATURE
100
AcDbSpline
 62
7
  6
CONTINUOUS
 70
0
 71
3
 72
20
 73
16
 74
0
 42
0.0000001
 43
0.0000001
 44
0.0000000001
 40
0.0
 40
0.0
 40
0.0
 40
0.0
 40
0.1508718891
 40
0.2985474776
 40
0.4406159412
 40
0.5088451437
 40
0.5748485299
 40
0.6383870174
 40
0.6992437271
 40
0.75722837
 40
0.8121831162
 40
0.8639859069
 40
0.9125588756
 40
0.9578862403
 40
1.0
 40
1.0
 40
1.0
 40
1.0
 10
14.4514634766
 20
12.4822201894
 30
0.0
 10
14.4514785096
 20
12.4811957559
 30
0.0
 10
14.4515632977
 20
12.4791689206
 30
0.0
 10
14.4518550862
 20
12.4761895427
 30
0.0
 10
14.4522348878
 20
12.4737866809
 30
0.0
 10
14.4526193803
 20
12.4719498704
 30
0.0
 10
14.4529402451
 20
12.4706454272
 30
0.0
 10
14.4532958478
 20
12.4694019913
 30
0.0
 10
14.4536844573
 20
12.4682256396
 30
0.0
 10
14.4541041637
 20
12.4671221152
 30
0.0
 10
14.4545529143
 20
12.4660967794
 30
0.0
 10
14.4550285293
 20
12.4651546098
 30
0.0
 10
14.4555287785
 20
12.4643000785
 30
0.0
 10
14.4560512571
 20
12.4635374202
 30
0.0
 10
14.4564263881
 20
12.4630759178
 30
0.0
 10
14.4566175196
 20
12.4628631803
 30
0.0
  0
SPLINE
  5
382
100
AcDbEntity
  8
LAYER_FEATURE
100
AcDbSpline
 62
7
  6
CONTINUOUS
 70
0
 71
3
 72
20
 73
16
 74
0
 42
0.0000001
 43
0.0000001
 44
0.0000000001
 40
0.0
 40
0.0
 40
0.0
 40
0.0
 40
0.042909315
 40
0.0890104745
 40
0.1383023644
 40
0.1907434665
 40
0.2462355411
 40
0.3046404876
 40
0.3657878892
 40
0.4294776864
 40
0.4954855895
 40
0.5635670872
 40
0.7048712238
 40
0.8511491037
 40
1.0
 40
1.0
 40
1.0
 40
1.0
 10
14.4562073393
 20
12.5269781267
 30
0.0
 10
14.4560191481
 20
12.5267495225
 30
0.0
 10
14.4556504906
 20
12.5262571779
 30
0.0
 10
14.45513813
 20
12.5254511221
 30
0.0
 10
14.4546491035
 20
12.5245550525
 30
0.0
 10
14.454185778
 20
12.5235734082
 30
0.0
 10
14.4537503464
 20
12.5225108658
 30
0.0
 10
14.4533449333
 20
12.5213725949
 30
0.0
 10
14.4529715278
 20
12.5201641367
 30
0.0
 10
14.4526319688
 20
12.5188913988
 30
0.0
 10
14.4523279113
 20
12.5175606072
 30
0.0
 10
14.4519674481
 20
12.5156944177
 30
0.0
 10
14.4516186261
 20
12.5132633133
 30
0.0
 10
14.4513647634
 20
12.5102609054
 30
0.0
 10
14.4513056111
 20
12.5082239719
 30
0.0
 10
14.4513036868
 20
12.5071968097
 30
0.0
  0
LINE
  5
383
100
AcDbEntity
  8
LAYER_FEATURE
100
AcDbLine
 62
7
  6
CONTINUOUS
 10
14.4571087855
 20
12.5278325987
 11
14.4562073393
 21
12.5269781267
  0
SPLINE
  5
384
100
AcDbEntity
  8
LAYER_FEATURE
100
AcDbSpline
 62
7
  6
CONTINUOUS
 70
0
 71
3
 72
9
 73
5
 74
0
 42
0.0000001
 43
0.0000001
 44
0.0000000001
 40
0.0
 40
0.0
 40
0.0
 40
0.0
 40
0.2449868623
 40
1.0
 40
1.0
 40
1.0
 40
1.0
 10
14.4637743794
 20
12.5319728631
 30
0.0
 10
14.4632116617
 20
12.5316659567
 30
0.0
 10
14.460933082
 20
12.530379729
 30
0.0
 10
14.4587286618
 20
12.5289631327
 30
0.0
 10
14.4571087855
 20
12.5278325987
 30
0.0
  0
SPLINE
  5
385
100
AcDbEntity
  8
LAYER_FEATURE
100
AcDbSpline
 62
7
  6
CONTINUOUS
 70
0
 71
3
 72
10
 73
6
 74
0
 42
0.0000001
 43
0.0000001
 44
0.0000000001
 40
0.0
 40
0.0
 40
0.0
 40
0.0
 40
0.2366781872
 40
0.6076456441
 40
1.0
 40
1.0
 40
1.0
 40
1.0
 10
14.4637743794
 20
12.5319728631
 30
0.0
 10
14.4641235443
 20
12.5321632978
 30
0.0
 10
14.46500203
 20
12.5326856743
 30
0.0
 10
14.4663693284
 20
12.5336671736
 30
0.0
 10
14.4673397859
 20
12.5345087565
 30
0.0
 10
14.4678203571
 20
12.5349601521
 30
0.0
  0
SPLINE
  5
386
100
AcDbEntity
  8
LAYER_FEATURE
100
AcDbSpline
 62
7
  6
CONTINUOUS
 70
0
 71
3
 72
15
 73
11
 74
0
 42
0.0000001
 43
0.0000001
 44
0.0000000001
 40
0.0
 40
0.0
 40
0.0
 40
0.0
 40
0.0980912854
 40
0.2037368273
 40
0.3172003111
 40
0.4385689061
 40
0.5677745992
 40
0.7046239258
 40
0.8488287892
 40
1.0
 40
1.0
 40
1.0
 40
1.0
 10
14.4678203571
 20
12.5349601521
 30
0.0
 10
14.4683619188
 20
12.5354688356
 30
0.0
 10
14.4694291105
 20
12.5365877351
 30
0.0
 10
14.47092384
 20
12.5384721838
 30
0.0
 10
14.4723639749
 20
12.5406144597
 30
0.0
 10
14.4737429854
 20
12.5430044454
 30
0.0
 10
14.4750547357
 20
12.5456312669
 30
0.0
 10
14.4762932388
 20
12.5484827876
 30
0.0
 10
14.4774526803
 20
12.5515456892
 30
0.0
 10
14.4781535658
 20
12.553671209
 30
0.0
 10
14.4784909783
 20
12.5547654248
 30
0.0
  0
SPLINE
  5
387
100
AcDbEntity
  8
LAYER_FEATURE
100
AcDbSpline
 62
7
  6
CONTINUOUS
 70
0
 71
3
 72
23
 73
19
 74
0
 42
0.0000001
 43
0.0000001
 44
0.0000000001
 40
0.0
 40
0.0
 40
0.0
 40
0.0
 40
0.0552087447
 40
0.1126652749
 40
0.1721327853
 40
0.2333613937
 40
0.2960816391
 40
0.3600125713
 40
0.4248625271
 40
0.4903324075
 40
0.5561180382
 40
0.6219127019
 40
0.687409655
 40
0.7523043957
 40
0.8162978529
 40
0.8790967612
 40
0.9404218508
 40
1.0
 40
1.0
 40
1.0
 40
1.0
 10
14.4784909783
 20
12.5547654248
 30
0.0
 10
14.4788269636
 20
12.5558550125
 30
0.0
 10
14.4794640575
 20
12.5580937574
 30
0.0
 10
14.4803023358
 20
12.5615493431
 30
0.0
 10
14.4810389346
 20
12.5651549979
 30
0.0
 10
14.4816697905
 20
12.56889086
 30
0.0
 10
14.482191411
 20
12.5727365374
 30
0.0
 10
14.4826009218
 20
12.576670928
 30
0.0
 10
14.4828960546
 20
12.5806724667
 30
0.0
 10
14.4830751792
 20
12.5847192001
 30
0.0
 10
14.4831373033
 20
12.5887889245
 30
0.0
 10
14.4830820853
 20
12.5928593075
 30
0.0
 10
14.4829098292
 20
12.5969080102
 30
0.0
 10
14.4826214924
 20
12.6009128266
 30
0.0
 10
14.4822186599
 20
12.6048517628
 30
0.0
 10
14.4817035716
 20
12.6087032809
 30
0.0
 10
14.4810790613
 20
12.6124461514
 30
0.0
 10
14.4805842242
 20
12.6148942447
 30
0.0
 10
14.4803182026
 20
12.6160955981
 30
0.0
  0
SPLINE
  5
388
100
AcDbEntity
  8
LAYER_FEATURE
100
AcDbSpline
 62
7
  6
CONTINUOUS
 70
0
 71
3
 72
11
 73
7
 74
0
 42
0.0000001
 43
0.0000001
 44
0.0000000001
 40
0.0
 40
0.0
 40
0.0
 40
0.0
 40
0.2642478523
 40
0.5195043123
 40
0.7649877697
 40
1.0
 40
1.0
 40
1.0
 40
1.0
 10
14.4803182026
 20
12.6160955981
 30
0.0
 10
14.4800599721
 20
12.6172617674
 30
0.0
 10
14.4795157675
 20
12.6195465521
 30
0.0
 10
14.4785989207
 20
12.6228813277
 30
0.0
 10
14.4775987484
 20
12.6260538291
 30
0.0
 10
14.4768625854
 20
12.6280979533
 30
0.0
 10
14.4764801585
 20
12.6290889977
 30
0.0
  0
SPLINE
  5
389
100
AcDbEntity
  8
LAYER_FEATURE
100
AcDbSpline
 62
7
  6
CONTINUOUS
 70
0
 71
3
 72
15
 73
11
 74
0
 42
0.0000001
 43
0.0000001
 44
0.0000000001
 40
0.0
 40
0.0
 40
0.0
 40
0.0
 40
0.149758863
 40
0.2926349468
 40
0.4284204981
 40
0.556992631
 40
0.6783095663
 40
0.7924338315
 40
0.8995543051
 40
1.0
 40
1.0
 40
1.0
 40
1.0
 10
14.4764801585
 20
12.6290889977
 30
0.0
 10
14.4760786381
 20
12.6301295224
 30
0.0
 10
14.4752545491
 20
12.6321478495
 30
0.0
 10
14.4739212369
 20
12.6350476662
 30
0.0
 10
14.4725235498
 20
12.6377406615
 30
0.0
 10
14.4710662963
 20
12.6402175357
 30
0.0
 10
14.4695543495
 20
12.6424698228
 30
0.0
 10
14.4679926294
 20
12.6444899187
 30
0.0
 10
14.4663863788
 20
12.6462706662
 30
0.0
 10
14.4652540523
 20
12.6473268567
 30
0.0
 10
14.4646819195
 20
12.6478087797
 30
0.0
  0
LINE
  5
38A
100
AcDbEntity
  8
LAYER_FEATURE
100
AcDbLine
 62
7
  6
CONTINUOUS
 10
14.4602060557
 20
12.6523094711
 11
14.4614657992
 21
12.6506455954
  0
SPLINE
  5
38B
100
AcDbEntity
  8
LAYER_FEATURE
100
AcDbSpline
 62
7
  6
CONTINUOUS
 70
0
 71
3
 72
19
 73
15
 74
0
 42
0.0000001
 43
0.0000001
 44
0.0000000001
 40
0.0
 40
0.0
 40
0.0
 40
0.0
 40
0.1391988644
 40
0.2786955649
 40
0.4161676716
 40
0.5493423044
 40
0.6136505011
 40
0.6760964302
 40
0.7364451173
 40
0.794480878
 40
0.8500080529
 40
0.9028558401
 40
0.9528922108
 40
1.0
 40
1.0
 40
1.0
 40
1.0
 10
14.456621632
 20
12.6738766067
 30
0.0
 10
14.4565578037
 20
12.6728523818
 30
0.0
 10
14.456487459
 20
12.670797743
 30
0.0
 10
14.4565492586
 20
12.6677288079
 30
0.0
 10
14.4567764134
 20
12.6647121149
 30
0.0
 10
14.4571033889
 20
12.6622628228
 30
0.0
 10
14.4574468431
 20
12.6603772931
 30
0.0
 10
14.457738945
 20
12.6590289206
 30
0.0
 10
14.4580670694
 20
12.6577364978
 30
0.0
 10
14.4584296026
 20
12.6565063475
 30
0.0
 10
14.4588247516
 20
12.6553445038
 30
0.0
 10
14.4592505978
 20
12.6542565756
 30
0.0
 10
14.4597050428
 20
12.6532479671
 30
0.0
 10
14.4600357389
 20
12.6526121318
 30
0.0
 10
14.4602060557
 20
12.6523094711
 30
0.0
  0
SPLINE
  5
38C
100
AcDbEntity
  8
LAYER_FEATURE
100
AcDbSpline
 62
7
  6
CONTINUOUS
 70
0
 71
3
 72
21
 73
17
 74
0
 42
0.0000001
 43
0.0000001
 44
0.0000000001
 40
0.0
 40
0.0
 40
0.0
 40
0.0
 40
0.0387535417
 40
0.0805386769
 40
0.1256332443
 40
0.1742147142
 40
0.2263572252
 40
0.2820575174
 40
0.3412504367
 40
0.403817636
 40
0.4695973876
 40
0.5383920868
 40
0.6099727894
 40
0.6840850705
 40
0.8387525165
 40
1.0
 40
1.0
 40
1.0
 40
1.0
 10
14.4646746816
 20
12.7153979584
 30
0.0
 10
14.4644730243
 20
12.7152682101
 30
0.0
 10
14.4640725692
 20
12.7149689286
 30
0.0
 10
14.4635073575
 20
12.7144332052
 30
0.0
 10
14.4629588739
 20
12.7137977696
 30
0.0
 10
14.4624296014
 20
12.7130658781
 30
0.0
 10
14.4619218212
 20
12.7122409667
 30
0.0
 10
14.4614378933
 20
12.7113269887
 30
0.0
 10
14.4609801115
 20
12.7103283253
 30
0.0
 10
14.4605506794
 20
12.7092498005
 30
0.0
 10
14.460151679
 20
12.7080966542
 30
0.0
 10
14.4597850791
 20
12.7068745073
 30
0.0
 10
14.4594526692
 20
12.7055893243
 30
0.0
 10
14.459051584
 20
12.7037742636
 30
0.0
 10
14.4586503142
 20
12.7013927685
 30
0.0
 10
14.4584414114
 20
12.6994479666
 30
0.0
 10
14.45836243
 20
12.6984533596
 30
0.0
  0
LINE
  5
38D
100
AcDbEntity
  8
LAYER_FEATURE
100
AcDbLine
 62
7
  6
CONTINUOUS
 10
14.4656237224
 20
12.7157844066
 11
14.4646746816
 21
12.7153979584
  0
SPLINE
  5
38E
100
AcDbEntity
  8
LAYER_FEATURE
100
AcDbSpline
 62
7
  6
CONTINUOUS
 70
0
 71
3
 72
11
 73
7
 74
0
 42
0.0000001
 43
0.0000001
 44
0.0000000001
 40
0.0
 40
0.0
 40
0.0
 40
0.0
 40
0.244925764
 40
0.4921667152
 40
0.7433481297
 40
1.0
 40
1.0
 40
1.0
 40
1.0
 10
14.4724757819
 20
12.7165057959
 30
0.0
 10
14.4728276017
 20
12.7165174777
 30
0.0
 10
14.4735339008
 20
12.7165731883
 30
0.0
 10
14.4745884476
 20
12.7167526531
 30
0.0
 10
14.4756395194
 20
12.7170278998
 30
0.0
 10
14.476328416
 20
12.7172719094
 30
0.0
 10
14.4766709669
 20
12.7174087361
 30
0.0
  0
SPLINE
  5
38F
100
AcDbEntity
  8
LAYER_FEATURE
100
AcDbSpline
 62
7
  6
CONTINUOUS
 70
0
 71
3
 72
15
 73
11
 74
0
 42
0.0000001
 43
0.0000001
 44
0.0000000001
 40
0.0
 40
0.0
 40
0.0
 40
0.0
 40
0.0965090916
 40
0.1994951517
 40
0.3101987179
 40
0.429496914
 40
0.557942529
 40
0.6958214473
 40
0.8432118585
 40
1.0
 40
1.0
 40
1.0
 40
1.0
 10
14.4766709669
 20
12.7174087361
 30
0.0
 10
14.4772352907
 20
12.7176341465
 30
0.0
 10
14.4783655892
 20
12.7181945918
 30
0.0
 10
14.4799826554
 20
12.7192990486
 30
0.0
 10
14.4815628766
 20
12.7206838478
 30
0.0
 10
14.483099614
 20
12.722341535
 30
0.0
 10
14.4845868938
 20
12.724264331
 30
0.0
 10
14.4860184774
 20
12.726443378
 30
0.0
 10
14.4873880223
 20
12.7288686171
 30
0.0
 10
14.4882301462
 20
12.7305901166
 30
0.0
 10
14.4886411963
 20
12.7314877013
 30
0.0
  0
SPLINE
  5
390
100
AcDbEntity
  8
LAYER_FEATURE
100
AcDbSpline
 62
7
  6
CONTINUOUS
 70
0
 71
3
 72
23
 73
19
 74
0
 42
0.0000001
 43
0.0000001
 44
0.0000000001
 40
0.0
 40
0.0
 40
0.0
 40
0.0
 40
0.0496929139
 40
0.1022061094
 40
0.1573689582
 40
0.2149850045
 40
0.2748282364
 40
0.3366518156
 40
0.4001899275
 40
0.465161587
 40
0.5312734447
 40
0.5982226061
 40
0.6656993664
 40
0.7333895891
 40
0.8009780307
 40
0.8681484778
 40
0.9345924409
 40
1.0
 40
1.0
 40
1.0
 40
1.0
 10
14.4886411963
 20
12.7314877013
 30
0.0
 10
14.4890567306
 20
12.7323950778
 30
0.0
 10
14.489857057
 20
12.7342865408
 30
0.0
 10
14.4909408393
 20
12.7372565821
 30
0.0
 10
14.491936305
 20
12.7404245359
 30
0.0
 10
14.4928379684
 20
12.7437729896
 30
0.0
 10
14.4936408722
 20
12.7472837591
 30
0.0
 10
14.4943405963
 20
12.7509376303
 30
0.0
 10
14.4949332751
 20
12.7547146183
 30
0.0
 10
14.4954156362
 20
12.7585940305
 30
0.0
 10
14.4957850122
 20
12.7625546015
 30
0.0
 10
14.4960393631
 20
12.76657461
 30
0.0
 10
14.4961772814
 20
12.7706319986
 30
0.0
 10
14.4961980098
 20
12.7747045124
 30
0.0
 10
14.4961014234
 20
12.7787697792
 30
0.0
 10
14.4958880737
 20
12.7828055508
 30
0.0
 10
14.4955591183
 20
12.786789578
 30
0.0
 10
14.4952611755
 20
12.7894212835
 30
0.0
 10
14.4950926716
 20
12.7907240319
 30
0.0
  0
SPLINE
  5
391
100
AcDbEntity
  8
LAYER_FEATURE
100
AcDbSpline
 62
7
  6
CONTINUOUS
 70
0
 71
3
 72
11
 73
7
 74
0
 42
0.0000001
 43
0.0000001
 44
0.0000000001
 40
0.0
 40
0.0
 40
0.0
 40
0.0
 40
0.259417066
 40
0.513132346
 40
0.760269639
 40
1.0
 40
1.0
 40
1.0
 40
1.0
 10
14.4950926716
 20
12.7907240319
 30
0.0
 10
14.4949269968
 20
12.7920049081
 30
0.0
 10
14.4945641286
 20
12.794534122
 30
0.0
 10
14.4939175264
 20
12.7982641549
 30
0.0
 10
14.4931768422
 20
12.8018766826
 30
0.0
 10
14.4926132834
 20
12.8042347559
 30
0.0
 10
14.4923155057
 20
12.8053905456
 30
0.0
  0
SPLINE
  5
392
100
AcDbEntity
  8
LAYER_FEATURE
100
AcDbSpline
 62
7
  6
CONTINUOUS
 70
0
 71
3
 72
15
 73
11
 74
0
 42
0.0000001
 43
0.0000001
 44
0.0000000001
 40
0.0
 40
0.0
 40
0.0
 40
0.0
 40
0.1440532449
 40
0.2832004457
 40
0.4171136556
 40
0.5455136815
 40
0.668159786
 40
0.7848630769
 40
0.8954975632
 40
1.0
 40
1.0
 40
1.0
 40
1.0
 10
14.4923155057
 20
12.8053905456
 30
0.0
 10
14.491998823
 20
12.8066197128
 30
0.0
 10
14.4913393476
 20
12.8090268958
 30
0.0
 10
14.4902513587
 20
12.8125382352
 30
0.0
 10
14.4890846389
 20
12.8158785694
 30
0.0
 10
14.4878432883
 20
12.819036266
 30
0.0
 10
14.4865315841
 20
12.8220004197
 30
0.0
 10
14.4851540356
 20
12.8247608711
 30
0.0
 10
14.4837154253
 20
12.8273079687
 30
0.0
 10
14.4826895096
 20
12.8289036872
 30
0.0
 10
14.4821661412
 20
12.8296612995
 30
0.0
  0
LINE
  5
393
100
AcDbEntity
  8
LAYER_FEATURE
100
AcDbLine
 62
7
  6
CONTINUOUS
 10
14.4781182052
 20
12.8363178241
 11
14.4792273356
 21
12.8340548146
  0
SPLINE
  5
394
100
AcDbEntity
  8
LAYER_FEATURE
100
AcDbSpline
 62
7
  6
CONTINUOUS
 70
0
 71
3
 72
17
 73
13
 74
0
 42
0.0000001
 43
0.0000001
 44
0.0000000001
 40
0.0
 40
0.0
 40
0.0
 40
0.0
 40
0.1283972519
 40
0.260147491
 40
0.3930695965
 40
0.524939907
 40
0.6535679616
 40
0.7768589766
 40
0.8359004897
 40
0.8929006578
 40
0.9476657184
 40
1.0
 40
1.0
 40
1.0
 40
1.0
 10
14.4762411483
 20
12.8592662735
 30
0.0
 10
14.4760990334
 20
12.8582819243
 30
0.0
 10
14.4758726536
 20
12.8562782172
 30
0.0
 10
14.4757020648
 20
12.8532368533
 30
0.0
 10
14.4756976173
 20
12.8501637332
 30
0.0
 10
14.4758594303
 20
12.8471190625
 30
0.0
 10
14.4761842498
 20
12.8441624553
 30
0.0
 10
14.4765909804
 20
12.8417865385
 30
0.0
 10
14.476996275
 20
12.8399771992
 30
0.0
 10
14.4773316143
 20
12.8386970167
 30
0.0
 10
14.4777009997
 20
12.8374804398
 30
0.0
 10
14.477975227
 20
12.8366971498
 30
0.0
 10
14.4781182052
 20
12.8363178241
 30
0.0
  0
SPLINE
  5
395
100
AcDbEntity
  8
LAYER_FEATURE
100
AcDbSpline
 62
7
  6
CONTINUOUS
 70
0
 71
3
 72
22
 73
18
 74
0
 42
0.0000001
 43
0.0000001
 44
0.0000000001
 40
0.0
 40
0.0
 40
0.0
 40
0.0
 40
0.0378689802
 40
0.0773997724
 40
0.1193870395
 40
0.1644666342
 40
0.2130929843
 40
0.2655663771
 40
0.3220593659
 40
0.3826381114
 40
0.4472832191
 40
0.5159062969
 40
0.5883609429
 40
0.6644534873
 40
0.7439483789
 40
0.8265751135
 40
1.0
 40
1.0
 40
1.0
 40
1.0
 10
14.4872939105
 20
12.8959553971
 30
0.0
 10
14.4870910006
 20
12.8959297654
 30
0.0
 10
14.4866802738
 20
12.8958394717
 30
0.0
 10
14.4860802508
 20
12.8955964285
 30
0.0
 10
14.4854903256
 20
12.8952462377
 30
0.0
 10
14.4849132629
 20
12.8947915837
 30
0.0
 10
14.4843512319
 20
12.8942350942
 30
0.0
 10
14.4838065251
 20
12.8935796186
 30
0.0
 10
14.4832814635
 20
12.8928283207
 30
0.0
 10
14.4827783969
 20
12.8919847853
 30
0.0
 10
14.482299651
 20
12.8910530476
 30
0.0
 10
14.4818475123
 20
12.8900375811
 30
0.0
 10
14.4814241617
 20
12.8889432917
 30
0.0
 10
14.4810316641
 20
12.8877755091
 30
0.0
 10
14.4806719319
 20
12.8865399189
 30
0.0
 10
14.4802313021
 20
12.8847817713
 30
0.0
 10
14.4799667703
 20
12.8834230455
 30
0.0
 10
14.4798156363
 20
12.8824986881
 30
0.0
  0
SPLINE
  5
396
100
AcDbEntity
  8
LAYER_FEATURE
100
AcDbSpline
 62
7
  6
CONTINUOUS
 70
0
 71
3
 72
23
 73
19
 74
0
 42
0.0000001
 43
0.0000001
 44
0.0000000001
 40
0.0
 40
0.0
 40
0.0
 40
0.0
 40
0.044304331
 40
0.0918586556
 40
0.1426065974
 40
0.1964420859
 40
0.2532113977
 40
0.3127247037
 40
0.3747605376
 40
0.4390712372
 40
0.5053869946
 40
0.5734195519
 40
0.6428656032
 40
0.7134096396
 40
0.7847277173
 40
0.8564876179
 40
0.9283583669
 40
1.0
 40
1.0
 40
1.0
 40
1.0
 10
14.5120222813
 20
12.899729265
 30
0.0
 10
14.5125023573
 20
12.9004161709
 30
0.0
 10
14.5134377848
 20
12.901882823
 30
0.0
 10
14.5147258932
 20
12.9042548962
 30
0.0
 10
14.5159421854
 20
12.9068647989
 30
0.0
 10
14.5170800419
 20
12.9096982592
 30
0.0
 10
14.5181333286
 20
12.9127400797
 30
0.0
 10
14.5190962927
 20
12.9159737212
 30
0.0
 10
14.5199636487
 20
12.9193815912
 30
0.0
 10
14.520730623
 20
12.9229450863
 30
0.0
 10
14.5213929848
 20
12.9266447233
 30
0.0
 10
14.5219470791
 20
12.9304602479
 30
0.0
 10
14.5223898432
 20
12.9343707503
 30
0.0
 10
14.5227188362
 20
12.9383547977
 30
0.0
 10
14.5229322272
 20
12.9423905143
 30
0.0
 10
14.5230288582
 20
12.9464558149
 30
0.0
 10
14.5230081652
 20
12.9505282926
 30
0.0
 10
14.5229159568
 20
12.9532417949
 30
0.0
 10
14.522850081
 20
12.954595334
 30
0.0
  0
SPLINE
  5
397
100
AcDbEntity
  8
LAYER_FEATURE
100
AcDbSpline
 62
7
  6
CONTINUOUS
 70
0
 71
3
 72
10
 73
6
 74
0
 42
0.0000001
 43
0.0000001
 44
0.0000000001
 40
0.0
 40
0.0
 40
0.0
 40
0.0
 40
0.5072343248
 40
0.7558801595
 40
1.0
 40
1.0
 40
1.0
 40
1.0
 10
14.522850081
 20
12.954595334
 30
0.0
 10
14.5227196876
 20
12.9572745085
 30
0.0
 10
14.5224228381
 20
12.9612632119
 30
0.0
 10
14.5218153362
 20
12.9665168183
 30
0.0
 10
14.5214435134
 20
12.9690964465
 30
0.0
 10
14.5212405183
 20
12.970371336
 30
0.0
  0
SPLINE
  5
398
100
AcDbEntity
  8
LAYER_FEATURE
100
AcDbSpline
 62
7
  6
CONTINUOUS
 70
0
 71
3
 72
15
 73
11
 74
0
 42
0.0000001
 43
0.0000001
 44
0.0000000001
 40
0.0
 40
0.0
 40
0.0
 40
0.0
 40
0.1384950748
 40
0.2738099542
 40
0.4055723267
 40
0.5334410664
 40
0.6570941686
 40
0.7762383224
 40
0.8906161874
 40
1.0
 40
1.0
 40
1.0
 40
1.0
 10
14.5212405183
 20
12.970371336
 30
0.0
 10
14.5210220836
 20
12.9717431916
 30
0.0
 10
14.5205550737
 20
12.9744499602
 30
0.0
 10
14.5197540948
 20
12.9784388256
 30
0.0
 10
14.5188628991
 20
12.982299271
 30
0.0
 10
14.517884639
 20
12.9860178002
 30
0.0
 10
14.5168227112
 20
12.9895814994
 30
0.0
 10
14.515680829
 20
12.992978031
 30
0.0
 10
14.5144629896
 20
12.996195502
 30
0.0
 10
14.5135830939
 20
12.9982611062
 30
0.0
 10
14.5131300626
 20
12.9992603502
 30
0.0
  0
LINE
  5
399
100
AcDbEntity
  8
LAYER_FEATURE
100
AcDbLine
 62
7
  6
CONTINUOUS
 10
14.5096656144
 20
13.0078169016
 11
14.5105815084
 21
13.0050417243
  0
SPLINE
  5
39A
100
AcDbEntity
  8
LAYER_FEATURE
100
AcDbSpline
 62
7
  6
CONTINUOUS
 70
0
 71
3
 72
15
 73
11
 74
0
 42
0.0000001
 43
0.0000001
 44
0.0000000001
 40
0.0
 40
0.0
 40
0.0
 40
0.0
 40
0.1181618845
 40
0.2424435372
 40
0.3708565955
 40
0.5012804337
 40
0.6315381252
 40
0.7594575291
 40
0.88293263
 40
1.0
 40
1.0
 40
1.0
 40
1.0
 10
14.5095680585
 20
13.0312647686
 30
0.0
 10
14.509351125
 20
13.0303589784
 30
0.0
 10
14.5089737848
 20
13.028483816
 30
0.0
 10
14.5085774873
 20
13.0255859112
 30
0.0
 10
14.5083416183
 20
13.0225735909
 30
0.0
 10
14.5082709641
 20
13.0195058716
 30
0.0
 10
14.5083669128
 20
13.0164427273
 30
0.0
 10
14.5086275688
 20
13.0134440328
 30
0.0
 10
14.5090476466
 20
13.0105685267
 30
0.0
 10
14.5094408655
 20
13.0087118916
 30
0.0
 10
14.5096656144
 20
13.0078169016
 30
0.0
  0
SPLINE
  5
39B
100
AcDbEntity
  8
LAYER_FEATURE
100
AcDbSpline
 62
7
  6
CONTINUOUS
 70
0
 71
3
 72
80
 73
76
 74
0
 42
0.0000001
 43
0.0000001
 44
0.0000000001
 40
0.0
 40
0.0
 40
0.0
 40
0.0
 40
0.0168702021
 40
0.0341063874
 40
0.0516914588
 40
0.069607825
 40
0.0878368343
 40
0.106359184
 40
0.1251548512
 40
0.1442032004
 40
0.1634830294
 40
0.1829726297
 40
0.2026498404
 40
0.2224921027
 40
0.2424765114
 40
0.2625798667
 40
0.2827787241
 40
0.3030494437
 40
0.32336824
 40
0.3437112295
 40
0.3640544801
 40
0.384374059
 40
0.4046460814
 40
0.4248467588
 40
0.4449524479
 40
0.4649396993
 40
0.4847853073
 40
0.5044663598
 40
0.5239602899
 40
0.5432449273
 40
0.5622985531
 40
0.581099954
 40
0.5996284792
 40
0.6178640999
 40
0.6357874713
 40
0.6533799981
 40
0.6706239038
 40
0.6875023058
 40
0.7039992955
 40
0.7201000269
 40
0.7357908121
 40
0.7510592277
 40
0.7658942332
 40
0.7802863042
 40
0.7942275838
 40
0.807712053
 40
0.8207357274
 40
0.8332968806
 40
0.8453963013
 40
0.8570375849
 40
0.8682274637
 40
0.8789761777
 40
0.8892978803
 40
0.8992110714
 40
0.9087390376
 40
0.9179102652
 40
0.9267587785
 40
0.9310750908
 40
0.935326125
 40
0.9395177365
 40
0.9436561199
 40
0.9477477872
 40
0.9517995385
 40
0.955818437
 40
0.9598117614
 40
0.963786971
 40
0.9677516496
 40
0.9717134577
 40
0.9756800757
 40
0.9796591498
 40
0.9836582371
 40
0.9876847561
 40
0.9917459339
 40
0.9958487728
 40
1.0
 40
1.0
 40
1.0
 40
1.0
 10
14.5309290187
 20
13.1262204803
 30
0.0
 10
14.5279202826
 20
13.1164842069
 30
0.0
 10
14.5220519433
 20
13.0967335641
 30
0.0
 10
14.5137772042
 20
13.066623304
 30
0.0
 10
14.5059443635
 20
13.035742667
 30
0.0
 10
14.4985643321
 20
13.0041346823
 30
0.0
 10
14.4916473413
 20
12.9718429897
 30
0.0
 10
14.4852029906
 20
12.9389123617
 30
0.0
 10
14.4792402282
 20
12.905388396
 30
0.0
 10
14.4737673316
 20
12.8713175417
 30
0.0
 10
14.4687919009
 20
12.836747004
 30
0.0
 10
14.4643208454
 20
12.8017246877
 30
0.0
 10
14.4603603732
 20
12.7662991275
 30
0.0
 10
14.4569159839
 20
12.7305194205
 30
0.0
 10
14.4539924605
 20
12.6944351572
 30
0.0
 10
14.4515938629
 20
12.6580963525
 30
0.0
 10
14.4497235226
 20
12.6215533755
 30
0.0
 10
14.4483840371
 20
12.5848568801
 30
0.0
 10
14.4475772672
 20
12.5480577339
 30
0.0
 10
14.447304334
 20
12.5112069476
 30
0.0
 10
14.4475656172
 20
12.4743556041
 30
0.0
 10
14.4483607533
 20
12.437554787
 30
0.0
 10
14.4496886374
 20
12.4008555095
 30
0.0
 10
14.4515474249
 20
12.3643086431
 30
0.0
 10
14.4539345341
 20
12.3279648469
 30
0.0
 10
14.4568466495
 20
12.2918744972
 30
0.0
 10
14.4602797272
 20
12.2560876172
 30
0.0
 10
14.4642289996
 20
12.2206538073
 30
0.0
 10
14.4686889829
 20
12.1856221763
 30
0.0
 10
14.4736534843
 20
12.1510412719
 30
0.0
 10
14.4791156096
 20
12.116959013
 30
0.0
 10
14.4850677741
 20
12.0834226223
 30
0.0
 10
14.4915017138
 20
12.0504785607
 30
0.0
 10
14.4984084971
 20
12.0181724621
 30
0.0
 10
14.5057785375
 20
11.9865490692
 30
0.0
 10
14.5136016079
 20
11.9556521709
 30
0.0
 10
14.5218668554
 20
11.92552454
 30
0.0
 10
14.5305628177
 20
11.8962078731
 30
0.0
 10
14.5396774404
 20
11.8677427307
 30
0.0
 10
14.5491980943
 20
11.8401684786
 30
0.0
 10
14.5591115969
 20
11.813523232
 30
0.0
 10
14.5694042341
 20
11.7878438019
 30
0.0
 10
14.5800617838
 20
11.7631656424
 30
0.0
 10
14.5910695408
 20
11.7395228001
 30
0.0
 10
14.6024123447
 20
11.7169478667
 30
0.0
 10
14.6140746099
 20
11.6954719339
 30
0.0
 10
14.6260403586
 20
11.6751245522
 30
0.0
 10
14.6382932571
 20
11.6559336951
 30
0.0
 10
14.6508166532
 20
11.6379257277
 30
0.0
 10
14.6635936188
 20
11.6211253878
 30
0.0
 10
14.6766069948
 20
11.6055557765
 30
0.0
 10
14.6898394237
 20
11.5912383678
 30
0.0
 10
14.7032734106
 20
11.5781930198
 30
0.0
 10
14.7168912436
 20
11.5664380611
 30
0.0
 10
14.7306753229
 20
11.5559902006
 30
0.0
 10
14.7446069072
 20
11.5468651231
 30
0.0
 10
14.7564224337
 20
11.5403207
 30
0.0
 10
14.7659164483
 20
11.5357831575
 30
0.0
 10
14.7730024369
 20
11.5327460478
 30
0.0
 10
14.7801096313
 20
11.5300483782
 30
0.0
 10
14.7872356544
 20
11.5276910924
 30
0.0
 10
14.7943779755
 20
11.525675078
 30
0.0
 10
14.801534096
 20
11.5240011482
 30
0.0
 10
14.8087014619
 20
11.5226698859
 30
0.0
 10
14.8158775353
 20
11.52168189
 30
0.0
 10
14.8230597351
 20
11.5210374669
 30
0.0
 10
14.8302454907
 20
11.5207369474
 30
0.0
 10
14.8374322118
 20
11.5207803916
 30
0.0
 10
14.8446173132
 20
11.5211678179
 30
0.0
 10
14.8517982076
 20
11.521899064
 30
0.0
 10
14.8589723259
 20
11.5229738218
 30
0.0
 10
14.8661370822
 20
11.5243917103
 30
0.0
 10
14.8732899861
 20
11.526152128
 30
0.0
 10
14.8804283173
 20
11.5282544099
 30
0.0
 10
14.8851461438
 20
11.5298730806
 30
0.0
 10
14.8875000726
 20
11.5307373499
 30
0.0
  0
SPLINE
  5
39C
100
AcDbEntity
  8
LAYER_FEATURE
100
AcDbSpline
 62
7
  6
CONTINUOUS
 70
0
 71
3
 72
49
 73
45
 74
0
 42
0.0000001
 43
0.0000001
 44
0.0000000001
 40
0.0
 40
0.0
 40
0.0
 40
0.0
 40
0.0462523468
 40
0.0915388684
 40
0.135828283
 40
0.179094185
 40
0.2213113049
 40
0.2624575084
 40
0.3025135602
 40
0.3414633947
 40
0.3792944461
 40
0.4159979497
 40
0.4515693332
 40
0.4860086068
 40
0.5193208154
 40
0.551516554
 40
0.5826125544
 40
0.6126323107
 40
0.6416067388
 40
0.6695748877
 40
0.6965846685
 40
0.7097491975
 40
0.7226965384
 40
0.7479721794
 40
0.7724927973
 40
0.7963473879
 40
0.8080577037
 40
0.8196397198
 40
0.8311074202
 40
0.8424753237
 40
0.8537584587
 40
0.86497227
 40
0.8761325718
 40
0.8872554638
 40
0.8983572439
 40
0.9094543296
 40
0.9205631618
 40
0.9317001194
 40
0.9428814228
 40
0.9541230626
 40
0.965440701
 40
0.9768496112
 40
0.9883646149
 40
1.0
 40
1.0
 40
1.0
 40
1.0
 10
14.5309290187
 20
13.1262204803
 30
0.0
 10
14.5335035492
 20
13.1345516643
 30
0.0
 10
14.5387528334
 20
13.1509930036
 30
0.0
 10
14.5470193342
 20
13.175231341
 30
0.0
 10
14.5555885715
 20
13.1987662135
 30
0.0
 10
14.5644513317
 20
13.2215724945
 30
0.0
 10
14.5735983374
 20
13.2436262305
 30
0.0
 10
14.5830198929
 20
13.2649040801
 30
0.0
 10
14.5927060561
 20
13.285383602
 30
0.0
 10
14.6026466198
 20
13.3050431938
 30
0.0
 10
14.6128311234
 20
13.323862126
 30
0.0
 10
14.6232488782
 20
13.3418205673
 30
0.0
 10
14.6338889626
 20
13.3588996133
 30
0.0
 10
14.6447402584
 20
13.3750812934
 30
0.0
 10
14.6557914673
 20
13.3903485809
 30
0.0
 10
14.6670311309
 20
13.4046853995
 30
0.0
 10
14.6784476506
 20
13.4180766488
 30
0.0
 10
14.6900292652
 20
13.4305081752
 30
0.0
 10
14.7017642212
 20
13.441966859
 30
0.0
 10
14.7136402697
 20
13.4524402184
 30
0.0
 10
14.7237298484
 20
13.4604047895
 30
0.0
 10
14.7318581486
 20
13.4662578014
 30
0.0
 10
14.7398883996
 20
13.4716796585
 30
0.0
 10
14.7499962974
 20
13.4778412701
 30
0.0
 10
14.7623156094
 20
13.4842696234
 30
0.0
 10
14.7727127391
 20
13.4887938598
 30
0.0
 10
14.7810505664
 20
13.4918791053
 30
0.0
 10
14.7872800612
 20
13.4939188873
 30
0.0
 10
14.7935218491
 20
13.4956979027
 30
0.0
 10
14.799774357
 20
13.4972156398
 30
0.0
 10
14.8060358621
 20
13.4984717088
 30
0.0
 10
14.8123046893
 20
13.4994657072
 30
0.0
 10
14.8185791337
 20
13.5001973489
 30
0.0
 10
14.824857488
 20
13.5006664552
 30
0.0
 10
14.8311380459
 20
13.5008728267
 30
0.0
 10
14.8374190918
 20
13.5008164606
 30
0.0
 10
14.8436989147
 20
13.500497347
 30
0.0
 10
14.8499757994
 20
13.4999155639
 30
0.0
 10
14.8562480434
 20
13.4990713324
 30
0.0
 10
14.8625139371
 20
13.4979648371
 30
0.0
 10
14.8687717822
 20
13.4965964474
 30
0.0
 10
14.875019921
 20
13.4949665417
 30
0.0
 10
14.8812565499
 20
13.4930755967
 30
0.0
 10
14.8853827218
 20
13.4916492121
 30
0.0
 10
14.8874421844
 20
13.490893878
 30
0.0
  0
SPLINE
  5
39D
100
AcDbEntity
  8
LAYER_FEATURE
100
AcDbSpline
 62
7
  6
CONTINUOUS
 70
0
 71
3
 72
76
 73
72
 74
0
 42
0.0000001
 43
0.0000001
 44
0.0000000001
 40
0.0
 40
0.0
 40
0.0
 40
0.0
 40
0.0163579319
 40
0.0330507458
 40
0.0500637514
 40
0.0673820247
 40
0.0849896778
 40
0.1028703205
 40
0.1210069566
 40
0.1393820792
 40
0.1579777039
 40
0.1767754155
 40
0.1957564115
 40
0.2149015422
 40
0.2341913514
 40
0.2536061154
 40
0.2731258816
 40
0.292730506
 40
0.3123996917
 40
0.3321130259
 40
0.3518500166
 40
0.3715901299
 40
0.391312826
 40
0.4109975959
 40
0.4306239989
 40
0.450171699
 40
0.4696205022
 40
0.4889503939
 40
0.5081415766
 40
0.5271745082
 40
0.5460299411
 40
0.5646889628
 40
0.5831330367
 40
0.601344044
 40
0.6193043266
 40
0.636996733
 40
0.6544046645
 40
0.6715121261
 40
0.6883037794
 40
0.7047649988
 40
0.7208819308
 40
0.7366415595
 40
0.7520317768
 40
0.7670414605
 40
0.7816605603
 40
0.7958801947
 40
0.8096927578
 40
0.8230920391
 40
0.836073359
 40
0.8486337234
 40
0.8607719989
 40
0.8724891115
 40
0.8837882728
 40
0.8946752324
 40
0.9051585573
 40
0.9152499392
 40
0.9249645208
 40
0.9343212306
 40
0.943343106
 40
0.9520575736
 40
0.9604966434
 40
0.9646249637
 40
0.9686985657
 40
0.9727227351
 40
0.976703008
 40
0.9806451669
 40
0.9845552064
 40
0.9884393115
 40
0.9923038239
 40
0.996155205
 40
1.0
 40
1.0
 40
1.0
 40
1.0
 10
14.4801644701
 20
13.1728196091
 30
0.0
 10
14.4771227426
 20
13.1629765754
 30
0.0
 10
14.4711806293
 20
13.1430255188
 30
0.0
 10
14.4627692209
 20
13.1126359337
 30
0.0
 10
14.4547770079
 20
13.0815085487
 30
0.0
 10
14.4472138335
 20
13.0496817652
 30
0.0
 10
14.4400889696
 20
13.0171944222
 30
0.0
 10
14.4334111603
 20
12.9840863728
 30
0.0
 10
14.4271886058
 20
12.950398161
 30
0.0
 10
14.4214289457
 20
12.9161710714
 30
0.0
 10
14.4161392506
 20
12.8814470479
 30
0.0
 10
14.4113260145
 20
12.8462686491
 30
0.0
 10
14.4069951472
 20
12.8106789926
 30
0.0
 10
14.4031519669
 20
12.7747217027
 30
0.0
 10
14.3998011934
 20
12.7384408565
 30
0.0
 10
14.3969469426
 20
12.7018809295
 30
0.0
 10
14.3945927211
 20
12.6650867415
 30
0.0
 10
14.392741419
 20
12.6281034012
 30
0.0
 10
14.3913953089
 20
12.5909762503
 30
0.0
 10
14.3905560434
 20
12.5537508071
 30
0.0
 10
14.3902246531
 20
12.5164727109
 30
0.0
 10
14.3904015454
 20
12.4791876657
 30
0.0
 10
14.3910865039
 20
12.4419413843
 30
0.0
 10
14.3922786889
 20
12.4047795321
 30
0.0
 10
14.3939766354
 20
12.3677476704
 30
0.0
 10
14.3961782568
 20
12.3308912
 30
0.0
 10
14.3988808489
 20
12.2942553056
 30
0.0
 10
14.4020810926
 20
12.2578849005
 30
0.0
 10
14.4057750582
 20
12.2218245711
 30
0.0
 10
14.4099582101
 20
12.1861185221
 30
0.0
 10
14.414625413
 20
12.1508105222
 30
0.0
 10
14.4197709351
 20
12.1159438486
 30
0.0
 10
14.425388457
 20
12.081561234
 30
0.0
 10
14.4314710811
 20
12.0477048139
 30
0.0
 10
14.4380113395
 20
12.0144160755
 30
0.0
 10
14.445001204
 20
11.9817358055
 30
0.0
 10
14.4524320957
 20
11.9497040406
 30
0.0
 10
14.4602948969
 20
11.9183600163
 30
0.0
 10
14.4685799597
 20
11.8877421175
 30
0.0
 10
14.4772771201
 20
11.8578878299
 30
0.0
 10
14.4863757131
 20
11.8288336946
 30
0.0
 10
14.4958645865
 20
11.8006152627
 30
0.0
 10
14.5057321162
 20
11.7732670506
 30
0.0
 10
14.5159662226
 20
11.7468224968
 30
0.0
 10
14.5265543891
 20
11.7213139191
 30
0.0
 10
14.5374836777
 20
11.6967724721
 30
0.0
 10
14.5487407504
 20
11.6732281081
 30
0.0
 10
14.5603118929
 20
11.6507095419
 30
0.0
 10
14.5721830379
 20
11.6292442171
 30
0.0
 10
14.5843397908
 20
11.6088582741
 30
0.0
 10
14.5967674569
 20
11.5895765224
 30
0.0
 10
14.6094510727
 20
11.5714224174
 30
0.0
 10
14.6223754343
 20
11.5544180404
 30
0.0
 10
14.6355251296
 20
11.5385840898
 30
0.0
 10
14.6488845732
 20
11.5239398837
 30
0.0
 10
14.6624380247
 20
11.5105033764
 30
0.0
 10
14.6761696304
 20
11.4982911748
 30
0.0
 10
14.6900633327
 20
11.4873186095
 30
0.0
 10
14.7041031606
 20
11.4775996626
 30
0.0
 10
14.7182720429
 20
11.4691474232
 30
0.0
 10
14.7302616375
 20
11.4631249392
 30
0.0
 10
14.7398865744
 20
11.4589715301
 30
0.0
 10
14.7470734956
 20
11.456201735
 30
0.0
 10
14.7542785119
 20
11.4537556185
 30
0.0
 10
14.761499522
 20
11.4516339971
 30
0.0
 10
14.7687342342
 20
11.4498375389
 30
0.0
 10
14.7759804115
 20
11.4483668788
 30
0.0
 10
14.783235762
 20
11.4472225146
 30
0.0
 10
14.790498051
 20
11.4464048096
 30
0.0
 10
14.7977647959
 20
11.4459141008
 30
0.0
 10
14.8026125883
 20
11.445804995
 30
0.0
 10
14.8050340581
 20
11.4458049933
 30
0.0
  0
SPLINE
  5
39E
100
AcDbEntity
  8
LAYER_FEATURE
100
AcDbSpline
 62
7
  6
CONTINUOUS
 70
0
 71
3
 72
40
 73
36
 74
0
 42
0.0000001
 43
0.0000001
 44
0.0000000001
 40
0.0
 40
0.0
 40
0.0
 40
0.0
 40
0.0443811459
 40
0.087966727
 40
0.1307332077
 40
0.1726614786
 40
0.2137326651
 40
0.2539296147
 40
0.2932370217
 40
0.3316413439
 40
0.3691310612
 40
0.405696776
 40
0.4413313808
 40
0.4760302945
 40
0.5097916238
 40
0.542616385
 40
0.5745088043
 40
0.6054765731
 40
0.6355311261
 40
0.6646880078
 40
0.6929672345
 40
0.7203936285
 40
0.7469972191
 40
0.7728136586
 40
0.7978845461
 40
0.8101562346
 40
0.8222600486
 40
0.8459899713
 40
0.8691376742
 40
0.8917708204
 40
0.9139634688
 40
0.9357955988
 40
0.9573523573
 40
0.9787230689
 40
1.0
 40
1.0
 40
1.0
 40
1.0
 10
15.5903081556
 20
13.1728196091
 30
0.0
 10
15.5927038897
 20
13.1805722075
 30
0.0
 10
15.5975765561
 20
13.1959004287
 30
0.0
 10
15.6052013228
 20
13.2185551712
 30
0.0
 10
15.6130710998
 20
13.2406506161
 30
0.0
 10
15.6211795491
 20
13.262169071
 30
0.0
 10
15.6295203337
 20
13.2830937119
 30
0.0
 10
15.6380868502
 20
13.3034079924
 30
0.0
 10
15.6468723415
 20
13.3230958849
 30
0.0
 10
15.6558698929
 20
13.3421418706
 30
0.0
 10
15.6650724029
 20
13.3605309435
 30
0.0
 10
15.6744726335
 20
13.3782486145
 30
0.0
 10
15.68406321
 20
13.3952809233
 30
0.0
 10
15.6938365922
 20
13.4116144701
 30
0.0
 10
15.7037851204
 20
13.4272364042
 30
0.0
 10
15.7139010296
 20
13.442134425
 30
0.0
 10
15.7241764201
 20
13.4562968179
 30
0.0
 10
15.7346032869
 20
13.4697124476
 30
0.0
 10
15.7451735501
 20
13.4823707427
 30
0.0
 10
15.7558790337
 20
13.494261719
 30
0.0
 10
15.7667114743
 20
13.5053759967
 30
0.0
 10
15.7776625315
 20
13.5157047426
 30
0.0
 10
15.7887238875
 20
13.5252397457
 30
0.0
 10
15.7998868301
 20
13.5339731902
 30
0.0
 10
15.8093336203
 20
13.5406241811
 30
0.0
 10
15.816930656
 20
13.5455264829
 30
0.0
 10
15.8244498853
 20
13.550090893
 30
0.0
 10
15.8339011447
 20
13.5552969576
 30
0.0
 10
15.8453848948
 20
13.5607590867
 30
0.0
 10
15.8569268326
 20
13.5653898465
 30
0.0
 10
15.8685175787
 20
13.569184839
 30
0.0
 10
15.880147714
 20
13.5721404814
 30
0.0
 10
15.8918078322
 20
13.5742538288
 30
0.0
 10
15.9034873237
 20
13.5755227017
 30
0.0
 10
15.9112876231
 20
13.5758049907
 30
0.0
 10
15.9151777435
 20
13.5758049869
 30
0.0
  0
SPLINE
  5
39F
100
AcDbEntity
  8
LAYER_FEATURE
100
AcDbSpline
 62
7
  6
CONTINUOUS
 70
0
 71
3
 72
71
 73
67
 74
0
 42
0.0000001
 43
0.0000001
 44
0.0000000001
 40
0.0
 40
0.0
 40
0.0
 40
0.0
 40
0.0233169042
 40
0.0462709553
 40
0.0688520668
 40
0.0910524723
 40
0.112864575
 40
0.1342810146
 40
0.1552951873
 40
0.1759010897
 40
0.196093339
 40
0.2158672644
 40
0.2352189101
 40
0.2541451383
 40
0.2726436315
 40
0.2907129814
 40
0.3083527646
 40
0.3255635696
 40
0.3423471383
 40
0.3587063956
 40
0.3746455672
 40
0.3901702922
 40
0.4052876829
 40
0.4200064967
 40
0.4343372012
 40
0.4482921133
 40
0.4618855302
 40
0.4751337988
 40
0.4880554674
 40
0.5006713254
 40
0.5130044728
 40
0.5250803489
 40
0.5369266707
 40
0.5485733798
 40
0.5600524634
 40
0.5713977383
 40
0.5826445618
 40
0.5938294575
 40
0.6049897119
 40
0.6161629157
 40
0.6273864996
 40
0.6386972706
 40
0.6501309932
 40
0.661721995
 40
0.6735028631
 40
0.6855041955
 40
0.6977544104
 40
0.7102796694
 40
0.7231037929
 40
0.7362482906
 40
0.749732401
 40
0.7635731402
 40
0.7777854428
 40
0.792382219
 40
0.8073745056
 40
0.822771581
 40
0.8385810492
 40
0.8548090089
 40
0.871460103
 40
0.8885376575
 40
0.9060437748
 40
0.9239793846
 40
0.9423443838
 40
0.9611376513
 40
0.980357152
 40
1.0
 40
1.0
 40
1.0
 40
1.0
 10
15.5852786691
 20
13.1262204803
 30
0.0
 10
15.5872250897
 20
13.1325190996
 30
0.0
 10
15.5911759008
 20
13.1449912655
 30
0.0
 10
15.5973261826
 20
13.1634618071
 30
0.0
 10
15.6036511836
 20
13.1815392248
 30
0.0
 10
15.6101469951
 20
13.199212404
 30
0.0
 10
15.6168097267
 20
13.216470861
 30
0.0
 10
15.6236354101
 20
13.2333041971
 30
0.0
 10
15.6306198967
 20
13.2497022688
 30
0.0
 10
15.6377590003
 20
13.2656552167
 30
0.0
 10
15.6450484353
 20
13.2811534489
 30
0.0
 10
15.6524837989
 20
13.2961876537
 30
0.0
 10
15.6600606572
 20
13.3107487826
 30
0.0
 10
15.6677744348
 20
13.324828099
 30
0.0
 10
15.6756205215
 20
13.3384171393
 30
0.0
 10
15.6835942237
 20
13.3515077392
 30
0.0
 10
15.6916907474
 20
13.3640920513
 30
0.0
 10
15.6999052889
 20
13.3761625024
 30
0.0
 10
15.7082329184
 20
13.3877118637
 30
0.0
 10
15.7166686902
 20
13.3987331938
 30
0.0
 10
15.7252075975
 20
13.4092198669
 30
0.0
 10
15.7338445489
 20
13.4191655994
 30
0.0
 10
15.7425744662
 20
13.4285643792
 30
0.0
 10
15.7513921628
 20
13.4374105622
 30
0.0
 10
15.760292453
 20
13.4456987897
 30
0.0
 10
15.7692701076
 20
13.4534240172
 30
0.0
 10
15.7783198243
 20
13.4605815542
 30
0.0
 10
15.7874363185
 20
13.4671669564
 30
0.0
 10
15.7966142038
 20
13.473176159
 30
0.0
 10
15.8058480822
 20
13.4786053643
 30
0.0
 10
15.8151324966
 20
13.483451079
 30
0.0
 10
15.8244618969
 20
13.4877101804
 30
0.0
 10
15.8338307029
 20
13.4913797778
 30
0.0
 10
15.8432332068
 20
13.4944574056
 30
0.0
 10
15.8526636371
 20
13.4969408977
 30
0.0
 10
15.862116126
 20
13.4988284524
 30
0.0
 10
15.8715847089
 20
13.5001187373
 30
0.0
 10
15.8810633675
 20
13.5008107325
 30
0.0
 10
15.8905460204
 20
13.5009039623
 30
0.0
 10
15.9000265756
 20
13.5003983432
 30
0.0
 10
15.9094989434
 20
13.4992942327
 30
0.0
 10
15.9189570869
 20
13.4975925074
 30
0.0
 10
15.9283950156
 20
13.4952943622
 30
0.0
 10
15.9378068396
 20
13.4924014983
 30
0.0
 10
15.9471867507
 20
13.4889159442
 30
0.0
 10
15.9565290208
 20
13.4848400762
 30
0.0
 10
15.9658280418
 20
13.480176676
 30
0.0
 10
15.9750782366
 20
13.4749287595
 30
0.0
 10
15.9842741397
 20
13.4690997396
 30
0.0
 10
15.9934103237
 20
13.4626932995
 30
0.0
 10
16.0024813977
 20
13.4557134208
 30
0.0
 10
16.0114820616
 20
13.4481644471
 30
0.0
 10
16.0204069941
 20
13.4400509651
 30
0.0
 10
16.0292509672
 20
13.4313779336
 30
0.0
 10
16.0380087679
 20
13.4221506
 30
0.0
 10
16.0466752076
 20
13.4123745182
 30
0.0
 10
16.0552451913
 20
13.4020555992
 30
0.0
 10
16.0637136053
 20
13.3912000227
 30
0.0
 10
16.0720754401
 20
13.3798143255
 30
0.0
 10
16.0803257182
 20
13.367905342
 30
0.0
 10
16.0884595005
 20
13.3554802108
 30
0.0
 10
16.0964719624
 20
13.3425464066
 30
0.0
 10
16.1043582786
 20
13.3291116836
 30
0.0
 10
16.1121137558
 20
13.3151840996
 30
0.0
 10
16.1197337105
 20
13.3007720956
 30
0.0
 10
16.1246669385
 20
13.2909530571
 30
0.0
 10
16.1271112256
 20
13.2859661442
 30
0.0
  0
ENDSEC
  0
SECTION
  2
OBJECTS
  0
DICTIONARY
  5
C
100
AcDbDictionary
280
0
281
1
  3
ACAD_GROUP
350
D
  3
ACAD_MLINESTYLE
350
17
  3
ACAD_LAYOUT
350
1A
  3
ACAD_PLOTSETTINGS
350
19
  3
ACAD_PLOTSTYLENAME
350
E
  0
DICTIONARY
  5
D
102
{ACAD_REACTORS
330
C
102
}
100
AcDbDictionary
280
0
281
1
  0
ACDBDICTIONARYWDFLT
  5
E
102
{ACAD_REACTORS
330
C
102
}
100
AcDbDictionary
281
1
  3
Normal
350
F
100
AcDbDictionaryWithDefault
340
F
  0
DICTIONARY
  5
17
102
{ACAD_REACTORS
330
C
102
}
100
AcDbDictionary
280
0
281
1
  3
Standard
350
18
  0
DICTIONARY
  5
19
102
{ACAD_REACTORS
330
C
102
}
100
AcDbDictionary
281
1
  0
DICTIONARY
  5
1A
102
{ACAD_REACTORS
330
C
102
}
100
AcDbDictionary
281
1
  3
Model
350
3A0
  3
Layout1
350
3A1
  0
ACDBPLACEHOLDER
  5
F
102
{ACAD_REACTORS
330
E
102
}
  0
MLINESTYLE
  5
18
102
{ACAD_REACTORS
330
17
102
}
100
AcDbMlineStyle
  2
STANDARD
 70
0
  3

 62
256
 51
90.0
 52
90.0
 71
2
 49
0.5
 62
256
  6
BYLAYER
 49
-0.5
 62
256
  6
BYLAYER
  0
LAYOUT
  5
3A0
102
{ACAD_REACTORS
330
1A
102
}
100
AcDbPlotSettings
  1

  2
none_device
  4
ANSI_C_(22.00_x_17.00_Inches)
  6

 40
0.0
 41
0.0
 42
0.0
 43
0.0
 44
558.8
 45
431.8
 46
0.0
 47
0.0
 48
0.0
 49
0.0
140
0.0
141
0.0
142
1.0
143
1.0
 70
1024
 72
0
 73
0
 74
0
  7

 75
0
147
1.0
148
0.0
149
0.0
100
AcDbLayout
  1
Model
 70
0
 71
0
 10
0.0
 20
0.0
 11
22.0
 21
17.0
 12
0.0
 22
0.0
 32
0.0
 14
0.0
 24
0.0
 34
0.0
 15
0.0
 25
0.0
 35
0.0
146
0.0
 13
0.0
 23
0.0
 33
0.0
 16
1.0
 26
0.0
 36
0.0
 17
0.0
 27
1.0
 37
0.0
 76
0
330
220
345
0
346
0
  0
LAYOUT
  5
3A1
102
{ACAD_REACTORS
330
1A
102
}
100
AcDbPlotSettings
  1

  2
none_device
  4
ANSI_C_(22.00_x_17.00_Inches)
  6

 40
0.0
 41
0.0
 42
0.0
 43
0.0
 44
558.8
 45
431.8
 46
0.0
 47
0.0
 48
0.0
 49
0.0
140
0.0
141
0.0
142
1.0
143
1.0
 70
0
 72
0
 73
0
 74
0
  7

 75
0
147
1.0
148
0.0
149
0.0
100
AcDbLayout
  1
Layout1
 70
0
 71
1
 10
0.0
 20
0.0
 11
22.0
 21
17.0
 12
0.0
 22
0.0
 32
0.0
 14
0.0
 24
0.0
 34
0.0
 15
0.0
 25
0.0
 35
0.0
146
0.0
 13
0.0
 23
0.0
 33
0.0
 16
1.0
 26
0.0
 36
0.0
 17
0.0
 27
1.0
 37
0.0
 76
0
330
221
345
0
346
0
  0
ENDSEC
  0
EOF