999
DXF file: _cgs_temp_output.dxf
999
Pro/ENGINEER 2016360 by Parametric Technology Corporation
  0
SECTION
  2
HEADER
  9
$ACADVER
  1
AC1021
  9
$DWGCODEPAGE
  3
ANSI_1252
  9
$EXTMAX
 10
22.0
 20
17.0
 30
0.0
  9
$EXTMIN
 10
0.0
 20
0.0
 30
0.0
  9
$LIMMIN
 10
0.0
 20
0.0
  9
$LIMMAX
 10
22.0
 20
17.0
  9
$VIEWCTR
 10
11.0
 20
8.5
  9
$VIEWSIZE
 40
17.0
  9
$CLAYER
  8
0
  9
$LTSCALE
 40
1.21
  9
$CELTYPE
  6
BYLAYER
  9
$DIMSCALE
 40
1.0
  9
$DIMASZ
 40
0.1875
  9
$DIMEXO
 40
0.0625
  9
$DIMDLI
 40
0.836
  9
$DIMEXE
 40
0.125
  9
$DIMCEN
 40
0.198
  9
$DIMLFAC
 40
1.0
  9
$DIMBLK
  1
_CLOSED
  9
$DIMALT
 70
0
  9
$DIMALTF
 40
25.4
  9
$DIMTXT
 40
0.15625
  9
$DIMTOL
 70
0
  9
$DIMLIM
 70
0
  9
$DIMTFAC
 40
1.0
  9
$DIMGAP
 40
0.09
  9
$DIMDSEP
 70
46
  9
$AUNITS
 70
0
  9
$PDMODE
 70
3
  9
$PDSIZE
 40
0.3125
  9
$HANDSEED
  5
342
  9
$TILEMODE
 70
1
  9
$MEASUREMENT
 70
0
  9
$INSUNITS
 70
1
  0
ENDSEC
  0
SECTION
  2
CLASSES
  0
CLASS
  1
ACDBDICTIONARYWDFLT
  2
AcDbDictionaryWithDefault
  3
AutoCAD 2000
 90
0
 91
1
280
0
281
0
  0
CLASS
  1
ACDBPLACEHOLDER
  2
AcDbPlaceHolder
  3
AutoCAD 2000
 90
0
 91
1
280
0
281
0
  0
CLASS
  1
LAYOUT
  2
AcDbLayout
  3
AutoCAD 2000
 90
0
 91
0
280
0
281
0
  0
ENDSEC
  0
SECTION
  2
TABLES
  0
TABLE
  2
VPORT
  5
8
100
AcDbSymbolTable
 70
2
  0
VPORT
  5
1F4
100
AcDbSymbolTableRecord
100
AcDbViewportTableRecord
  2
*ACTIVE
 70
0
 10
0.0
 20
0.0
 11
1.0
 21
1.0
 12
11.0
 22
8.5
 13
0.0
 23
0.0
 14
1.0
 24
1.0
 15
0.0
 25
0.0
 16
0.0
 26
0.0
 36
1.0
 17
0.0
 27
0.0
 37
0.0
 40
17.0
 41
1.2941176471
 42
50.0
 43
0.0
 44
0.0
 50
0.0
 51
0.0
 71
0
 72
100
 73
1
 74
1
 75
0
 76
0
 77
0
 78
0
  0
ENDTAB
  0
TABLE
  2
LTYPE
  5
5
100
AcDbSymbolTable
 70
6
  0
LTYPE
  5
14
100
AcDbSymbolTableRecord
100
AcDbLinetypeTableRecord
  2
BYBLOCK
 70
0
  3

 72
65
 73
0
 40
0.0
  0
LTYPE
  5
15
100
AcDbSymbolTableRecord
100
AcDbLinetypeTableRecord
  2
BYLAYER
 70
0
  3

 72
65
 73
0
 40
0.0
  0
LTYPE
  5
16
100
AcDbSymbolTableRecord
100
AcDbLinetypeTableRecord
  2
CONTINUOUS
 70
64
  3
Solid line
 72
65
 73
0
 40
0.0
  0
LTYPE
  5
1F5
100
AcDbSymbolTableRecord
100
AcDbLinetypeTableRecord
  2
CENTER
 70
64
  3
____ _ ____ _ ____ _ ____ _ ____ _ ____ _ ____
 72
65
 73
4
 40
0.6
 49
0.375
 74
0
 49
-0.075
 74
0
 49
0.075
 74
0
 49
-0.075
 74
0
  0
LTYPE
  5
1F6
100
AcDbSymbolTableRecord
100
AcDbLinetypeTableRecord
  2
HIDDEN
 70
64
  3
- - - - - - - - - - - - - - - - - - - -
 72
65
 73
2
 40
0.2
 49
0.1
 74
0
 49
-0.1
 74
0
  0
LTYPE
  5
1F7
100
AcDbSymbolTableRecord
100
AcDbLinetypeTableRecord
  2
PHANTOM
 70
64
  3
_____ _ _ _____ _ _ _____ _ _ _____
 72
65
 73
6
 40
0.8
 49
0.45
 74
0
 49
-0.05
 74
0
 49
0.1
 74
0
 49
-0.05
 74
0
 49
0.1
 74
0
 49
-0.05
 74
0
  0
LTYPE
  5
1F8
100
AcDbSymbolTableRecord
100
AcDbLinetypeTableRecord
  2
DOT
 70
64
  3
. . . . . . . . . . . . . . . . . . . .
 72
65
 73
2
 40
0.2
 49
0.1
 74
0
 49
-0.1
 74
0
  0
LTYPE
  5
1F9
100
AcDbSymbolTableRecord
100
AcDbLinetypeTableRecord
  2
DASHED
 70
64
  3
- - - - - - - - - - - - - - - - - - - -
 72
65
 73
2
 40
0.2
 49
0.1
 74
0
 49
-0.1
 74
0
  0
ENDTAB
  0
TABLE
  2
LAYER
  5
2
100
AcDbSymbolTable
 70
36
  0
LAYER
  5
10
100
AcDbSymbolTableRecord
100
AcDbLayerTableRecord
  2
0
 70
0
 62
7
  6
CONTINUOUS
370
-3
390
F
  0
LAYER
  5
1FA
100
AcDbSymbolTableRecord
100
AcDbLayerTableRecord
  2
DEFAULT_1
 70
0
 62
7
  6
CENTER
370
-3
390
F
  0
LAYER
  5
1FB
100
AcDbSymbolTableRecord
100
AcDbLayerTableRecord
  2
DEFAULT_2
 70
0
 62
8
  6
HIDDEN
370
-3
390
F
  0
LAYER
  5
1FC
100
AcDbSymbolTableRecord
100
AcDbLayerTableRecord
  2
DEFAULT_3
 70
0
 62
7
  6
PHANTOM
370
-3
390
F
  0
LAYER
  5
1FD
100
AcDbSymbolTableRecord
100
AcDbLayerTableRecord
  2
01_ALL_DTM_PLN
 70
0
 62
7
  6
CONTINUOUS
370
-3
390
F
  0
LAYER
  5
1FE
100
AcDbSymbolTableRecord
100
AcDbLayerTableRecord
  2
01__ASM_ALL_DTM_PLN
 70
0
 62
7
  6
CONTINUOUS
370
-3
390
F
  0
LAYER
  5
1FF
100
AcDbSymbolTableRecord
100
AcDbLayerTableRecord
  2
01__ASM_DEF_DTM_PLN
 70
0
 62
7
  6
CONTINUOUS
370
-3
390
F
  0
LAYER
  5
200
100
AcDbSymbolTableRecord
100
AcDbLayerTableRecord
  2
01___PRT_ALL_DTM_PLN
 70
0
 62
7
  6
CONTINUOUS
370
-3
390
F
  0
LAYER
  5
201
100
AcDbSymbolTableRecord
100
AcDbLayerTableRecord
  2
01___PRT_DEF_DTM_PLN
 70
0
 62
7
  6
CONTINUOUS
370
-3
390
F
  0
LAYER
  5
202
100
AcDbSymbolTableRecord
100
AcDbLayerTableRecord
  2
02_ALL_AXES
 70
0
 62
7
  6
CONTINUOUS
370
-3
390
F
  0
LAYER
  5
203
100
AcDbSymbolTableRecord
100
AcDbLayerTableRecord
  2
02__ASM_ALL_AXES
 70
0
 62
7
  6
CONTINUOUS
370
-3
390
F
  0
LAYER
  5
204
100
AcDbSymbolTableRecord
100
AcDbLayerTableRecord
  2
02___PRT_ALL_AXES
 70
0
 62
7
  6
CONTINUOUS
370
-3
390
F
  0
LAYER
  5
205
100
AcDbSymbolTableRecord
100
AcDbLayerTableRecord
  2
03_ALL_CURVES
 70
0
 62
7
  6
CONTINUOUS
370
-3
390
F
  0
LAYER
  5
206
100
AcDbSymbolTableRecord
100
AcDbLayerTableRecord
  2
03__ASM_ALL_CURVES
 70
0
 62
7
  6
CONTINUOUS
370
-3
390
F
  0
LAYER
  5
207
100
AcDbSymbolTableRecord
100
AcDbLayerTableRecord
  2
03___PRT_ALL_CURVES
 70
0
 62
7
  6
CONTINUOUS
370
-3
390
F
  0
LAYER
  5
208
100
AcDbSymbolTableRecord
100
AcDbLayerTableRecord
  2
04_ALL_DTM_PNT
 70
0
 62
7
  6
CONTINUOUS
370
-3
390
F
  0
LAYER
  5
209
100
AcDbSymbolTableRecord
100
AcDbLayerTableRecord
  2
04__ASM_ALL_DTM_PNT
 70
0
 62
7
  6
CONTINUOUS
370
-3
390
F
  0
LAYER
  5
20A
100
AcDbSymbolTableRecord
100
AcDbLayerTableRecord
  2
04___PRT_ALL_DTM_PNT
 70
0
 62
7
  6
CONTINUOUS
370
-3
390
F
  0
LAYER
  5
20B
100
AcDbSymbolTableRecord
100
AcDbLayerTableRecord
  2
05_ALL_DTM_CSYS
 70
0
 62
7
  6
CONTINUOUS
370
-3
390
F
  0
LAYER
  5
20C
100
AcDbSymbolTableRecord
100
AcDbLayerTableRecord
  2
05__ASM_ALL_DTM_CSYS
 70
0
 62
7
  6
CONTINUOUS
370
-3
390
F
  0
LAYER
  5
20D
100
AcDbSymbolTableRecord
100
AcDbLayerTableRecord
  2
05__ASM_DEF_DTM_CSYS
 70
0
 62
7
  6
CONTINUOUS
370
-3
390
F
  0
LAYER
  5
20E
100
AcDbSymbolTableRecord
100
AcDbLayerTableRecord
  2
05___PRT_ALL_DTM_CSYS
 70
0
 62
7
  6
CONTINUOUS
370
-3
390
F
  0
LAYER
  5
20F
100
AcDbSymbolTableRecord
100
AcDbLayerTableRecord
  2
05___PRT_DEF_DTM_CSYS
 70
0
 62
7
  6
CONTINUOUS
370
-3
390
F
  0
LAYER
  5
210
100
AcDbSymbolTableRecord
100
AcDbLayerTableRecord
  2
06_ALL_SURFS
 70
0
 62
7
  6
CONTINUOUS
370
-3
390
F
  0
LAYER
  5
211
100
AcDbSymbolTableRecord
100
AcDbLayerTableRecord
  2
06__ASM_ALL_SURFS
 70
0
 62
7
  6
CONTINUOUS
370
-3
390
F
  0
LAYER
  5
212
100
AcDbSymbolTableRecord
100
AcDbLayerTableRecord
  2
06___PRT_ALL_SURFS
 70
0
 62
7
  6
CONTINUOUS
370
-3
390
F
  0
LAYER
  5
213
100
AcDbSymbolTableRecord
100
AcDbLayerTableRecord
  2
07__ASM_ALL_SKELETONS
 70
0
 62
7
  6
CONTINUOUS
370
-3
390
F
  0
LAYER
  5
214
100
AcDbSymbolTableRecord
100
AcDbLayerTableRecord
  2
LAYER_AXIS
 70
0
 62
7
  6
CONTINUOUS
370
-3
390
F
  0
LAYER
  5
215
100
AcDbSymbolTableRecord
100
AcDbLayerTableRecord
  2
LAYER_CHAMFER_FEAT
 70
0
 62
7
  6
CONTINUOUS
370
-3
390
F
  0
LAYER
  5
216
100
AcDbSymbolTableRecord
100
AcDbLayerTableRecord
  2
LAYER_CUT_FEAT
 70
0
 62
7
  6
CONTINUOUS
370
-3
390
F
  0
LAYER
  5
217
100
AcDbSymbolTableRecord
100
AcDbLayerTableRecord
  2
LAYER_DATUM
 70
0
 62
7
  6
CONTINUOUS
370
-3
390
F
  0
LAYER
  5
218
100
AcDbSymbolTableRecord
100
AcDbLayerTableRecord
  2
LAYER_DIM
 70
0
 62
7
  6
CONTINUOUS
370
-3
390
F
  0
LAYER
  5
219
100
AcDbSymbolTableRecord
100
AcDbLayerTableRecord
  2
LAYER_FEATURE
 70
0
 62
7
  6
CONTINUOUS
370
-3
390
F
  0
LAYER
  5
21A
100
AcDbSymbolTableRecord
100
AcDbLayerTableRecord
  2
LAYER_GEOM_FEAT
 70
0
 62
7
  6
CONTINUOUS
370
-3
390
F
  0
LAYER
  5
21B
100
AcDbSymbolTableRecord
100
AcDbLayerTableRecord
  2
LAYER_NOGEOM_FEAT
 70
0
 62
7
  6
CONTINUOUS
370
-3
390
F
  0
LAYER
  5
21C
100
AcDbSymbolTableRecord
100
AcDbLayerTableRecord
  2
LAYER_PARAMETER_DIM
 70
0
 62
7
  6
CONTINUOUS
370
-3
390
F
  0
LAYER
  5
21D
100
AcDbSymbolTableRecord
100
AcDbLayerTableRecord
  2
LAYER_PROTRUSION_FEAT
 70
0
 62
7
  6
CONTINUOUS
370
-3
390
F
  0
LAYER
  5
21E
100
AcDbSymbolTableRecord
100
AcDbLayerTableRecord
  2
LAYER_QUILT
 70
0
 62
7
  6
CONTINUOUS
370
-3
390
F
  0
LAYER
  5
21F
100
AcDbSymbolTableRecord
100
AcDbLayerTableRecord
  2
LAYER_ROUND_FEAT
 70
0
 62
7
  6
CONTINUOUS
370
-3
390
F
  0
ENDTAB
  0
TABLE
  2
STYLE
  5
3
100
AcDbSymbolTable
 70
1
  0
STYLE
  5
11
100
AcDbSymbolTableRecord
100
AcDbTextStyleTableRecord
  2
STANDARD
 70
0
 40
0.0
 41
0.8
 50
0.0
 71
0
 42
0.2
  3
txt
  4

  0
STYLE
  5
220
100
AcDbSymbolTableRecord
100
AcDbTextStyleTableRecord
  2
TEXTSTYLE_1
 70
0
 40
0.0
 41
0.8
 50
0.0
 71
0
 42
0.2
  3
gdt
  4

  0
ENDTAB
  0
TABLE
  2
VIEW
  5
6
100
AcDbSymbolTable
 70
0
  0
ENDTAB
  0
TABLE
  2
UCS
  5
7
100
AcDbSymbolTable
 70
0
  0
ENDTAB
  0
TABLE
  2
APPID
  5
9
100
AcDbSymbolTable
 70
1
  0
APPID
  5
221
100
AcDbSymbolTableRecord
100
AcDbRegAppTableRecord
  2
ACAD
 70
0
  0
ENDTAB
  0
TABLE
  2
BLOCK_RECORD
  5
1
100
AcDbSymbolTable
 70
0
  0
BLOCK_RECORD
  5
222
100
AcDbSymbolTableRecord
100
AcDbBlockTableRecord
  2
*Model_Space
  0
BLOCK_RECORD
  5
223
100
AcDbSymbolTableRecord
100
AcDbBlockTableRecord
  2
*Paper_Space
  0
ENDTAB
  0
TABLE
  2
DIMSTYLE
  5
A
100
AcDbSymbolTable
 70
1
100
AcDbDimStyleTable
 71
0
  0
DIMSTYLE
105
224
100
AcDbSymbolTableRecord
100
AcDbDimStyleTableRecord
  2
STANDARD
 70
0
  3

  4

 40
1.0
 41
0.1875
 42
0.0625
 43
0.38
 44
0.125
 45
0.0
 46
0.0
 47
0.0001
 48
0.0001
140
0.15625
141
0.09
142
0.0
143
25.4
144
1.0
145
0.0
146
1.0
147
0.09
 71
0.0
 72
0.0
 73
1
 74
1
 75
0
 76
0
 77
0
 78
4
 79
1
170
0
171
3
172
0
173
0
174
0
175
0
176
0
177
0
178
0
270
2
179
4
271
4
272
4
273
2
274
2
275
0
280
0
281
0
282
0
283
1
284
4
285
0
286
0
287
3
288
0
340
11
278
46
  0
ENDTAB
  0
ENDSEC
  0
SECTION
  2
BLOCKS
  0
BLOCK
  5
20
100
AcDbEntity
  8
0
100
AcDbBlockBegin
  2
*Model_Space
 70
0
 10
0.0
 20
0.0
 30
0.0
  3
*Model_Space
  1

  0
ENDBLK
  5
21
100
AcDbEntity
  8
0
100
AcDbBlockEnd
  0
BLOCK
  5
1C
100
AcDbEntity
  8
0
100
AcDbBlockBegin
  2
*Paper_Space
 70
0
 10
0.0
 20
0.0
 30
0.0
  3
*Paper_Space
  1

  0
ENDBLK
  5
1D
100
AcDbEntity
  8
0
100
AcDbBlockEnd
  0
ENDSEC
  0
SECTION
  2
ENTITIES
  0
MTEXT
  5
225
100
AcDbEntity
  8
0
100
AcDbMText
 62
7
  6
CONTINUOUS
  7
STANDARD
 71
1
 72
1
 10
15.9560215477
 20
0.9479130325
 30
0.0
 11
1.0
 21
0.0
 31
0.0
 44
0.9
  1
SCALE: 1:1.000
 40
0.3
 41
3.36
  0
LINE
  5
226
100
AcDbEntity
  8
0
100
AcDbLine
 62
7
  6
CONTINUOUS
 10
0.0
 20
0.0
 11
0.0
 21
17.0
  0
LINE
  5
227
100
AcDbEntity
  8
0
100
AcDbLine
 62
7
  6
CONTINUOUS
 10
0.0
 20
0.0
 11
22.0
 21
0.0
  0
LINE
  5
228
100
AcDbEntity
  8
0
100
AcDbLine
 62
7
  6
CONTINUOUS
 10
0.0
 20
17.0
 11
22.0
 21
17.0
  0
LINE
  5
229
100
AcDbEntity
  8
0
100
AcDbLine
 62
7
  6
CONTINUOUS
 10
22.0
 20
0.0
 11
22.0
 21
17.0
  0
LINE
  5
22A
100
AcDbEntity
  8
LAYER_FEATURE
100
AcDbLine
 62
7
  6
CONTINUOUS
 10
6.0647672762
 20
6.1451198968
 11
6.0608830714
 21
6.141235692
  0
LINE
  5
22B
100
AcDbEntity
  8
LAYER_FEATURE
100
AcDbLine
 62
7
  6
CONTINUOUS
 10
6.7553672762
 20
5.4545198968
 11
6.7514830714
 21
5.450635692
  0
LINE
  5
22C
100
AcDbEntity
  8
LAYER_FEATURE
100
AcDbLine
 62
7
  6
CONTINUOUS
 10
6.1959672762
 20
6.1451198968
 11
6.1998514809
 21
6.141235692
  0
LINE
  5
22D
100
AcDbEntity
  8
LAYER_FEATURE
100
AcDbLine
 62
7
  6
CONTINUOUS
 10
6.7553672762
 20
5.5857198968
 11
6.7514830714
 21
5.5896041015
  0
LINE
  5
22E
100
AcDbEntity
  8
LAYER_FEATURE
100
AcDbLine
 62
7
  6
CONTINUOUS
 10
6.7553672762
 20
5.5857198968
 11
6.7553672762
 21
5.4545198968
  0
LINE
  5
22F
100
AcDbEntity
  8
LAYER_FEATURE
100
AcDbLine
 62
7
  6
CONTINUOUS
 10
6.0647672762
 20
6.1451198968
 11
6.1959672762
 21
6.1451198968
  0
LINE
  5
230
100
AcDbEntity
  8
LAYER_FEATURE
100
AcDbLine
 62
7
  6
CONTINUOUS
 10
5.0078720839
 20
12.4860477814
 11
5.0078720839
 21
12.5260477814
  0
LINE
  5
231
100
AcDbEntity
  8
LAYER_FEATURE
100
AcDbLine
 62
7
  6
CONTINUOUS
 10
5.0078720839
 20
12.9860477814
 11
5.0078720839
 21
13.0260477814
  0
LINE
  5
232
100
AcDbEntity
  8
LAYER_CUT_FEAT
100
AcDbLine
 62
7
  6
CONTINUOUS
 10
5.0936933636
 20
12.9660477814
 11
5.0936933636
 21
12.5460477814
  0
LINE
  5
233
100
AcDbEntity
  8
LAYER_CUT_FEAT
100
AcDbLine
 62
7
  6
CONTINUOUS
 10
5.0940109919
 20
12.9660477814
 11
5.0940109919
 21
12.5460477814
  0
LINE
  5
234
100
AcDbEntity
  8
LAYER_CUT_FEAT
100
AcDbLine
 62
7
  6
CONTINUOUS
 10
5.1276109554
 20
12.9660477814
 11
5.1276109554
 21
12.5460477814
  0
LINE
  5
235
100
AcDbEntity
  8
LAYER_CUT_FEAT
100
AcDbLine
 62
7
  6
CONTINUOUS
 10
5.1968066146
 20
12.9660477814
 11
5.1968066146
 21
12.5460477814
  0
LINE
  5
236
100
AcDbEntity
  8
LAYER_CUT_FEAT
100
AcDbLine
 62
7
  6
CONTINUOUS
 10
5.2989388192
 20
12.9660477814
 11
5.2989388192
 21
12.5460477814
  0
LINE
  5
237
100
AcDbEntity
  8
LAYER_CUT_FEAT
100
AcDbLine
 62
7
  6
CONTINUOUS
 10
5.4300826858
 20
12.9660477814
 11
5.4300826858
 21
12.5460477814
  0
LINE
  5
238
100
AcDbEntity
  8
02___PRT_ALL_AXES
100
AcDbLine
 62
7
  6
CONTINUOUS
 10
5.4458720839
 20
12.1740477814
 11
5.4458720839
 21
12.4860477814
  0
LINE
  5
239
100
AcDbEntity
  8
LAYER_CUT_FEAT
100
AcDbLine
 62
7
  6
CONTINUOUS
 10
5.5851984291
 20
12.9660477814
 11
5.5851984291
 21
12.5460477814
  0
LINE
  5
23A
100
AcDbEntity
  8
02___PRT_ALL_AXES
100
AcDbLine
 62
7
  6
CONTINUOUS
 10
5.4458720839
 20
12.1740477814
 11
6.6958720839
 21
12.1740477814
  0
LINE
  5
23B
100
AcDbEntity
  8
LAYER_CUT_FEAT
100
AcDbLine
 62
7
  6
CONTINUOUS
 10
5.7583250381
 20
12.9660477814
 11
5.7583250381
 21
12.5460477814
  0
LINE
  5
23C
100
AcDbEntity
  8
LAYER_CUT_FEAT
100
AcDbLine
 62
7
  6
CONTINUOUS
 10
6.0472007228
 20
12.2890477814
 11
6.0945434449
 21
12.2890477814
  0
LINE
  5
23D
100
AcDbEntity
  8
LAYER_FEATURE
100
AcDbLine
 62
7
  6
CONTINUOUS
 10
5.0078720839
 20
12.5260477814
 11
5.0708720839
 21
12.5460477814
  0
LINE
  5
23E
100
AcDbEntity
  8
LAYER_CUT_FEAT
100
AcDbLine
 62
7
  6
CONTINUOUS
 10
6.0945434449
 20
12.3710477814
 11
6.0472007228
 21
12.3710477814
  0
LINE
  5
23F
100
AcDbEntity
  8
LAYER_CUT_FEAT
100
AcDbLine
 62
7
  6
CONTINUOUS
 10
6.0235293618
 20
12.3300477814
 11
6.0472007228
 21
12.2890477814
  0
LINE
  5
240
100
AcDbEntity
  8
LAYER_CUT_FEAT
100
AcDbLine
 62
7
  6
CONTINUOUS
 10
5.9428093544
 20
12.9660477814
 11
5.9428093544
 21
12.5460477814
  0
LINE
  5
241
100
AcDbEntity
  8
LAYER_FEATURE
100
AcDbLine
 62
7
  6
CONTINUOUS
 10
5.0078720839
 20
12.4860477814
 11
7.1338720839
 21
12.4860477814
  0
LINE
  5
242
100
AcDbEntity
  8
LAYER_FEATURE
100
AcDbLine
 62
7
  6
CONTINUOUS
 10
5.0078720839
 20
12.5260477814
 11
7.1338720839
 21
12.5260477814
  0
LINE
  5
243
100
AcDbEntity
  8
LAYER_CUT_FEAT
100
AcDbLine
 62
7
  6
CONTINUOUS
 10
6.1182148059
 20
12.3300477814
 11
6.0945434449
 21
12.3710477814
  0
LINE
  5
244
100
AcDbEntity
  8
LAYER_CUT_FEAT
100
AcDbLine
 62
7
  6
CONTINUOUS
 10
6.0142118831
 20
12.9660477814
 11
6.0142118831
 21
12.5460477814
  0
LINE
  5
245
100
AcDbEntity
  8
LAYER_FEATURE
100
AcDbLine
 62
7
  6
CONTINUOUS
 10
7.0708720839
 20
12.9660477814
 11
7.1338720839
 21
12.9860477814
  0
LINE
  5
246
100
AcDbEntity
  8
LAYER_FEATURE
100
AcDbLine
 62
7
  6
CONTINUOUS
 10
5.0708720839
 20
12.5460477814
 11
7.0708720839
 21
12.5460477814
  0
LINE
  5
247
100
AcDbEntity
  8
LAYER_CUT_FEAT
100
AcDbLine
 62
7
  6
CONTINUOUS
 10
6.131561749
 20
12.9660477814
 11
6.131561749
 21
12.5460477814
  0
LINE
  5
248
100
AcDbEntity
  8
LAYER_FEATURE
100
AcDbLine
 62
7
  6
CONTINUOUS
 10
5.0708720839
 20
12.9660477814
 11
5.0078720839
 21
12.9860477814
  0
LINE
  5
249
100
AcDbEntity
  8
LAYER_CUT_FEAT
100
AcDbLine
 62
7
  6
CONTINUOUS
 10
6.202948819
 20
12.9660477814
 11
6.202948819
 21
12.5460477814
  0
LINE
  5
24A
100
AcDbEntity
  8
LAYER_CUT_FEAT
100
AcDbLine
 62
7
  6
CONTINUOUS
 10
6.0472007228
 20
12.3710477814
 11
6.0235293618
 21
12.3300477814
  0
LINE
  5
24B
100
AcDbEntity
  8
LAYER_CUT_FEAT
100
AcDbLine
 62
7
  6
CONTINUOUS
 10
6.0945434449
 20
12.2890477814
 11
6.1182148059
 21
12.3300477814
  0
LINE
  5
24C
100
AcDbEntity
  8
LAYER_FEATURE
100
AcDbLine
 62
7
  6
CONTINUOUS
 10
7.1338720839
 20
12.5260477814
 11
7.0708720839
 21
12.5460477814
  0
LINE
  5
24D
100
AcDbEntity
  8
LAYER_FEATURE
100
AcDbLine
 62
7
  6
CONTINUOUS
 10
6.694120512
 20
12.3973993532
 11
6.6958720839
 21
12.3956477814
  0
LINE
  5
24E
100
AcDbEntity
  8
LAYER_CUT_FEAT
100
AcDbLine
 62
7
  6
CONTINUOUS
 10
6.3872634204
 20
12.9660477814
 11
6.3872634204
 21
12.5460477814
  0
LINE
  5
24F
100
AcDbEntity
  8
LAYER_FEATURE
100
AcDbLine
 62
7
  6
CONTINUOUS
 10
5.0708720839
 20
12.9660477814
 11
7.0708720839
 21
12.9660477814
  0
LINE
  5
250
100
AcDbEntity
  8
LAYER_FEATURE
100
AcDbLine
 62
7
  6
CONTINUOUS
 10
5.0078720839
 20
12.9860477814
 11
7.1338720839
 21
12.9860477814
  0
LINE
  5
251
100
AcDbEntity
  8
LAYER_FEATURE
100
AcDbLine
 62
7
  6
CONTINUOUS
 10
5.0078720839
 20
13.0260477814
 11
7.1338720839
 21
13.0260477814
  0
LINE
  5
252
100
AcDbEntity
  8
LAYER_CUT_FEAT
100
AcDbLine
 62
7
  6
CONTINUOUS
 10
6.5600725807
 20
12.9660477814
 11
6.5600725807
 21
12.5460477814
  0
LINE
  5
253
100
AcDbEntity
  8
02___PRT_ALL_AXES
100
AcDbLine
 62
7
  6
CONTINUOUS
 10
6.6958720839
 20
12.1740477814
 11
6.6958720839
 21
12.2480477814
  0
LINE
  5
254
100
AcDbEntity
  8
LAYER_FEATURE
100
AcDbLine
 62
7
  6
CONTINUOUS
 10
6.6958720839
 20
12.2644477814
 11
6.6958720839
 21
12.3956477814
  0
LINE
  5
255
100
AcDbEntity
  8
02___PRT_ALL_AXES
100
AcDbLine
 62
7
  6
CONTINUOUS
 10
6.6958720839
 20
12.4120477814
 11
6.6958720839
 21
12.4860477814
  0
LINE
  5
256
100
AcDbEntity
  8
LAYER_CUT_FEAT
100
AcDbLine
 62
7
  6
CONTINUOUS
 10
6.7147353407
 20
12.9660477814
 11
6.7147353407
 21
12.5460477814
  0
LINE
  5
257
100
AcDbEntity
  8
LAYER_FEATURE
100
AcDbLine
 62
7
  6
CONTINUOUS
 10
6.6941205117
 20
12.2626962092
 11
6.6958720839
 21
12.2644477814
  0
LINE
  5
258
100
AcDbEntity
  8
LAYER_CUT_FEAT
100
AcDbLine
 62
7
  6
CONTINUOUS
 10
6.8453080972
 20
12.9660477814
 11
6.8453080972
 21
12.5460477814
  0
LINE
  5
259
100
AcDbEntity
  8
LAYER_CUT_FEAT
100
AcDbLine
 62
7
  6
CONTINUOUS
 10
6.9467730126
 20
12.9660477814
 11
6.9467730126
 21
12.5460477814
  0
LINE
  5
25A
100
AcDbEntity
  8
LAYER_CUT_FEAT
100
AcDbLine
 62
7
  6
CONTINUOUS
 10
7.015230847
 20
12.9660477814
 11
7.015230847
 21
12.5460477814
  0
LINE
  5
25B
100
AcDbEntity
  8
LAYER_CUT_FEAT
100
AcDbLine
 62
7
  6
CONTINUOUS
 10
7.0480508041
 20
12.9660477814
 11
7.0480508041
 21
12.5460477814
  0
LINE
  5
25C
100
AcDbEntity
  8
LAYER_FEATURE
100
AcDbLine
 62
7
  6
CONTINUOUS
 10
7.1338720839
 20
12.4860477814
 11
7.1338720839
 21
12.5260477814
  0
LINE
  5
25D
100
AcDbEntity
  8
LAYER_FEATURE
100
AcDbLine
 62
7
  6
CONTINUOUS
 10
7.1338720839
 20
12.9860477814
 11
7.1338720839
 21
13.0260477814
  0
LINE
  5
25E
100
AcDbEntity
  8
LAYER_FEATURE
100
AcDbLine
 62
7
  6
CONTINUOUS
 10
15.9863552569
 20
4.3976247044
 11
15.9463552569
 21
4.3976247044
  0
LINE
  5
25F
100
AcDbEntity
  8
LAYER_FEATURE
100
AcDbLine
 62
7
  6
CONTINUOUS
 10
15.4863552569
 20
4.3976247044
 11
15.4463552569
 21
4.3976247044
  0
LINE
  5
260
100
AcDbEntity
  8
LAYER_CUT_FEAT
100
AcDbLine
 62
7
  6
CONTINUOUS
 10
15.9263552569
 20
4.4834459842
 11
15.5063552569
 21
4.4834459842
  0
LINE
  5
261
100
AcDbEntity
  8
LAYER_CUT_FEAT
100
AcDbLine
 62
7
  6
CONTINUOUS
 10
15.9263552569
 20
4.5162659413
 11
15.5063552569
 21
4.5162659413
  0
LINE
  5
262
100
AcDbEntity
  8
LAYER_CUT_FEAT
100
AcDbLine
 62
7
  6
CONTINUOUS
 10
15.9263552569
 20
4.5847237757
 11
15.5063552569
 21
4.5847237757
  0
LINE
  5
263
100
AcDbEntity
  8
LAYER_CUT_FEAT
100
AcDbLine
 62
7
  6
CONTINUOUS
 10
15.9263552569
 20
4.6861886911
 11
15.5063552569
 21
4.6861886911
  0
LINE
  5
264
100
AcDbEntity
  8
LAYER_FEATURE
100
AcDbLine
 62
7
  6
CONTINUOUS
 10
15.2230045438
 20
6.0838739913
 11
15.2247552569
 21
6.0856247044
  0
LINE
  5
265
100
AcDbEntity
  8
LAYER_CUT_FEAT
100
AcDbLine
 62
7
  6
CONTINUOUS
 10
15.9263552569
 20
4.8167614476
 11
15.5063552569
 21
4.8167614476
  0
LINE
  5
266
100
AcDbEntity
  8
02___PRT_ALL_AXES
100
AcDbLine
 62
7
  6
CONTINUOUS
 10
15.4463552569
 20
4.8356247044
 11
15.1343552569
 21
4.8356247044
  0
LINE
  5
267
100
AcDbEntity
  8
LAYER_CUT_FEAT
100
AcDbLine
 62
7
  6
CONTINUOUS
 10
15.9263552569
 20
4.9714242076
 11
15.5063552569
 21
4.9714242076
  0
LINE
  5
268
100
AcDbEntity
  8
02___PRT_ALL_AXES
100
AcDbLine
 62
7
  6
CONTINUOUS
 10
15.1343552569
 20
6.0856247044
 11
15.1343552569
 21
4.8356247044
  0
LINE
  5
269
100
AcDbEntity
  8
LAYER_CUT_FEAT
100
AcDbLine
 62
7
  6
CONTINUOUS
 10
15.2493552569
 20
5.4842960655
 11
15.2493552569
 21
5.4369533434
  0
LINE
  5
26A
100
AcDbEntity
  8
LAYER_CUT_FEAT
100
AcDbLine
 62
7
  6
CONTINUOUS
 10
15.9263552569
 20
5.1442333679
 11
15.5063552569
 21
5.1442333679
  0
LINE
  5
26B
100
AcDbEntity
  8
LAYER_CUT_FEAT
100
AcDbLine
 62
7
  6
CONTINUOUS
 10
15.3313552569
 20
5.4369533434
 11
15.3313552569
 21
5.4842960655
  0
LINE
  5
26C
100
AcDbEntity
  8
LAYER_CUT_FEAT
100
AcDbLine
 62
7
  6
CONTINUOUS
 10
15.2903552569
 20
5.5079674265
 11
15.2493552569
 21
5.4842960655
  0
LINE
  5
26D
100
AcDbEntity
  8
LAYER_CUT_FEAT
100
AcDbLine
 62
7
  6
CONTINUOUS
 10
15.2493552569
 20
5.4369533434
 11
15.2903552569
 21
5.4132819824
  0
LINE
  5
26E
100
AcDbEntity
  8
LAYER_FEATURE
100
AcDbLine
 62
7
  6
CONTINUOUS
 10
15.4463552569
 20
6.5236247044
 11
15.4463552569
 21
4.3976247044
  0
LINE
  5
26F
100
AcDbEntity
  8
LAYER_FEATURE
100
AcDbLine
 62
7
  6
CONTINUOUS
 10
15.4863552569
 20
6.5236247044
 11
15.4863552569
 21
4.3976247044
  0
LINE
  5
270
100
AcDbEntity
  8
LAYER_CUT_FEAT
100
AcDbLine
 62
7
  6
CONTINUOUS
 10
15.2903552569
 20
5.4132819824
 11
15.3313552569
 21
5.4369533434
  0
LINE
  5
271
100
AcDbEntity
  8
LAYER_CUT_FEAT
100
AcDbLine
 62
7
  6
CONTINUOUS
 10
15.9263552569
 20
5.3285479694
 11
15.5063552569
 21
5.3285479694
  0
LINE
  5
272
100
AcDbEntity
  8
LAYER_CUT_FEAT
100
AcDbLine
 62
7
  6
CONTINUOUS
 10
15.3313552569
 20
5.4842960655
 11
15.2903552569
 21
5.5079674265
  0
LINE
  5
273
100
AcDbEntity
  8
LAYER_FEATURE
100
AcDbLine
 62
7
  6
CONTINUOUS
 10
15.5063552569
 20
6.4606247044
 11
15.5063552569
 21
4.4606247044
  0
LINE
  5
274
100
AcDbEntity
  8
LAYER_CUT_FEAT
100
AcDbLine
 62
7
  6
CONTINUOUS
 10
15.9263552569
 20
5.3999350393
 11
15.5063552569
 21
5.3999350393
  0
LINE
  5
275
100
AcDbEntity
  8
LAYER_FEATURE
100
AcDbLine
 62
7
  6
CONTINUOUS
 10
15.9463552569
 20
6.5236247044
 11
15.9263552569
 21
6.4606247044
  0
LINE
  5
276
100
AcDbEntity
  8
LAYER_CUT_FEAT
100
AcDbLine
 62
7
  6
CONTINUOUS
 10
15.9263552569
 20
5.5172849052
 11
15.5063552569
 21
5.5172849052
  0
LINE
  5
277
100
AcDbEntity
  8
LAYER_FEATURE
100
AcDbLine
 62
7
  6
CONTINUOUS
 10
15.9463552569
 20
4.3976247044
 11
15.9263552569
 21
4.4606247044
  0
LINE
  5
278
100
AcDbEntity
  8
LAYER_CUT_FEAT
100
AcDbLine
 62
7
  6
CONTINUOUS
 10
15.9263552569
 20
5.5886874339
 11
15.5063552569
 21
5.5886874339
  0
LINE
  5
279
100
AcDbEntity
  8
LAYER_FEATURE
100
AcDbLine
 62
7
  6
CONTINUOUS
 10
15.5063552569
 20
4.4606247044
 11
15.4863552569
 21
4.3976247044
  0
LINE
  5
27A
100
AcDbEntity
  8
LAYER_CUT_FEAT
100
AcDbLine
 62
7
  6
CONTINUOUS
 10
15.9263552569
 20
5.7731717502
 11
15.5063552569
 21
5.7731717502
  0
LINE
  5
27B
100
AcDbEntity
  8
LAYER_FEATURE
100
AcDbLine
 62
7
  6
CONTINUOUS
 10
15.3577059702
 20
6.0838739911
 11
15.3559552569
 21
6.0856247044
  0
LINE
  5
27C
100
AcDbEntity
  8
LAYER_FEATURE
100
AcDbLine
 62
7
  6
CONTINUOUS
 10
15.5063552569
 20
6.4606247044
 11
15.4863552569
 21
6.5236247044
  0
LINE
  5
27D
100
AcDbEntity
  8
LAYER_FEATURE
100
AcDbLine
 62
7
  6
CONTINUOUS
 10
15.9263552569
 20
6.4606247044
 11
15.9263552569
 21
4.4606247044
  0
LINE
  5
27E
100
AcDbEntity
  8
LAYER_FEATURE
100
AcDbLine
 62
7
  6
CONTINUOUS
 10
15.9463552569
 20
6.5236247044
 11
15.9463552569
 21
4.3976247044
  0
LINE
  5
27F
100
AcDbEntity
  8
LAYER_FEATURE
100
AcDbLine
 62
7
  6
CONTINUOUS
 10
15.9863552569
 20
6.5236247044
 11
15.9863552569
 21
4.3976247044
  0
LINE
  5
280
100
AcDbEntity
  8
LAYER_CUT_FEAT
100
AcDbLine
 62
7
  6
CONTINUOUS
 10
15.9263552569
 20
5.9462983592
 11
15.5063552569
 21
5.9462983592
  0
LINE
  5
281
100
AcDbEntity
  8
02___PRT_ALL_AXES
100
AcDbLine
 62
7
  6
CONTINUOUS
 10
15.4463552569
 20
6.0856247044
 11
15.3723552569
 21
6.0856247044
  0
LINE
  5
282
100
AcDbEntity
  8
02___PRT_ALL_AXES
100
AcDbLine
 62
7
  6
CONTINUOUS
 10
15.2083552569
 20
6.0856247044
 11
15.1343552569
 21
6.0856247044
  0
LINE
  5
283
100
AcDbEntity
  8
LAYER_FEATURE
100
AcDbLine
 62
7
  6
CONTINUOUS
 10
15.2247553216
 20
6.0856247044
 11
15.3559551922
 21
6.0856247044
  0
LINE
  5
284
100
AcDbEntity
  8
LAYER_CUT_FEAT
100
AcDbLine
 62
7
  6
CONTINUOUS
 10
15.9263552569
 20
6.1014141025
 11
15.5063552569
 21
6.1014141025
  0
LINE
  5
285
100
AcDbEntity
  8
LAYER_CUT_FEAT
100
AcDbLine
 62
7
  6
CONTINUOUS
 10
15.9263552569
 20
6.2325579691
 11
15.5063552569
 21
6.2325579691
  0
LINE
  5
286
100
AcDbEntity
  8
LAYER_CUT_FEAT
100
AcDbLine
 62
7
  6
CONTINUOUS
 10
15.9263552569
 20
6.3346901737
 11
15.5063552569
 21
6.3346901737
  0
LINE
  5
287
100
AcDbEntity
  8
LAYER_CUT_FEAT
100
AcDbLine
 62
7
  6
CONTINUOUS
 10
15.9263552569
 20
6.4038858329
 11
15.5063552569
 21
6.4038858329
  0
LINE
  5
288
100
AcDbEntity
  8
LAYER_CUT_FEAT
100
AcDbLine
 62
7
  6
CONTINUOUS
 10
15.9263552569
 20
6.4374857964
 11
15.5063552569
 21
6.4374857964
  0
LINE
  5
289
100
AcDbEntity
  8
LAYER_CUT_FEAT
100
AcDbLine
 62
7
  6
CONTINUOUS
 10
15.9263552569
 20
6.4378034247
 11
15.5063552569
 21
6.4378034247
  0
LINE
  5
28A
100
AcDbEntity
  8
LAYER_FEATURE
100
AcDbLine
 62
7
  6
CONTINUOUS
 10
15.9863552569
 20
6.5236247044
 11
15.9463552569
 21
6.5236247044
  0
LINE
  5
28B
100
AcDbEntity
  8
LAYER_FEATURE
100
AcDbLine
 62
7
  6
CONTINUOUS
 10
15.4863552569
 20
6.5236247044
 11
15.4463552569
 21
6.5236247044
  0
LINE
  5
28C
100
AcDbEntity
  8
LAYER_FEATURE
100
AcDbLine
 62
7
  6
CONTINUOUS
 10
14.3901422037
 20
12.6131546832
 11
14.3998248566
 21
12.6444877596
  0
LINE
  5
28D
100
AcDbEntity
  8
LAYER_FEATURE
100
AcDbLine
 62
7
  6
CONTINUOUS
 10
14.5111753654
 20
13.004818138
 11
14.5208580184
 21
13.0361512144
  0
LINE
  5
28E
100
AcDbEntity
  8
02___PRT_ALL_AXES
100
AcDbLine
 62
7
  6
CONTINUOUS
 10
14.5487152288
 20
12.8451769808
 11
14.585633969
 21
12.964646068
  0
LINE
  5
28F
100
AcDbEntity
  8
LAYER_CUT_FEAT
100
AcDbLine
 62
7
  6
CONTINUOUS
 10
14.6279902401
 20
13.0519628406
 11
14.5683500208
 21
12.8589670203
  0
LINE
  5
290
100
AcDbEntity
  8
LAYER_FEATURE
100
AcDbLine
 62
7
  6
CONTINUOUS
 10
14.5856339721
 20
12.964646067
 11
14.5886855672
 21
12.9740098175
  0
LINE
  5
291
100
AcDbEntity
  8
LAYER_CUT_FEAT
100
AcDbLine
 62
7
  6
CONTINUOUS
 10
14.7073593944
 20
13.1363727065
 11
14.6333627391
 21
12.896919442
  0
LINE
  5
292
100
AcDbEntity
  8
LAYER_CUT_FEAT
100
AcDbLine
 62
7
  6
CONTINUOUS
 10
14.8174084935
 20
13.2032568321
 11
14.735851079
 21
12.9393369419
  0
LINE
  5
293
100
AcDbEntity
  8
LAYER_CUT_FEAT
100
AcDbLine
 62
7
  6
CONTINUOUS
 10
14.6653034069
 20
12.5281234402
 11
14.6701447333
 21
12.5437899784
  0
LINE
  5
294
100
AcDbEntity
  8
LAYER_CUT_FEAT
100
AcDbLine
 62
7
  6
CONTINUOUS
 10
14.9539084122
 20
13.250044898
 11
14.8681505566
 21
12.9725323756
  0
LINE
  5
295
100
AcDbEntity
  8
02___PRT_ALL_AXES
100
AcDbLine
 62
7
  6
CONTINUOUS
 10
14.7330918406
 20
12.2394383387
 11
14.8086165335
 21
12.4838363345
  0
LINE
  5
296
100
AcDbEntity
  8
LAYER_CUT_FEAT
100
AcDbLine
 62
7
  6
CONTINUOUS
 10
15.1116135352
 20
13.2749388651
 11
15.0234663941
 21
12.989694612
  0
LINE
  5
297
100
AcDbEntity
  8
LAYER_CUT_FEAT
100
AcDbLine
 62
7
  6
CONTINUOUS
 10
15.2844633431
 20
13.2769820722
 11
15.1950648664
 21
12.9876884955
  0
LINE
  5
298
100
AcDbEntity
  8
LAYER_CUT_FEAT
100
AcDbLine
 62
7
  6
CONTINUOUS
 10
15.9580968483
 20
12.1476790214
 11
15.9324116874
 21
12.1476790214
  0
LINE
  5
299
100
AcDbEntity
  8
LAYER_CUT_FEAT
100
AcDbLine
 62
7
  6
CONTINUOUS
 10
15.165463
 20
12.5977303629
 11
15.1337355134
 21
12.5656139596
  0
LINE
  5
29A
100
AcDbEntity
  8
LAYER_CUT_FEAT
100
AcDbLine
 62
7
  6
CONTINUOUS
 10
15.9608008114
 20
12.1945097787
 11
15.9285194159
 21
12.1945097787
  0
LINE
  5
29B
100
AcDbEntity
  8
LAYER_CUT_FEAT
100
AcDbLine
 62
7
  6
CONTINUOUS
 10
15.1337355134
 20
12.5656139596
 11
15.149495955
 21
12.5334975563
  0
LINE
  5
29C
100
AcDbEntity
  8
LAYER_CUT_FEAT
100
AcDbLine
 62
7
  6
CONTINUOUS
 10
15.1337355134
 20
12.5656139596
 11
15.1456135615
 21
12.5334975563
  0
LINE
  5
29D
100
AcDbEntity
  8
LAYER_CUT_FEAT
100
AcDbLine
 62
7
  6
CONTINUOUS
 10
15.4658153146
 20
13.2560959999
 11
15.3759708217
 21
12.9653591142
  0
LINE
  5
29E
100
AcDbEntity
  8
LAYER_CUT_FEAT
100
AcDbLine
 62
7
  6
CONTINUOUS
 10
15.1904764331
 20
12.5467583455
 11
15.1773762267
 21
12.5334975563
  0
LINE
  5
29F
100
AcDbEntity
  8
LAYER_CUT_FEAT
100
AcDbLine
 62
7
  6
CONTINUOUS
 10
15.1892190961
 20
12.5334975563
 11
15.2209465827
 21
12.5656139596
  0
LINE
  5
2A0
100
AcDbEntity
  8
LAYER_CUT_FEAT
100
AcDbLine
 62
7
  6
CONTINUOUS
 10
15.165463
 20
12.5977303629
 11
15.1904764331
 21
12.5467583455
  0
LINE
  5
2A1
100
AcDbEntity
  8
LAYER_CUT_FEAT
100
AcDbLine
 62
7
  6
CONTINUOUS
 10
15.2209465827
 20
12.5656139596
 11
15.2090685346
 21
12.5977303629
  0
LINE
  5
2A2
100
AcDbEntity
  8
LAYER_CUT_FEAT
100
AcDbLine
 62
7
  6
CONTINUOUS
 10
15.6487001952
 20
13.2130832884
 11
15.5589846296
 21
12.9227636117
  0
LINE
  5
2A3
100
AcDbEntity
  8
LAYER_CUT_FEAT
100
AcDbLine
 62
7
  6
CONTINUOUS
 10
15.7170976046
 20
13.1919910201
 11
15.627399691
 21
12.9017284654
  0
LINE
  5
2A4
100
AcDbEntity
  8
LAYER_CUT_FEAT
100
AcDbLine
 62
7
  6
CONTINUOUS
 10
15.1456135615
 20
12.5334975563
 11
15.1892190961
 21
12.5334975563
  0
LINE
  5
2A5
100
AcDbEntity
  8
LAYER_CUT_FEAT
100
AcDbLine
 62
7
  6
CONTINUOUS
 10
15.2023193025
 20
12.5467583455
 11
15.1904764331
 21
12.5467583455
  0
LINE
  5
2A6
100
AcDbEntity
  8
LAYER_CUT_FEAT
100
AcDbLine
 62
7
  6
CONTINUOUS
 10
15.2090685346
 20
12.5977303629
 11
15.165463
 21
12.5977303629
  0
LINE
  5
2A7
100
AcDbEntity
  8
LAYER_FEATURE
100
AcDbLine
 62
7
  6
CONTINUOUS
 10
15.9420506973
 20
12.2514182764
 11
15.9544559453
 21
12.236556167
  0
LINE
  5
2A8
100
AcDbEntity
  8
LAYER_CUT_FEAT
100
AcDbLine
 62
7
  6
CONTINUOUS
 10
15.8925717131
 20
13.1247027782
 11
15.8027060312
 21
12.8338973249
  0
LINE
  5
2A9
100
AcDbEntity
  8
LAYER_CUT_FEAT
100
AcDbLine
 62
7
  6
CONTINUOUS
 10
15.9265098605
 20
12.1597056801
 11
15.9409513729
 21
12.1302769721
  0
LINE
  5
2AA
100
AcDbEntity
  8
LAYER_CUT_FEAT
100
AcDbLine
 62
7
  6
CONTINUOUS
 10
15.9608008114
 20
12.1945097787
 11
15.9463592991
 21
12.2239384867
  0
LINE
  5
2AB
100
AcDbEntity
  8
LAYER_CUT_FEAT
100
AcDbLine
 62
7
  6
CONTINUOUS
 10
15.9292138236
 20
12.2065364374
 11
15.9265098605
 21
12.1597056801
  0
LINE
  5
2AC
100
AcDbEntity
  8
LAYER_CUT_FEAT
100
AcDbLine
 62
7
  6
CONTINUOUS
 10
16.0544270755
 20
13.0399514944
 11
15.9650260619
 21
12.7506497085
  0
LINE
  5
2AD
100
AcDbEntity
  8
LAYER_CUT_FEAT
100
AcDbLine
 62
7
  6
CONTINUOUS
 10
15.9580968483
 20
12.1476790214
 11
15.9608008114
 21
12.1945097787
  0
LINE
  5
2AE
100
AcDbEntity
  8
LAYER_CUT_FEAT
100
AcDbLine
 62
7
  6
CONTINUOUS
 10
16.1964436809
 20
12.9409941129
 11
16.1082516152
 21
12.6556044838
  0
LINE
  5
2AF
100
AcDbEntity
  8
LAYER_CUT_FEAT
100
AcDbLine
 62
7
  6
CONTINUOUS
 10
15.9463592991
 20
12.2239384867
 11
15.9292138236
 21
12.2065364374
  0
LINE
  5
2B0
100
AcDbEntity
  8
02___PRT_ALL_AXES
100
AcDbLine
 62
7
  6
CONTINUOUS
 10
15.9273678959
 20
11.8703791243
 11
16.0028925888
 21
12.1147771201
  0
LINE
  5
2B1
100
AcDbEntity
  8
LAYER_FEATURE
100
AcDbLine
 62
7
  6
CONTINUOUS
 10
15.9420506973
 20
12.1027971824
 11
15.9544559453
 21
12.1176592918
  0
LINE
  5
2B2
100
AcDbEntity
  8
LAYER_CUT_FEAT
100
AcDbLine
 62
7
  6
CONTINUOUS
 10
15.9409513729
 20
12.1302769721
 11
15.9580968483
 21
12.1476790214
  0
LINE
  5
2B3
100
AcDbEntity
  8
LAYER_CUT_FEAT
100
AcDbLine
 62
7
  6
CONTINUOUS
 10
16.3131639107
 20
12.8316335105
 11
16.2273222043
 21
12.5538496468
  0
LINE
  5
2B4
100
AcDbEntity
  8
LAYER_CUT_FEAT
100
AcDbLine
 62
7
  6
CONTINUOUS
 10
16.1462057155
 20
12.0704900144
 11
16.1510470419
 21
12.0861565526
  0
LINE
  5
2B5
100
AcDbEntity
  8
LAYER_CUT_FEAT
100
AcDbLine
 62
7
  6
CONTINUOUS
 10
16.4001022721
 20
12.7160723537
 11
16.3184187586
 21
12.451744407
  0
LINE
  5
2B6
100
AcDbEntity
  8
LAYER_CUT_FEAT
100
AcDbLine
 62
7
  6
CONTINUOUS
 10
16.4539177726
 20
12.598751593
 11
16.3797166371
 21
12.3586366305
  0
LINE
  5
2B7
100
AcDbEntity
  8
LAYER_CUT_FEAT
100
AcDbLine
 62
7
  6
CONTINUOUS
 10
16.4725423126
 20
12.4841797994
 11
16.4125558087
 21
12.2900634017
  0
LINE
  5
2B8
100
AcDbEntity
  8
02___PRT_ALL_AXES
100
AcDbLine
 62
7
  6
CONTINUOUS
 10
16.421339684
 20
12.2664908398
 11
16.4582588238
 21
12.3859612199
  0
LINE
  5
2B9
100
AcDbEntity
  8
LAYER_FEATURE
100
AcDbLine
 62
7
  6
CONTINUOUS
 10
16.4213669186
 20
11.9854587714
 11
16.4310495715
 21
12.0167918478
  0
LINE
  5
2BA
100
AcDbEntity
  8
LAYER_FEATURE
100
AcDbLine
 62
7
  6
CONTINUOUS
 10
16.5424000803
 20
12.3771222262
 11
16.5520827332
 21
12.4084553026
  0
CIRCLE
  5
2BB
100
AcDbEntity
  8
LAYER_FEATURE
100
AcDbCircle
 62
7
  6
CONTINUOUS
 10
6.1303672762
 20
5.5201198968
 40
1.063
  0
CIRCLE
  5
2BC
100
AcDbEntity
  8
LAYER_FEATURE
100
AcDbCircle
 62
7
  6
CONTINUOUS
 10
6.1303672762
 20
5.5201198968
 40
1.0
  0
CIRCLE
  5
2BD
100
AcDbEntity
  8
LAYER_CUT_FEAT
100
AcDbCircle
 62
7
  6
CONTINUOUS
 10
6.1303672762
 20
5.5201198968
 40
0.775
  0
CIRCLE
  5
2BE
100
AcDbEntity
  8
02___PRT_ALL_AXES
100
AcDbCircle
 62
7
  6
CONTINUOUS
 10
6.1303672762
 20
5.5201198968
 40
0.625
  0
CIRCLE
  5
2BF
100
AcDbEntity
  8
LAYER_CHAMFER_FEAT
100
AcDbCircle
 62
7
  6
CONTINUOUS
 10
6.1303672762
 20
5.5201198968
 40
0.14375
  0
CIRCLE
  5
2C0
100
AcDbEntity
  8
LAYER_CHAMFER_FEAT
100
AcDbCircle
 62
7
  6
CONTINUOUS
 10
6.1303672762
 20
5.5201198968
 40
0.125
  0
CIRCLE
  5
2C1
100
AcDbEntity
  8
02___PRT_ALL_AXES
100
AcDbCircle
 62
7
  6
CONTINUOUS
 10
6.0708720839
 20
12.3300477814
 40
0.082
  0
CIRCLE
  5
2C2
100
AcDbEntity
  8
LAYER_FEATURE
100
AcDbCircle
 62
7
  6
CONTINUOUS
 10
6.0708720839
 20
12.3300477814
 40
0.0656
  0
CIRCLE
  5
2C3
100
AcDbEntity
  8
02___PRT_ALL_AXES
100
AcDbCircle
 62
7
  6
CONTINUOUS
 10
15.2903552569
 20
5.4606247044
 40
0.082
  0
CIRCLE
  5
2C4
100
AcDbEntity
  8
LAYER_FEATURE
100
AcDbCircle
 62
7
  6
CONTINUOUS
 10
15.2903552569
 20
5.4606247044
 40
0.0656
  0
ARC
  5
2C5
100
AcDbEntity
  8
LAYER_FEATURE
100
AcDbCircle
 62
7
  6
CONTINUOUS
 10
15.182287942
 20
11.5761682451
 40
1.7115100208
100
AcDbArc
 50
72.2518447717
 51
73.5319919655
  0
ARC
  5
2C6
100
AcDbEntity
  8
LAYER_FEATURE
100
AcDbCircle
 62
7
  6
CONTINUOUS
 10
15.20479908
 20
11.6337634108
 40
1.6496520306
100
AcDbArc
 50
65.7407325188
 51
67.0521229459
  0
ARC
  5
2C7
100
AcDbEntity
  8
LAYER_FEATURE
100
AcDbCircle
 62
7
  6
CONTINUOUS
 10
15.1974537191
 20
11.643099939
 40
1.642857119
100
AcDbArc
 50
78.7327182191
 51
80.0488516994
  0
ARC
  5
2C8
100
AcDbEntity
  8
LAYER_FEATURE
100
AcDbCircle
 62
7
  6
CONTINUOUS
 10
15.2862948373
 20
11.7924507186
 40
1.4711635977
100
AcDbArc
 50
58.8500325625
 51
60.2648546558
  0
ARC
  5
2C9
100
AcDbEntity
  8
LAYER_FEATURE
100
AcDbCircle
 62
7
  6
CONTINUOUS
 10
15.2192410096
 20
11.8254717562
 40
1.459086845
100
AcDbArc
 50
85.5279028215
 51
86.9529626317
  0
ARC
  5
2CA
100
AcDbEntity
  8
LAYER_FEATURE
100
AcDbCircle
 62
7
  6
CONTINUOUS
 10
15.4300427975
 20
12.0043274697
 40
1.214949694
100
AcDbArc
 50
51.17053033
 51
52.7771944554
  0
ARC
  5
2CB
100
AcDbEntity
  8
LAYER_FEATURE
100
AcDbCircle
 62
7
  6
CONTINUOUS
 10
15.21831127
 20
12.0842205161
 40
1.2001558525
100
AcDbArc
 50
93.0316490553
 51
94.6556231455
  0
ARC
  5
2CC
100
AcDbEntity
  8
LAYER_FEATURE
100
AcDbCircle
 62
7
  6
CONTINUOUS
 10
15.6189878593
 20
12.2129544943
 40
0.9332156334
100
AcDbArc
 50
42.1740139744
 51
44.0889371065
  0
ARC
  5
2CD
100
AcDbEntity
  8
LAYER_FEATURE
100
AcDbCircle
 62
7
  6
CONTINUOUS
 10
15.17777694
 20
12.3626121638
 40
0.918560236
100
AcDbArc
 50
101.746643805
 51
103.6882650306
  0
ARC
  5
2CE
100
AcDbEntity
  8
LAYER_FEATURE
100
AcDbCircle
 62
7
  6
CONTINUOUS
 10
15.820294289
 20
12.3718040583
 40
0.676428049
100
AcDbArc
 50
31.1690893909
 51
33.5416932218
  0
ARC
  5
2CF
100
AcDbEntity
  8
LAYER_FEATURE
100
AcDbCircle
 62
7
  6
CONTINUOUS
 10
15.0995545982
 20
12.6041932665
 40
0.6642710481
100
AcDbArc
 50
112.3348030244
 51
114.7453468862
  0
ARC
  5
2D0
100
AcDbEntity
  8
LAYER_FEATURE
100
AcDbCircle
 62
7
  6
CONTINUOUS
 10
15.9952277756
 20
12.4590281996
 40
0.48053374
100
AcDbArc
 50
17.3725911077
 51
20.3528911192
  0
ARC
  5
2D1
100
AcDbEntity
  8
LAYER_FEATURE
100
AcDbCircle
 62
7
  6
CONTINUOUS
 10
15.0041703491
 20
12.7703827012
 40
0.4722315615
100
AcDbArc
 50
125.581130217
 51
128.6072161964
  0
ARC
  5
2D2
100
AcDbEntity
  8
LAYER_FEATURE
100
AcDbCircle
 62
7
  6
CONTINUOUS
 10
16.1123975454
 20
12.4836542748
 40
0.3604039982
100
AcDbArc
 50
0.3591929211
 51
3.9762020128
  0
ARC
  5
2D3
100
AcDbEntity
  8
LAYER_FEATURE
100
AcDbCircle
 62
7
  6
CONTINUOUS
 10
14.9250728429
 20
12.8510935376
 40
0.3588655196
100
AcDbArc
 50
142.0377379889
 51
145.6650785019
  0
ARC
  5
2D4
100
AcDbEntity
  8
LAYER_FEATURE
100
AcDbCircle
 62
7
  6
CONTINUOUS
 10
16.1511622275
 20
12.4808592425
 40
0.3214248809
100
AcDbArc
 50
342.8279697297
 51
344.9757629972
  0
SPLINE
  5
2D5
100
AcDbEntity
  8
02___PRT_ALL_AXES
100
AcDbSpline
 62
7
  6
CONTINUOUS
 70
0
 71
3
 72
19
 73
15
 74
0
 42
0.0000001
 43
0.0000001
 44
0.0000000001
 40
0.0
 40
0.0
 40
0.0
 40
0.0
 40
0.038305531
 40
0.14695216
 40
0.2226863126
 40
0.3090027948
 40
0.4026310047
 40
0.4999999995
 40
0.5973689943
 40
0.6909972042
 40
0.7773136865
 40
0.8530478399
 40
0.9616944692
 40
1.0
 40
1.0
 40
1.0
 40
1.0
 10
6.6958720839
 20
12.2480477814
 30
0.0
 10
6.6955988963
 20
12.2501299256
 30
0.0
 10
6.6945894601
 20
12.2581229297
 30
0.0
 10
6.6932859388
 20
12.2702632788
 30
0.0
 10
6.6920539071
 20
12.2850532903
 30
0.0
 10
6.6911861295
 20
12.2990446952
 30
0.0
 10
6.6906049175
 20
12.3142382666
 30
0.0
 10
6.6904005162
 20
12.3300477813
 30
0.0
 10
6.6906049175
 20
12.3458572959
 30
0.0
 10
6.6911861294
 20
12.3610508674
 30
0.0
 10
6.6920539071
 20
12.3750422724
 30
0.0
 10
6.6932859388
 20
12.3898322839
 30
0.0
 10
6.6945894601
 20
12.4019726331
 30
0.0
 10
6.6955988963
 20
12.4099656371
 30
0.0
 10
6.6958720839
 20
12.4120477814
 30
0.0
  0
SPLINE
  5
2D6
100
AcDbEntity
  8
02___PRT_ALL_AXES
100
AcDbSpline
 62
7
  6
CONTINUOUS
 70
0
 71
3
 72
19
 73
15
 74
0
 42
0.0000001
 43
0.0000001
 44
0.0000000001
 40
0.0
 40
0.0
 40
0.0
 40
0.0
 40
0.0383055406
 40
0.1469521482
 40
0.2226863203
 40
0.3090027823
 40
0.4026310058
 40
0.5000000005
 40
0.5973689953
 40
0.6909972185
 40
0.7773136806
 40
0.8530478527
 40
0.9616944598
 40
1.0
 40
1.0
 40
1.0
 40
1.0
 10
15.3723552569
 20
6.0856247044
 30
0.0
 10
15.3702731122
 20
6.0853515167
 30
0.0
 10
15.3622801088
 20
6.08434208
 30
0.0
 10
15.3501397593
 20
6.0830385582
 30
0.0
 10
15.3353497488
 20
6.0818065298
 30
0.0
 10
15.3213583434
 20
6.0809387488
 30
0.0
 10
15.3061647723
 20
6.0803575342
 30
0.0
 10
15.2903552568
 20
6.0801531437
 30
0.0
 10
15.2745457414
 20
6.0803575342
 30
0.0
 10
15.2593521703
 20
6.0809387488
 30
0.0
 10
15.2453607649
 20
6.0818065298
 30
0.0
 10
15.2305707545
 20
6.0830385583
 30
0.0
 10
15.218430405
 20
6.08434208
 30
0.0
 10
15.2104374016
 20
6.0853515167
 30
0.0
 10
15.2083552569
 20
6.0856247044
 30
0.0
  0
SPLINE
  5
2D7
100
AcDbEntity
  8
02___PRT_ALL_AXES
100
AcDbSpline
 62
7
  6
CONTINUOUS
 70
0
 71
3
 72
42
 73
38
 74
0
 42
0.0000001
 43
0.0000001
 44
0.0000000001
 40
0.0
 40
0.0
 40
0.0
 40
0.0
 40
0.0279882732
 40
0.0578265156
 40
0.089382054
 40
0.1225026674
 40
0.1570214263
 40
0.1927600622
 40
0.2295320732
 40
0.2671454247
 40
0.3054047679
 40
0.3441133957
 40
0.3830749348
 40
0.422094697
 40
0.4609811748
 40
0.499547319
 40
0.5376118317
 40
0.5750006127
 40
0.6115483863
 40
0.6471003951
 40
0.6815143369
 40
0.7146624562
 40
0.7464338036
 40
0.7767367798
 40
0.8055018658
 40
0.8326849069
 40
0.8582708385
 40
0.8822783716
 40
0.9047655201
 40
0.9258361279
 40
0.9456466896
 40
0.9551505614
 40
0.9644251089
 40
0.9735064167
 40
0.982434018
 40
0.9912502997
 40
1.0
 40
1.0
 40
1.0
 40
1.0
 10
15.9238058974
 20
12.1128749228
 30
0.0
 10
15.9231384739
 20
12.114234989
 30
0.0
 10
15.9218325961
 20
12.1170812556
 30
0.0
 10
15.9200098461
 20
12.1215643926
 30
0.0
 10
15.9182703405
 20
12.12637695
 30
0.0
 10
15.9166271485
 20
12.1314898615
 30
0.0
 10
15.9150935397
 20
12.1368724737
 30
0.0
 10
15.913682935
 20
12.1424925729
 30
0.0
 10
15.9124086969
 20
12.1483167167
 30
0.0
 10
15.9112839666
 20
12.1543104502
 30
0.0
 10
15.9103214792
 20
12.160438519
 30
0.0
 10
15.9095333786
 20
12.1666650454
 30
0.0
 10
15.9089310222
 20
12.1729536779
 30
0.0
 10
15.908524779
 20
12.1792677312
 30
0.0
 10
15.9083238181
 20
12.1855703175
 30
0.0
 10
15.9083358926
 20
12.1918244894
 30
0.0
 10
15.9085671244
 20
12.1979933923
 30
0.0
 10
15.9090217923
 20
12.2040404481
 30
0.0
 10
15.9097021404
 20
12.2099295714
 30
0.0
 10
15.9106082085
 20
12.215625418
 30
0.0
 10
15.9117377084
 20
12.2210936575
 30
0.0
 10
15.9130859427
 20
12.2263012649
 30
0.0
 10
15.9146457912
 20
12.2312168158
 30
0.0
 10
15.9164077574
 20
12.2358107647
 30
0.0
 10
15.9183600902
 20
12.2400556996
 30
0.0
 10
15.9204889664
 20
12.2439265343
 30
0.0
 10
15.9227787648
 20
12.2474006534
 30
0.0
 10
15.9252122913
 20
12.2504579086
 30
0.0
 10
15.9277713623
 20
12.2530806434
 30
0.0
 10
15.9304361568
 20
12.2552530742
 30
0.0
 10
15.9327610239
 20
12.2566968162
 30
0.0
 10
15.9346461603
 20
12.2576003479
 30
0.0
 10
15.9360525311
 20
12.2581489045
 30
0.0
 10
15.9374677314
 20
12.2585765671
 30
0.0
 10
15.9388888539
 20
12.2588826976
 30
0.0
 10
15.9403127407
 20
12.2590666527
 30
0.0
 10
15.9412640802
 20
12.2591077302
 30
0.0
 10
15.9417377008
 20
12.2591077293
 30
0.0
  0
SPLINE
  5
2D8
100
AcDbEntity
  8
02___PRT_ALL_AXES
100
AcDbSpline
 62
7
  6
CONTINUOUS
 70
0
 71
3
 72
23
 73
19
 74
0
 42
0.0000001
 43
0.0000001
 44
0.0000000001
 40
0.0
 40
0.0
 40
0.0
 40
0.0
 40
0.0737685781
 40
0.1460392766
 40
0.2167148702
 40
0.2857295731
 40
0.3530381393
 40
0.4186255652
 40
0.4825072692
 40
0.5447318304
 40
0.6053826264
 40
0.6645785473
 40
0.7224738939
 40
0.7792569502
 40
0.835146827
 40
0.8903888165
 40
0.9452477303
 40
1.0
 40
1.0
 40
1.0
 40
1.0
 10
15.1574916095
 20
12.501381153
 30
0.0
 10
15.1559727317
 20
12.501381153
 30
0.0
 10
15.1529652918
 20
12.5014502314
 30
0.0
 10
15.1485127655
 20
12.5017678059
 30
0.0
 10
15.1441788407
 20
12.5022976037
 30
0.0
 10
15.1399795054
 20
12.5030382348
 30
0.0
 10
15.1359297933
 20
12.5039878895
 30
0.0
 10
15.1320441027
 20
12.5051441739
 30
0.0
 10
15.1283360221
 20
12.50650422
 30
0.0
 10
15.1248183529
 20
12.5080646417
 30
0.0
 10
15.121503097
 20
12.5098215525
 30
0.0
 10
15.1184014624
 20
12.5117705476
 30
0.0
 10
15.1155238733
 20
12.513906676
 30
0.0
 10
15.1128799643
 20
12.5162244072
 30
0.0
 10
15.1104785876
 20
12.5187175476
 30
0.0
 10
15.1083277035
 20
12.5213793232
 30
0.0
 10
15.1064345981
 20
12.5242018407
 30
0.0
 10
15.1053488942
 20
12.5261844921
 30
0.0
 10
15.1048522581
 20
12.5271965395
 30
0.0
  0
SPLINE
  5
2D9
100
AcDbEntity
  8
LAYER_CUT_FEAT
100
AcDbSpline
 62
7
  6
CONTINUOUS
 70
0
 71
3
 72
22
 73
18
 74
0
 42
0.0000001
 43
0.0000001
 44
0.0000000001
 40
0.0
 40
0.0
 40
0.0
 40
0.0
 40
0.1381197804
 40
0.2053664349
 40
0.2714549095
 40
0.3364371394
 40
0.400372579
 40
0.4633278449
 40
0.5253764087
 40
0.5865986111
 40
0.6470813103
 40
0.7069174443
 40
0.7662055009
 40
0.8250488566
 40
0.8835549595
 40
0.9418344164
 40
1.0
 40
1.0
 40
1.0
 40
1.0
 10
14.6919322908
 20
12.2993067273
 30
0.0
 10
14.6871451127
 20
12.3090619707
 30
0.0
 10
14.6805487577
 20
12.3238343629
 30
0.0
 10
14.673025408
 20
12.3438265728
 30
0.0
 10
14.668133358
 20
12.3586474915
 30
0.0
 10
14.6639472899
 20
12.3734123308
 30
0.0
 10
14.660471157
 20
12.3881073978
 30
0.0
 10
14.65770848
 20
12.4027185288
 30
0.0
 10
14.6556620768
 20
12.4172317652
 30
0.0
 10
14.6543340737
 20
12.4316331617
 30
0.0
 10
14.653725898
 20
12.4459088622
 30
0.0
 10
14.6538382971
 20
12.4600450905
 30
0.0
 10
14.6546713296
 20
12.4740281801
 30
0.0
 10
14.6562242892
 20
12.4878445344
 30
0.0
 10
14.6584958115
 20
12.5014808648
 30
0.0
 10
14.6614836179
 20
12.5149233952
 30
0.0
 10
14.6639523144
 20
12.5237512731
 30
0.0
 10
14.6653034119
 20
12.5281234386
 30
0.0
  0
SPLINE
  5
2DA
100
AcDbEntity
  8
LAYER_CHAMFER_FEAT
100
AcDbSpline
 62
7
  6
CONTINUOUS
 70
0
 71
3
 72
21
 73
17
 74
0
 42
0.0000001
 43
0.0000001
 44
0.0000000001
 40
0.0
 40
0.0
 40
0.0
 40
0.0
 40
0.1460143923
 40
0.2163544553
 40
0.2849259845
 40
0.4168728452
 40
0.4804147421
 40
0.5424299209
 40
0.6030239586
 40
0.6623209791
 40
0.7204638452
 40
0.7776129894
 40
0.8339450323
 40
0.8896508396
 40
0.9449324832
 40
1.0
 40
1.0
 40
1.0
 40
1.0
 10
15.25687887
 20
12.1418242737
 30
0.0
 10
15.2542395412
 20
12.1410110092
 30
0.0
 10
15.2503738588
 20
12.1396478031
 30
0.0
 10
15.2454254977
 20
12.1375087413
 30
0.0
 10
15.24082424
 20
12.1352527667
 30
0.0
 10
15.2365061491
 20
12.1327205915
 30
0.0
 10
15.2325261938
 20
12.1299092122
 30
0.0
 10
15.2297725882
 20
12.127711436
 30
0.0
 10
15.2272187304
 20
12.1254024487
 30
0.0
 10
15.224869519
 20
12.1229864465
 30
0.0
 10
15.2227295662
 20
12.1204680168
 30
0.0
 10
15.2208031054
 20
12.1178519043
 30
0.0
 10
15.2190940209
 20
12.1151431007
 30
0.0
 10
15.2176056849
 20
12.1123467891
 30
0.0
 10
15.2163412114
 20
12.1094686101
 30
0.0
 10
15.2156485327
 20
12.1074971715
 30
0.0
 10
15.2153410132
 20
12.1065020304
 30
0.0
  0
SPLINE
  5
2DB
100
AcDbEntity
  8
LAYER_CHAMFER_FEAT
100
AcDbSpline
 62
7
  6
CONTINUOUS
 70
0
 71
3
 72
21
 73
17
 74
0
 42
0.0000001
 43
0.0000001
 44
0.0000000001
 40
0.0
 40
0.0
 40
0.0
 40
0.0
 40
0.1461144987
 40
0.2164954802
 40
0.2851009758
 40
0.3519651289
 40
0.4171390181
 40
0.5426540606
 40
0.6032418091
 40
0.6625247494
 40
0.7206461779
 40
0.7777673955
 40
0.8340659843
 40
0.8897339669
 40
0.944974814
 40
1.0
 40
1.0
 40
1.0
 40
1.0
 10
15.439659693
 20
12.0854994528
 30
0.0
 10
15.4413950758
 20
12.0833317409
 30
0.0
 10
15.4438394158
 20
12.0800136688
 30
0.0
 10
15.4467450436
 20
12.0754387895
 30
0.0
 10
15.4486826786
 20
12.0720384805
 30
0.0
 10
15.4504018895
 20
12.0686328999
 30
0.0
 10
15.4523733873
 20
12.0641512483
 30
0.0
 10
15.4539325809
 20
12.0596236949
 30
0.0
 10
15.4550332693
 20
12.0550894571
 30
0.0
 10
15.4556181884
 20
12.0517552359
 30
0.0
 10
15.4559706647
 20
12.0484547184
 30
0.0
 10
15.4560899576
 20
12.0451941531
 30
0.0
 10
15.45597563
 20
12.0419799619
 30
0.0
 10
15.4556277971
 20
12.038818398
 30
0.0
 10
15.4550471284
 20
12.0357159477
 30
0.0
 10
15.4545049507
 20
12.0336892833
 30
0.0
 10
15.4541962104
 20
12.0326901918
 30
0.0
  0
SPLINE
  5
2DC
100
AcDbEntity
  8
LAYER_FEATURE
100
AcDbSpline
 62
7
  6
CONTINUOUS
 70
0
 71
3
 72
33
 73
29
 74
0
 42
0.0000001
 43
0.0000001
 44
0.0000000001
 40
0.0
 40
0.0
 40
0.0
 40
0.0
 40
0.0202795921
 40
0.0417781221
 40
0.0645065277
 40
0.0884597863
 40
0.1136191325
 40
0.1399539512
 40
0.167423696
 40
0.1959790709
 40
0.2255629895
 40
0.256111807
 40
0.2875560453
 40
0.3198209345
 40
0.3528272985
 40
0.3864920998
 40
0.4554434137
 40
0.5259573002
 40
0.5972808842
 40
0.6686461709
 40
0.7392843737
 40
0.8084403469
 40
0.8422362827
 40
0.8753924501
 40
0.9078246497
 40
0.9394523503
 40
0.9702029294
 40
1.0
 40
1.0
 40
1.0
 40
1.0
 10
15.9544559448
 20
12.2365561648
 30
0.0
 10
15.9549044322
 20
12.2360188483
 30
0.0
 10
15.9557874261
 20
12.2348773011
 30
0.0
 10
15.9570346834
 20
12.2330317209
 30
0.0
 10
15.9582393569
 20
12.2310090709
 30
0.0
 10
15.9593976371
 20
12.2288157692
 30
0.0
 10
15.96050596
 20
12.2264586327
 30
0.0
 10
15.9615608669
 20
12.2239450715
 30
0.0
 10
15.9625590324
 20
12.2212829824
 30
0.0
 10
15.9634972902
 20
12.2184807538
 30
0.0
 10
15.9643726825
 20
12.2155472414
 30
0.0
 10
15.965182424
 20
12.2124917215
 30
0.0
 10
15.9659239261
 20
12.2093238641
 30
0.0
 10
15.9665948384
 20
12.2060537171
 30
0.0
 10
15.9671930379
 20
12.2026916319
 30
0.0
 10
15.967896643
 20
12.1980637785
 30
0.0
 10
15.968578084
 20
12.1921252161
 30
0.0
 10
15.9690761686
 20
12.184865139
 30
0.0
 10
15.9692545642
 20
12.1775068303
 30
0.0
 10
15.9691109782
 20
12.170143473
 30
0.0
 10
15.9686472377
 20
12.1628683138
 30
0.0
 10
15.9679941156
 20
12.1569106188
 30
0.0
 10
15.9673127281
 20
12.1522625091
 30
0.0
 10
15.9667305321
 20
12.1488819215
 30
0.0
 10
15.9660751929
 20
12.1455910096
 30
0.0
 10
15.9653487645
 20
12.142400101
 30
0.0
 10
15.9645535729
 20
12.1393194685
 30
0.0
 10
15.9639697035
 20
12.1373126337
 30
0.0
 10
15.9636660824
 20
12.1363301155
 30
0.0
  0
SPLINE
  5
2DD
100
AcDbEntity
  8
LAYER_FEATURE
100
AcDbSpline
 62
7
  6
CONTINUOUS
 70
0
 71
3
 72
15
 73
11
 74
0
 42
0.0000001
 43
0.0000001
 44
0.0000000001
 40
0.0
 40
0.0
 40
0.0
 40
0.0
 40
0.1030413906
 40
0.2124413644
 40
0.328254784
 40
0.4504496738
 40
0.5789183734
 40
0.7134878174
 40
0.8539479502
 40
1.0
 40
1.0
 40
1.0
 40
1.0
 10
15.9544559441
 20
12.1176592983
 30
0.0
 10
15.9549169324
 20
12.1182115888
 30
0.0
 10
15.9558240792
 20
12.1193868523
 30
0.0
 10
15.9571032376
 20
12.1212900319
 30
0.0
 10
15.9583372456
 20
12.1233795996
 30
0.0
 10
15.9595220058
 20
12.1256485542
 30
0.0
 10
15.9606536654
 20
12.1280894429
 30
0.0
 10
15.9617285268
 20
12.1306942625
 30
0.0
 10
15.9627429373
 20
12.1334542547
 30
0.0
 10
15.9633650232
 20
12.1353558876
 30
0.0
 10
15.9636660824
 20
12.1363301155
 30
0.0
  0
SPLINE
  5
2DE
100
AcDbEntity
  8
02___PRT_ALL_AXES
100
AcDbSpline
 62
7
  6
CONTINUOUS
 70
0
 71
3
 72
24
 73
20
 74
0
 42
0.0000001
 43
0.0000001
 44
0.0000000001
 40
0.0
 40
0.0
 40
0.0
 40
0.0
 40
0.0431224065
 40
0.0870457125
 40
0.1323755478
 40
0.1796535619
 40
0.2041788138
 40
0.2293583909
 40
0.2818471246
 40
0.3374403896
 40
0.3963763431
 40
0.458830381
 40
0.5249269922
 40
0.5947445147
 40
0.6683233485
 40
0.7456692242
 40
0.8267646752
 40
0.9115699741
 40
1.0
 40
1.0
 40
1.0
 40
1.0
 10
15.9417377008
 20
12.0951077295
 30
0.0
 10
15.9413581436
 20
12.0951077305
 30
0.0
 10
15.9405911402
 20
12.0951567939
 30
0.0
 10
15.9394439495
 20
12.0953757162
 30
0.0
 10
15.9382958397
 20
12.095739383
 30
0.0
 10
15.9373510138
 20
12.0961569196
 30
0.0
 10
15.9365974573
 20
12.0965585043
 30
0.0
 10
15.935824156
 20
12.0970185426
 30
0.0
 10
15.9348576811
 20
12.0976858735
 30
0.0
 10
15.9337167265
 20
12.0986149284
 30
0.0
 10
15.9325797812
 20
12.0996815088
 30
0.0
 10
15.9314479591
 20
12.100883721
 30
0.0
 10
15.9303224539
 20
12.1022195815
 30
0.0
 10
15.929204561
 20
12.1036868275
 30
0.0
 10
15.9280957175
 20
12.1052829667
 30
0.0
 10
15.9269974204
 20
12.1070052633
 30
0.0
 10
15.9259112593
 20
12.1088508014
 30
0.0
 10
15.9248389946
 20
12.1108162657
 30
0.0
 10
15.9241487931
 20
12.112176175
 30
0.0
 10
15.9238058974
 20
12.1128749228
 30
0.0
  0
SPLINE
  5
2DF
100
AcDbEntity
  8
LAYER_FEATURE
100
AcDbSpline
 62
7
  6
CONTINUOUS
 70
0
 71
3
 72
46
 73
42
 74
0
 42
0.0000001
 43
0.0000001
 44
0.0000000001
 40
0.0
 40
0.0
 40
0.0
 40
0.0
 40
0.0114752977
 40
0.0229621362
 40
0.0344719999
 40
0.0460162582
 40
0.0576061128
 40
0.0692525455
 40
0.0809662663
 40
0.0927576757
 40
0.1046368124
 40
0.1166133325
 40
0.1286964612
 40
0.1408949829
 40
0.1532172072
 40
0.1656709578
 40
0.1909986392
 40
0.2169339273
 40
0.2435211109
 40
0.2707963761
 40
0.298788044
 40
0.3275169079
 40
0.3569966341
 40
0.3872341974
 40
0.4182303303
 40
0.4499799702
 40
0.4824726949
 40
0.5156931401
 40
0.5496213975
 40
0.5842333897
 40
0.6195012241
 40
0.6553935245
 40
0.6918757447
 40
0.728910464
 40
0.766457667
 40
0.8044750096
 40
0.8429180729
 40
0.8817406085
 40
0.9208947727
 40
0.9603313551
 40
1.0
 40
1.0
 40
1.0
 40
1.0
 10
14.390142204
 20
12.6131546831
 30
0.0
 10
14.3888148052
 20
12.6088592127
 30
0.0
 10
14.3863248225
 20
12.600211592
 30
0.0
 10
14.3830917442
 20
12.5870952435
 30
0.0
 10
14.3803612738
 20
12.57383735
 30
0.0
 10
14.3781348062
 20
12.5604447406
 30
0.0
 10
14.3764133994
 20
12.5469239799
 30
0.0
 10
14.3751979121
 20
12.5332817786
 30
0.0
 10
14.3744888652
 20
12.5195248834
 30
0.0
 10
14.3742866392
 20
12.5056600946
 30
0.0
 10
14.3745912258
 20
12.4916942582
 30
0.0
 10
14.375402503
 20
12.4776342708
 30
0.0
 10
14.3767199752
 20
12.4634870476
 30
0.0
 10
14.3785429786
 20
12.4492596022
 30
0.0
 10
14.3808706023
 20
12.4349587705
 30
0.0
 10
14.3846662333
 20
12.4156961199
 30
0.0
 10
14.3906911938
 20
12.3914515152
 30
0.0
 10
14.3998748041
 20
12.3623471367
 30
0.0
 10
14.4110336722
 20
12.3331238469
 30
0.0
 10
14.4241448462
 20
12.3038394374
 30
0.0
 10
14.4391819447
 20
12.2745505564
 30
0.0
 10
14.4561149318
 20
12.2453141542
 30
0.0
 10
14.4749102237
 20
12.2161869921
 30
0.0
 10
14.4955307074
 20
12.1872256736
 30
0.0
 10
14.5179357914
 20
12.1584865162
 30
0.0
 10
14.5420814606
 20
12.130025458
 30
0.0
 10
14.5679203414
 20
12.1018979475
 30
0.0
 10
14.5954017757
 20
12.0741588323
 30
0.0
 10
14.6244719098
 20
12.046862249
 30
0.0
 10
14.6550737894
 20
12.0200615119
 30
0.0
 10
14.687147464
 20
11.9938090032
 30
0.0
 10
14.7206300988
 20
11.9681560648
 30
0.0
 10
14.7554560939
 20
11.9431528924
 30
0.0
 10
14.79155721
 20
11.9188484327
 30
0.0
 10
14.8288627014
 20
11.8952902829
 30
0.0
 10
14.8672994506
 20
11.8725245944
 30
0.0
 10
14.9067921211
 20
11.8505959732
 30
0.0
 10
14.9472632656
 20
11.8295474083
 30
0.0
 10
14.9886336358
 20
11.8094201217
 30
0.0
 10
15.0308217408
 20
11.7902537234
 30
0.0
 10
15.0593666876
 20
11.7781716199
 30
0.0
 10
15.0737558015
 20
11.772298054
 30
0.0
  0
SPLINE
  5
2E0
100
AcDbEntity
  8
LAYER_FEATURE
100
AcDbSpline
 62
7
  6
CONTINUOUS
 70
0
 71
3
 72
15
 73
11
 74
0
 42
0.0000001
 43
0.0000001
 44
0.0000000001
 40
0.0
 40
0.0
 40
0.0
 40
0.0
 40
0.1285540034
 40
0.2563871535
 40
0.3833474147
 40
0.5092860593
 40
0.6340582153
 40
0.7575237466
 40
0.879547207
 40
1.0
 40
1.0
 40
1.0
 40
1.0
 10
15.3828205373
 20
11.6768153533
 30
0.0
 10
15.3974808542
 20
11.6736641745
 30
0.0
 10
15.4267985602
 20
11.6677417727
 30
0.0
 10
15.4708416108
 20
11.6599899939
 30
0.0
 10
15.5147661355
 20
11.6534052974
 30
0.0
 10
15.5584916151
 20
11.6479997854
 30
0.0
 10
15.6019383189
 20
11.643783299
 30
0.0
 10
15.6450270362
 20
11.6407635597
 30
0.0
 10
15.6876787189
 20
11.6389460643
 30
0.0
 10
15.7159638698
 20
11.638535331
 30
0.0
 10
15.7300140654
 20
11.638535331
 30
0.0
  0
SPLINE
  5
2E1
100
AcDbEntity
  8
LAYER_FEATURE
100
AcDbSpline
 62
7
  6
CONTINUOUS
 70
0
 71
3
 72
21
 73
17
 74
0
 42
0.0000001
 43
0.0000001
 44
0.0000000001
 40
0.0
 40
0.0
 40
0.0
 40
0.0
 40
0.0605507532
 40
0.1211496354
 40
0.1818445935
 40
0.2426831852
 40
0.3037124301
 40
0.364978589
 40
0.4265270548
 40
0.4884021268
 40
0.550646948
 40
0.6133032801
 40
0.6764114906
 40
0.7400103335
 40
0.8688119543
 40
1.0
 40
1.0
 40
1.0
 40
1.0
 10
14.5111753657
 20
13.0048181379
 30
0.0
 10
14.5099954543
 20
13.0009999376
 30
0.0
 10
14.5077659742
 20
12.9933192199
 30
0.0
 10
14.5048180025
 20
12.9816828332
 30
0.0
 10
14.5022668497
 20
12.9699334776
 30
0.0
 10
14.5001134839
 20
12.9580759389
 30
0.0
 10
14.4983587993
 20
12.9461147893
 30
0.0
 10
14.4970033928
 20
12.9340547245
 30
0.0
 10
14.496047857
 20
12.9219004414
 30
0.0
 10
14.4954924669
 20
12.9096566913
 30
0.0
 10
14.4953375014
 20
12.8973282387
 30
0.0
 10
14.4955829146
 20
12.8849199181
 30
0.0
 10
14.4962286888
 20
12.8724364536
 30
0.0
 10
14.4976287938
 20
12.8556287034
 30
0.0
 10
14.5003929608
 20
12.8344374704
 30
0.0
 10
14.5036268565
 20
12.8175742002
 30
0.0
 10
14.5054988673
 20
12.809120573
 30
0.0
  0
SPLINE
  5
2E2
100
AcDbEntity
  8
LAYER_FEATURE
100
AcDbSpline
 62
7
  6
CONTINUOUS
 70
0
 71
3
 72
40
 73
36
 74
0
 42
0.0000001
 43
0.0000001
 44
0.0000000001
 40
0.0
 40
0.0
 40
0.0
 40
0.0
 40
0.0248034546
 40
0.049664248
 40
0.0746390663
 40
0.0997833135
 40
0.1251505275
 40
0.1507918574
 40
0.1767556158
 40
0.2030869115
 40
0.2298273685
 40
0.2570149276
 40
0.2846837213
 40
0.3128640179
 40
0.3271552563
 40
0.3415839409
 40
0.3708626359
 40
0.4007206744
 40
0.4311732902
 40
0.4622322343
 40
0.4939059225
 40
0.5261995923
 40
0.5591154628
 40
0.5926528929
 40
0.6268085439
 40
0.6615765358
 40
0.6969485987
 40
0.7329142173
 40
0.7694607716
 40
0.8065736704
 40
0.8442364555
 40
0.8824310358
 40
0.9211374221
 40
0.960334881
 40
1.0
 40
1.0
 40
1.0
 40
1.0
 10
16.4213669183
 20
11.9854587715
 30
0.0
 10
16.4193526535
 20
11.9789405985
 30
0.0
 10
16.4149347166
 20
11.9660045378
 30
0.0
 10
16.4071680805
 20
11.9469884976
 30
0.0
 10
16.3982671953
 20
11.9283716307
 30
0.0
 10
16.3882427515
 20
11.9101761837
 30
0.0
 10
16.3771064025
 20
11.8924227133
 30
0.0
 10
16.3648711749
 20
11.8751314894
 30
0.0
 10
16.3515513106
 20
11.8583220896
 30
0.0
 10
16.337162265
 20
11.84201348
 30
0.0
 10
16.3217206812
 20
11.8262239996
 30
0.0
 10
16.3052442742
 20
11.810971297
 30
0.0
 10
16.2877521405
 20
11.7962725744
 30
0.0
 10
16.2724175735
 20
11.7845539848
 30
0.0
 10
16.2596718682
 20
11.7754697471
 30
0.0
 10
16.2464805548
 20
11.7664966482
 30
0.0
 10
16.2293848826
 20
11.7556597459
 30
0.0
 10
16.2080396287
 20
11.7433337973
 30
0.0
 10
16.1857887209
 20
11.7316369002
 30
0.0
 10
16.1626575687
 20
11.7205822451
 30
0.0
 10
16.1386722234
 20
11.7101821025
 30
0.0
 10
16.1138597733
 20
11.700448082
 30
0.0
 10
16.0882482038
 20
11.6913910448
 30
0.0
 10
16.0618664039
 20
11.6830211037
 30
0.0
 10
16.0347441251
 20
11.6753476116
 30
0.0
 10
16.0069119518
 20
11.6683791514
 30
0.0
 10
15.9784012682
 20
11.6621235235
 30
0.0
 10
15.949244225
 20
11.656587736
 30
0.0
 10
15.9194737036
 20
11.6517779957
 30
0.0
 10
15.8891232876
 20
11.6476996986
 30
0.0
 10
15.8582271966
 20
11.6443574075
 30
0.0
 10
15.8268203467
 20
11.641754894
 30
0.0
 10
15.7949380164
 20
11.6398950336
 30
0.0
 10
15.7626165204
 20
11.6387799744
 30
0.0
 10
15.7409241395
 20
11.638535331
 30
0.0
 10
15.7300140654
 20
11.638535331
 30
0.0
  0
SPLINE
  5
2E3
100
AcDbEntity
  8
LAYER_FEATURE
100
AcDbSpline
 62
7
  6
CONTINUOUS
 70
0
 71
3
 72
21
 73
17
 74
0
 42
0.0000001
 43
0.0000001
 44
0.0000000001
 40
0.0
 40
0.0
 40
0.0
 40
0.0
 40
0.0605534291
 40
0.1211549186
 40
0.1818523451
 40
0.2426932005
 40
0.3037244361
 40
0.3649922516
 40
0.426541975
 40
0.4884178516
 40
0.550662964
 40
0.6133190288
 40
0.6764263585
 40
0.7400236724
 40
0.8688201369
 40
1.0
 40
1.0
 40
1.0
 40
1.0
 10
16.54240008
 20
12.3771222263
 30
0.0
 10
16.5412210454
 20
12.3733068632
 30
0.0
 10
16.5387305424
 20
12.3657130327
 30
0.0
 10
16.5346031568
 20
12.3544504342
 30
0.0
 10
16.5300849793
 20
12.343318235
 30
0.0
 10
16.525177905
 20
12.332320924
 30
0.0
 10
16.5198837753
 20
12.3214627685
 30
0.0
 10
16.5142047344
 20
12.310747977
 30
0.0
 10
16.5081429458
 20
12.3001807477
 30
0.0
 10
16.5017008469
 20
12.2897651559
 30
0.0
 10
16.4948809003
 20
12.2795052769
 30
0.0
 10
16.4876858518
 20
12.2694050765
 30
0.0
 10
16.4801183874
 20
12.259468427
 30
0.0
 10
16.4694921091
 20
12.2463887341
 30
0.0
 10
16.455270942
 20
12.2304605824
 30
0.0
 10
16.4431012627
 20
12.2183679293
 30
0.0
 10
16.4367937212
 20
12.2124471325
 30
0.0
  0
SPLINE
  5
2E4
100
AcDbEntity
  8
LAYER_CUT_FEAT
100
AcDbSpline
 62
7
  6
CONTINUOUS
 70
0
 71
3
 72
29
 73
25
 74
0
 42
0.0000001
 43
0.0000001
 44
0.0000000001
 40
0.0
 40
0.0
 40
0.0
 40
0.0
 40
0.0280301196
 40
0.0560826913
 40
0.0841800742
 40
0.1123444586
 40
0.1405977614
 40
0.1689615698
 40
0.1974570303
 40
0.2261048137
 40
0.2549250063
 40
0.2839370885
 40
0.3426040509
 40
0.4022546802
 40
0.4630174922
 40
0.5250073338
 40
0.5883249403
 40
0.6205120067
 40
0.6530622403
 40
0.7192807956
 40
0.7870446988
 40
0.856399364
 40
0.9273775469
 40
1.0
 40
1.0
 40
1.0
 40
1.0
 10
16.1462057104
 20
12.070490016
 30
0.0
 10
16.1453421898
 20
12.0676956546
 30
0.0
 10
16.1435177208
 20
12.0621340605
 30
0.0
 10
16.1404928343
 20
12.0538859932
 30
0.0
 10
16.1371804905
 20
12.0457338739
 30
0.0
 10
16.1335819797
 20
12.0376810672
 30
0.0
 10
16.1296987793
 20
12.0297306735
 30
0.0
 10
16.1255323637
 20
12.021885861
 30
0.0
 10
16.1210844398
 20
12.0141496668
 30
0.0
 10
16.1163567294
 20
12.0065251814
 30
0.0
 10
16.111351077
 20
11.9990152824
 30
0.0
 10
16.1042834117
 20
11.9891230586
 30
0.0
 10
16.0947473951
 20
11.9770511101
 30
0.0
 10
16.0822697401
 20
11.9631267919
 30
0.0
 10
16.0687343401
 20
11.9497308573
 30
0.0
 10
16.0541633886
 20
11.9368846138
 30
0.0
 10
16.0412478914
 20
11.9267095428
 30
0.0
 10
16.0304328228
 20
11.9188609396
 30
0.0
 10
16.0191686235
 20
11.9111234925
 30
0.0
 10
16.0044739724
 20
11.901834766
 30
0.0
 10
15.9860061966
 20
11.891374494
 30
0.0
 10
15.9666326505
 20
11.8815529087
 30
0.0
 10
15.9463843617
 20
11.8723854249
 30
0.0
 10
15.9324820319
 20
11.866783142
 30
0.0
 10
15.9253987125
 20
11.8640910891
 30
0.0
  0
SPLINE
  5
2E5
100
AcDbEntity
  8
LAYER_CUT_FEAT
100
AcDbSpline
 62
7
  6
CONTINUOUS
 70
0
 71
3
 72
11
 73
7
 74
0
 42
0.0000001
 43
0.0000001
 44
0.0000000001
 40
0.0
 40
0.0
 40
0.0
 40
0.0
 40
0.2575639201
 40
0.5100463247
 40
0.7575014346
 40
1.0
 40
1.0
 40
1.0
 40
1.0
 10
14.7311861471
 20
12.2331126857
 30
0.0
 10
14.7274073343
 20
12.2385398676
 30
0.0
 10
14.7201099854
 20
12.2494180476
 30
0.0
 10
14.70986842
 20
12.2659576967
 30
0.0
 10
14.700452535
 20
12.2825377282
 30
0.0
 10
14.6946752568
 20
12.2937171503
 30
0.0
 10
14.6919322908
 20
12.2993067273
 30
0.0
  0
SPLINE
  5
2E6
100
AcDbEntity
  8
02___PRT_ALL_AXES
100
AcDbSpline
 62
7
  6
CONTINUOUS
 70
0
 71
3
 72
38
 73
34
 74
0
 42
0.0000001
 43
0.0000001
 44
0.0000000001
 40
0.0
 40
0.0
 40
0.0
 40
0.0
 40
0.0264917919
 40
0.0529799418
 40
0.0795352296
 40
0.1062288717
 40
0.1331310503
 40
0.1603094103
 40
0.1878274421
 40
0.2157430471
 40
0.2441070903
 40
0.2729622814
 40
0.30234217
 40
0.3322704845
 40
0.3627606837
 40
0.3938157564
 40
0.4575511556
 40
0.4902156619
 40
0.5233554305
 40
0.5569246232
 40
0.5908691606
 40
0.6251273371
 40
0.6596306108
 40
0.6943043104
 40
0.7290685691
 40
0.7638392225
 40
0.7985289062
 40
0.8330482575
 40
0.8673071728
 40
0.9012164901
 40
0.9346890753
 40
0.9676427593
 40
1.0
 40
1.0
 40
1.0
 40
1.0
 10
15.2520802414
 20
12.5994455398
 30
0.0
 10
15.2527021911
 20
12.5981781291
 30
0.0
 10
15.2538343767
 20
12.5955868943
 30
0.0
 10
15.2551808873
 20
12.5915622709
 30
0.0
 10
15.2561669622
 20
12.5874231299
 30
0.0
 10
15.2567863665
 20
12.5831913262
 30
0.0
 10
15.2570349771
 20
12.5788884778
 30
0.0
 10
15.2569105515
 20
12.5745364409
 30
0.0
 10
15.2564128759
 20
12.5701569748
 30
0.0
 10
15.2555437766
 20
12.565771627
 30
0.0
 10
15.2543071357
 20
12.5614015548
 30
0.0
 10
15.2527088685
 20
12.5570673883
 30
0.0
 10
15.2507568602
 20
12.5527890675
 30
0.0
 10
15.2484609569
 20
12.5485858123
 30
0.0
 10
15.2458326012
 20
12.54447571
 30
0.0
 10
15.2418696266
 20
12.5390979555
 30
0.0
 10
15.2373223701
 20
12.5340254072
 30
0.0
 10
15.232285779
 20
12.5293006608
 30
0.0
 10
15.2282250573
 20
12.5258967539
 30
0.0
 10
15.2239332362
 20
12.5226751801
 30
0.0
 10
15.2194309406
 20
12.5196469289
 30
0.0
 10
15.2147400438
 20
12.5168224761
 30
0.0
 10
15.2098831063
 20
12.514211307
 30
0.0
 10
15.2048834153
 20
12.5118220876
 30
0.0
 10
15.1997648649
 20
12.5096626579
 30
0.0
 10
15.194551875
 20
12.507740057
 30
0.0
 10
15.1892692893
 20
12.5060605327
 30
0.0
 10
15.183942272
 20
12.5046295434
 30
0.0
 10
15.1785961729
 20
12.5034517443
 30
0.0
 10
15.1732564315
 20
12.5025309978
 30
0.0
 10
15.1679483052
 20
12.5018703131
 30
0.0
 10
15.1626970882
 20
12.5014719109
 30
0.0
 10
15.1592159789
 20
12.501381153
 30
0.0
 10
15.1574916095
 20
12.501381153
 30
0.0
  0
SPLINE
  5
2E7
100
AcDbEntity
  8
LAYER_FEATURE
100
AcDbSpline
 62
7
  6
CONTINUOUS
 70
0
 71
3
 72
68
 73
64
 74
0
 42
0.0000001
 43
0.0000001
 44
0.0000000001
 40
0.0
 40
0.0
 40
0.0
 40
0.0
 40
0.0171788456
 40
0.0345306534
 40
0.0520446775
 40
0.0697104889
 40
0.0875169165
 40
0.1054526097
 40
0.1235058945
 40
0.141664841
 40
0.1599172928
 40
0.1782508911
 40
0.1966531056
 40
0.2151112604
 40
0.2521425354
 40
0.28924306
 40
0.3263089876
 40
0.3447973805
 40
0.3632383651
 40
0.3816191845
 40
0.3999272075
 40
0.4181499573
 40
0.4362751395
 40
0.4542906697
 40
0.4721847023
 40
0.4899456599
 40
0.5075622638
 40
0.525023566
 40
0.5423189791
 40
0.5594383092
 40
0.576371789
 40
0.5931101135
 40
0.6096444775
 40
0.6259666114
 40
0.6420688205
 40
0.6579440247
 40
0.6735858021
 40
0.6889884354
 40
0.704146957
 40
0.7190571972
 40
0.7337158342
 40
0.7481204471
 40
0.7622695731
 40
0.7761627631
 40
0.7898006386
 40
0.8031849497
 40
0.8163186336
 40
0.8292058738
 40
0.8418521562
 40
0.8542643185
 40
0.8664505942
 40
0.8784206496
 40
0.8901856082
 40
0.9017580632
 40
0.9131520671
 40
0.924383102
 40
0.9354680251
 40
0.9464249879
 40
0.9572733264
 40
0.9680334211
 40
0.9787265282
 40
0.9893745859
 40
1.0
 40
1.0
 40
1.0
 40
1.0
 10
15.2122108716
 20
13.3830746548
 30
0.0
 10
15.2227999181
 20
13.3830746548
 30
0.0
 10
15.2440853049
 20
13.3828416555
 30
0.0
 10
15.2761512149
 20
13.3818063834
 30
0.0
 10
15.308488283
 20
13.3800845383
 30
0.0
 10
15.3410625092
 20
13.3776779824
 30
0.0
 10
15.3738401721
 20
13.3745891758
 30
0.0
 10
15.4067870931
 20
13.370821351
 30
0.0
 10
15.4398690008
 20
13.3663784258
 30
0.0
 10
15.4730514563
 20
13.3612650304
 30
0.0
 10
15.506299932
 20
13.3554864871
 30
0.0
 10
15.5395797796
 20
13.3490488158
 30
0.0
 10
15.5728565099
 20
13.3419586912
 30
0.0
 10
15.6172200532
 20
13.3316345783
 30
0.0
 10
15.6724379547
 20
13.3171468266
 30
0.0
 10
15.7380623181
 20
13.2973095212
 30
0.0
 10
15.7920978221
 20
13.2787720241
 30
0.0
 10
15.8348133949
 20
13.2627746895
 30
0.0
 10
15.8665144316
 20
13.2502234195
 30
0.0
 10
15.8978717866
 20
13.2371226444
 30
0.0
 10
15.9288529577
 20
13.2234859315
 30
0.0
 10
15.9594256591
 20
13.2093274952
 30
0.0
 10
15.9895580796
 20
13.1946620707
 30
0.0
 10
16.0192188535
 20
13.1795049236
 30
0.0
 10
16.0483771093
 20
13.1638718278
 30
0.0
 10
16.0770024967
 20
13.1477790494
 30
0.0
 10
16.1050652232
 20
13.1312433344
 30
0.0
 10
16.1325360867
 20
13.1142818923
 30
0.0
 10
16.1593865006
 20
13.0969123709
 30
0.0
 10
16.1855885242
 20
13.0791528392
 30
0.0
 10
16.2111148902
 20
13.0610217684
 30
0.0
 10
16.2359390358
 20
13.0425380122
 30
0.0
 10
16.2600351357
 20
13.0237207948
 30
0.0
 10
16.2833781219
 20
13.0045896805
 30
0.0
 10
16.3059437087
 20
12.9851645546
 30
0.0
 10
16.3277084175
 20
12.9654656029
 30
0.0
 10
16.3486496001
 20
12.9455132879
 30
0.0
 10
16.3687454712
 20
12.9253283355
 30
0.0
 10
16.3879751236
 20
12.904931706
 30
0.0
 10
16.4063185464
 20
12.884344571
 30
0.0
 10
16.423756644
 20
12.8635882924
 30
0.0
 10
16.4402712536
 20
12.8426843973
 30
0.0
 10
16.4558451701
 20
12.8216545614
 30
0.0
 10
16.4704621623
 20
12.8005205852
 30
0.0
 10
16.4841069794
 20
12.7793043673
 30
0.0
 10
16.4967653645
 20
12.7580278853
 30
0.0
 10
16.5084240655
 20
12.7367131733
 30
0.0
 10
16.5190708499
 20
12.7153823028
 30
0.0
 10
16.528694524
 20
12.694057367
 30
0.0
 10
16.537284929
 20
12.6727604553
 30
0.0
 10
16.5448329501
 20
12.6515136395
 30
0.0
 10
16.551330525
 20
12.6303389571
 30
0.0
 10
16.5567706517
 20
12.6092583955
 30
0.0
 10
16.5611474151
 20
12.5882938814
 30
0.0
 10
16.5644559856
 20
12.5674672617
 30
0.0
 10
16.5666926289
 20
12.5468002912
 30
0.0
 10
16.5678547218
 20
12.5263146149
 30
0.0
 10
16.5679407676
 20
12.5060317564
 30
0.0
 10
16.5669504195
 20
12.4859730698
 30
0.0
 10
16.5648845225
 20
12.4661598049
 30
0.0
 10
16.5617450103
 20
12.4466127341
 30
0.0
 10
16.557535315
 20
12.4273533837
 30
0.0
 10
16.5540164557
 20
12.414712841
 30
0.0
 10
16.552082733
 20
12.4084553027
 30
0.0
  0
SPLINE
  5
2E8
100
AcDbEntity
  8
02___PRT_ALL_AXES
100
AcDbSpline
 62
7
  6
CONTINUOUS
 70
0
 71
3
 72
56
 73
52
 74
0
 42
0.0000001
 43
0.0000001
 44
0.0000000001
 40
0.0
 40
0.0
 40
0.0
 40
0.0
 40
0.0106256372
 40
0.0212739184
 40
0.03196725
 40
0.0427275708
 40
0.0535761374
 40
0.0645333303
 40
0.0756184858
 40
0.0868497563
 40
0.0982439997
 40
0.1098166982
 40
0.1215819042
 40
0.1335522103
 40
0.1457387415
 40
0.1581511645
 40
0.1707977132
 40
0.1836852246
 40
0.1968191838
 40
0.2102037751
 40
0.223841937
 40
0.2377354194
 40
0.2518848433
 40
0.2662897586
 40
0.2809487024
 40
0.2958592553
 40
0.3110180958
 40
0.3264210534
 40
0.3420631595
 40
0.3579386963
 40
0.3740412428
 40
0.3903637197
 40
0.4068984317
 40
0.4236371082
 40
0.4405709432
 40
0.4576906321
 40
0.4924461504
 40
0.5278226278
 40
0.5637311965
 40
0.6000782075
 40
0.6367661817
 40
0.6736947281
 40
0.7107614342
 40
0.7478627378
 40
0.7848947907
 40
0.821754318
 40
0.8583394846
 40
0.8945507718
 40
0.9302918757
 40
0.9654706406
 40
1.0
 40
1.0
 40
1.0
 40
1.0
 10
14.7330918406
 20
12.2394383387
 30
0.0
 10
14.7319548906
 20
12.2357591655
 30
0.0
 10
14.7298859488
 20
12.2283270491
 30
0.0
 10
14.727410819
 20
12.2170033491
 30
0.0
 10
14.7255649151
 20
12.2055104806
 30
0.0
 10
14.7243502541
 20
12.1938611006
 30
0.0
 10
14.7237679726
 20
12.182067423
 30
0.0
 10
14.7238185643
 20
12.1701419417
 30
0.0
 10
14.7245018246
 20
12.1580972121
 30
0.0
 10
14.7258168771
 20
12.1459458889
 30
0.0
 10
14.7277621802
 20
12.1337006984
 30
0.0
 10
14.730335538
 20
12.1213744319
 30
0.0
 10
14.7335341084
 20
12.1089799345
 30
0.0
 10
14.7373544113
 20
12.0965300974
 30
0.0
 10
14.7417923338
 20
12.084037849
 30
0.0
 10
14.7468431366
 20
12.0715161464
 30
0.0
 10
14.7525014605
 20
12.058977967
 30
0.0
 10
14.7587613307
 20
12.0464362987
 30
0.0
 10
14.7656161628
 20
12.0339041298
 30
0.0
 10
14.7730587673
 20
12.0213944384
 30
0.0
 10
14.7810813548
 20
12.0089201804
 30
0.0
 10
14.7896755427
 20
11.9964942775
 30
0.0
 10
14.7988323629
 20
11.9841296053
 30
0.0
 10
14.8085422694
 20
11.9718389802
 30
0.0
 10
14.8187951467
 20
11.9596351463
 30
0.0
 10
14.8295803192
 20
11.9475307627
 30
0.0
 10
14.8408865599
 20
11.9355383892
 30
0.0
 10
14.8527021021
 20
11.9236704736
 30
0.0
 10
14.8650146515
 20
11.9119393388
 30
0.0
 10
14.8778113975
 20
11.9003571694
 30
0.0
 10
14.8910790273
 20
11.8889359983
 30
0.0
 10
14.9048037364
 20
11.8776876958
 30
0.0
 10
14.9189712505
 20
11.8666239491
 30
0.0
 10
14.93356681
 20
11.8557562773
 30
0.0
 10
14.948575301
 20
11.845095917
 30
0.0
 10
14.9692190077
 20
11.8311038153
 30
0.0
 10
14.9959628706
 20
11.8142130511
 30
0.0
 10
15.029283549
 20
11.7950453866
 30
0.0
 10
15.0638545472
 20
11.7769571598
 30
0.0
 10
15.0995319087
 20
11.7600236938
 30
0.0
 10
15.1361676077
 20
11.7443152224
 30
0.0
 10
15.1736094533
 20
11.7298970017
 30
0.0
 10
15.2117019279
 20
11.7168289205
 30
0.0
 10
15.2502867843
 20
11.7051652666
 30
0.0
 10
15.2892037316
 20
11.6949544925
 30
0.0
 10
15.3282910996
 20
11.6862390174
 30
0.0
 10
15.3673865514
 20
11.679055041
 30
0.0
 10
15.4063276536
 20
11.6734324015
 30
0.0
 10
15.4449529976
 20
11.669394457
 30
0.0
 10
15.4831012923
 20
11.6669579965
 30
0.0
 10
15.5083672399
 20
11.6664025013
 30
0.0
 10
15.5208810349
 20
11.6664025013
 30
0.0
  0
SPLINE
  5
2E9
100
AcDbEntity
  8
02___PRT_ALL_AXES
100
AcDbSpline
 62
7
  6
CONTINUOUS
 70
0
 71
3
 72
28
 73
24
 74
0
 42
0.0000001
 43
0.0000001
 44
0.0000000001
 40
0.0
 40
0.0
 40
0.0
 40
0.0
 40
0.0274588919
 40
0.0549451924
 40
0.0824861751
 40
0.1101088453
 40
0.1378398117
 40
0.1657051631
 40
0.1937303525
 40
0.2219400919
 40
0.2503582563
 40
0.2790077985
 40
0.3370791566
 40
0.3963259375
 40
0.4568924857
 40
0.5189039948
 40
0.5824662654
 40
0.6476659202
 40
0.7145709396
 40
0.7832314639
 40
0.8536807224
 40
0.9259360594
 40
1.0
 40
1.0
 40
1.0
 40
1.0
 10
15.9273678959
 20
11.8703791243
 30
0.0
 10
15.9265903828
 20
11.86786309
 30
0.0
 10
15.9249372943
 20
11.8628579827
 30
0.0
 10
15.9221681241
 20
11.8554457142
 30
0.0
 10
15.9191102001
 20
11.8481306826
 30
0.0
 10
15.9157650794
 20
11.8409166279
 30
0.0
 10
15.9121344031
 20
11.8338070497
 30
0.0
 10
15.9082199716
 20
11.8268054452
 30
0.0
 10
15.9040237159
 20
11.8199152333
 30
0.0
 10
15.8995477334
 20
11.813139805
 30
0.0
 10
15.894794153
 20
11.806482388
 30
0.0
 10
15.8880595338
 20
11.7977290231
 30
0.0
 10
15.8789403365
 20
11.7870916874
 30
0.0
 10
15.8669780715
 20
11.7749114046
 30
0.0
 10
15.8539703644
 20
11.7632800823
 30
0.0
 10
15.8399434725
 20
11.7522204099
 30
0.0
 10
15.8249250417
 20
11.7417532813
 30
0.0
 10
15.808944623
 20
11.7318986081
 30
0.0
 10
15.7920334813
 20
11.7226750691
 30
0.0
 10
15.7742246368
 20
11.7141001899
 30
0.0
 10
15.755552642
 20
11.7061902347
 30
0.0
 10
15.7360542324
 20
11.6989603932
 30
0.0
 10
15.7226929293
 20
11.6946557547
 30
0.0
 10
15.715889014
 20
11.6926160885
 30
0.0
  0
SPLINE
  5
2EA
100
AcDbEntity
  8
02___PRT_ALL_AXES
100
AcDbSpline
 62
7
  6
CONTINUOUS
 70
0
 71
3
 72
15
 73
11
 74
0
 42
0.0000001
 43
0.0000001
 44
0.0000000001
 40
0.0
 40
0.0
 40
0.0
 40
0.0
 40
0.1156916727
 40
0.2342083044
 40
0.3554890133
 40
0.4794541941
 40
0.6060071406
 40
0.7350355453
 40
0.8664128726
 40
1.0
 40
1.0
 40
1.0
 40
1.0
 10
15.715889014
 20
11.6926160885
 30
0.0
 10
15.7085957027
 20
11.6904297121
 30
0.0
 10
15.6937324106
 20
11.6863263094
 30
0.0
 10
15.6709375332
 20
11.6810320843
 30
0.0
 10
15.6474175887
 20
11.6765342726
 30
0.0
 10
15.6232230851
 20
11.6728424791
 30
0.0
 10
15.5984052805
 20
11.6699644138
 30
0.0
 10
15.5730168693
 20
11.6679061438
 30
0.0
 10
15.5471121184
 20
11.6666719872
 30
0.0
 10
15.5296727584
 20
11.6664025013
 30
0.0
 10
15.5208810349
 20
11.6664025013
 30
0.0
  0
SPLINE
  5
2EB
100
AcDbEntity
  8
LAYER_CHAMFER_FEAT
100
AcDbSpline
 62
7
  6
CONTINUOUS
 70
0
 71
3
 72
11
 73
7
 74
0
 42
0.0000001
 43
0.0000001
 44
0.0000000001
 40
0.0
 40
0.0
 40
0.0
 40
0.0
 40
0.2617772479
 40
0.5161275675
 40
0.7623844469
 40
1.0
 40
1.0
 40
1.0
 40
1.0
 10
15.2863800999
 20
12.1442651644
 30
0.0
 10
15.283082986
 20
12.1442651644
 30
0.0
 10
15.2765808922
 20
12.1441014897
 30
0.0
 10
15.2670037136
 20
12.1433435644
 30
0.0
 10
15.2577866818
 20
12.1420808609
 30
0.0
 10
15.25180577
 20
12.1408848417
 30
0.0
 10
15.2488924575
 20
12.1401996921
 30
0.0
  0
SPLINE
  5
2EC
100
AcDbEntity
  8
LAYER_CHAMFER_FEAT
100
AcDbSpline
 62
7
  6
CONTINUOUS
 70
0
 71
3
 72
23
 73
19
 74
0
 42
0.0000001
 43
0.0000001
 44
0.0000000001
 40
0.0
 40
0.0
 40
0.0
 40
0.0
 40
0.0614590448
 40
0.1243125027
 40
0.1883141501
 40
0.2531994647
 40
0.3186929619
 40
0.3845108437
 40
0.4503651229
 40
0.5159673377
 40
0.5810323107
 40
0.6452819431
 40
0.7084491048
 40
0.7702816913
 40
0.8305469252
 40
0.8890359434
 40
0.9455688006
 40
1.0
 40
1.0
 40
1.0
 40
1.0
 10
15.2863800999
 20
12.1442651644
 30
0.0
 10
15.2899909185
 20
12.1442651644
 30
0.0
 10
15.2972957929
 20
12.1440637848
 30
0.0
 10
15.3083291881
 20
12.1431863552
 30
0.0
 10
15.3195050416
 20
12.1417355659
 30
0.0
 10
15.33075044
 20
12.1397208028
 30
0.0
 10
15.3419924672
 20
12.1371551715
 30
0.0
 10
15.3531580892
 20
12.1340553205
 30
0.0
 10
15.3641747873
 20
12.1304413877
 30
0.0
 10
15.3749710009
 20
12.1263368514
 30
0.0
 10
15.3854766135
 20
12.1217683703
 30
0.0
 10
15.3956234145
 20
12.116765603
 30
0.0
 10
15.4053455467
 20
12.1113610079
 30
0.0
 10
15.4145799571
 20
12.1055895992
 30
0.0
 10
15.423266757
 20
12.0994887713
 30
0.0
 10
15.4313498147
 20
12.0930977843
 30
0.0
 10
15.4387763507
 20
12.0864583038
 30
0.0
 10
15.443348206
 20
12.0818024151
 30
0.0
 10
15.445505442
 20
12.0794416878
 30
0.0
  0
SPLINE
  5
2ED
100
AcDbEntity
  8
LAYER_FEATURE
100
AcDbSpline
 62
7
  6
CONTINUOUS
 70
0
 71
3
 72
40
 73
36
 74
0
 42
0.0000001
 43
0.0000001
 44
0.0000000001
 40
0.0
 40
0.0
 40
0.0
 40
0.0
 40
0.039665119
 40
0.0788625779
 40
0.1175689642
 40
0.1557635445
 40
0.1934263296
 40
0.2305392284
 40
0.2670857827
 40
0.3030514013
 40
0.3384234642
 40
0.3731914561
 40
0.4073471071
 40
0.4408845372
 40
0.4738004077
 40
0.5060940775
 40
0.5377677657
 40
0.5688267098
 40
0.5992793256
 40
0.6291373641
 40
0.6584160591
 40
0.6728447437
 40
0.6871359821
 40
0.7153162787
 40
0.7429850724
 40
0.7701726315
 40
0.7969130885
 40
0.8232443842
 40
0.8492081426
 40
0.8748494725
 40
0.9002166865
 40
0.9253609337
 40
0.950335752
 40
0.9751965454
 40
1.0
 40
1.0
 40
1.0
 40
1.0
 10
15.0911777099
 20
12.9914112
 30
0.0
 10
15.0802676357
 20
12.9914112
 30
0.0
 10
15.0585752548
 20
12.9911665566
 30
0.0
 10
15.0262537588
 20
12.9900514974
 30
0.0
 10
14.9943714285
 20
12.988191637
 30
0.0
 10
14.9629645787
 20
12.9855891235
 30
0.0
 10
14.9320684876
 20
12.9822468324
 30
0.0
 10
14.9017180717
 20
12.9781685353
 30
0.0
 10
14.8719475502
 20
12.9733587949
 30
0.0
 10
14.842790507
 20
12.9678230075
 30
0.0
 10
14.8142798235
 20
12.9615673796
 30
0.0
 10
14.7864476501
 20
12.9545989194
 30
0.0
 10
14.7593253713
 20
12.9469254273
 30
0.0
 10
14.7329435715
 20
12.9385554862
 30
0.0
 10
14.707332002
 20
12.929498449
 30
0.0
 10
14.6825195519
 20
12.9197644285
 30
0.0
 10
14.6585342065
 20
12.9093642859
 30
0.0
 10
14.6354030544
 20
12.8983096308
 30
0.0
 10
14.6131521466
 20
12.8866127337
 30
0.0
 10
14.5918068926
 20
12.8742867851
 30
0.0
 10
14.5747112205
 20
12.8634498828
 30
0.0
 10
14.5615199071
 20
12.8544767839
 30
0.0
 10
14.5487742017
 20
12.8453925462
 30
0.0
 10
14.5334396347
 20
12.8336739566
 30
0.0
 10
14.5159475011
 20
12.818975234
 30
0.0
 10
14.4994710941
 20
12.8037225314
 30
0.0
 10
14.4840295103
 20
12.787933051
 30
0.0
 10
14.4696404647
 20
12.7716244414
 30
0.0
 10
14.4563206003
 20
12.7548150416
 30
0.0
 10
14.4440853727
 20
12.7375238177
 30
0.0
 10
14.4329490238
 20
12.7197703473
 30
0.0
 10
14.4229245799
 20
12.7015749003
 30
0.0
 10
14.4140236947
 20
12.6829580334
 30
0.0
 10
14.4062570587
 20
12.6639419932
 30
0.0
 10
14.4018391217
 20
12.6510059325
 30
0.0
 10
14.3998248569
 20
12.6444877595
 30
0.0
  0
SPLINE
  5
2EE
100
AcDbEntity
  8
LAYER_FEATURE
100
AcDbSpline
 62
7
  6
CONTINUOUS
 70
0
 71
3
 72
40
 73
36
 74
0
 42
0.0000001
 43
0.0000001
 44
0.0000000001
 40
0.0
 40
0.0
 40
0.0
 40
0.0
 40
0.039665119
 40
0.0788625779
 40
0.1175689642
 40
0.1557635445
 40
0.1934263296
 40
0.2305392284
 40
0.2670857827
 40
0.3030514013
 40
0.3384234642
 40
0.3731914561
 40
0.4073471071
 40
0.4408845372
 40
0.4738004077
 40
0.5060940775
 40
0.5377677657
 40
0.5688267098
 40
0.5992793256
 40
0.6291373641
 40
0.6584160591
 40
0.6728447437
 40
0.6871359821
 40
0.7153162787
 40
0.7429850724
 40
0.7701726315
 40
0.7969130885
 40
0.8232443842
 40
0.8492081426
 40
0.8748494725
 40
0.9002166865
 40
0.9253609337
 40
0.950335752
 40
0.9751965454
 40
1.0
 40
1.0
 40
1.0
 40
1.0
 10
15.2122108716
 20
13.3830746548
 30
0.0
 10
15.2013007974
 20
13.3830746548
 30
0.0
 10
15.1796084165
 20
13.3828300114
 30
0.0
 10
15.1472869205
 20
13.3817149522
 30
0.0
 10
15.1154045902
 20
13.3798550918
 30
0.0
 10
15.0839977404
 20
13.3772525784
 30
0.0
 10
15.0531016493
 20
13.3739102872
 30
0.0
 10
15.0227512334
 20
13.3698319902
 30
0.0
 10
14.9929807119
 20
13.3650222498
 30
0.0
 10
14.9638236687
 20
13.3594864623
 30
0.0
 10
14.9353129852
 20
13.3532308345
 30
0.0
 10
14.9074808118
 20
13.3462623742
 30
0.0
 10
14.880358533
 20
13.3385888822
 30
0.0
 10
14.8539767332
 20
13.330218941
 30
0.0
 10
14.8283651637
 20
13.3211619038
 30
0.0
 10
14.8035527136
 20
13.3114278833
 30
0.0
 10
14.7795673682
 20
13.3010277407
 30
0.0
 10
14.7564362161
 20
13.2899730856
 30
0.0
 10
14.7341853083
 20
13.2782761886
 30
0.0
 10
14.7128400543
 20
13.2659502399
 30
0.0
 10
14.6957443822
 20
13.2551133376
 30
0.0
 10
14.6825530688
 20
13.2461402387
 30
0.0
 10
14.6698073634
 20
13.237056001
 30
0.0
 10
14.6544727964
 20
13.2253374114
 30
0.0
 10
14.6369806628
 20
13.2106386889
 30
0.0
 10
14.6205042558
 20
13.1953859862
 30
0.0
 10
14.605062672
 20
13.1795965058
 30
0.0
 10
14.5906736264
 20
13.1632878963
 30
0.0
 10
14.577353762
 20
13.1464784964
 30
0.0
 10
14.5651185344
 20
13.1291872725
 30
0.0
 10
14.5539821855
 20
13.1114338021
 30
0.0
 10
14.5439577416
 20
13.0932383551
 30
0.0
 10
14.5350568564
 20
13.0746214882
 30
0.0
 10
14.5272902204
 20
13.0556054481
 30
0.0
 10
14.5228722834
 20
13.0426693873
 30
0.0
 10
14.5208580186
 20
13.0361512143
 30
0.0
  0
SPLINE
  5
2EF
100
AcDbEntity
  8
LAYER_FEATURE
100
AcDbSpline
 62
7
  6
CONTINUOUS
 70
0
 71
3
 72
68
 73
64
 74
0
 42
0.0000001
 43
0.0000001
 44
0.0000000001
 40
0.0
 40
0.0
 40
0.0
 40
0.0
 40
0.0171788456
 40
0.0345306534
 40
0.0520446775
 40
0.0697104889
 40
0.0875169165
 40
0.1054526097
 40
0.1235058945
 40
0.141664841
 40
0.1599172928
 40
0.1782508911
 40
0.1966531056
 40
0.2151112604
 40
0.2521425354
 40
0.28924306
 40
0.3263089876
 40
0.3447973805
 40
0.3632383651
 40
0.3816191845
 40
0.3999272075
 40
0.4181499573
 40
0.4362751395
 40
0.4542906697
 40
0.4721847023
 40
0.4899456599
 40
0.5075622638
 40
0.525023566
 40
0.5423189791
 40
0.5594383092
 40
0.576371789
 40
0.5931101135
 40
0.6096444775
 40
0.6259666114
 40
0.6420688205
 40
0.6579440247
 40
0.6735858021
 40
0.6889884354
 40
0.704146957
 40
0.7190571972
 40
0.7337158342
 40
0.7481204471
 40
0.7622695731
 40
0.7761627631
 40
0.7898006386
 40
0.8031849497
 40
0.8163186336
 40
0.8292058738
 40
0.8418521562
 40
0.8542643185
 40
0.8664505942
 40
0.8784206496
 40
0.8901856082
 40
0.9017580632
 40
0.9131520671
 40
0.924383102
 40
0.9354680251
 40
0.9464249879
 40
0.9572733264
 40
0.9680334211
 40
0.9787265282
 40
0.9893745859
 40
1.0
 40
1.0
 40
1.0
 40
1.0
 10
15.0911777099
 20
12.9914112
 30
0.0
 10
15.1017667564
 20
12.9914112
 30
0.0
 10
15.1230521432
 20
12.9911782007
 30
0.0
 10
15.1551180532
 20
12.9901429286
 30
0.0
 10
15.1874551213
 20
12.9884210835
 30
0.0
 10
15.2200293475
 20
12.9860145276
 30
0.0
 10
15.2528070104
 20
12.982925721
 30
0.0
 10
15.2857539314
 20
12.9791578962
 30
0.0
 10
15.3188358391
 20
12.974714971
 30
0.0
 10
15.3520182946
 20
12.9696015756
 30
0.0
 10
15.3852667703
 20
12.9638230323
 30
0.0
 10
15.4185466179
 20
12.957385361
 30
0.0
 10
15.4518233481
 20
12.9502952363
 30
0.0
 10
15.4961868915
 20
12.9399711235
 30
0.0
 10
15.551404793
 20
12.9254833718
 30
0.0
 10
15.6170291564
 20
12.9056460664
 30
0.0
 10
15.6710646604
 20
12.8871085692
 30
0.0
 10
15.7137802332
 20
12.8711112347
 30
0.0
 10
15.7454812699
 20
12.8585599647
 30
0.0
 10
15.7768386249
 20
12.8454591896
 30
0.0
 10
15.807819796
 20
12.8318224767
 30
0.0
 10
15.8383924973
 20
12.8176640404
 30
0.0
 10
15.8685249179
 20
12.8029986159
 30
0.0
 10
15.8981856918
 20
12.7878414688
 30
0.0
 10
15.9273439476
 20
12.772208373
 30
0.0
 10
15.955969335
 20
12.7561155946
 30
0.0
 10
15.9840320615
 20
12.7395798796
 30
0.0
 10
16.011502925
 20
12.7226184375
 30
0.0
 10
16.0383533389
 20
12.7052489161
 30
0.0
 10
16.0645553625
 20
12.6874893844
 30
0.0
 10
16.0900817285
 20
12.6693583136
 30
0.0
 10
16.1149058741
 20
12.6508745574
 30
0.0
 10
16.139001974
 20
12.63205734
 30
0.0
 10
16.1623449602
 20
12.6129262256
 30
0.0
 10
16.184910547
 20
12.5935010998
 30
0.0
 10
16.2066752558
 20
12.5738021481
 30
0.0
 10
16.2276164384
 20
12.5538498331
 30
0.0
 10
16.2477123095
 20
12.5336648807
 30
0.0
 10
16.2669419619
 20
12.5132682512
 30
0.0
 10
16.2852853847
 20
12.4926811162
 30
0.0
 10
16.3027234823
 20
12.4719248376
 30
0.0
 10
16.3192380919
 20
12.4510209425
 30
0.0
 10
16.3348120084
 20
12.4299911066
 30
0.0
 10
16.3494290006
 20
12.4088571304
 30
0.0
 10
16.3630738177
 20
12.3876409125
 30
0.0
 10
16.3757322028
 20
12.3663644305
 30
0.0
 10
16.3873909038
 20
12.3450497185
 30
0.0
 10
16.3980376882
 20
12.323718848
 30
0.0
 10
16.4076613623
 20
12.3023939121
 30
0.0
 10
16.4162517673
 20
12.2810970005
 30
0.0
 10
16.4237997884
 20
12.2598501847
 30
0.0
 10
16.4302973633
 20
12.2386755023
 30
0.0
 10
16.43573749
 20
12.2175949407
 30
0.0
 10
16.4401142534
 20
12.1966304266
 30
0.0
 10
16.4434228239
 20
12.1758038069
 30
0.0
 10
16.4456594672
 20
12.1551368364
 30
0.0
 10
16.4468215601
 20
12.1346511601
 30
0.0
 10
16.4469076059
 20
12.1143683015
 30
0.0
 10
16.4459172577
 20
12.094309615
 30
0.0
 10
16.4438513608
 20
12.0744963501
 30
0.0
 10
16.4407118486
 20
12.0549492793
 30
0.0
 10
16.4365021533
 20
12.0356899289
 30
0.0
 10
16.432983294
 20
12.0230493862
 30
0.0
 10
16.4310495713
 20
12.0167918479
 30
0.0
  0
SPLINE
  5
2F0
100
AcDbEntity
  8
LAYER_FEATURE
100
AcDbSpline
 62
7
  6
CONTINUOUS
 70
0
 71
3
 72
15
 73
11
 74
0
 42
0.0000001
 43
0.0000001
 44
0.0000000001
 40
0.0
 40
0.0
 40
0.0
 40
0.0
 40
0.1190284184
 40
0.2390485885
 40
0.3604707882
 40
0.4836680197
 40
0.608969375
 40
0.7366504291
 40
0.86694035
 40
1.0
 40
1.0
 40
1.0
 40
1.0
 10
15.1068987182
 20
12.5236095373
 30
0.0
 10
15.1064623985
 20
12.5248173553
 30
0.0
 10
15.1056943952
 20
12.5272836858
 30
0.0
 10
15.1048688298
 20
12.5310890277
 30
0.0
 10
15.1043691388
 20
12.5349961896
 30
0.0
 10
15.1041973492
 20
12.5389881716
 30
0.0
 10
15.104353916
 20
12.5430481366
 30
0.0
 10
15.1048379095
 20
12.5471590561
 30
0.0
 10
15.1056470329
 20
12.551303378
 30
0.0
 10
15.1063928772
 20
12.5540479577
 30
0.0
 10
15.1068167332
 20
12.5554195561
 30
0.0
  0
SPLINE
  5
2F1
100
AcDbEntity
  8
02___PRT_ALL_AXES
100
AcDbSpline
 62
7
  6
CONTINUOUS
 70
0
 71
3
 72
35
 73
31
 74
0
 42
0.0000001
 43
0.0000001
 44
0.0000000001
 40
0.0
 40
0.0
 40
0.0
 40
0.0
 40
0.0238108297
 40
0.0478508687
 40
0.0722565693
 40
0.097149979
 40
0.1226351229
 40
0.1487957859
 40
0.1756944822
 40
0.2033726216
 40
0.2318513657
 40
0.2611332082
 40
0.2912038056
 40
0.3220341078
 40
0.3535825095
 40
0.3857969901
 40
0.4186171939
 40
0.4519763081
 40
0.4858028442
 40
0.5200221717
 40
0.5545578899
 40
0.5893330428
 40
0.6592752316
 40
0.7292776176
 40
0.7987915537
 40
0.8673305089
 40
0.9011172675
 40
0.9345143201
 40
0.9674855729
 40
1.0
 40
1.0
 40
1.0
 40
1.0
 10
15.1048522581
 20
12.5271965395
 30
0.0
 10
15.104297478
 20
12.5283270727
 30
0.0
 10
15.1032956794
 20
12.5306564794
 30
0.0
 10
15.102137361
 20
12.5343042911
 30
0.0
 10
15.1013225099
 20
12.5381025259
 30
0.0
 10
15.1008538024
 20
12.542035325
 30
0.0
 10
15.1007320897
 20
12.5460865812
 30
0.0
 10
15.1009568308
 20
12.5502392365
 30
0.0
 10
15.1015260428
 20
12.554475496
 30
0.0
 10
15.1024363632
 20
12.5587767898
 30
0.0
 10
15.1036830601
 20
12.563123835
 30
0.0
 10
15.105260056
 20
12.5674966991
 30
0.0
 10
15.1071599484
 20
12.5718749042
 30
0.0
 10
15.1093740495
 20
12.5762375444
 30
0.0
 10
15.1118924312
 20
12.5805634247
 30
0.0
 10
15.114703987
 20
12.584831202
 30
0.0
 10
15.1177964946
 20
12.5890195304
 30
0.0
 10
15.1211566824
 20
12.5931071972
 30
0.0
 10
15.1247703064
 20
12.5970732679
 30
0.0
 10
15.1286221533
 20
12.6008971631
 30
0.0
 10
15.1326963027
 20
12.6045589563
 30
0.0
 10
15.1384121566
 20
12.6092072446
 30
0.0
 10
15.1460072396
 20
12.6144997101
 30
0.0
 10
15.1556999525
 20
12.6199023143
 30
0.0
 10
15.1658303293
 20
12.6242491216
 30
0.0
 10
15.1745385929
 20
12.6269203246
 30
0.0
 10
15.1815590458
 20
12.6284328161
 30
0.0
 10
15.1867967239
 20
12.6292452084
 30
0.0
 10
15.1920064812
 20
12.6297356498
 30
0.0
 10
15.1954708464
 20
12.6298467662
 30
0.0
 10
15.1971904866
 20
12.6298467662
 30
0.0
  0
SPLINE
  5
2F2
100
AcDbEntity
  8
LAYER_FEATURE
100
AcDbSpline
 62
7
  6
CONTINUOUS
 70
0
 71
3
 72
47
 73
43
 74
0
 42
0.0000001
 43
0.0000001
 44
0.0000000001
 40
0.0
 40
0.0
 40
0.0
 40
0.0
 40
0.0290941337
 40
0.0572909258
 40
0.071091325
 40
0.084711012
 40
0.0981697779
 40
0.1114896905
 40
0.1246947832
 40
0.1378108884
 40
0.1508652136
 40
0.1638859554
 40
0.176901857
 40
0.1899417343
 40
0.2030340122
 40
0.2162062911
 40
0.2294848914
 40
0.2428945047
 40
0.2564578839
 40
0.2701955234
 40
0.2982514948
 40
0.3271892716
 40
0.3570803105
 40
0.3879545861
 40
0.4198032701
 40
0.4525824977
 40
0.4862177109
 40
0.5206081741
 40
0.5556314911
 40
0.5911480351
 40
0.6270052999
 40
0.6630421461
 40
0.6990929605
 40
0.7349917798
 40
0.770576423
 40
0.8056926491
 40
0.8401983755
 40
0.8739679935
 40
0.9068967959
 40
0.9389056492
 40
0.9699447184
 40
1.0
 40
1.0
 40
1.0
 40
1.0
 10
15.1169194469
 20
12.5656139596
 30
0.0
 10
15.1164083412
 20
12.563960021
 30
0.0
 10
15.1155698486
 20
12.5606480565
 30
0.0
 10
15.114997066
 20
12.5564468885
 30
0.0
 10
15.1148469186
 20
12.5531392907
 30
0.0
 10
15.1148858134
 20
12.5507056849
 30
0.0
 10
15.1150753914
 20
12.5483078413
 30
0.0
 10
15.1154152322
 20
12.5459514964
 30
0.0
 10
15.1159045881
 20
12.5436424035
 30
0.0
 10
15.1165422549
 20
12.5413861715
 30
0.0
 10
15.1173267608
 20
12.5391883189
 30
0.0
 10
15.1182561786
 20
12.5370542014
 30
0.0
 10
15.1193282469
 20
12.5349890242
 30
0.0
 10
15.1205403803
 20
12.5329978444
 30
0.0
 10
15.1218895613
 20
12.5310854793
 30
0.0
 10
15.1233725203
 20
12.5292566009
 30
0.0
 10
15.1249856092
 20
12.5275156243
 30
0.0
 10
15.1267248438
 20
12.5258667462
 30
0.0
 10
15.1285860878
 20
12.5243139288
 30
0.0
 10
15.1312422421
 20
12.5223632212
 30
0.0
 10
15.1348558096
 20
12.5201852631
 30
0.0
 10
15.1395666158
 20
12.5180315999
 30
0.0
 10
15.1446380824
 20
12.5163376522
 30
0.0
 10
15.1500209272
 20
12.5151189001
 30
0.0
 10
15.1556637347
 20
12.5143860131
 30
0.0
 10
15.1615126074
 20
12.5141453385
 30
0.0
 10
15.167511789
 20
12.5143986809
 30
0.0
 10
15.1736040804
 20
12.5151432871
 30
0.0
 10
15.1797313689
 20
12.5163718236
 30
0.0
 10
15.1858351708
 20
12.5180723965
 30
0.0
 10
15.1918571923
 20
12.5202286521
 30
0.0
 10
15.19773989
 20
12.522819925
 30
0.0
 10
15.2034270274
 20
12.5258214265
 30
0.0
 10
15.2088642196
 20
12.5292044777
 30
0.0
 10
15.2139994684
 20
12.5329367742
 30
0.0
 10
15.2187836491
 20
12.5369827264
 30
0.0
 10
15.2231709711
 20
12.5413038021
 30
0.0
 10
15.2271193991
 20
12.5458589408
 30
0.0
 10
15.2305910224
 20
12.5506048446
 30
0.0
 10
15.2335524243
 20
12.5554967552
 30
0.0
 10
15.2359746699
 20
12.560487586
 30
0.0
 10
15.2372346588
 20
12.5639053818
 30
0.0
 10
15.2377626493
 20
12.5656139596
 30
0.0
  0
SPLINE
  5
2F3
100
AcDbEntity
  8
LAYER_FEATURE
100
AcDbSpline
 62
7
  6
CONTINUOUS
 70
0
 71
3
 72
23
 73
19
 74
0
 42
0.0000001
 43
0.0000001
 44
0.0000000001
 40
0.0
 40
0.0
 40
0.0
 40
0.0
 40
0.054908514
 40
0.1116144441
 40
0.1700919216
 40
0.2302502015
 40
0.291944541
 40
0.3549836714
 40
0.4191381501
 40
0.4841483983
 40
0.549732613
 40
0.6155945081
 40
0.6814308871
 40
0.7469391845
 40
0.811825009
 40
0.8439521424
 40
0.8758211263
 40
1.0
 40
1.0
 40
1.0
 40
1.0
 10
15.1068167332
 20
12.5554195561
 30
0.0
 10
15.1074767209
 20
12.557555277
 30
0.0
 10
15.1090517104
 20
12.5618275226
 30
0.0
 10
15.1120795096
 20
12.568066063
 30
0.0
 10
15.1157812619
 20
12.5741809539
 30
0.0
 10
15.1201207968
 20
12.5801133278
 30
0.0
 10
15.1250563364
 20
12.5858072483
 30
0.0
 10
15.1305404789
 20
12.5912086021
 30
0.0
 10
15.1365207051
 20
12.5962660424
 30
0.0
 10
15.142939771
 20
12.6009314058
 30
0.0
 10
15.1497362637
 20
12.6051602208
 30
0.0
 10
15.1568451741
 20
12.6089120997
 30
0.0
 10
15.1641985809
 20
12.6121511993
 30
0.0
 10
15.1717259821
 20
12.6148464827
 30
0.0
 10
15.1781056434
 20
12.6166239257
 30
0.0
 10
15.1832318372
 20
12.6177493259
 30
0.0
 10
15.1907704754
 20
12.6191101553
 30
0.0
 10
15.1971377465
 20
12.6196523627
 30
0.0
 10
15.2021931732
 20
12.6196523627
 30
0.0
  0
SPLINE
  5
2F4
100
AcDbEntity
  8
LAYER_FEATURE
100
AcDbSpline
 62
7
  6
CONTINUOUS
 70
0
 71
3
 72
20
 73
16
 74
0
 42
0.0000001
 43
0.0000001
 44
0.0000000001
 40
0.0
 40
0.0
 40
0.0
 40
0.0
 40
0.1403412919
 40
0.2088260491
 40
0.2761276743
 40
0.4070629712
 40
0.5332197179
 40
0.5946156831
 40
0.6549457808
 40
0.7142876917
 40
0.7727357223
 40
0.8304000276
 40
0.8874053957
 40
0.9438893856
 40
1.0
 40
1.0
 40
1.0
 40
1.0
 10
15.2021931732
 20
12.6196523627
 30
0.0
 10
15.2049733039
 20
12.6196523627
 30
0.0
 10
15.2091143904
 20
12.619458113
 30
0.0
 10
15.2145445843
 20
12.6187834768
 30
0.0
 10
15.2197486444
 20
12.6178572699
 30
0.0
 10
15.2259774267
 20
12.6162204391
 30
0.0
 10
15.2318659208
 20
12.6139082245
 30
0.0
 10
15.2362472796
 20
12.611684288
 30
0.0
 10
15.2393350875
 20
12.6098537075
 30
0.0
 10
15.2422438321
 20
12.607851413
 30
0.0
 10
15.2449643811
 20
12.6056835711
 30
0.0
 10
15.2474879943
 20
12.6033569624
 30
0.0
 10
15.2498066408
 20
12.6008788284
 30
0.0
 10
15.2519127316
 20
12.5982572059
 30
0.0
 10
15.2531739316
 20
12.5964143672
 30
0.0
 10
15.2537656674
 20
12.5954734272
 30
0.0
  0
SPLINE
  5
2F5
100
AcDbEntity
  8
LAYER_FEATURE
100
AcDbSpline
 62
7
  6
CONTINUOUS
 70
0
 71
3
 72
47
 73
43
 74
0
 42
0.0000001
 43
0.0000001
 44
0.0000000001
 40
0.0
 40
0.0
 40
0.0
 40
0.0
 40
0.0300552816
 40
0.0610943508
 40
0.0931032041
 40
0.1260320065
 40
0.1598016245
 40
0.1943073509
 40
0.229423577
 40
0.2650082202
 40
0.3009070395
 40
0.3369578539
 40
0.3729947001
 40
0.4088519649
 40
0.4443685089
 40
0.4793918259
 40
0.5137822891
 40
0.5474175023
 40
0.5801967299
 40
0.6120454139
 40
0.6429196895
 40
0.6728107284
 40
0.7017485052
 40
0.7298044766
 40
0.7435421161
 40
0.7571054953
 40
0.7705151086
 40
0.7837937089
 40
0.7969659878
 40
0.8100582657
 40
0.823098143
 40
0.8361140446
 40
0.8491347864
 40
0.8621891116
 40
0.8753052168
 40
0.8885103095
 40
0.9018302221
 40
0.915288988
 40
0.928908675
 40
0.9427090742
 40
0.9709058663
 40
1.0
 40
1.0
 40
1.0
 40
1.0
 10
15.1169194469
 20
12.5656139596
 30
0.0
 10
15.1174474373
 20
12.5673225374
 30
0.0
 10
15.1187074262
 20
12.5707403332
 30
0.0
 10
15.1211296718
 20
12.5757311639
 30
0.0
 10
15.1240910737
 20
12.5806230745
 30
0.0
 10
15.127562697
 20
12.5853689784
 30
0.0
 10
15.131511125
 20
12.5899241171
 30
0.0
 10
15.135898447
 20
12.5942451927
 30
0.0
 10
15.1406826277
 20
12.598291145
 30
0.0
 10
15.1458178765
 20
12.6020234414
 30
0.0
 10
15.1512550687
 20
12.6054064926
 30
0.0
 10
15.1569422061
 20
12.6084079942
 30
0.0
 10
15.1628249038
 20
12.6109992671
 30
0.0
 10
15.1688469253
 20
12.6131555226
 30
0.0
 10
15.1749507272
 20
12.6148560955
 30
0.0
 10
15.1810780157
 20
12.616084632
 30
0.0
 10
15.1871703071
 20
12.6168292382
 30
0.0
 10
15.1931694887
 20
12.6170825807
 30
0.0
 10
15.1990183614
 20
12.6168419061
 30
0.0
 10
15.204661169
 20
12.616109019
 30
0.0
 10
15.2100440137
 20
12.6148902669
 30
0.0
 10
15.2151154803
 20
12.6131963193
 30
0.0
 10
15.2198262865
 20
12.611042656
 30
0.0
 10
15.223439854
 20
12.608864698
 30
0.0
 10
15.2260960083
 20
12.6069139904
 30
0.0
 10
15.2279572523
 20
12.6053611729
 30
0.0
 10
15.2296964869
 20
12.6037122948
 30
0.0
 10
15.2313095758
 20
12.6019713182
 30
0.0
 10
15.2327925348
 20
12.6001424398
 30
0.0
 10
15.2341417159
 20
12.5982300747
 30
0.0
 10
15.2353538492
 20
12.5962388949
 30
0.0
 10
15.2364259175
 20
12.5941737177
 30
0.0
 10
15.2373553353
 20
12.5920396003
 30
0.0
 10
15.2381398413
 20
12.5898417476
 30
0.0
 10
15.238777508
 20
12.5875855157
 30
0.0
 10
15.2392668639
 20
12.5852764227
 30
0.0
 10
15.2396067048
 20
12.5829200778
 30
0.0
 10
15.2397962827
 20
12.5805222343
 30
0.0
 10
15.2398351775
 20
12.5780886285
 30
0.0
 10
15.2396850302
 20
12.5747810307
 30
0.0
 10
15.2391122475
 20
12.5705798627
 30
0.0
 10
15.2382737549
 20
12.5672678982
 30
0.0
 10
15.2377626493
 20
12.5656139596
 30
0.0
  0
LINE
  5
2F6
100
AcDbEntity
  8
LAYER_FEATURE
100
AcDbLine
 62
7
  6
CONTINUOUS
 10
16.4725423126
 20
12.4841797994
 11
16.4727944614
 21
12.4859136684
  0
SPLINE
  5
2F7
100
AcDbEntity
  8
LAYER_FEATURE
100
AcDbSpline
 62
7
  6
CONTINUOUS
 70
0
 71
3
 72
12
 73
8
 74
0
 42
0.0000001
 43
0.0000001
 44
0.0000000001
 40
0.0
 40
0.0
 40
0.0
 40
0.0
 40
0.1197649923
 40
0.2400684241
 40
0.4841686421
 40
0.7364047818
 40
1.0
 40
1.0
 40
1.0
 40
1.0
 10
16.4539177678
 20
12.5987515944
 30
0.0
 10
16.4539627091
 20
12.5988970219
 30
0.0
 10
16.4540408696
 20
12.5991923861
 30
0.0
 10
16.4541493315
 20
12.599798647
 30
0.0
 10
16.4541928587
 20
12.6005847809
 30
0.0
 10
16.4540975484
 20
12.6015491955
 30
0.0
 10
16.4539410317
 20
12.6021882447
 30
0.0
 10
16.4538411393
 20
12.602508017
 30
0.0
  0
SPLINE
  5
2F8
100
AcDbEntity
  8
LAYER_FEATURE
100
AcDbSpline
 62
7
  6
CONTINUOUS
 70
0
 71
3
 72
11
 73
7
 74
0
 42
0.0000001
 43
0.0000001
 44
0.0000000001
 40
0.0
 40
0.0
 40
0.0
 40
0.0
 40
0.2540633687
 40
0.5063168405
 40
0.7553959938
 40
1.0
 40
1.0
 40
1.0
 40
1.0
 10
16.4313685262
 20
12.5257777615
 30
0.0
 10
16.4330722943
 20
12.5252802116
 30
0.0
 10
16.4364939676
 20
12.5243761688
 30
0.0
 10
16.4416618543
 20
12.5232954135
 30
0.0
 10
16.4468146226
 20
12.522500912
 30
0.0
 10
16.4502491137
 20
12.5221627694
 30
0.0
 10
16.4519538682
 20
12.5220445784
 30
0.0
  0
SPLINE
  5
2F9
100
AcDbEntity
  8
LAYER_FEATURE
100
AcDbSpline
 62
7
  6
CONTINUOUS
 70
0
 71
3
 72
14
 73
10
 74
0
 42
0.0000001
 43
0.0000001
 44
0.0000000001
 40
0.0
 40
0.0
 40
0.0
 40
0.0
 40
0.1141966146
 40
0.2295737504
 40
0.3472535214
 40
0.4682497328
 40
0.5934261974
 40
0.7234864298
 40
1.0
 40
1.0
 40
1.0
 40
1.0
 10
16.4001022689
 20
12.7160723547
 30
0.0
 10
16.4001707773
 20
12.7162940342
 30
0.0
 10
16.4002806549
 20
12.7167488278
 30
0.0
 10
16.4003604432
 20
12.7174515336
 30
0.0
 10
16.4003552985
 20
12.7181725623
 30
0.0
 10
16.4002654471
 20
12.7189078638
 30
0.0
 10
16.4000915975
 20
12.7196537262
 30
0.0
 10
16.3997423263
 20
12.7206775331
 30
0.0
 10
16.3993662324
 20
12.7214190408
 30
0.0
 10
16.3990756248
 20
12.7218998607
 30
0.0
  0
SPLINE
  5
2FA
100
AcDbEntity
  8
LAYER_FEATURE
100
AcDbSpline
 62
7
  6
CONTINUOUS
 70
0
 71
3
 72
15
 73
11
 74
0
 42
0.0000001
 43
0.0000001
 44
0.0000000001
 40
0.0
 40
0.0
 40
0.0
 40
0.0
 40
0.127450324
 40
0.2558953472
 40
0.384473481
 40
0.512320463
 40
0.6385866186
 40
0.7624550892
 40
0.8831571171
 40
1.0
 40
1.0
 40
1.0
 40
1.0
 10
16.378524063
 20
12.6462609734
 30
0.0
 10
16.3803011627
 20
12.6454578269
 30
0.0
 10
16.3839179662
 20
12.6439508948
 30
0.0
 10
16.3894727151
 20
12.6420041178
 30
0.0
 10
16.3951356492
 20
12.6403761619
 30
0.0
 10
16.4008501877
 20
12.6390833448
 30
0.0
 10
16.4065595364
 20
12.6381384914
 30
0.0
 10
16.4122070192
 20
12.6375510227
 30
0.0
 10
16.4177362194
 20
12.6373267354
 30
0.0
 10
16.4213731954
 20
12.6374226562
 30
0.0
 10
16.4231575029
 20
12.6375351928
 30
0.0
  0
SPLINE
  5
2FB
100
AcDbEntity
  8
LAYER_FEATURE
100
AcDbSpline
 62
7
  6
CONTINUOUS
 70
0
 71
3
 72
22
 73
18
 74
0
 42
0.0000001
 43
0.0000001
 44
0.0000000001
 40
0.0
 40
0.0
 40
0.0
 40
0.0
 40
0.1381197804
 40
0.2053664349
 40
0.2714549095
 40
0.3364371394
 40
0.400372579
 40
0.4633278449
 40
0.5253764087
 40
0.5865986111
 40
0.6470813103
 40
0.7069174443
 40
0.7662055009
 40
0.8250488566
 40
0.8835549595
 40
0.9418344164
 40
1.0
 40
1.0
 40
1.0
 40
1.0
 10
16.124418158
 20
12.3149732655
 30
0.0
 10
16.1292053361
 20
12.3052180221
 30
0.0
 10
16.1358016911
 20
12.2904456299
 30
0.0
 10
16.1433250408
 20
12.27045342
 30
0.0
 10
16.1482170908
 20
12.2556325013
 30
0.0
 10
16.1524031588
 20
12.240867662
 30
0.0
 10
16.1558792918
 20
12.226172595
 30
0.0
 10
16.1586419688
 20
12.211561464
 30
0.0
 10
16.160688372
 20
12.1970482276
 30
0.0
 10
16.1620163751
 20
12.1826468311
 30
0.0
 10
16.1626245507
 20
12.1683711306
 30
0.0
 10
16.1625121516
 20
12.1542349023
 30
0.0
 10
16.1616791191
 20
12.1402518127
 30
0.0
 10
16.1601261595
 20
12.1264354584
 30
0.0
 10
16.1578546373
 20
12.112799128
 30
0.0
 10
16.1548668309
 20
12.0993565976
 30
0.0
 10
16.1523981344
 20
12.0905287197
 30
0.0
 10
16.1510470368
 20
12.0861565542
 30
0.0
  0
SPLINE
  5
2FC
100
AcDbEntity
  8
LAYER_FEATURE
100
AcDbSpline
 62
7
  6
CONTINUOUS
 70
0
 71
3
 72
15
 73
11
 74
0
 42
0.0000001
 43
0.0000001
 44
0.0000000001
 40
0.0
 40
0.0
 40
0.0
 40
0.0
 40
0.1082072201
 40
0.2184148983
 40
0.3324480594
 40
0.4518241234
 40
0.5776877887
 40
0.7107915039
 40
0.8515419731
 40
1.0
 40
1.0
 40
1.0
 40
1.0
 10
16.3131639105
 20
12.8316335105
 30
0.0
 10
16.3132560344
 20
12.8319316146
 30
0.0
 10
16.3133913191
 20
12.8325502798
 30
0.0
 10
16.3134389058
 20
12.83351169
 30
0.0
 10
16.313332465
 20
12.8345005984
 30
0.0
 10
16.3130739563
 20
12.8355071218
 30
0.0
 10
16.3126667217
 20
12.8365221785
 30
0.0
 10
16.3121151331
 20
12.8375368597
 30
0.0
 10
16.3114246364
 20
12.8385421868
 30
0.0
 10
16.310889851
 20
12.8391837144
 30
0.0
 10
16.310602526
 20
12.8395010379
 30
0.0
  0
SPLINE
  5
2FD
100
AcDbEntity
  8
LAYER_FEATURE
100
AcDbSpline
 62
7
  6
CONTINUOUS
 70
0
 71
3
 72
68
 73
64
 74
0
 42
0.0000001
 43
0.0000001
 44
0.0000000001
 40
0.0
 40
0.0
 40
0.0
 40
0.0
 40
0.0171788456
 40
0.0345306534
 40
0.0520446775
 40
0.0697104889
 40
0.0875169165
 40
0.1054526097
 40
0.1235058945
 40
0.141664841
 40
0.1599172928
 40
0.1782508911
 40
0.1966531056
 40
0.2151112604
 40
0.2521425354
 40
0.28924306
 40
0.3263089876
 40
0.3447973805
 40
0.3632383651
 40
0.3816191845
 40
0.3999272075
 40
0.4181499573
 40
0.4362751395
 40
0.4542906697
 40
0.4721847023
 40
0.4899456599
 40
0.5075622638
 40
0.525023566
 40
0.5423189791
 40
0.5594383092
 40
0.576371789
 40
0.5931101135
 40
0.6096444775
 40
0.6259666114
 40
0.6420688205
 40
0.6579440247
 40
0.6735858021
 40
0.6889884354
 40
0.704146957
 40
0.7190571972
 40
0.7337158342
 40
0.7481204471
 40
0.7622695731
 40
0.7761627631
 40
0.7898006386
 40
0.8031849497
 40
0.8163186336
 40
0.8292058738
 40
0.8418521562
 40
0.8542643185
 40
0.8664505942
 40
0.8784206496
 40
0.8901856082
 40
0.9017580632
 40
0.9131520671
 40
0.924383102
 40
0.9354680251
 40
0.9464249879
 40
0.9572733264
 40
0.9680334211
 40
0.9787265282
 40
0.9893745859
 40
1.0
 40
1.0
 40
1.0
 40
1.0
 10
15.2025282186
 20
13.3517415784
 30
0.0
 10
15.2131172652
 20
13.3517415784
 30
0.0
 10
15.234402652
 20
13.3515085791
 30
0.0
 10
15.266468562
 20
13.3504733071
 30
0.0
 10
15.2988056301
 20
13.348751462
 30
0.0
 10
15.3313798563
 20
13.346344906
 30
0.0
 10
15.3641575192
 20
13.3432560994
 30
0.0
 10
15.3971044402
 20
13.3394882746
 30
0.0
 10
15.4301863479
 20
13.3350453494
 30
0.0
 10
15.4633688034
 20
13.329931954
 30
0.0
 10
15.4966172791
 20
13.3241534107
 30
0.0
 10
15.5298971267
 20
13.3177157394
 30
0.0
 10
15.5631738569
 20
13.3106256148
 30
0.0
 10
15.6075374003
 20
13.3003015019
 30
0.0
 10
15.6627553017
 20
13.2858137502
 30
0.0
 10
15.7283796652
 20
13.2659764448
 30
0.0
 10
15.7824151692
 20
13.2474389477
 30
0.0
 10
15.8251307419
 20
13.2314416131
 30
0.0
 10
15.8568317787
 20
13.2188903431
 30
0.0
 10
15.8881891337
 20
13.205789568
 30
0.0
 10
15.9191703048
 20
13.1921528551
 30
0.0
 10
15.9497430061
 20
13.1779944188
 30
0.0
 10
15.9798754266
 20
13.1633289943
 30
0.0
 10
16.0095362006
 20
13.1481718472
 30
0.0
 10
16.0386944564
 20
13.1325387514
 30
0.0
 10
16.0673198437
 20
13.116445973
 30
0.0
 10
16.0953825703
 20
13.099910258
 30
0.0
 10
16.1228534337
 20
13.082948816
 30
0.0
 10
16.1497038477
 20
13.0655792945
 30
0.0
 10
16.1759058712
 20
13.0478197629
 30
0.0
 10
16.2014322373
 20
13.029688692
 30
0.0
 10
16.2262563829
 20
13.0112049358
 30
0.0
 10
16.2503524828
 20
12.9923877184
 30
0.0
 10
16.2736954689
 20
12.9732566041
 30
0.0
 10
16.2962610557
 20
12.9538314782
 30
0.0
 10
16.3180257645
 20
12.9341325265
 30
0.0
 10
16.3389669472
 20
12.9141802115
 30
0.0
 10
16.3590628183
 20
12.8939952591
 30
0.0
 10
16.3782924707
 20
12.8735986296
 30
0.0
 10
16.3966358934
 20
12.8530114946
 30
0.0
 10
16.4140739911
 20
12.832255216
 30
0.0
 10
16.4305886007
 20
12.8113513209
 30
0.0
 10
16.4461625171
 20
12.790321485
 30
0.0
 10
16.4607795094
 20
12.7691875088
 30
0.0
 10
16.4744243265
 20
12.7479712909
 30
0.0
 10
16.4870827115
 20
12.7266948089
 30
0.0
 10
16.4987414126
 20
12.7053800969
 30
0.0
 10
16.5093881969
 20
12.6840492264
 30
0.0
 10
16.5190118711
 20
12.6627242906
 30
0.0
 10
16.5276022761
 20
12.6414273789
 30
0.0
 10
16.5351502972
 20
12.6201805631
 30
0.0
 10
16.5416478721
 20
12.5990058807
 30
0.0
 10
16.5470879988
 20
12.5779253191
 30
0.0
 10
16.5514647622
 20
12.556960805
 30
0.0
 10
16.5547733327
 20
12.5361341853
 30
0.0
 10
16.5570099759
 20
12.5154672148
 30
0.0
 10
16.5581720689
 20
12.4949815386
 30
0.0
 10
16.5582581147
 20
12.47469868
 30
0.0
 10
16.5572677665
 20
12.4546399934
 30
0.0
 10
16.5552018695
 20
12.4348267285
 30
0.0
 10
16.5520623574
 20
12.4152796578
 30
0.0
 10
16.5478526621
 20
12.3960203074
 30
0.0
 10
16.5443338027
 20
12.3833797646
 30
0.0
 10
16.54240008
 20
12.3771222263
 30
0.0
  0
SPLINE
  5
2FE
100
AcDbEntity
  8
LAYER_FEATURE
100
AcDbSpline
 62
7
  6
CONTINUOUS
 70
0
 71
3
 72
50
 73
46
 74
0
 42
0.0000001
 43
0.0000001
 44
0.0000000001
 40
0.0
 40
0.0
 40
0.0
 40
0.0
 40
0.0408747493
 40
0.0811719351
 40
0.1208592335
 40
0.1599068406
 40
0.1982875881
 40
0.2359772322
 40
0.2729546778
 40
0.309202246
 40
0.3447059466
 40
0.3794557681
 40
0.4134459795
 40
0.4466754466
 40
0.4791479551
 40
0.5108725396
 40
0.5418638082
 40
0.572142253
 40
0.6017345337
 40
0.6306737137
 40
0.6589994292
 40
0.6867579627
 40
0.7140021953
 40
0.7274513983
 40
0.7407947788
 40
0.7540406814
 40
0.7671977955
 40
0.7802751274
 40
0.7932819788
 40
0.8062279148
 40
0.8191227341
 40
0.8319764336
 40
0.8447991721
 40
0.8576012313
 40
0.8703929758
 40
0.8831848112
 40
0.8959871438
 40
0.9088103361
 40
0.921664669
 40
0.9345602976
 40
0.9475072173
 40
0.9605152207
 40
0.9735938715
 40
0.9867524629
 40
1.0
 40
1.0
 40
1.0
 40
1.0
 10
15.2169045298
 20
13.2969136122
 30
0.0
 10
15.2047516285
 20
13.2969136122
 30
0.0
 10
15.180616178
 20
13.2965913532
 30
0.0
 10
15.144707928
 20
13.2951190168
 30
0.0
 10
15.1093975528
 20
13.2926633412
 30
0.0
 10
15.0747413421
 20
13.289228188
 30
0.0
 10
15.0407941001
 20
13.2848189535
 30
0.0
 10
15.0076096172
 20
13.2794425677
 30
0.0
 10
14.975240433
 20
13.2731074729
 30
0.0
 10
14.9437377965
 20
13.2658236099
 30
0.0
 10
14.9131515755
 20
13.2576023965
 30
0.0
 10
14.883530185
 20
13.2484567045
 30
0.0
 10
14.8549205149
 20
13.238400835
 30
0.0
 10
14.8273678633
 20
13.2274504908
 30
0.0
 10
14.8009158742
 20
13.2156227474
 30
0.0
 10
14.7756064817
 20
13.2029360247
 30
0.0
 10
14.7514798567
 20
13.1894100559
 30
0.0
 10
14.7285743654
 20
13.1750658667
 30
0.0
 10
14.7069265132
 20
13.1599257324
 30
0.0
 10
14.686570958
 20
13.1440132275
 30
0.0
 10
14.6675402857
 20
13.1273529682
 30
0.0
 10
14.6498656446
 20
13.1099714942
 30
0.0
 10
14.6362313286
 20
13.0948424264
 30
0.0
 10
14.6260473907
 20
13.0824132796
 30
0.0
 10
14.6187973334
 20
13.0729687865
 30
0.0
 10
14.6119060303
 20
13.0633661897
 30
0.0
 10
14.6053761447
 20
13.0536092159
 30
0.0
 10
14.5992103279
 20
13.043701767
 30
0.0
 10
14.5934110483
 20
13.0336477819
 30
0.0
 10
14.5879806385
 20
13.0234512677
 30
0.0
 10
14.5829212835
 20
13.013116289
 30
0.0
 10
14.5782350125
 20
13.0026469726
 30
0.0
 10
14.5739237155
 20
12.9920474967
 30
0.0
 10
14.5699891142
 20
12.9813221008
 30
0.0
 10
14.5664327988
 20
12.970475069
 30
0.0
 10
14.5632561787
 20
12.9595107442
 30
0.0
 10
14.5604605401
 20
12.9484335079
 30
0.0
 10
14.558046977
 20
12.9372477966
 30
0.0
 10
14.5560164693
 20
12.9259580805
 30
0.0
 10
14.5543697935
 20
12.9145688795
 30
0.0
 10
14.5531076221
 20
12.9030847409
 30
0.0
 10
14.5522304137
 20
12.8915102679
 30
0.0
 10
14.551738535
 20
12.8798500395
 30
0.0
 10
14.5516321204
 20
12.8681088694
 30
0.0
 10
14.5518175479
 20
12.8602583489
 30
0.0
 10
14.5519737289
 20
12.8563226821
 30
0.0
  0
SPLINE
  5
2FF
100
AcDbEntity
  8
LAYER_FEATURE
100
AcDbSpline
 62
7
  6
CONTINUOUS
 70
0
 71
3
 72
71
 73
67
 74
0
 42
0.0000001
 43
0.0000001
 44
0.0000000001
 40
0.0
 40
0.0
 40
0.0
 40
0.0
 40
0.0176718323
 40
0.0355374599
 40
0.0535837866
 40
0.0717976404
 40
0.0901651281
 40
0.1086720464
 40
0.127303784
 40
0.1460454127
 40
0.1648817166
 40
0.1837972375
 40
0.2027763163
 40
0.2218031336
 40
0.2408617507
 40
0.2599361493
 40
0.2790102724
 40
0.298068063
 40
0.317093505
 40
0.3360706629
 40
0.3549837223
 40
0.3738170303
 40
0.3925551366
 40
0.4111828349
 40
0.4296852053
 40
0.4480476567
 40
0.4662559712
 40
0.4842963492
 40
0.5021554557
 40
0.519820468
 40
0.5372791251
 40
0.5545197783
 40
0.5715314449
 40
0.5883038635
 40
0.6048275521
 40
0.6210938688
 40
0.6370950763
 40
0.6528244085
 40
0.6682761402
 40
0.6834456612
 40
0.6983295532
 40
0.7129256701
 40
0.7272332212
 40
0.7412528574
 40
0.7549867582
 40
0.7684387191
 40
0.7816142362
 40
0.7945205873
 40
0.8071669053
 40
0.8195642403
 40
0.8317256051
 40
0.8436660001
 40
0.8554024098
 40
0.8669537661
 40
0.8783408719
 40
0.8895862809
 40
0.9007141302
 40
0.911749925
 40
0.9227202788
 40
0.9336526128
 40
0.9445748256
 40
0.955514944
 40
0.9665007683
 40
0.9775595272
 40
0.9887175547
 40
1.0
 40
1.0
 40
1.0
 40
1.0
 10
15.2169045298
 20
13.2969136122
 30
0.0
 10
15.2278338911
 20
13.2969136122
 30
0.0
 10
15.2498133072
 20
13.2966496561
 30
0.0
 10
15.2829349399
 20
13.2954782604
 30
0.0
 10
15.3163559054
 20
13.2935305789
 30
0.0
 10
15.350034045
 20
13.2908091016
 30
0.0
 10
15.3839273652
 20
13.2873172018
 30
0.0
 10
15.4179934005
 20
13.2830592704
 30
0.0
 10
15.452189538
 20
13.278040628
 30
0.0
 10
15.4864729772
 20
13.2722675586
 30
0.0
 10
15.5208008122
 20
13.2657472857
 30
0.0
 10
15.5551300788
 20
13.258487971
 30
0.0
 10
15.58941781
 20
13.2504987015
 30
0.0
 10
15.6236210898
 20
13.2417894776
 30
0.0
 10
15.6576971073
 20
13.2323712004
 30
0.0
 10
15.6916032104
 20
13.2222556586
 30
0.0
 10
15.7252969592
 20
13.2114555131
 30
0.0
 10
15.7587361796
 20
13.1999842819
 30
0.0
 10
15.7918790157
 20
13.1878563221
 30
0.0
 10
15.8246839838
 20
13.1750868139
 30
0.0
 10
15.857110024
 20
13.1616917415
 30
0.0
 10
15.8891165518
 20
13.1476878708
 30
0.0
 10
15.9206635088
 20
13.1330927288
 30
0.0
 10
15.951711413
 20
13.1179245812
 30
0.0
 10
15.9822214082
 20
13.1022024096
 30
0.0
 10
16.0121553127
 20
13.0859458872
 30
0.0
 10
16.0414756672
 20
13.0691753538
 30
0.0
 10
16.0701457825
 20
13.0519117901
 30
0.0
 10
16.0981297864
 20
13.0341767932
 30
0.0
 10
16.1253926674
 20
13.0159925458
 30
0.0
 10
16.151900318
 20
12.9973817887
 30
0.0
 10
16.1776195776
 20
12.9783677913
 30
0.0
 10
16.2025182733
 20
12.958974322
 30
0.0
 10
16.2265652598
 20
12.9392256178
 30
0.0
 10
16.2497304579
 20
12.9191463524
 30
0.0
 10
16.2719848914
 20
12.8987616049
 30
0.0
 10
16.293300725
 20
12.8780968286
 30
0.0
 10
16.3136512954
 20
12.8571778167
 30
0.0
 10
16.333011143
 20
12.8360306684
 30
0.0
 10
16.351356041
 20
12.8146817559
 30
0.0
 10
16.3686630239
 20
12.7931576905
 30
0.0
 10
16.3849104118
 20
12.7714852893
 30
0.0
 10
16.4000778352
 20
12.7496915413
 30
0.0
 10
16.4141462546
 20
12.7278035741
 30
0.0
 10
16.4270979837
 20
12.7058486235
 30
0.0
 10
16.438916704
 20
12.683854001
 30
0.0
 10
16.449587479
 20
12.6618470641
 30
0.0
 10
16.4590967673
 20
12.6398551889
 30
0.0
 10
16.4674324355
 20
12.6179057446
 30
0.0
 10
16.4745837706
 20
12.5960260706
 30
0.0
 10
16.4805414933
 20
12.5742434554
 30
0.0
 10
16.4852977723
 20
12.5525851167
 30
0.0
 10
16.4888462452
 20
12.5310781843
 30
0.0
 10
16.4911820403
 20
12.5097496797
 30
0.0
 10
16.4923017983
 20
12.4886264939
 30
0.0
 10
16.4922037015
 20
12.4677353617
 30
0.0
 10
16.4908875034
 20
12.4471028272
 30
0.0
 10
16.4883545582
 20
12.4267552017
 30
0.0
 10
16.4846078453
 20
12.4067185118
 30
0.0
 10
16.4796519849
 20
12.3870184376
 30
0.0
 10
16.4734932485
 20
12.3676802521
 30
0.0
 10
16.4661395377
 20
12.3487287302
 30
0.0
 10
16.4576004155
 20
12.3301881643
 30
0.0
 10
16.4478868529
 20
12.3120820031
 30
0.0
 10
16.4370120127
 20
12.2944339436
 30
0.0
 10
16.4290458298
 20
12.2830581186
 30
0.0
 10
16.4248824062
 20
12.2774585534
 30
0.0
  0
SPLINE
  5
300
100
AcDbEntity
  8
LAYER_FEATURE
100
AcDbSpline
 62
7
  6
CONTINUOUS
 70
0
 71
3
 72
23
 73
19
 74
0
 42
0.0000001
 43
0.0000001
 44
0.0000000001
 40
0.0
 40
0.0
 40
0.0
 40
0.0
 40
0.0620505129
 40
0.125313203
 40
0.1895560417
 40
0.2545347136
 40
0.3199959327
 40
0.3856806419
 40
0.4513271404
 40
0.5166741774
 40
0.5814640552
 40
0.6454457649
 40
0.7083782408
 40
0.7700336396
 40
0.8302011248
 40
0.8886899985
 40
0.9453354415
 40
1.0
 40
1.0
 40
1.0
 40
1.0
 10
16.2935480593
 20
12.768201271
 30
0.0
 10
16.2947523697
 20
12.7674289747
 30
0.0
 10
16.2972247372
 20
12.7659311661
 30
0.0
 10
16.3010692464
 20
12.7638492162
 30
0.0
 10
16.305067631
 20
12.7619197137
 30
0.0
 10
16.3091961492
 20
12.7601541273
 30
0.0
 10
16.3134304471
 20
12.7585628657
 30
0.0
 10
16.3177454948
 20
12.7571553372
 30
0.0
 10
16.3221157947
 20
12.7559398584
 30
0.0
 10
16.32651552
 20
12.7549236122
 30
0.0
 10
16.3309186745
 20
12.7541126035
 30
0.0
 10
16.3352992499
 20
12.7535116232
 30
0.0
 10
16.3396313802
 20
12.7531242245
 30
0.0
 10
16.3438895108
 20
12.7529526986
 30
0.0
 10
16.3480485134
 20
12.7529980763
 30
0.0
 10
16.3520839719
 20
12.7532601214
 30
0.0
 10
16.3559719022
 20
12.7537373105
 30
0.0
 10
16.3584973062
 20
12.7542057805
 30
0.0
 10
16.3597281002
 20
12.7544772275
 30
0.0
  0
SPLINE
  5
301
100
AcDbEntity
  8
LAYER_FEATURE
100
AcDbSpline
 62
7
  6
CONTINUOUS
 70
0
 71
3
 72
18
 73
14
 74
0
 42
0.0000001
 43
0.0000001
 44
0.0000000001
 40
0.0
 40
0.0
 40
0.0
 40
0.0
 40
0.0511471549
 40
0.1026718858
 40
0.154938362
 40
0.2082850006
 40
0.2630149095
 40
0.3193901861
 40
0.4378064755
 40
0.564834524
 40
0.7009934524
 40
0.8462216289
 40
1.0
 40
1.0
 40
1.0
 40
1.0
 10
16.1964436794
 20
12.9409941133
 30
0.0
 10
16.1965014465
 20
12.9411810587
 30
0.0
 10
16.1965976666
 20
12.941562754
 30
0.0
 10
16.1966817657
 20
12.9421505077
 30
0.0
 10
16.1967056389
 20
12.9427522107
 30
0.0
 10
16.1966692431
 20
12.9433654829
 30
0.0
 10
16.1965728363
 20
12.9439880901
 30
0.0
 10
16.1963614532
 20
12.9448413357
 30
0.0
 10
16.1959415359
 20
12.9459225827
 30
0.0
 10
16.195218931
 20
12.9471959278
 30
0.0
 10
16.1942807468
 20
12.9484499188
 30
0.0
 10
16.1931409419
 20
12.9496671827
 30
0.0
 10
16.1922800418
 20
12.9504232666
 30
0.0
 10
16.1918218144
 20
12.9507922014
 30
0.0
  0
SPLINE
  5
302
100
AcDbEntity
  8
LAYER_FEATURE
100
AcDbSpline
 62
7
  6
CONTINUOUS
 70
0
 71
3
 72
24
 73
20
 74
0
 42
0.0000001
 43
0.0000001
 44
0.0000000001
 40
0.0
 40
0.0
 40
0.0
 40
0.0
 40
0.0592927671
 40
0.1209995225
 40
0.1847730327
 40
0.2502139535
 40
0.3168836524
 40
0.3843158621
 40
0.4520276574
 40
0.519530124
 40
0.5863388331
 40
0.6519844244
 40
0.716023601
 40
0.7780506451
 40
0.8377099378
 40
0.8947101746
 40
0.9221502335
 40
0.9488537769
 40
1.0
 40
1.0
 40
1.0
 40
1.0
 10
16.1796559644
 20
12.8867718628
 30
0.0
 10
16.1809809898
 20
12.8855748369
 30
0.0
 10
16.1837868109
 20
12.8832429081
 30
0.0
 10
16.1883211919
 20
12.8800097722
 30
0.0
 10
16.1932248796
 20
12.876999179
 30
0.0
 10
16.1984453145
 20
12.8742434086
 30
0.0
 10
16.2039269844
 20
12.8717717011
 30
0.0
 10
16.2096113996
 20
12.869610449
 30
0.0
 10
16.2154378983
 20
12.8677827042
 30
0.0
 10
16.2213442792
 20
12.866307974
 30
0.0
 10
16.227267503
 20
12.8652020027
 30
0.0
 10
16.2331443982
 20
12.8644766011
 30
0.0
 10
16.2389123271
 20
12.8641395038
 30
0.0
 10
16.2445100328
 20
12.8641943601
 30
0.0
 10
16.2498778312
 20
12.8646406987
 30
0.0
 10
16.2541658059
 20
12.8653439294
 30
0.0
 10
16.2574265327
 20
12.8661049201
 30
0.0
 10
16.2604783064
 20
12.8669683236
 30
0.0
 10
16.2626873808
 20
12.8677700541
 30
0.0
 10
16.2641032165
 20
12.8683766659
 30
0.0
  0
SPLINE
  5
303
100
AcDbEntity
  8
LAYER_FEATURE
100
AcDbSpline
 62
7
  6
CONTINUOUS
 70
0
 71
3
 72
21
 73
17
 74
0
 42
0.0000001
 43
0.0000001
 44
0.0000000001
 40
0.0
 40
0.0
 40
0.0
 40
0.0
 40
0.0486253976
 40
0.0977690018
 40
0.1479221638
 40
0.1995271347
 40
0.2529613841
 40
0.308528258
 40
0.366455812
 40
0.4268992246
 40
0.4899448015
 40
0.5556174878
 40
0.6238877313
 40
0.6946778567
 40
0.8432388819
 40
1.0
 40
1.0
 40
1.0
 40
1.0
 10
16.0544270708
 20
13.0399514958
 30
0.0
 10
16.0544966265
 20
13.0401765889
 30
0.0
 10
16.0546078007
 20
13.0406386
 30
0.0
 10
16.0546867925
 20
13.041352694
 30
0.0
 10
16.0546782338
 20
13.0420855295
 30
0.0
 10
16.0545823551
 20
13.0428329024
 30
0.0
 10
16.0543999136
 20
13.043590828
 30
0.0
 10
16.0541321319
 20
13.0443553306
 30
0.0
 10
16.0537806002
 20
13.0451224795
 30
0.0
 10
16.053347268
 20
13.0458883418
 30
0.0
 10
16.0528345044
 20
13.0466490211
 30
0.0
 10
16.0522450354
 20
13.0474006212
 30
0.0
 10
16.0515819406
 20
13.0481392968
 30
0.0
 10
16.0505883559
 20
13.0491174941
 30
0.0
 10
16.0491803344
 20
13.0502803439
 30
0.0
 10
16.0479481405
 20
13.0511035459
 30
0.0
 10
16.0472981661
 20
13.051496494
 30
0.0
  0
SPLINE
  5
304
100
AcDbEntity
  8
LAYER_FEATURE
100
AcDbSpline
 62
7
  6
CONTINUOUS
 70
0
 71
3
 72
36
 73
32
 74
0
 42
0.0000001
 43
0.0000001
 44
0.0000000001
 40
0.0
 40
0.0
 40
0.0
 40
0.0
 40
0.0273018126
 40
0.0555698015
 40
0.0847782722
 40
0.1148887194
 40
0.145851391
 40
0.1776066807
 40
0.2100863972
 40
0.2432149161
 40
0.2769102715
 40
0.3110852077
 40
0.3456481389
 40
0.3805040592
 40
0.4506907489
 40
0.5208623185
 40
0.5556994762
 40
0.5902363624
 40
0.6243781942
 40
0.6580336825
 40
0.6911159451
 40
0.7235434651
 40
0.7552411243
 40
0.786141335
 40
0.8161851936
 40
0.8453237658
 40
0.873519456
 40
0.9007475678
 40
0.9269981782
 40
0.9522769411
 40
1.0
 40
1.0
 40
1.0
 40
1.0
 10
16.0412106491
 20
12.997296402
 30
0.0
 10
16.0418021311
 20
12.9964973746
 30
0.0
 10
16.0430592897
 20
12.994909894
 30
0.0
 10
16.045117544
 20
12.9926070646
 30
0.0
 10
16.0473730157
 20
12.9903500037
 30
0.0
 10
16.0498160868
 20
12.9881482886
 30
0.0
 10
16.0524364856
 20
12.9860111075
 30
0.0
 10
16.0552231589
 20
12.9839474474
 30
0.0
 10
16.0581643618
 20
12.9819659891
 30
0.0
 10
16.0612476864
 20
12.980075082
 30
0.0
 10
16.0644601213
 20
12.9782826918
 30
0.0
 10
16.0677880914
 20
12.9765963891
 30
0.0
 10
16.0712175942
 20
12.9750232598
 30
0.0
 10
16.0759165752
 20
12.9730813448
 30
0.0
 10
16.0819470335
 20
12.9709792855
 30
0.0
 10
16.0881160558
 20
12.9693301636
 30
0.0
 10
16.0930922244
 20
12.9682971866
 30
0.0
 10
16.096810376
 20
12.9676725355
 30
0.0
 10
16.1005073607
 20
12.9671987872
 30
0.0
 10
16.1041676289
 20
12.9668779415
 30
0.0
 10
16.107775716
 20
12.9667113565
 30
0.0
 10
16.1113164044
 20
12.966699744
 30
0.0
 10
16.1147747643
 20
12.9668431682
 30
0.0
 10
16.1181362249
 20
12.9671410364
 30
0.0
 10
16.1213866404
 20
12.9675921209
 30
0.0
 10
16.1245123277
 20
12.9681945588
 30
0.0
 10
16.1275001882
 20
12.9689459055
 30
0.0
 10
16.1303375311
 20
12.9698430092
 30
0.0
 10
16.1330129223
 20
12.9708825329
 30
0.0
 10
16.1362843103
 20
12.9724219921
 30
0.0
 10
16.1385636349
 20
12.9738189363
 30
0.0
 10
16.1399576624
 20
12.9748564162
 30
0.0
  0
SPLINE
  5
305
100
AcDbEntity
  8
LAYER_FEATURE
100
AcDbSpline
 62
7
  6
CONTINUOUS
 70
0
 71
3
 72
22
 73
18
 74
0
 42
0.0000001
 43
0.0000001
 44
0.0000000001
 40
0.0
 40
0.0
 40
0.0
 40
0.0
 40
0.046545564
 40
0.0937661921
 40
0.1422899035
 40
0.1926605963
 40
0.245315143
 40
0.300575341
 40
0.3586504352
 40
0.4196457456
 40
0.4835738983
 40
0.5503673437
 40
0.6198895485
 40
0.6919457322
 40
0.766292277
 40
0.8426397421
 40
1.0
 40
1.0
 40
1.0
 40
1.0
 10
15.8925717082
 20
13.1247027798
 30
0.0
 10
15.8926530694
 20
13.1249660624
 30
0.0
 10
15.8927775867
 20
13.1255095115
 30
0.0
 10
15.8928437465
 20
13.1263521007
 30
0.0
 10
15.8927898602
 20
13.1272181965
 30
0.0
 10
15.8926168098
 20
13.1281009912
 30
0.0
 10
15.8923264247
 20
13.1289941573
 30
0.0
 10
15.8919212184
 20
13.1298914119
 30
0.0
 10
15.8914043757
 20
13.1307865567
 30
0.0
 10
15.8907797461
 20
13.1316734102
 30
0.0
 10
15.8900518735
 20
13.1325458325
 30
0.0
 10
15.88922598
 20
13.1333977385
 30
0.0
 10
15.8883079543
 20
13.1342231538
 30
0.0
 10
15.887304344
 20
13.1350162417
 30
0.0
 10
15.8862222533
 20
13.1357714077
 30
0.0
 10
15.8846698968
 20
13.1367299799
 30
0.0
 10
15.8834348923
 20
13.1373610923
 30
0.0
 10
15.882585544
 20
13.1377439065
 30
0.0
  0
SPLINE
  5
306
100
AcDbEntity
  8
LAYER_FEATURE
100
AcDbSpline
 62
7
  6
CONTINUOUS
 70
0
 71
3
 72
10
 73
6
 74
0
 42
0.0000001
 43
0.0000001
 44
0.0000000001
 40
0.0
 40
0.0
 40
0.0
 40
0.0
 40
0.2720101686
 40
0.5287313177
 40
1.0
 40
1.0
 40
1.0
 40
1.0
 10
15.9420506968
 20
12.1027971849
 30
0.0
 10
15.9415521777
 20
12.1021999392
 30
0.0
 10
15.9405440196
 20
12.1010702886
 30
0.0
 10
15.9384818443
 20
12.099087191
 30
0.0
 10
15.9367994816
 20
12.097832137
 30
0.0
 10
15.935635776
 20
12.0971520727
 30
0.0
  0
SPLINE
  5
307
100
AcDbEntity
  8
LAYER_FEATURE
100
AcDbSpline
 62
7
  6
CONTINUOUS
 70
0
 71
3
 72
38
 73
34
 74
0
 42
0.0000001
 43
0.0000001
 44
0.0000000001
 40
0.0
 40
0.0
 40
0.0
 40
0.0
 40
0.0513417743
 40
0.0788465332
 40
0.1075752381
 40
0.1375052217
 40
0.1685887383
 40
0.200756436
 40
0.2339204888
 40
0.2679774145
 40
0.3028106249
 40
0.3382927584
 40
0.3742878443
 40
0.4106533398
 40
0.4472420754
 40
0.4839041389
 40
0.5204887246
 40
0.556845971
 40
0.5928288107
 40
0.6282948557
 40
0.6631083448
 40
0.6971421839
 40
0.7302801137
 40
0.7624190484
 40
0.7934716319
 40
0.8233690645
 40
0.8520642422
 40
0.8795352441
 40
0.9057891033
 40
0.9308658255
 40
0.95484202
 40
0.9778343478
 40
1.0
 40
1.0
 40
1.0
 40
1.0
 10
15.8835056684
 20
13.0954333845
 30
0.0
 10
15.8843143156
 20
13.0934358628
 30
0.0
 10
15.8858784877
 20
13.0904921242
 30
0.0
 10
15.8884661211
 20
13.0867894036
 30
0.0
 10
15.8907590712
 20
13.0839877133
 30
0.0
 10
15.8933442034
 20
13.0812443884
 30
0.0
 10
15.89620629
 20
13.078575012
 30
0.0
 10
15.8993277914
 20
13.0759958982
 30
0.0
 10
15.9026897799
 20
13.0735225608
 30
0.0
 10
15.9062718045
 20
13.0711700054
 30
0.0
 10
15.9100520771
 20
13.0689525111
 30
0.0
 10
15.9140075839
 20
13.066883565
 30
0.0
 10
15.9181142315
 20
13.0649757631
 30
0.0
 10
15.9223469941
 20
13.0632407294
 30
0.0
 10
15.926680069
 20
13.0616890403
 30
0.0
 10
15.9310870364
 20
13.0603301569
 30
0.0
 10
15.9355410243
 20
13.0591723651
 30
0.0
 10
15.9400148761
 20
13.058222724
 30
0.0
 10
15.9444813197
 20
13.057487023
 30
0.0
 10
15.948913138
 20
13.0569697469
 30
0.0
 10
15.9532833403
 20
13.0566740517
 30
0.0
 10
15.9575653307
 20
13.0566017487
 30
0.0
 10
15.9617330756
 20
13.0567533008
 30
0.0
 10
15.9657612667
 20
13.0571278293
 30
0.0
 10
15.9696254773
 20
13.0577231334
 30
0.0
 10
15.973302309
 20
13.0585357236
 30
0.0
 10
15.9767695264
 20
13.0595608694
 30
0.0
 10
15.9800061621
 20
13.0607926555
 30
0.0
 10
15.9829926178
 20
13.0622240626
 30
0.0
 10
15.9857106448
 20
13.0638469682
 30
0.0
 10
15.9881435425
 20
13.0656523994
 30
0.0
 10
15.9902754891
 20
13.0676296734
 30
0.0
 10
15.9915065933
 20
13.0690783316
 30
0.0
 10
15.9920622819
 20
13.0698245216
 30
0.0
  0
SPLINE
  5
308
100
AcDbEntity
  8
LAYER_FEATURE
100
AcDbSpline
 62
7
  6
CONTINUOUS
 70
0
 71
3
 72
23
 73
19
 74
0
 42
0.0000001
 43
0.0000001
 44
0.0000000001
 40
0.0
 40
0.0
 40
0.0
 40
0.0
 40
0.044914848
 40
0.0906797754
 40
0.1380663326
 40
0.1877151321
 40
0.2401048497
 40
0.2955487704
 40
0.3542059291
 40
0.4160994318
 40
0.4811362975
 40
0.5491262348
 40
0.6197985074
 40
0.6928162363
 40
0.7677907513
 40
0.8442891342
 40
0.9218552244
 40
1.0
 40
1.0
 40
1.0
 40
1.0
 10
15.7170976049
 20
13.19199102
 30
0.0
 10
15.7171907829
 20
13.19229254
 30
0.0
 10
15.7173270439
 20
13.1929186433
 30
0.0
 10
15.717372464
 20
13.1938918012
 30
0.0
 10
15.7172602842
 20
13.1948928291
 30
0.0
 10
15.7169926158
 20
13.1959114878
 30
0.0
 10
15.7165729855
 20
13.1969384186
 30
0.0
 10
15.7160059866
 20
13.197964363
 30
0.0
 10
15.7152972829
 20
13.1989801775
 30
0.0
 10
15.7144536472
 20
13.1999767486
 30
0.0
 10
15.713482995
 20
13.2009450519
 30
0.0
 10
15.7123943734
 20
13.2018762364
 30
0.0
 10
15.7111979159
 20
13.2027617214
 30
0.0
 10
15.7099047658
 20
13.2035933116
 30
0.0
 10
15.7085269916
 20
13.2043632535
 30
0.0
 10
15.7070774301
 20
13.2050644034
 30
0.0
 10
15.7055697067
 20
13.2056901466
 30
0.0
 10
15.704536704
 20
13.2060526223
 30
0.0
 10
15.7040137617
 20
13.2062199989
 30
0.0
  0
SPLINE
  5
309
100
AcDbEntity
  8
LAYER_FEATURE
100
AcDbSpline
 62
7
  6
CONTINUOUS
 70
0
 71
3
 72
44
 73
40
 74
0
 42
0.0000001
 43
0.0000001
 44
0.0000000001
 40
0.0
 40
0.0
 40
0.0
 40
0.0
 40
0.0115487251
 40
0.023335966
 40
0.047734321
 40
0.0734085653
 40
0.1004904424
 40
0.1290489782
 40
0.1590975374
 40
0.1906014625
 40
0.2234853545
 40
0.2576396437
 40
0.2929264033
 40
0.3291845148
 40
0.3662343002
 40
0.4038817474
 40
0.4419224462
 40
0.4801453266
 40
0.518336279
 40
0.5562817215
 40
0.5937721811
 40
0.630605945
 40
0.6665928486
 40
0.7015582872
 40
0.7353475479
 40
0.7678305804
 40
0.7989073401
 40
0.8285138278
 40
0.8566288979
 40
0.8832816956
 40
0.9085592602
 40
0.9207333714
 40
0.9326261992
 40
0.944267411
 40
0.955690613
 40
0.9669330863
 40
0.9780361638
 40
0.9890441322
 40
1.0
 40
1.0
 40
1.0
 40
1.0
 10
15.7125654844
 20
13.177350022
 30
0.0
 10
15.7125994122
 20
13.1768084641
 30
0.0
 10
15.7127084147
 20
13.1757162927
 30
0.0
 10
15.7130876746
 20
13.1735042922
 30
0.0
 10
15.7138710427
 20
13.170696051
 30
0.0
 10
15.7152665904
 20
13.1673418914
 30
0.0
 10
15.7171152088
 20
13.1639903574
 30
0.0
 10
15.7194005743
 20
13.160668659
 30
0.0
 10
15.7221033503
 20
13.1574031726
 30
0.0
 10
15.7252010268
 20
13.1542202411
 30
0.0
 10
15.7286679783
 20
13.1511456885
 30
0.0
 10
15.7324755694
 20
13.1482046452
 30
0.0
 10
15.7365923396
 20
13.1454212678
 30
0.0
 10
15.7409842401
 20
13.1428185053
 30
0.0
 10
15.7456149085
 20
13.1404178741
 30
0.0
 10
15.7504459706
 20
13.1382392558
 30
0.0
 10
15.7554373636
 20
13.1363007138
 30
0.0
 10
15.7605476761
 20
13.1346183317
 30
0.0
 10
15.7657345009
 20
13.1332060716
 30
0.0
 10
15.7709547972
 20
13.1320756537
 30
0.0
 10
15.7761652587
 20
13.1312364555
 30
0.0
 10
15.7813226869
 20
13.1306954382
 30
0.0
 10
15.7863843628
 20
13.1304570972
 30
0.0
 10
15.7913084155
 20
13.1305234388
 30
0.0
 10
15.7960541839
 20
13.1308939874
 30
0.0
 10
15.8005825594
 20
13.1315658227
 30
0.0
 10
15.8048563228
 20
13.1325336709
 30
0.0
 10
15.8088403753
 20
13.1337899778
 30
0.0
 10
15.8125021275
 20
13.1353252186
 30
0.0
 10
15.8158110143
 20
13.1371275074
 30
0.0
 10
15.8182825195
 20
13.1388630036
 30
0.0
 10
15.8200451505
 20
13.1403713167
 30
0.0
 10
15.8212459763
 20
13.1415449004
 30
0.0
 10
15.8223393797
 20
13.1427723564
 30
0.0
 10
15.8233230047
 20
13.1440511989
 30
0.0
 10
15.8241947079
 20
13.1453787292
 30
0.0
 10
15.824952585
 20
13.1467522343
 30
0.0
 10
15.8255948248
 20
13.1481686259
 30
0.0
 10
15.8259454402
 20
13.1491405912
 30
0.0
 10
15.8261006116
 20
13.1496314108
 30
0.0
  0
SPLINE
  5
30A
100
AcDbEntity
  8
02___PRT_ALL_AXES
100
AcDbSpline
 62
7
  6
CONTINUOUS
 70
0
 71
3
 72
39
 73
35
 74
0
 42
0.0000001
 43
0.0000001
 44
0.0000000001
 40
0.0
 40
0.0
 40
0.0
 40
0.0
 40
0.0396653822
 40
0.0788626144
 40
0.1175692044
 40
0.1557638045
 40
0.1934266657
 40
0.2305396238
 40
0.2670862409
 40
0.3030519232
 40
0.3384240485
 40
0.3731921003
 40
0.4073478087
 40
0.4408852949
 40
0.4738012214
 40
0.5060949478
 40
0.5377686915
 40
0.5688276897
 40
0.5992803579
 40
0.6291384468
 40
0.6584171905
 40
0.6871354426
 40
0.7153157888
 40
0.7429846317
 40
0.7701722379
 40
0.7969127399
 40
0.8232440796
 40
0.8492078822
 40
0.8748492569
 40
0.9002165151
 40
0.9253608057
 40
0.9503356668
 40
0.9751965029
 40
1.0
 40
1.0
 40
1.0
 40
1.0
 10
15.1395787016
 20
12.4434149617
 30
0.0
 10
15.1331639981
 20
12.4434149617
 30
0.0
 10
15.1204097918
 20
12.4432711267
 30
0.0
 10
15.1014060842
 20
12.4426155072
 30
0.0
 10
15.0826606258
 20
12.4415219988
 30
0.0
 10
15.0641946819
 20
12.4399918218
 30
0.0
 10
15.0460290653
 20
12.4380266951
 30
0.0
 10
15.0281842762
 20
12.4356288222
 30
0.0
 10
15.0106804423
 20
12.4328008941
 30
0.0
 10
14.9935373068
 20
12.4295460819
 30
0.0
 10
14.976774204
 20
12.4258680332
 30
0.0
 10
14.960410038
 20
12.4217708668
 30
0.0
 10
14.9444632614
 20
12.4172591699
 30
0.0
 10
14.928951856
 20
12.4123379897
 30
0.0
 10
14.9138933138
 20
12.4070128264
 30
0.0
 10
14.8993046188
 20
12.4012896261
 30
0.0
 10
14.8852022296
 20
12.3951747747
 30
0.0
 10
14.871602062
 20
12.3886750909
 30
0.0
 10
14.8585194749
 20
12.3817978162
 30
0.0
 10
14.8459692567
 20
12.3745506077
 30
0.0
 10
14.833965612
 20
12.3669415305
 30
0.0
 10
14.8225221472
 20
12.3589790529
 30
0.0
 10
14.8116518602
 20
12.3506720386
 30
0.0
 10
14.8013671298
 20
12.3420297411
 30
0.0
 10
14.7916797043
 20
12.3330617988
 30
0.0
 10
14.7826006884
 20
12.3237782327
 30
0.0
 10
14.7741405287
 20
12.314189445
 30
0.0
 10
14.7663090002
 20
12.3043062131
 30
0.0
 10
14.7591151908
 20
12.2941396905
 30
0.0
 10
14.752567477
 20
12.2837013854
 30
0.0
 10
14.7466735185
 20
12.2730032157
 30
0.0
 10
14.7414401673
 20
12.2620572682
 30
0.0
 10
14.736873707
 20
12.2508766235
 30
0.0
 10
14.7342761461
 20
12.2432707542
 30
0.0
 10
14.7330918406
 20
12.2394383387
 30
0.0
  0
SPLINE
  5
30B
100
AcDbEntity
  8
LAYER_FEATURE
100
AcDbSpline
 62
7
  6
CONTINUOUS
 70
0
 71
3
 72
11
 73
7
 74
0
 42
0.0000001
 43
0.0000001
 44
0.0000000001
 40
0.0
 40
0.0
 40
0.0
 40
0.0
 40
0.2267802591
 40
0.4678328358
 40
0.7251095947
 40
1.0
 40
1.0
 40
1.0
 40
1.0
 10
15.9346750856
 20
12.2575850459
 30
0.0
 10
15.9353288561
 20
12.2572569268
 30
0.0
 10
15.936633408
 20
12.2564894774
 30
0.0
 10
15.9385025514
 20
12.2550764584
 30
0.0
 10
15.9403322535
 20
12.2533761655
 30
0.0
 10
15.941482517
 20
12.2520989799
 30
0.0
 10
15.9420506971
 20
12.2514182757
 30
0.0
  0
SPLINE
  5
30C
100
AcDbEntity
  8
02___PRT_ALL_AXES
100
AcDbSpline
 62
7
  6
CONTINUOUS
 70
0
 71
3
 72
23
 73
19
 74
0
 42
0.0000001
 43
0.0000001
 44
0.0000000001
 40
0.0
 40
0.0
 40
0.0
 40
0.0
 40
0.051995504
 40
0.1041877849
 40
0.1569020768
 40
0.2104527249
 40
0.2651366608
 40
0.3212280113
 40
0.3789744366
 40
0.4385951927
 40
0.5002797931
 40
0.5641891149
 40
0.630455699
 40
0.6991850004
 40
0.7704560392
 40
0.8443289373
 40
0.9208438301
 40
1.0
 40
1.0
 40
1.0
 40
1.0
 10
15.9417377008
 20
12.2591077293
 30
0.0
 10
15.9422507182
 20
12.2591077283
 30
0.0
 10
15.9432793448
 20
12.2590596071
 30
0.0
 10
15.9448143241
 20
12.2588428043
 30
0.0
 10
15.9463377621
 20
12.2584817596
 30
0.0
 10
15.9478456818
 20
12.2579772167
 30
0.0
 10
15.9493344505
 20
12.2573301635
 30
0.0
 10
15.9508004999
 20
12.2565418325
 30
0.0
 10
15.9522404534
 20
12.2556137445
 30
0.0
 10
15.9536510083
 20
12.254547553
 30
0.0
 10
15.9550290802
 20
12.2533452373
 30
0.0
 10
15.9563716254
 20
12.2520088781
 30
0.0
 10
15.9576758165
 20
12.2505408711
 30
0.0
 10
15.9589388869
 20
12.2489437818
 30
0.0
 10
15.9601582781
 20
12.2472204304
 30
0.0
 10
15.9613315826
 20
12.2453737847
 30
0.0
 10
15.9624564083
 20
12.2434072025
 30
0.0
 10
15.9631607106
 20
12.2420416645
 30
0.0
 10
15.9635047745
 20
12.241340536
 30
0.0
  0
SPLINE
  5
30D
100
AcDbEntity
  8
02___PRT_ALL_AXES
100
AcDbSpline
 62
7
  6
CONTINUOUS
 70
0
 71
3
 72
39
 73
35
 74
0
 42
0.0000001
 43
0.0000001
 44
0.0000000001
 40
0.0
 40
0.0
 40
0.0
 40
0.0
 40
0.0248034973
 40
0.0496643335
 40
0.0746391947
 40
0.0997834851
 40
0.1251507427
 40
0.1507921168
 40
0.1767559198
 40
0.2030872608
 40
0.2298277638
 40
0.2570153696
 40
0.284684211
 40
0.312864556
 40
0.3415828085
 40
0.3708615539
 40
0.4007196437
 40
0.4311723119
 40
0.4622313094
 40
0.493905052
 40
0.5261987774
 40
0.5591147045
 40
0.5926521923
 40
0.6268079021
 40
0.6615759537
 40
0.6969480775
 40
0.7329137579
 40
0.7694603751
 40
0.8065733377
 40
0.8442361876
 40
0.8824308336
 40
0.9211372865
 40
0.9603348127
 40
1.0
 40
1.0
 40
1.0
 40
1.0
 10
14.8086165337
 20
12.4838363344
 30
0.0
 10
14.809800838
 20
12.4876687503
 30
0.0
 10
14.8123984021
 20
12.4952746186
 30
0.0
 10
14.8169648626
 20
12.5064552631
 30
0.0
 10
14.8221982146
 20
12.5174012102
 30
0.0
 10
14.8280921727
 20
12.5280993799
 30
0.0
 10
14.8346398849
 20
12.5385376857
 30
0.0
 10
14.8418336922
 20
12.5487042096
 30
0.0
 10
14.8496652215
 20
12.5585874412
 30
0.0
 10
14.8581253833
 20
12.5681762275
 30
0.0
 10
14.8672044007
 20
12.5774597924
 30
0.0
 10
14.8768918257
 20
12.586427735
 30
0.0
 10
14.8871765542
 20
12.5950700338
 30
0.0
 10
14.8980468397
 20
12.6033770493
 30
0.0
 10
14.9094903048
 20
12.6113395267
 30
0.0
 10
14.9214939511
 20
12.6189486023
 30
0.0
 10
14.93404417
 20
12.6261958102
 30
0.0
 10
14.9471267571
 20
12.6330730849
 30
0.0
 10
14.9607269242
 20
12.6395727691
 30
0.0
 10
14.9748293125
 20
12.6456876212
 30
0.0
 10
14.9894180066
 20
12.6514108227
 30
0.0
 10
15.0044765492
 20
12.6567359856
 30
0.0
 10
15.0199879556
 20
12.6616571646
 30
0.0
 10
15.0359347329
 20
12.6661688602
 30
0.0
 10
15.0522988987
 20
12.6702660264
 30
0.0
 10
15.0690620006
 20
12.6739440767
 30
0.0
 10
15.0862051351
 20
12.6771988906
 30
0.0
 10
15.1037089694
 20
12.6800268188
 30
0.0
 10
15.1215537577
 20
12.6824246887
 30
0.0
 10
15.1397193804
 20
12.6843898175
 30
0.0
 10
15.1581853081
 20
12.6859199877
 30
0.0
 10
15.1769307986
 20
12.6870135086
 30
0.0
 10
15.1959345004
 20
12.6876691173
 30
0.0
 10
15.2086887225
 20
12.6878129575
 30
0.0
 10
15.2151033945
 20
12.6878129575
 30
0.0
  0
SPLINE
  5
30E
100
AcDbEntity
  8
02___PRT_ALL_AXES
100
AcDbSpline
 62
7
  6
CONTINUOUS
 70
0
 71
3
 72
56
 73
52
 74
0
 42
0.0000001
 43
0.0000001
 44
0.0000000001
 40
0.0
 40
0.0
 40
0.0
 40
0.0
 40
0.0345294132
 40
0.0697081291
 40
0.1054492283
 40
0.1416605161
 40
0.1782456822
 40
0.2151052099
 40
0.2521372626
 40
0.2892385663
 40
0.3263052722
 40
0.3632338187
 40
0.3999217931
 40
0.4362688034
 40
0.4721773729
 40
0.5075538498
 40
0.5423093677
 40
0.5594290573
 40
0.5763628928
 40
0.5931015688
 40
0.60963628
 40
0.6259587567
 40
0.6420613039
 40
0.6579368415
 40
0.6735789474
 40
0.6889819041
 40
0.7041407441
 40
0.7190512973
 40
0.7337102421
 40
0.7481151576
 40
0.7622645807
 40
0.7761580625
 40
0.7897962244
 40
0.8031808165
 40
0.8163147763
 40
0.8292022871
 40
0.8418488351
 40
0.854261258
 40
0.8664477897
 40
0.8784180964
 40
0.8901833021
 40
0.9017560001
 40
0.9131502433
 40
0.924381514
 40
0.93546667
 40
0.9464238628
 40
0.9572724291
 40
0.9680327498
 40
0.9787260815
 40
0.9893743628
 40
1.0
 40
1.0
 40
1.0
 40
1.0
 10
15.2151033945
 20
12.6878129575
 30
0.0
 10
15.227617209
 20
12.6878129575
 30
0.0
 10
15.2528831583
 20
12.687257463
 30
0.0
 10
15.2910314527
 20
12.6848209984
 30
0.0
 10
15.3296567776
 20
12.6807830574
 30
0.0
 10
15.3685978775
 20
12.6751604146
 30
0.0
 10
15.4076933302
 20
12.6679764425
 30
0.0
 10
15.4467806975
 20
12.6592609646
 30
0.0
 10
15.4856976446
 20
12.64905019
 30
0.0
 10
15.5242825021
 20
12.6373865401
 30
0.0
 10
15.5623749748
 20
12.6243184539
 30
0.0
 10
15.5998168214
 20
12.6099002362
 30
0.0
 10
15.6364525207
 20
12.5941917657
 30
0.0
 10
15.6721298802
 20
12.5772582954
 30
0.0
 10
15.7067008809
 20
12.5591700739
 30
0.0
 10
15.7400215576
 20
12.5400024066
 30
0.0
 10
15.7667654196
 20
12.5231116414
 30
0.0
 10
15.787409128
 20
12.5091195418
 30
0.0
 10
15.80241762
 20
12.4984591824
 30
0.0
 10
15.8170131782
 20
12.4875915095
 30
0.0
 10
15.8311806906
 20
12.4765277617
 30
0.0
 10
15.8449053995
 20
12.4652794591
 30
0.0
 10
15.8581730307
 20
12.4538582889
 30
0.0
 10
15.8709697785
 20
12.4422761208
 30
0.0
 10
15.8832823271
 20
12.4305449854
 30
0.0
 10
15.8950978675
 20
12.4186770689
 30
0.0
 10
15.9064041071
 20
12.406684695
 30
0.0
 10
15.9171892805
 20
12.3945803118
 30
0.0
 10
15.9274421601
 20
12.3823764791
 30
0.0
 10
15.9371520669
 20
12.3700858541
 30
0.0
 10
15.9463088852
 20
12.357721181
 30
0.0
 10
15.9549030716
 20
12.3452952778
 30
0.0
 10
15.9629256592
 20
12.3328210199
 30
0.0
 10
15.9703682657
 20
12.3203113291
 30
0.0
 10
15.9772230993
 20
12.3077791607
 30
0.0
 10
15.9834829678
 20
12.2952374918
 30
0.0
 10
15.9891412899
 20
12.2826993122
 30
0.0
 10
15.9941920925
 20
12.2701776097
 30
0.0
 10
15.9986300164
 20
12.2576853615
 30
0.0
 10
16.0024503215
 20
12.2452355247
 30
0.0
 10
16.0056488908
 20
12.2328410271
 30
0.0
 10
16.0082222466
 20
12.2205147605
 30
0.0
 10
16.010167549
 20
12.2082695702
 30
0.0
 10
16.0114826027
 20
12.196118247
 30
0.0
 10
16.0121658653
 20
12.1840735173
 30
0.0
 10
16.0122164566
 20
12.172148036
 30
0.0
 10
16.0116341729
 20
12.1603543586
 30
0.0
 10
16.010419511
 20
12.148704979
 30
0.0
 10
16.0085736078
 20
12.1372121104
 30
0.0
 10
16.0060984812
 20
12.1258884096
 30
0.0
 10
16.0040295376
 20
12.1184562937
 30
0.0
 10
16.0028925886
 20
12.1147771202
 30
0.0
  0
SPLINE
  5
30F
100
AcDbEntity
  8
LAYER_CHAMFER_FEAT
100
AcDbSpline
 62
7
  6
CONTINUOUS
 70
0
 71
3
 72
42
 73
38
 74
0
 42
0.0000001
 43
0.0000001
 44
0.0000000001
 40
0.0
 40
0.0
 40
0.0
 40
0.0
 40
0.0106262449
 40
0.0212751356
 40
0.0319690782
 40
0.0427300144
 40
0.0535792026
 40
0.0645370193
 40
0.0868474333
 40
0.1098090037
 40
0.133539819
 40
0.158134743
 40
0.183665404
 40
0.2101811335
 40
0.2377104756
 40
0.2662629724
 40
0.2958310291
 40
0.3263917376
 40
0.3579085954
 40
0.390333096
 40
0.4236061875
 40
0.4576596078
 40
0.4924171132
 40
0.5277956148
 40
0.5637062395
 40
0.6000553311
 40
0.6367454047
 40
0.6736760633
 40
0.7107448883
 40
0.747848313
 40
0.7848824803
 40
0.8217441211
 40
0.8583313605
 40
0.8945447747
 40
0.9302877874
 40
0.9654688271
 40
1.0
 40
1.0
 40
1.0
 40
1.0
 10
15.2153410132
 20
12.1065020304
 30
0.0
 10
15.2151136247
 20
12.1057661953
 30
0.0
 10
15.2146998239
 20
12.1042797752
 30
0.0
 10
15.2142048113
 20
12.102015033
 30
0.0
 10
15.2138356225
 20
12.0997164579
 30
0.0
 10
15.2135926918
 20
12.0973865928
 30
0.0
 10
15.2134762462
 20
12.0950278142
 30
0.0
 10
15.2134897612
 20
12.0918290276
 30
0.0
 10
15.2138298661
 20
12.087759953
 30
0.0
 10
15.2147414277
 20
12.082834885
 30
0.0
 10
15.2161539074
 20
12.0778575773
 30
0.0
 10
15.2180605487
 20
12.0728489668
 30
0.0
 10
15.2204527191
 20
12.0678294124
 30
0.0
 10
15.2233199955
 20
12.0628193771
 30
0.0
 10
15.2266501613
 20
12.0578392345
 30
0.0
 10
15.2304292167
 20
12.0529092815
 30
0.0
 10
15.2346413937
 20
12.0480496609
 30
0.0
 10
15.239269187
 20
12.043280286
 30
0.0
 10
15.244293401
 20
12.0386207544
 30
0.0
 10
15.2496932107
 20
12.0340902586
 30
0.0
 10
15.2554462367
 20
12.0297074981
 30
0.0
 10
15.2615286305
 20
12.0254905926
 30
0.0
 10
15.2679151695
 20
12.0214569996
 30
0.0
 10
15.2745793597
 20
12.017623435
 30
0.0
 10
15.2814935449
 20
12.0140057989
 30
0.0
 10
15.2886290218
 20
12.0106191041
 30
0.0
 10
15.2959561608
 20
12.0074774113
 30
0.0
 10
15.3034445305
 20
12.0045937682
 30
0.0
 10
15.3110630252
 20
12.0019801526
 30
0.0
 10
15.318779996
 20
11.9996474225
 30
0.0
 10
15.3265633852
 20
11.9976052673
 30
0.0
 10
15.3343808574
 20
11.9958621733
 30
0.0
 10
15.34219995
 20
11.994425374
 30
0.0
 10
15.3499881636
 20
11.9933008514
 30
0.0
 10
15.3577132445
 20
11.992493252
 30
0.0
 10
15.3653429013
 20
11.9920059677
 30
0.0
 10
15.3703960979
 20
11.991894865
 30
0.0
 10
15.3728988451
 20
11.991894865
 30
0.0
  0
SPLINE
  5
310
100
AcDbEntity
  8
LAYER_CUT_FEAT
100
AcDbSpline
 62
7
  6
CONTINUOUS
 70
0
 71
3
 72
22
 73
18
 74
0
 42
0.0000001
 43
0.0000001
 44
0.0000000001
 40
0.0
 40
0.0
 40
0.0
 40
0.0
 40
0.1381197804
 40
0.2053664349
 40
0.2714549095
 40
0.3364371394
 40
0.400372579
 40
0.4633278449
 40
0.5253764087
 40
0.5865986111
 40
0.6470813103
 40
0.7069174443
 40
0.7662055009
 40
0.8250488566
 40
0.8835549595
 40
0.9418344164
 40
1.0
 40
1.0
 40
1.0
 40
1.0
 10
16.1195768315
 20
12.2993067273
 30
0.0
 10
16.1243640096
 20
12.2895514839
 30
0.0
 10
16.1309603646
 20
12.2747790917
 30
0.0
 10
16.1384837143
 20
12.2547868818
 30
0.0
 10
16.1433757643
 20
12.2399659631
 30
0.0
 10
16.1475618324
 20
12.2252011239
 30
0.0
 10
16.1510379653
 20
12.2105060568
 30
0.0
 10
16.1538006423
 20
12.1958949258
 30
0.0
 10
16.1558470455
 20
12.1813816894
 30
0.0
 10
16.1571750486
 20
12.1669802929
 30
0.0
 10
16.1577832243
 20
12.1527045924
 30
0.0
 10
16.1576708252
 20
12.1385683641
 30
0.0
 10
16.1568377927
 20
12.1245852745
 30
0.0
 10
16.1552848331
 20
12.1107689202
 30
0.0
 10
16.1530133108
 20
12.0971325898
 30
0.0
 10
16.1500255044
 20
12.0836900594
 30
0.0
 10
16.1475568079
 20
12.0748621815
 30
0.0
 10
16.1462057104
 20
12.070490016
 30
0.0
  0
SPLINE
  5
311
100
AcDbEntity
  8
02___PRT_ALL_AXES
100
AcDbSpline
 62
7
  6
CONTINUOUS
 70
0
 71
3
 72
21
 73
17
 74
0
 42
0.0000001
 43
0.0000001
 44
0.0000000001
 40
0.0
 40
0.0
 40
0.0
 40
0.0
 40
0.1371985896
 40
0.2704922348
 40
0.3356974621
 40
0.3999362749
 40
0.4632344276
 40
0.5256285476
 40
0.5871659848
 40
0.6479044141
 40
0.7079115855
 40
0.7672649872
 40
0.82605127
 40
0.8843658304
 40
0.9423119611
 40
1.0
 40
1.0
 40
1.0
 40
1.0
 10
15.1971904866
 20
12.6298467662
 30
0.0
 10
15.2002143953
 20
12.6298467662
 30
0.0
 10
15.2061822515
 20
12.6295102934
 30
0.0
 10
15.2134853472
 20
12.6282039536
 30
0.0
 10
15.2190650244
 20
12.6266413053
 30
0.0
 10
15.2230753247
 20
12.6252302664
 30
0.0
 10
15.2269253016
 20
12.6235785414
 30
0.0
 10
15.2306001649
 20
12.621693937
 30
0.0
 10
15.234085555
 20
12.6195852858
 30
0.0
 10
15.2373678257
 20
12.6172623421
 30
0.0
 10
15.2404340177
 20
12.6147357205
 30
0.0
 10
15.2432719188
 20
12.6120168196
 30
0.0
 10
15.2458700773
 20
12.6091177878
 30
0.0
 10
15.2482179125
 20
12.606051344
 30
0.0
 10
15.2503055164
 20
12.6028311681
 30
0.0
 10
15.2515201099
 20
12.6005869771
 30
0.0
 10
15.2520802414
 20
12.5994455398
 30
0.0
  0
SPLINE
  5
312
100
AcDbEntity
  8
LAYER_CHAMFER_FEAT
100
AcDbSpline
 62
7
  6
CONTINUOUS
 70
0
 71
3
 72
27
 73
23
 74
0
 42
0.0000001
 43
0.0000001
 44
0.0000000001
 40
0.0
 40
0.0
 40
0.0
 40
0.0
 40
0.0248063952
 40
0.0496701434
 40
0.074647917
 40
0.099795159
 40
0.1251653699
 40
0.150809759
 40
0.1767765796
 40
0.2031110182
 40
0.2570287964
 40
0.3128695384
 40
0.3708599427
 40
0.4311658584
 40
0.4938953698
 40
0.5591032371
 40
0.6267959449
 40
0.6969367449
 40
0.7694507392
 40
0.8442289274
 40
0.9211336396
 40
1.0
 40
1.0
 40
1.0
 40
1.0
 10
15.4541962104
 20
12.0326901918
 30
0.0
 10
15.4539593509
 20
12.0319237083
 30
0.0
 10
15.4534398492
 20
12.0304025304
 30
0.0
 10
15.4525265389
 20
12.0281664095
 30
0.0
 10
15.4514798879
 20
12.0259772103
 30
0.0
 10
15.4503010775
 20
12.0238375879
 30
0.0
 10
15.4489915511
 20
12.021749913
 30
0.0
 10
15.4475527806
 20
12.0197166284
 30
0.0
 10
15.4459864572
 20
12.0177399426
 30
0.0
 10
15.4437128911
 20
12.0151630458
 30
0.0
 10
15.4405482219
 20
12.0120927276
 30
0.0
 10
15.436304197
 20
12.0087014399
 30
0.0
 10
15.4316031647
 20
12.0055878626
 30
0.0
 10
15.4264669661
 20
12.0027655514
 30
0.0
 10
15.4209188046
 20
12.0002463968
 30
0.0
 10
15.4149836636
 20
11.998041178
 30
0.0
 10
15.4086881491
 20
11.9961593638
 30
0.0
 10
15.4020604505
 20
11.9946090927
 30
0.0
 10
15.3951302679
 20
11.9933971178
 30
0.0
 10
15.3879285961
 20
11.9925287253
 30
0.0
 10
15.3804879519
 20
11.9920077397
 30
0.0
 10
15.3754494075
 20
11.991894865
 30
0.0
 10
15.3728988451
 20
11.991894865
 30
0.0
  0
SPLINE
  5
313
100
AcDbEntity
  8
02___PRT_ALL_AXES
100
AcDbSpline
 62
7
  6
CONTINUOUS
 70
0
 71
3
 72
48
 73
44
 74
0
 42
0.0000001
 43
0.0000001
 44
0.0000000001
 40
0.0
 40
0.0
 40
0.0
 40
0.0
 40
0.0287266936
 40
0.0591130042
 40
0.0910978258
 40
0.1245928909
 40
0.1594872029
 40
0.1956500811
 40
0.232934012
 40
0.2711771463
 40
0.3102053691
 40
0.349834171
 40
0.3898703246
 40
0.4301132969
 40
0.4703568989
 40
0.510390813
 40
0.55000225
 40
0.5889778825
 40
0.627106095
 40
0.6641794334
 40
0.6999974311
 40
0.7343697115
 40
0.7671193696
 40
0.7980867558
 40
0.8128587619
 40
0.8271353742
 40
0.8409034854
 40
0.8541520098
 40
0.8668720464
 40
0.8790572847
 40
0.89070414
 40
0.9018123469
 40
0.9123851327
 40
0.9224300939
 40
0.9319594881
 40
0.9409913779
 40
0.9495501143
 40
0.9576676952
 40
0.9727344899
 40
0.979807622
 40
0.98665729
 40
0.9933604193
 40
1.0
 40
1.0
 40
1.0
 40
1.0
 10
15.9635047745
 20
12.241340536
 30
0.0
 10
15.9641686137
 20
12.2399877739
 30
0.0
 10
15.9654279928
 20
12.2371508781
 30
0.0
 10
15.9670745328
 20
12.2326618801
 30
0.0
 10
15.9685247911
 20
12.2278440413
 30
0.0
 10
15.9697727089
 20
12.2227266229
 30
0.0
 10
15.9708145876
 20
12.217340217
 30
0.0
 10
15.9716487493
 20
12.2117170289
 30
0.0
 10
15.9722755257
 20
12.2058904714
 30
0.0
 10
15.972697091
 20
12.1998949776
 30
0.0
 10
15.9729173034
 20
12.1937657813
 30
0.0
 10
15.9729415153
 20
12.1875387444
 30
0.0
 10
15.9727763815
 20
12.1812502056
 30
0.0
 10
15.9724296597
 20
12.1749368406
 30
0.0
 10
15.9719100174
 20
12.1686355289
 30
0.0
 10
15.9712268405
 20
12.1623832108
 30
0.0
 10
15.9703900497
 20
12.1562167337
 30
0.0
 10
15.9694099248
 20
12.1501726669
 30
0.0
 10
15.9682969345
 20
12.144287085
 30
0.0
 10
15.9670615778
 20
12.1385953148
 30
0.0
 10
15.9657142303
 20
12.1331316713
 30
0.0
 10
15.9642650116
 20
12.127929121
 30
0.0
 10
15.9627236435
 20
12.1230191201
 30
0.0
 10
15.9613493411
 20
12.1191368887
 30
0.0
 10
15.9602066366
 20
12.1162032132
 30
0.0
 10
15.9593454179
 20
12.1141287117
 30
0.0
 10
15.9584675115
 20
12.1121483079
 30
0.0
 10
15.957573851
 20
12.1102649241
 30
0.0
 10
15.9566653374
 20
12.1084813246
 30
0.0
 10
15.9557428363
 20
12.1068001044
 30
0.0
 10
15.9548071524
 20
12.1052236927
 30
0.0
 10
15.9538590699
 20
12.1037543423
 30
0.0
 10
15.952899293
 20
12.1023941456
 30
0.0
 10
15.9519285239
 20
12.1011450153
 30
0.0
 10
15.9509473382
 20
12.1000087069
 30
0.0
 10
15.9499564115
 20
12.0989868504
 30
0.0
 10
15.9489559618
 20
12.0980807734
 30
0.0
 10
15.9476435164
 20
12.0970547811
 30
0.0
 10
15.9462775055
 20
12.0962266224
 30
0.0
 10
15.9448713023
 20
12.095641631
 30
0.0
 10
15.9438317289
 20
12.0953337943
 30
0.0
 10
15.942786566
 20
12.0951488275
 30
0.0
 10
15.9420859819
 20
12.0951077286
 30
0.0
 10
15.9417377008
 20
12.0951077295
 30
0.0
  0
SPLINE
  5
314
100
AcDbEntity
  8
LAYER_FEATURE
100
AcDbSpline
 62
7
  6
CONTINUOUS
 70
0
 71
3
 72
78
 73
74
 74
0
 42
0.0000001
 43
0.0000001
 44
0.0000000001
 40
0.0
 40
0.0
 40
0.0
 40
0.0
 40
0.0053541098
 40
0.0107129091
 40
0.0160810664
 40
0.0214632111
 40
0.0268639112
 40
0.0322876585
 40
0.0377388457
 40
0.0432217569
 40
0.0487405439
 40
0.0542992227
 40
0.0599016502
 40
0.0655515264
 40
0.0770061088
 40
0.0886904833
 40
0.1006276343
 40
0.1128374476
 40
0.119050525
 40
0.1253378045
 40
0.1381402471
 40
0.1512566577
 40
0.1646949955
 40
0.1784605391
 40
0.1925560405
 40
0.2069818852
 40
0.2217362497
 40
0.2368152568
 40
0.2522131245
 40
0.2679223083
 40
0.2839336364
 40
0.3002364373
 40
0.3168186609
 40
0.333666992
 40
0.3507669589
 40
0.3681030357
 40
0.3856587396
 40
0.4034167245
 40
0.4213588699
 40
0.4394663669
 40
0.4577198016
 40
0.4760992358
 40
0.4945842851
 40
0.5131541964
 40
0.5317879233
 40
0.5504642006
 40
0.5691616178
 40
0.5878586929
 40
0.6065339449
 40
0.6251659668
 40
0.6437334994
 40
0.6622155043
 40
0.680591239
 40
0.6988403323
 40
0.7169428613
 40
0.73487943
 40
0.7526312504
 40
0.7701802253
 40
0.7875090345
 40
0.8046012243
 40
0.8214413009
 40
0.8380148277
 40
0.8543085282
 40
0.8703103943
 40
0.8860098005
 40
0.9013976246
 40
0.9164663761
 40
0.9312103318
 40
0.9456256761
 40
0.9597106576
 40
0.9734657236
 40
0.9868937291
 40
1.0
 40
1.0
 40
1.0
 40
1.0
 10
14.6701447384
 20
12.5437899768
 30
0.0
 10
14.6710477635
 20
12.5467121753
 30
0.0
 10
14.672960411
 20
12.5525270374
 30
0.0
 10
14.6761444668
 20
12.5611459347
 30
0.0
 10
14.6796427844
 20
12.5696595722
 30
0.0
 10
14.6834538505
 20
12.5780641142
 30
0.0
 10
14.6875759756
 20
12.5863560102
 30
0.0
 10
14.6920074246
 20
12.594531657
 30
0.0
 10
14.6967462227
 20
12.6025875791
 30
0.0
 10
14.7017903731
 20
12.6105202827
 30
0.0
 10
14.70713764
 20
12.6183264126
 30
0.0
 10
14.712785746
 20
12.6260025648
 30
0.0
 10
14.7187322759
 20
12.6335455769
 30
0.0
 10
14.7270929195
 20
12.6434655246
 30
0.0
 10
14.7382960313
 20
12.6555214526
 30
0.0
 10
14.7528267279
 20
12.6693356594
 30
0.0
 10
14.7684810221
 20
12.6825408954
 30
0.0
 10
14.7823589473
 20
12.6929583385
 30
0.0
 10
14.7939826115
 20
12.7009697948
 30
0.0
 10
14.8060982739
 20
12.708855221
 30
0.0
 10
14.8219050682
 20
12.718286053
 30
0.0
 10
14.841764127
 20
12.7288442502
 30
0.0
 10
14.8625938922
 20
12.7386939355
 30
0.0
 10
14.8843584447
 20
12.7478184049
 30
0.0
 10
14.9070207556
 20
12.756202432
 30
0.0
 10
14.9305421662
 20
12.7638319302
 30
0.0
 10
14.9548826009
 20
12.7706940811
 30
0.0
 10
14.9800005835
 20
12.776777333
 30
0.0
 10
15.0058533142
 20
12.7820714329
 30
0.0
 10
15.0323967347
 20
12.786567447
 30
0.0
 10
15.0595856017
 20
12.7902577809
 30
0.0
 10
15.0873735618
 20
12.7931361966
 30
0.0
 10
15.1157132302
 20
12.795197827
 30
0.0
 10
15.1445562705
 20
12.7964391871
 30
0.0
 10
15.1738534781
 20
12.7968581829
 30
0.0
 10
15.2035548641
 20
12.7964541171
 30
0.0
 10
15.233609741
 20
12.7952276919
 30
0.0
 10
15.2639668106
 20
12.7931810097
 30
0.0
 10
15.2945742517
 20
12.7903175708
 30
0.0
 10
15.3253798095
 20
12.786642268
 30
0.0
 10
15.3563308856
 20
12.7821613793
 30
0.0
 10
15.3873746288
 20
12.7768825576
 30
0.0
 10
15.4184580259
 20
12.7708148185
 30
0.0
 10
15.4495279927
 20
12.7639685248
 30
0.0
 10
15.4805314657
 20
12.756355369
 30
0.0
 10
15.5114154933
 20
12.7479883538
 30
0.0
 10
15.5421273268
 20
12.7388817697
 30
0.0
 10
15.572614511
 20
12.7290511706
 30
0.0
 10
15.6028249743
 20
12.7185133468
 30
0.0
 10
15.6327071186
 20
12.7072862968
 30
0.0
 10
15.6622099074
 20
12.6953891955
 30
0.0
 10
15.6912829538
 20
12.6828423615
 30
0.0
 10
15.7198766069
 20
12.669667222
 30
0.0
 10
15.747942037
 20
12.6558862753
 30
0.0
 10
15.7754313197
 20
12.6415230522
 30
0.0
 10
15.8022975174
 20
12.6266020743
 30
0.0
 10
15.8284947605
 20
12.6111488122
 30
0.0
 10
15.8539783254
 20
12.5951896398
 30
0.0
 10
15.8787047112
 20
12.578751789
 30
0.0
 10
15.9026317136
 20
12.5618633012
 30
0.0
 10
15.925718497
 20
12.5445529779
 30
0.0
 10
15.9479256634
 20
12.5268503297
 30
0.0
 10
15.9692153185
 20
12.5087855239
 30
0.0
 10
15.9895511352
 20
12.4903893307
 30
0.0
 10
16.0088984137
 20
12.4716930682
 30
0.0
 10
16.027224137
 20
12.4527285468
 30
0.0
 10
16.0444970253
 20
12.433528011
 30
0.0
 10
16.060687579
 20
12.4141240884
 30
0.0
 10
16.0757681399
 20
12.3945497088
 30
0.0
 10
16.0897128758
 20
12.3748381347
 30
0.0
 10
16.1024979925
 20
12.3550225902
 30
0.0
 10
16.1141011769
 20
12.3351373331
 30
0.0
 10
16.1211198228
 20
12.3216945658
 30
0.0
 10
16.124418158
 20
12.3149732655
 30
0.0
  0
SPLINE
  5
315
100
AcDbEntity
  8
LAYER_FEATURE
100
AcDbSpline
 62
7
  6
CONTINUOUS
 70
0
 71
3
 72
37
 73
33
 74
0
 42
0.0000001
 43
0.0000001
 44
0.0000000001
 40
0.0
 40
0.0
 40
0.0
 40
0.0
 40
0.0938200382
 40
0.1387507885
 40
0.1822970317
 40
0.2244238104
 40
0.2650999621
 40
0.304300282
 40
0.3420093615
 40
0.3782201838
 40
0.4129365201
 40
0.446172923
 40
0.4779578968
 40
0.5083340843
 40
0.5373615956
 40
0.5651186647
 40
0.5917048685
 40
0.6172415911
 40
0.6418739959
 40
0.6657699329
 40
0.6891188144
 40
0.7121272527
 40
0.7350136215
 40
0.7580005881
 40
0.7813071898
 40
0.805141629
 40
0.8296949412
 40
0.8815711058
 40
0.9092102302
 40
0.9381108587
 40
0.9683536868
 40
1.0
 40
1.0
 40
1.0
 40
1.0
 10
15.9236445895
 20
12.2178853433
 30
0.0
 10
15.9240750213
 20
12.219278221
 30
0.0
 10
15.9247600581
 20
12.2213238705
 30
0.0
 10
15.9257688657
 20
12.2239711589
 30
0.0
 10
15.9265457098
 20
12.2258463783
 30
0.0
 10
15.9273523366
 20
12.2276367172
 30
0.0
 10
15.9281873344
 20
12.2293391393
 30
0.0
 10
15.9290493087
 20
12.2309506582
 30
0.0
 10
15.9299367231
 20
12.2324685062
 30
0.0
 10
15.9308481106
 20
12.2338900467
 30
0.0
 10
15.9317818722
 20
12.2352128579
 30
0.0
 10
15.9327364858
 20
12.2364346279
 30
0.0
 10
15.9337103044
 20
12.2375532809
 30
0.0
 10
15.9347017694
 20
12.2385668367
 30
0.0
 10
15.9357092095
 20
12.2394735577
 30
0.0
 10
15.9367310392
 20
12.2402717692
 30
0.0
 10
15.937765561
 20
12.2409600391
 30
0.0
 10
15.9388111304
 20
12.2415369595
 30
0.0
 10
15.9398659653
 20
12.242001373
 30
0.0
 10
15.9409282604
 20
12.24235214
 30
0.0
 10
15.9419960355
 20
12.2425884358
 30
0.0
 10
15.943067224
 20
12.2427095337
 30
0.0
 10
15.9441396304
 20
12.2427151476
 30
0.0
 10
15.9452110329
 20
12.2426051877
 30
0.0
 10
15.9462792269
 20
12.2423800591
 30
0.0
 10
15.9473421755
 20
12.2420402831
 30
0.0
 10
15.9487755436
 20
12.2414246649
 30
0.0
 10
15.9501675065
 20
12.2405839195
 30
0.0
 10
15.9515030134
 20
12.2395556649
 30
0.0
 10
15.9525120733
 20
12.2386593151
 30
0.0
 10
15.9535050778
 20
12.2376560604
 30
0.0
 10
15.9541408332
 20
12.2369336886
 30
0.0
 10
15.9544559448
 20
12.2365561648
 30
0.0
  0
SPLINE
  5
316
100
AcDbEntity
  8
LAYER_FEATURE
100
AcDbSpline
 62
7
  6
CONTINUOUS
 70
0
 71
3
 72
22
 73
18
 74
0
 42
0.0000001
 43
0.0000001
 44
0.0000000001
 40
0.0
 40
0.0
 40
0.0
 40
0.0
 40
0.0455534346
 40
0.0920203804
 40
0.1400547371
 40
0.1902128306
 40
0.2429140207
 40
0.2984463828
 40
0.3569712749
 40
0.418537151
 40
0.4830944672
 40
0.5505100782
 40
0.6205803637
 40
0.6930428459
 40
0.7675864325
 40
0.8438608409
 40
1.0
 40
1.0
 40
1.0
 40
1.0
 10
16.4615996024
 20
12.3975370345
 30
0.0
 10
16.4616755567
 20
12.3978200176
 30
0.0
 10
16.4617838422
 20
12.3984048011
 30
0.0
 10
16.46180998
 20
12.3993084782
 30
0.0
 10
16.4617011645
 20
12.4002356636
 30
0.0
 10
16.4614590582
 20
12.4011782677
 30
0.0
 10
16.461086266
 20
12.4021288462
 30
0.0
 10
16.4605862861
 20
12.4030799758
 30
0.0
 10
16.4599634083
 20
12.4040243218
 30
0.0
 10
16.4592227747
 20
12.4049545757
 30
0.0
 10
16.4583703755
 20
12.4058634872
 30
0.0
 10
16.4574130507
 20
12.4067439149
 30
0.0
 10
16.4563584572
 20
12.4075888983
 30
0.0
 10
16.4552150529
 20
12.4083917038
 30
0.0
 10
16.4539919252
 20
12.4091459716
 30
0.0
 10
16.4522548503
 20
12.4100858965
 30
0.0
 10
16.4508829149
 20
12.4106888907
 30
0.0
 10
16.4499440903
 20
12.4110455374
 30
0.0
  0
SPLINE
  5
317
100
AcDbEntity
  8
LAYER_CUT_FEAT
100
AcDbSpline
 62
7
  6
CONTINUOUS
 70
0
 71
3
 72
78
 73
74
 74
0
 42
0.0000001
 43
0.0000001
 44
0.0000000001
 40
0.0
 40
0.0
 40
0.0
 40
0.0
 40
0.0053541098
 40
0.0107129091
 40
0.0160810664
 40
0.0214632111
 40
0.0268639112
 40
0.0322876585
 40
0.0377388457
 40
0.0432217569
 40
0.0487405439
 40
0.0542992227
 40
0.0599016502
 40
0.0655515264
 40
0.0770061088
 40
0.0886904833
 40
0.1006276343
 40
0.1128374476
 40
0.119050525
 40
0.1253378045
 40
0.1381402471
 40
0.1512566577
 40
0.1646949955
 40
0.1784605391
 40
0.1925560405
 40
0.2069818852
 40
0.2217362497
 40
0.2368152568
 40
0.2522131245
 40
0.2679223083
 40
0.2839336364
 40
0.3002364373
 40
0.3168186609
 40
0.333666992
 40
0.3507669589
 40
0.3681030357
 40
0.3856587396
 40
0.4034167245
 40
0.4213588699
 40
0.4394663669
 40
0.4577198016
 40
0.4760992358
 40
0.4945842851
 40
0.5131541964
 40
0.5317879233
 40
0.5504642006
 40
0.5691616178
 40
0.5878586929
 40
0.6065339449
 40
0.6251659668
 40
0.6437334994
 40
0.6622155043
 40
0.680591239
 40
0.6988403323
 40
0.7169428613
 40
0.73487943
 40
0.7526312504
 40
0.7701802253
 40
0.7875090345
 40
0.8046012243
 40
0.8214413009
 40
0.8380148277
 40
0.8543085282
 40
0.8703103943
 40
0.8860098005
 40
0.9013976246
 40
0.9164663761
 40
0.9312103318
 40
0.9456256761
 40
0.9597106576
 40
0.9734657236
 40
0.9868937291
 40
1.0
 40
1.0
 40
1.0
 40
1.0
 10
14.6653034119
 20
12.5281234386
 30
0.0
 10
14.666206437
 20
12.5310456371
 30
0.0
 10
14.6681190846
 20
12.5368604992
 30
0.0
 10
14.6713031403
 20
12.5454793965
 30
0.0
 10
14.6748014579
 20
12.553993034
 30
0.0
 10
14.678612524
 20
12.562397576
 30
0.0
 10
14.6827346491
 20
12.570689472
 30
0.0
 10
14.6871660982
 20
12.5788651188
 30
0.0
 10
14.6919048963
 20
12.5869210409
 30
0.0
 10
14.6969490467
 20
12.5948537445
 30
0.0
 10
14.7022963135
 20
12.6026598744
 30
0.0
 10
14.7079444195
 20
12.6103360266
 30
0.0
 10
14.7138909494
 20
12.6178790387
 30
0.0
 10
14.7222515931
 20
12.6277989864
 30
0.0
 10
14.7334547048
 20
12.6398549144
 30
0.0
 10
14.7479854014
 20
12.6536691212
 30
0.0
 10
14.7636396956
 20
12.6668743572
 30
0.0
 10
14.7775176209
 20
12.6772918003
 30
0.0
 10
14.789141285
 20
12.6853032566
 30
0.0
 10
14.8012569474
 20
12.6931886828
 30
0.0
 10
14.8170637417
 20
12.7026195148
 30
0.0
 10
14.8369228005
 20
12.713177712
 30
0.0
 10
14.8577525657
 20
12.7230273973
 30
0.0
 10
14.8795171182
 20
12.7321518667
 30
0.0
 10
14.9021794291
 20
12.7405358938
 30
0.0
 10
14.9257008397
 20
12.748165392
 30
0.0
 10
14.9500412744
 20
12.7550275429
 30
0.0
 10
14.975159257
 20
12.7611107948
 30
0.0
 10
15.0010119877
 20
12.7664048947
 30
0.0
 10
15.0275554082
 20
12.7709009088
 30
0.0
 10
15.0547442752
 20
12.7745912427
 30
0.0
 10
15.0825322354
 20
12.7774696584
 30
0.0
 10
15.1108719037
 20
12.7795312888
 30
0.0
 10
15.139714944
 20
12.7807726489
 30
0.0
 10
15.1690121516
 20
12.7811916448
 30
0.0
 10
15.1987135376
 20
12.7807875789
 30
0.0
 10
15.2287684146
 20
12.7795611537
 30
0.0
 10
15.2591254842
 20
12.7775144715
 30
0.0
 10
15.2897329252
 20
12.7746510326
 30
0.0
 10
15.320538483
 20
12.7709757298
 30
0.0
 10
15.3514895591
 20
12.7664948411
 30
0.0
 10
15.3825333024
 20
12.7612160194
 30
0.0
 10
15.4136166994
 20
12.7551482803
 30
0.0
 10
15.4446866662
 20
12.7483019866
 30
0.0
 10
15.4756901392
 20
12.7406888308
 30
0.0
 10
15.5065741669
 20
12.7323218156
 30
0.0
 10
15.5372860004
 20
12.7232152315
 30
0.0
 10
15.5677731845
 20
12.7133846324
 30
0.0
 10
15.5979836479
 20
12.7028468086
 30
0.0
 10
15.6278657921
 20
12.6916197586
 30
0.0
 10
15.6573685809
 20
12.6797226573
 30
0.0
 10
15.6864416273
 20
12.6671758233
 30
0.0
 10
15.7150352804
 20
12.6540006838
 30
0.0
 10
15.7431007106
 20
12.6402197372
 30
0.0
 10
15.7705899932
 20
12.625856514
 30
0.0
 10
15.7974561909
 20
12.6109355361
 30
0.0
 10
15.823653434
 20
12.595482274
 30
0.0
 10
15.8491369989
 20
12.5795231016
 30
0.0
 10
15.8738633847
 20
12.5630852508
 30
0.0
 10
15.8977903872
 20
12.546196763
 30
0.0
 10
15.9208771706
 20
12.5288864397
 30
0.0
 10
15.9430843369
 20
12.5111837915
 30
0.0
 10
15.964373992
 20
12.4931189857
 30
0.0
 10
15.9847098088
 20
12.4747227925
 30
0.0
 10
16.0040570873
 20
12.45602653
 30
0.0
 10
16.0223828105
 20
12.4370620086
 30
0.0
 10
16.0396556988
 20
12.4178614729
 30
0.0
 10
16.0558462525
 20
12.3984575502
 30
0.0
 10
16.0709268135
 20
12.3788831706
 30
0.0
 10
16.0848715493
 20
12.3591715965
 30
0.0
 10
16.097656666
 20
12.339356052
 30
0.0
 10
16.1092598504
 20
12.3194707949
 30
0.0
 10
16.1162784964
 20
12.3060280276
 30
0.0
 10
16.1195768315
 20
12.2993067273
 30
0.0
  0
SPLINE
  5
318
100
AcDbEntity
  8
LAYER_FEATURE
100
AcDbSpline
 62
7
  6
CONTINUOUS
 70
0
 71
3
 72
23
 73
19
 74
0
 42
0.0000001
 43
0.0000001
 44
0.0000000001
 40
0.0
 40
0.0
 40
0.0
 40
0.0
 40
0.0441176389
 40
0.0907646915
 40
0.1404123695
 40
0.1933231782
 40
0.2495737611
 40
0.3090834058
 40
0.3716417465
 40
0.4369333818
 40
0.5045591876
 40
0.574054871
 40
0.6449074651
 40
0.7165703998
 40
0.7884776624
 40
0.8600574647
 40
0.9307457683
 40
1.0
 40
1.0
 40
1.0
 40
1.0
 10
16.4719340287
 20
12.5086454544
 30
0.0
 10
16.4719078817
 20
12.5090228717
 30
0.0
 10
16.4717846551
 20
12.5097957109
 30
0.0
 10
16.4714097444
 20
12.5109442519
 30
0.0
 10
16.4708464573
 20
12.5120971809
 30
0.0
 10
16.4701022887
 20
12.5132412333
 30
0.0
 10
16.4691863367
 20
12.5143638585
 30
0.0
 10
16.4681094315
 20
12.5154523932
 30
0.0
 10
16.4668841655
 20
12.5164944456
 30
0.0
 10
16.4655248379
 20
12.517478007
 30
0.0
 10
16.4640473301
 20
12.5183916586
 30
0.0
 10
16.4624689351
 20
12.5192247359
 30
0.0
 10
16.4608081578
 20
12.5199674826
 30
0.0
 10
16.4590844894
 20
12.5206111829
 30
0.0
 10
16.4573181847
 20
12.5211482754
 30
0.0
 10
16.4555299634
 20
12.5215724527
 30
0.0
 10
16.4537409449
 20
12.5218787231
 30
0.0
 10
16.4525463217
 20
12.5220035035
 30
0.0
 10
16.4519538682
 20
12.5220445784
 30
0.0
  0
SPLINE
  5
319
100
AcDbEntity
  8
LAYER_CHAMFER_FEAT
100
AcDbSpline
 62
7
  6
CONTINUOUS
 70
0
 71
3
 72
57
 73
53
 74
0
 42
0.0000001
 43
0.0000001
 44
0.0000000001
 40
0.0
 40
0.0
 40
0.0
 40
0.0
 40
0.0311433801
 40
0.0461618129
 40
0.0608071389
 40
0.0750813781
 40
0.0889898047
 40
0.1157373802
 40
0.1286150405
 40
0.1411839896
 40
0.1534682821
 40
0.1654960339
 40
0.1772992398
 40
0.1889135663
 40
0.2003779799
 40
0.2117341681
 40
0.2230258843
 40
0.2342981453
 40
0.2455963513
 40
0.2569653867
 40
0.2684487536
 40
0.2800878044
 40
0.2919210429
 40
0.3039836338
 40
0.3163070522
 40
0.3289188004
 40
0.3418423735
 40
0.3550972655
 40
0.3686989923
 40
0.3826593266
 40
0.3969864497
 40
0.4116851115
 40
0.4267569445
 40
0.442200621
 40
0.4580120552
 40
0.4741846941
 40
0.4907096364
 40
0.5075758405
 40
0.5247703592
 40
0.5422784233
 40
0.5781640052
 40
0.6150892452
 40
0.6528869479
 40
0.691374678
 40
0.7303585031
 40
0.7696364847
 40
0.8090020236
 40
0.8482471502
 40
0.8871657827
 40
0.925557073
 40
0.9632282786
 40
1.0
 40
1.0
 40
1.0
 40
1.0
 10
15.2488924575
 20
12.1401996921
 30
0.0
 10
15.2456199616
 20
12.1394300702
 30
0.0
 10
15.2408087537
 20
12.1381053143
 30
0.0
 10
15.2346044201
 20
12.1359579874
 30
0.0
 10
15.2301946066
 20
12.1342073406
 30
0.0
 10
15.2259809491
 20
12.1323004737
 30
0.0
 10
15.2207051471
 20
12.1295906026
 30
0.0
 10
15.2157719664
 20
12.1265542661
 30
0.0
 10
15.211249244
 20
12.1231898492
 30
0.0
 10
15.2081331122
 20
12.120563007
 30
0.0
 10
15.2052569969
 20
12.1178062695
 30
0.0
 10
15.2026265418
 20
12.1149249007
 30
0.0
 10
15.2002471603
 20
12.1119245095
 30
0.0
 10
15.1981237554
 20
12.1088109659
 30
0.0
 10
15.1962606984
 20
12.1055904618
 30
0.0
 10
15.194661905
 20
12.102269418
 30
0.0
 10
15.1933307147
 20
12.0988545411
 30
0.0
 10
15.1922698503
 20
12.0953527813
 30
0.0
 10
15.1914815143
 20
12.0917712671
 30
0.0
 10
15.1909672409
 20
12.0881173129
 30
0.0
 10
15.1907279437
 20
12.084398351
 30
0.0
 10
15.190764011
 20
12.0806219009
 30
0.0
 10
15.1910751707
 20
12.0767955496
 30
0.0
 10
15.1916606099
 20
12.0729269182
 30
0.0
 10
15.1925190279
 20
12.0690236703
 30
0.0
 10
15.1936485179
 20
12.0650934761
 30
0.0
 10
15.1950467047
 20
12.0611440273
 30
0.0
 10
15.1967107381
 20
12.0571830439
 30
0.0
 10
15.1986372031
 20
12.0532182239
 30
0.0
 10
15.2008222478
 20
12.0492572858
 30
0.0
 10
15.2032615372
 20
12.0453079467
 30
0.0
 10
15.2059502064
 20
12.0413778713
 30
0.0
 10
15.2088829678
 20
12.0374747248
 30
0.0
 10
15.212054051
 20
12.0336061205
 30
0.0
 10
15.2154571974
 20
12.0297795842
 30
0.0
 10
15.2190857429
 20
12.026002607
 30
0.0
 10
15.2229325627
 20
12.0222825656
 30
0.0
 10
15.2269900819
 20
12.0186267297
 30
0.0
 10
15.231250396
 20
12.0150422346
 30
0.0
 10
15.2372388709
 20
12.0103290213
 30
0.0
 10
15.2451840304
 20
12.0046670704
 30
0.0
 10
15.2553053647
 20
11.9983215077
 30
0.0
 10
15.2660128526
 20
11.9924186826
 30
0.0
 10
15.277222545
 20
11.987004836
 30
0.0
 10
15.288846908
 20
11.9821222146
 30
0.0
 10
15.3007950178
 20
11.9778090305
 30
0.0
 10
15.3129734047
 20
11.9740990149
 30
0.0
 10
15.3252867963
 20
11.9710211849
 30
0.0
 10
15.3376388334
 20
11.968599624
 30
0.0
 10
15.3499330544
 20
11.9668532955
 30
0.0
 10
15.3620728414
 20
11.965795807
 30
0.0
 10
15.370110307
 20
11.9655522986
 30
0.0
 10
15.3740796366
 20
11.9655522986
 30
0.0
  0
SPLINE
  5
31A
100
AcDbEntity
  8
LAYER_FEATURE
100
AcDbSpline
 62
7
  6
CONTINUOUS
 70
0
 71
3
 72
53
 73
49
 74
0
 42
0.0000001
 43
0.0000001
 44
0.0000000001
 40
0.0
 40
0.0
 40
0.0
 40
0.0
 40
0.0357016641
 40
0.0730196633
 40
0.1117596188
 40
0.1517098404
 40
0.192645038
 40
0.2343291261
 40
0.2765181156
 40
0.3189627746
 40
0.3614112525
 40
0.4036116591
 40
0.4453146466
 40
0.4862760233
 40
0.526259439
 40
0.5650391923
 40
0.602403233
 40
0.6381564625
 40
0.6721244918
 40
0.6883928606
 40
0.7041613779
 40
0.7194162283
 40
0.7341459692
 40
0.7483417485
 40
0.7619976467
 40
0.7751110255
 40
0.7876829393
 40
0.7997186507
 40
0.8112281395
 40
0.8222268044
 40
0.8327360688
 40
0.8427842151
 40
0.8524069761
 40
0.8616482621
 40
0.8705603811
 40
0.8792041091
 40
0.8876479122
 40
0.8959666842
 40
0.9042395653
 40
0.9125473473
 40
0.9209695786
 40
0.9295818352
 40
0.938453609
 40
0.9571982854
 40
0.9671861122
 40
0.9776306947
 40
0.9885611808
 40
1.0
 40
1.0
 40
1.0
 40
1.0
 10
15.9236445895
 20
12.2178853433
 30
0.0
 10
15.9231906013
 20
12.216416237
 30
0.0
 10
15.9223363278
 20
12.2133881787
 30
0.0
 10
15.921233462
 20
12.2087014378
 30
0.0
 10
15.9202863343
 20
12.2037942922
 30
0.0
 10
15.9195016475
 20
12.1987010256
 30
0.0
 10
15.918884912
 20
12.1934570783
 30
0.0
 10
15.9184404765
 20
12.1880990259
 30
0.0
 10
15.9181714712
 20
12.1826642494
 30
0.0
 10
15.9180797926
 20
12.1771906831
 30
0.0
 10
15.9181660866
 20
12.1717165375
 30
0.0
 10
15.9184297452
 20
12.1662800281
 30
0.0
 10
15.9188689101
 20
12.1609191004
 30
0.0
 10
15.9194804865
 20
12.1556711596
 30
0.0
 10
15.9202601665
 20
12.1505727967
 30
0.0
 10
15.9212024611
 20
12.1456595381
 30
0.0
 10
15.9223007465
 20
12.140965529
 30
0.0
 10
15.9235473092
 20
12.1365234742
 30
0.0
 10
15.9247186969
 20
12.1330081892
 30
0.0
 10
15.925726982
 20
12.1303498605
 30
0.0
 10
15.9265036451
 20
12.1284665872
 30
0.0
 10
15.9273102714
 20
12.1266683221
 30
0.0
 10
15.9281454666
 20
12.1249581809
 30
0.0
 10
15.9290077859
 20
12.1233391365
 30
0.0
 10
15.9298957384
 20
12.1218139939
 30
0.0
 10
15.9308078011
 20
12.120385395
 30
0.0
 10
15.931742418
 20
12.1190558111
 30
0.0
 10
15.9326980048
 20
12.1178275413
 30
0.0
 10
15.9336729629
 20
12.1167027169
 30
0.0
 10
15.9346656682
 20
12.1156832931
 30
0.0
 10
15.9356744989
 20
12.1147710733
 30
0.0
 10
15.9366978031
 20
12.1139676897
 30
0.0
 10
15.9377339319
 20
12.113274653
 30
0.0
 10
15.9387811792
 20
12.1126933095
 30
0.0
 10
15.9398378048
 20
12.1122249115
 30
0.0
 10
15.9409019527
 20
12.1118705184
 30
0.0
 10
15.9419716695
 20
12.1116310657
 30
0.0
 10
15.9430448539
 20
12.1115071855
 30
0.0
 10
15.9441193116
 20
12.1114992839
 30
0.0
 10
15.9451928061
 20
12.1116073452
 30
0.0
 10
15.946263106
 20
12.11183108
 30
0.0
 10
15.9473281828
 20
12.1121698598
 30
0.0
 10
15.9487644226
 20
12.1127847925
 30
0.0
 10
15.9501592042
 20
12.113625776
 30
0.0
 10
15.9514973349
 20
12.1146550008
 30
0.0
 10
15.952508365
 20
12.1155525641
 30
0.0
 10
15.9535033159
 20
12.1165574129
 30
0.0
 10
15.9541402465
 20
12.1172810744
 30
0.0
 10
15.9544559441
 20
12.1176592983
 30
0.0
  0
SPLINE
  5
31B
100
AcDbEntity
  8
LAYER_FEATURE
100
AcDbSpline
 62
7
  6
CONTINUOUS
 70
0
 71
3
 72
24
 73
20
 74
0
 42
0.0000001
 43
0.0000001
 44
0.0000000001
 40
0.0
 40
0.0
 40
0.0
 40
0.0
 40
0.0472210881
 40
0.0975501317
 40
0.1239293558
 40
0.1511121973
 40
0.2078207687
 40
0.2675140005
 40
0.3299062975
 40
0.3946276292
 40
0.461241868
 40
0.529263013
 40
0.5981699311
 40
0.6674201337
 40
0.7364630038
 40
0.804752824
 40
0.8717619238
 40
0.936994285
 40
1.0
 40
1.0
 40
1.0
 40
1.0
 10
16.4457609631
 20
12.626158455
 30
0.0
 10
16.4456147843
 20
12.6265526812
 30
0.0
 10
16.4452526094
 20
12.6273455448
 30
0.0
 10
16.4446708323
 20
12.6282861252
 30
0.0
 10
16.4441215695
 20
12.62903089
 30
0.0
 10
16.4434982051
 20
12.6297899809
 30
0.0
 10
16.4426141101
 20
12.6307163092
 30
0.0
 10
16.4414169792
 20
12.6317684094
 30
0.0
 10
16.4400827749
 20
12.6327644022
 30
0.0
 10
16.4386271726
 20
12.6336926562
 30
0.0
 10
16.4370671768
 20
12.6345423698
 30
0.0
 10
16.435421078
 20
12.6353035903
 30
0.0
 10
16.4337081915
 20
12.6359673898
 30
0.0
 10
16.4319486361
 20
12.6365259718
 30
0.0
 10
16.4301630808
 20
12.6369727737
 30
0.0
 10
16.4283725104
 20
12.6373025478
 30
0.0
 10
16.426597901
 20
12.6375114194
 30
0.0
 10
16.4248602005
 20
12.6375969392
 30
0.0
 10
16.4237173914
 20
12.637570505
 30
0.0
 10
16.4231575029
 20
12.6375351928
 30
0.0
  0
SPLINE
  5
31C
100
AcDbEntity
  8
LAYER_FEATURE
100
AcDbSpline
 62
7
  6
CONTINUOUS
 70
0
 71
3
 72
23
 73
19
 74
0
 42
0.0000001
 43
0.0000001
 44
0.0000000001
 40
0.0
 40
0.0
 40
0.0
 40
0.0
 40
0.0519054302
 40
0.1069359158
 40
0.1649378993
 40
0.2256498332
 40
0.2887235035
 40
0.3537425049
 40
0.4202385128
 40
0.4877059855
 40
0.5556158302
 40
0.6234284559
 40
0.6906065672
 40
0.7566280132
 40
0.8209990182
 40
0.8832681652
 40
0.9430415965
 40
1.0
 40
1.0
 40
1.0
 40
1.0
 10
16.3840862218
 20
12.7455600777
 30
0.0
 10
16.3838259517
 20
12.7459527811
 30
0.0
 10
16.3832421893
 20
12.7467309846
 30
0.0
 10
16.3822272302
 20
12.7478342731
 30
0.0
 10
16.3810586358
 20
12.7488960938
 30
0.0
 10
16.3797501967
 20
12.7499040311
 30
0.0
 10
16.3783171471
 20
12.7508464805
 30
0.0
 10
16.3767762602
 20
12.7517124426
 30
0.0
 10
16.3751455862
 20
12.7524917927
 30
0.0
 10
16.3734442583
 20
12.7531753897
 30
0.0
 10
16.3716922556
 20
12.753755207
 30
0.0
 10
16.369910161
 20
12.7542244325
 30
0.0
 10
16.3681189101
 20
12.7545775543
 30
0.0
 10
16.3663395276
 20
12.7548104247
 30
0.0
 10
16.3645928925
 20
12.75492031
 30
0.0
 10
16.3628993883
 20
12.7549058924
 30
0.0
 10
16.3612789721
 20
12.7547673344
 30
0.0
 10
16.3602329539
 20
12.7545885711
 30
0.0
 10
16.3597281002
 20
12.7544772275
 30
0.0
  0
SPLINE
  5
31D
100
AcDbEntity
  8
02___PRT_ALL_AXES
100
AcDbSpline
 62
7
  6
CONTINUOUS
 70
0
 71
3
 72
56
 73
52
 74
0
 42
0.0000001
 43
0.0000001
 44
0.0000000001
 40
0.0
 40
0.0
 40
0.0
 40
0.0
 40
0.0345293594
 40
0.0697081243
 40
0.1054492282
 40
0.1416605154
 40
0.178245682
 40
0.2151052093
 40
0.2521372622
 40
0.2892385658
 40
0.3263052719
 40
0.3632338183
 40
0.3999217925
 40
0.4362688035
 40
0.4721773722
 40
0.5075538496
 40
0.5423093679
 40
0.5594290568
 40
0.5763628918
 40
0.5931015683
 40
0.6096362803
 40
0.6259587572
 40
0.6420613037
 40
0.6579368405
 40
0.6735789466
 40
0.6889819042
 40
0.7041407447
 40
0.7190512976
 40
0.7337102414
 40
0.7481151567
 40
0.7622645806
 40
0.776158063
 40
0.7897962249
 40
0.8031808162
 40
0.8163147754
 40
0.8292022868
 40
0.8418488355
 40
0.8542612585
 40
0.8664477897
 40
0.8784180958
 40
0.8901833018
 40
0.9017560003
 40
0.9131502437
 40
0.9243815142
 40
0.9354666697
 40
0.9464238626
 40
0.9572724292
 40
0.96803275
 40
0.9787260816
 40
0.9893743628
 40
1.0
 40
1.0
 40
1.0
 40
1.0
 10
15.1395787016
 20
12.4434149617
 30
0.0
 10
15.1520924966
 20
12.4434149617
 30
0.0
 10
15.1773584442
 20
12.4428594665
 30
0.0
 10
15.2155067389
 20
12.440423006
 30
0.0
 10
15.2541320829
 20
12.4363850616
 30
0.0
 10
15.2930731851
 20
12.430762422
 30
0.0
 10
15.3321686369
 20
12.4235784456
 30
0.0
 10
15.3712560049
 20
12.4148629705
 30
0.0
 10
15.4101729522
 20
12.4046521964
 30
0.0
 10
15.4487578086
 20
12.3929885425
 30
0.0
 10
15.4868502832
 20
12.3799204613
 30
0.0
 10
15.5242921288
 20
12.3655022406
 30
0.0
 10
15.5609278278
 20
12.3497937692
 30
0.0
 10
15.5966051893
 20
12.3328603032
 30
0.0
 10
15.6311761875
 20
12.3147720764
 30
0.0
 10
15.6644968659
 20
12.2956044119
 30
0.0
 10
15.6912407288
 20
12.2787136477
 30
0.0
 10
15.7118844355
 20
12.264721546
 30
0.0
 10
15.7268929265
 20
12.2540611857
 30
0.0
 10
15.741488486
 20
12.2431935139
 30
0.0
 10
15.7556560001
 20
12.2321297672
 30
0.0
 10
15.7693807092
 20
12.2208814647
 30
0.0
 10
15.782648339
 20
12.2094602936
 30
0.0
 10
15.795445085
 20
12.1978781242
 30
0.0
 10
15.8077576344
 20
12.1861469894
 30
0.0
 10
15.8195731766
 20
12.1742790738
 30
0.0
 10
15.8308794173
 20
12.1622867003
 30
0.0
 10
15.8416645898
 20
12.1501823167
 30
0.0
 10
15.8519174671
 20
12.1379784828
 30
0.0
 10
15.8616273737
 20
12.1256878577
 30
0.0
 10
15.8707841939
 20
12.1133231855
 30
0.0
 10
15.8793783817
 20
12.1008972826
 30
0.0
 10
15.8874009692
 20
12.0884230246
 30
0.0
 10
15.8948435737
 20
12.0759133332
 30
0.0
 10
15.9016984058
 20
12.0633811643
 30
0.0
 10
15.907958276
 20
12.050839496
 30
0.0
 10
15.9136165999
 20
12.0383013166
 30
0.0
 10
15.9186674027
 20
12.025779614
 30
0.0
 10
15.9231053252
 20
12.0132873656
 30
0.0
 10
15.9269256281
 20
12.0008375285
 30
0.0
 10
15.9301241985
 20
11.9884430311
 30
0.0
 10
15.9326975563
 20
11.9761167646
 30
0.0
 10
15.9346428594
 20
11.9638715741
 30
0.0
 10
15.9359579119
 20
11.9517202509
 30
0.0
 10
15.9366411722
 20
11.9396755213
 30
0.0
 10
15.9366917639
 20
11.9277500401
 30
0.0
 10
15.9361094824
 20
11.9159563624
 30
0.0
 10
15.9348948214
 20
11.9043069824
 30
0.0
 10
15.9330489175
 20
11.8928141139
 30
0.0
 10
15.9305737877
 20
11.8814904139
 30
0.0
 10
15.9285048459
 20
11.8740582975
 30
0.0
 10
15.9273678959
 20
11.8703791243
 30
0.0
  0
SPLINE
  5
31E
100
AcDbEntity
  8
LAYER_FEATURE
100
AcDbSpline
 62
7
  6
CONTINUOUS
 70
0
 71
3
 72
23
 73
19
 74
0
 42
0.0000001
 43
0.0000001
 44
0.0000000001
 40
0.0
 40
0.0
 40
0.0
 40
0.0
 40
0.0574885601
 40
0.1177484919
 40
0.1804467664
 40
0.2451786618
 40
0.311484431
 40
0.3788642811
 40
0.4467922184
 40
0.5147292046
 40
0.5821359884
 40
0.6484859299
 40
0.7132781413
 40
0.7760513021
 40
0.8363985926
 40
0.8939842943
 40
0.9485627061
 40
1.0
 40
1.0
 40
1.0
 40
1.0
 10
16.2892799304
 20
12.8622617851
 30
0.0
 10
16.2889172418
 20
12.8626362564
 30
0.0
 10
16.2881380262
 20
12.8633686538
 30
0.0
 10
16.2868559944
 20
12.8643880377
 30
0.0
 10
16.2854461306
 20
12.8653442712
 30
0.0
 10
16.2839250546
 20
12.8662260865
 30
0.0
 10
16.2823105438
 20
12.8670232138
 30
0.0
 10
16.2806215471
 20
12.8677262979
 30
0.0
 10
16.2788778933
 20
12.8683270873
 30
0.0
 10
16.2771000671
 20
12.8688185231
 30
0.0
 10
16.2753089542
 20
12.8691948324
 30
0.0
 10
16.273525585
 20
12.8694515956
 30
0.0
 10
16.2717708777
 20
12.8695857968
 30
0.0
 10
16.2700653689
 20
12.8695958458
 30
0.0
 10
16.2684289942
 20
12.8694815942
 30
0.0
 10
16.2668807182
 20
12.8692442508
 30
0.0
 10
16.2654387454
 20
12.8688865067
 30
0.0
 10
16.2645319648
 20
12.8685603622
 30
0.0
 10
16.2641032165
 20
12.8683766659
 30
0.0
  0
SPLINE
  5
31F
100
AcDbEntity
  8
LAYER_CHAMFER_FEAT
100
AcDbSpline
 62
7
  6
CONTINUOUS
 70
0
 71
3
 72
41
 73
37
 74
0
 42
0.0000001
 43
0.0000001
 44
0.0000000001
 40
0.0
 40
0.0
 40
0.0
 40
0.0
 40
0.0357356785
 40
0.0703750841
 40
0.1039087812
 40
0.1363418685
 40
0.167695425
 40
0.182981085
 40
0.1980128794
 40
0.2273415242
 40
0.255763219
 40
0.2833751139
 40
0.3102943717
 40
0.3366569491
 40
0.3626151738
 40
0.3883340487
 40
0.4139864155
 40
0.4397473383
 40
0.4657882609
 40
0.492271538
 40
0.5193458485
 40
0.5471428013
 40
0.5757748118
 40
0.5904363197
 40
0.6053394683
 40
0.6358981836
 40
0.6675088717
 40
0.7002057065
 40
0.7340057915
 40
0.7689105996
 40
0.8049074071
 40
0.8419706162
 40
0.8800634073
 40
0.9191378053
 40
0.9591389593
 40
1.0
 40
1.0
 40
1.0
 40
1.0
 10
15.445505442
 20
12.0794416878
 30
0.0
 10
15.4469948945
 20
12.0778117358
 30
0.0
 10
15.4498490483
 20
12.0745282933
 30
0.0
 10
15.4537975195
 20
12.0694618997
 30
0.0
 10
15.4573348441
 20
12.0643459319
 30
0.0
 10
15.4604489161
 20
12.0591975183
 30
0.0
 10
15.4627014955
 20
12.0548575781
 30
0.0
 10
15.4642761868
 20
12.051386917
 30
0.0
 10
15.465676954
 20
12.047977457
 30
0.0
 10
15.4671538593
 20
12.0437248618
 30
0.0
 10
15.4684834942
 20
12.0386149337
 30
0.0
 10
15.4693509294
 20
12.0335568829
 30
0.0
 10
15.4697525078
 20
12.0285678593
 30
0.0
 10
15.4696861914
 20
12.0236648492
 30
0.0
 10
15.4691515988
 20
12.0188648732
 30
0.0
 10
15.4681501513
 20
12.0141848188
 30
0.0
 10
15.4666851651
 20
12.0096412849
 30
0.0
 10
15.4647618693
 20
12.0052503648
 30
0.0
 10
15.4623873183
 20
12.0010274441
 30
0.0
 10
15.4595702637
 20
11.9969870626
 30
0.0
 10
15.4563209246
 20
11.9931428001
 30
0.0
 10
15.4526510507
 20
11.9895074445
 30
0.0
 10
15.4492795035
 20
11.9866840491
 30
0.0
 10
15.4463920831
 20
11.9845398538
 30
0.0
 10
15.4433270444
 20
11.9824395261
 30
0.0
 10
15.439251549
 20
11.9799677698
 30
0.0
 10
15.4340392881
 20
11.97727742
 30
0.0
 10
15.4284819814
 20
11.9748466525
 30
0.0
 10
15.4225982888
 20
11.9726833792
 30
0.0
 10
15.4164076733
 20
11.9707945262
 30
0.0
 10
15.4099306747
 20
11.9691862086
 30
0.0
 10
15.4031887492
 20
11.9678636247
 30
0.0
 10
15.3962042919
 20
11.9668311046
 30
0.0
 10
15.3890003719
 20
11.9660919624
 30
0.0
 10
15.3816011267
 20
11.9656486859
 30
0.0
 10
15.3766043039
 20
11.9655522986
 30
0.0
 10
15.3740796366
 20
11.9655522986
 30
0.0
  0
SPLINE
  5
320
100
AcDbEntity
  8
LAYER_FEATURE
100
AcDbSpline
 62
7
  6
CONTINUOUS
 70
0
 71
3
 72
23
 73
19
 74
0
 42
0.0000001
 43
0.0000001
 44
0.0000000001
 40
0.0
 40
0.0
 40
0.0
 40
0.0
 40
0.0635803593
 40
0.1293240133
 40
0.1967711736
 40
0.2654182505
 40
0.3347321824
 40
0.4041639808
 40
0.4731618741
 40
0.5411843834
 40
0.6077136528
 40
0.6722693926
 40
0.734423867
 40
0.7938184648
 40
0.8501825016
 40
0.877181895
 40
0.9033737046
 40
1.0
 40
1.0
 40
1.0
 40
1.0
 10
16.1649854417
 20
12.9717787959
 30
0.0
 10
16.1645359653
 20
12.9721202865
 30
0.0
 10
16.1635941008
 20
12.9727791539
 30
0.0
 10
16.1620935829
 20
12.9736763837
 30
0.0
 10
16.1604959511
 20
12.9744909381
 30
0.0
 10
16.1588200567
 20
12.975213187
 30
0.0
 10
16.1570855423
 20
12.9758346765
 30
0.0
 10
16.1553127922
 20
12.9763480993
 30
0.0
 10
16.1535226306
 20
12.9767474254
 30
0.0
 10
16.1517360815
 20
12.9770279645
 30
0.0
 10
16.1499741025
 20
12.9771864216
 30
0.0
 10
16.1482573363
 20
12.9772209269
 30
0.0
 10
16.1466058188
 20
12.9771310447
 30
0.0
 10
16.1450388546
 20
12.9769177394
 30
0.0
 10
16.14380126
 20
12.9766351619
 30
0.0
 10
16.1428716039
 20
12.9763470693
 30
0.0
 10
16.1416242524
 20
12.9758867692
 30
0.0
 10
16.1406458659
 20
12.9753685994
 30
0.0
 10
16.1399576624
 20
12.9748564162
 30
0.0
  0
SPLINE
  5
321
100
AcDbEntity
  8
LAYER_FEATURE
100
AcDbSpline
 62
7
  6
CONTINUOUS
 70
0
 71
3
 72
23
 73
19
 74
0
 42
0.0000001
 43
0.0000001
 44
0.0000000001
 40
0.0
 40
0.0
 40
0.0
 40
0.0
 40
0.0698153436
 40
0.1409839779
 40
0.2129565812
 40
0.2851645499
 40
0.3570337175
 40
0.4279979368
 40
0.4975128596
 40
0.5650702756
 40
0.6302134406
 40
0.6925539314
 40
0.7517906818
 40
0.8077318982
 40
0.8603203357
 40
0.9096614859
 40
0.9560518647
 40
1.0
 40
1.0
 40
1.0
 40
1.0
 10
16.0159793231
 20
13.0699024329
 30
0.0
 10
16.0154616463
 20
13.0701981528
 30
0.0
 10
16.0143953327
 20
13.0707593827
 30
0.0
 10
16.0127333529
 20
13.0715004416
 30
0.0
 10
16.0110087515
 20
13.0721423563
 30
0.0
 10
16.0092418862
 20
13.0726775309
 30
0.0
 10
16.0074534879
 20
13.0730996932
 30
0.0
 10
16.0056645686
 20
13.0734038805
 30
0.0
 10
16.0038961188
 20
13.0735865216
 30
0.0
 10
16.0021688593
 20
13.0736454653
 30
0.0
 10
16.0005029813
 20
13.0735799939
 30
0.0
 10
15.9989178959
 20
13.0733908039
 30
0.0
 10
15.9974320042
 20
13.0730799608
 30
0.0
 10
15.9960624852
 20
13.0726507919
 30
0.0
 10
15.994825199
 20
13.0721078217
 30
0.0
 10
15.9937345193
 20
13.0714564354
 30
0.0
 10
15.9928039171
 20
13.0707035334
 30
0.0
 10
15.9922864366
 20
13.0701255212
 30
0.0
 10
15.9920622819
 20
13.0698245216
 30
0.0
  0
SPLINE
  5
322
100
AcDbEntity
  8
LAYER_FEATURE
100
AcDbSpline
 62
7
  6
CONTINUOUS
 70
0
 71
3
 72
25
 73
21
 74
0
 42
0.0000001
 43
0.0000001
 44
0.0000000001
 40
0.0
 40
0.0
 40
0.0
 40
0.0
 40
0.0757462199
 40
0.1518592362
 40
0.2277338462
 40
0.3027704813
 40
0.3763896628
 40
0.4480469681
 40
0.5172489419
 40
0.5835704961
 40
0.6466744644
 40
0.7063340535
 40
0.7624587807
 40
0.8151237095
 40
0.8645996746
 40
0.9113778396
 40
0.9339922456
 40
0.9562208895
 40
0.9781840752
 40
1.0
 40
1.0
 40
1.0
 40
1.0
 10
15.8479877961
 20
13.1528618597
 30
0.0
 10
15.847422723
 20
13.1531011219
 30
0.0
 10
15.8462742182
 20
13.153544768
 30
0.0
 10
15.8445140888
 20
13.1541014323
 30
0.0
 10
15.8427282527
 20
13.1545462441
 30
0.0
 10
15.8409377784
 20
13.1548739402
 30
0.0
 10
15.8391636568
 20
13.1550806826
 30
0.0
 10
15.8374266886
 20
13.1551640367
 30
0.0
 10
15.8357471875
 20
13.1551230041
 30
0.0
 10
15.8341447374
 20
13.1549580062
 30
0.0
 10
15.8326379545
 20
13.154670845
 30
0.0
 10
15.8312442733
 20
13.1542646099
 30
0.0
 10
15.8299798133
 20
13.1537435965
 30
0.0
 10
15.8288592566
 20
13.1531130453
 30
0.0
 10
15.8278961662
 20
13.1523794978
 30
0.0
 10
15.8272272248
 20
13.1516800107
 30
0.0
 10
15.826788539
 20
13.151080218
 30
0.0
 10
15.8265092056
 20
13.1506157381
 30
0.0
 10
15.8262770283
 20
13.1501332025
 30
0.0
 10
15.8261538873
 20
13.1497999264
 30
0.0
 10
15.8261006116
 20
13.1496314108
 30
0.0
  0
SPLINE
  5
323
100
AcDbEntity
  8
LAYER_FEATURE
100
AcDbSpline
 62
7
  6
CONTINUOUS
 70
0
 71
3
 72
40
 73
36
 74
0
 42
0.0000001
 43
0.0000001
 44
0.0000000001
 40
0.0
 40
0.0
 40
0.0
 40
0.0
 40
0.039665119
 40
0.0788625779
 40
0.1175689642
 40
0.1557635445
 40
0.1934263296
 40
0.2305392284
 40
0.2670857827
 40
0.3030514013
 40
0.3384234642
 40
0.3731914561
 40
0.4073471071
 40
0.4408845372
 40
0.4738004077
 40
0.5060940775
 40
0.5377677657
 40
0.5688267098
 40
0.5992793256
 40
0.6291373641
 40
0.6584160591
 40
0.6728447437
 40
0.6871359821
 40
0.7153162787
 40
0.7429850724
 40
0.7701726315
 40
0.7969130885
 40
0.8232443842
 40
0.8492081426
 40
0.8748494725
 40
0.9002166865
 40
0.9253609337
 40
0.950335752
 40
0.9751965454
 40
1.0
 40
1.0
 40
1.0
 40
1.0
 10
15.0814950569
 20
12.9600781236
 30
0.0
 10
15.0705849828
 20
12.9600781236
 30
0.0
 10
15.0488926019
 20
12.9598334802
 30
0.0
 10
15.0165711059
 20
12.958718421
 30
0.0
 10
14.9846887756
 20
12.9568585606
 30
0.0
 10
14.9532819257
 20
12.9542560472
 30
0.0
 10
14.9223858347
 20
12.950913756
 30
0.0
 10
14.8920354187
 20
12.946835459
 30
0.0
 10
14.8622648973
 20
12.9420257186
 30
0.0
 10
14.8331078541
 20
12.9364899311
 30
0.0
 10
14.8045971705
 20
12.9302343033
 30
0.0
 10
14.7767649972
 20
12.923265843
 30
0.0
 10
14.7496427184
 20
12.915592351
 30
0.0
 10
14.7232609185
 20
12.9072224098
 30
0.0
 10
14.697649349
 20
12.8981653726
 30
0.0
 10
14.6728368989
 20
12.8884313521
 30
0.0
 10
14.6488515536
 20
12.8780312095
 30
0.0
 10
14.6257204015
 20
12.8669765544
 30
0.0
 10
14.6034694937
 20
12.8552796574
 30
0.0
 10
14.5821242397
 20
12.8429537087
 30
0.0
 10
14.5650285675
 20
12.8321168064
 30
0.0
 10
14.5518372541
 20
12.8231437075
 30
0.0
 10
14.5390915488
 20
12.8140594698
 30
0.0
 10
14.5237569818
 20
12.8023408802
 30
0.0
 10
14.5062648481
 20
12.7876421577
 30
0.0
 10
14.4897884412
 20
12.772389455
 30
0.0
 10
14.4743468573
 20
12.7565999746
 30
0.0
 10
14.4599578117
 20
12.7402913651
 30
0.0
 10
14.4466379474
 20
12.7234819652
 30
0.0
 10
14.4344027198
 20
12.7061907413
 30
0.0
 10
14.4232663708
 20
12.6884372709
 30
0.0
 10
14.413241927
 20
12.6702418239
 30
0.0
 10
14.4043410418
 20
12.651624957
 30
0.0
 10
14.3965744058
 20
12.6326089169
 30
0.0
 10
14.3921564688
 20
12.6196728561
 30
0.0
 10
14.390142204
 20
12.6131546831
 30
0.0
  0
SPLINE
  5
324
100
AcDbEntity
  8
LAYER_FEATURE
100
AcDbSpline
 62
7
  6
CONTINUOUS
 70
0
 71
3
 72
23
 73
19
 74
0
 42
0.0000001
 43
0.0000001
 44
0.0000000001
 40
0.0
 40
0.0
 40
0.0
 40
0.0
 40
0.0781810782
 40
0.1557662009
 40
0.2322688583
 40
0.3072359177
 40
0.3802374296
 40
0.4508878092
 40
0.5188532138
 40
0.5838658352
 40
0.6457381047
 40
0.7043794514
 40
0.759814938
 40
0.8122049063
 40
0.861863084
 40
0.9092675075
 40
0.9550569065
 40
1.0
 40
1.0
 40
1.0
 40
1.0
 10
15.6674666811
 20
13.2174689922
 30
0.0
 10
15.6669415489
 20
13.2176242241
 30
0.0
 10
15.6658864993
 20
13.2179046439
 30
0.0
 10
15.6642925652
 20
13.2182343458
 30
0.0
 10
15.6627046086
 20
13.2184693564
 30
0.0
 10
15.661137495
 20
13.2186074984
 30
0.0
 10
15.6596057344
 20
13.2186474659
 30
0.0
 10
15.6581235461
 20
13.2185888817
 30
0.0
 10
15.656704636
 20
13.2184322456
 30
0.0
 10
15.655362097
 20
13.2181789361
 30
0.0
 10
15.6541082828
 20
13.2178311584
 30
0.0
 10
15.6529547167
 20
13.217391891
 30
0.0
 10
15.6519120374
 20
13.2168648234
 30
0.0
 10
15.6509899932
 20
13.2162542886
 30
0.0
 10
15.6501975212
 20
13.2155653129
 30
0.0
 10
15.6495427408
 20
13.2148036018
 30
0.0
 10
15.6490331012
 20
13.2139763723
 30
0.0
 10
15.6487931346
 20
13.2133840459
 30
0.0
 10
15.6487001948
 20
13.2130832885
 30
0.0
  0
SPLINE
  5
325
100
AcDbEntity
  8
LAYER_FEATURE
100
AcDbSpline
 62
7
  6
CONTINUOUS
 70
0
 71
3
 72
44
 73
40
 74
0
 42
0.0000001
 43
0.0000001
 44
0.0000000001
 40
0.0
 40
0.0
 40
0.0
 40
0.0
 40
0.0109496786
 40
0.0219551047
 40
0.0330588719
 40
0.0443047909
 40
0.0557337104
 40
0.0673824091
 40
0.0792839975
 40
0.0914676705
 40
0.1167651862
 40
0.1434364387
 40
0.1715662286
 40
0.201182179
 40
0.2322622594
 40
0.2647421228
 40
0.2985218169
 40
0.333471742
 40
0.3694379219
 40
0.4062467126
 40
0.4437090805
 40
0.4816245642
 40
0.5197850182
 40
0.5579782186
 40
0.5959914027
 40
0.6336147947
 40
0.6706451823
 40
0.706889609
 40
0.7421692602
 40
0.7763236325
 40
0.809215098
 40
0.8407339963
 40
0.8708043679
 40
0.8993904218
 40
0.9265037122
 40
0.9522106861
 40
0.9766397047
 40
0.9884401627
 40
1.0
 40
1.0
 40
1.0
 40
1.0
 10
15.5347695894
 20
13.2393015195
 30
0.0
 10
15.5346245501
 20
13.238808982
 30
0.0
 10
15.5343730337
 20
13.2378093437
 30
0.0
 10
15.5341146864
 20
13.2362792913
 30
0.0
 10
15.5339753763
 20
13.2347198414
 30
0.0
 10
15.5339553246
 20
13.233134539
 30
0.0
 10
15.5340544721
 20
13.2315266722
 30
0.0
 10
15.5342725529
 20
13.22989965
 30
0.0
 10
15.5346090144
 20
13.2282568274
 30
0.0
 10
15.5352220069
 20
13.2260223382
 30
0.0
 10
15.5362923434
 20
13.223202515
 30
0.0
 10
15.5380150908
 20
13.2198572487
 30
0.0
 10
15.5401769658
 20
13.2165339515
 30
0.0
 10
15.5427595157
 20
13.2132594566
 30
0.0
 10
15.5457413178
 20
13.2100597966
 30
0.0
 10
15.5490977999
 20
13.206960789
 30
0.0
 10
15.5528013875
 20
13.2039875662
 30
0.0
 10
15.5568216529
 20
13.2011643887
 30
0.0
 10
15.5611255398
 20
13.1985143834
 30
0.0
 10
15.5656776219
 20
13.1960593231
 30
0.0
 10
15.5704403937
 20
13.1938194196
 30
0.0
 10
15.5753745839
 20
13.1918131378
 30
0.0
 10
15.5804394859
 20
13.1900570299
 30
0.0
 10
15.5855933018
 20
13.1885655877
 30
0.0
 10
15.5907934988
 20
13.1873511184
 30
0.0
 10
15.5959971705
 20
13.1864236418
 30
0.0
 10
15.6011614037
 20
13.1857908095
 30
0.0
 10
15.6062436446
 20
13.1854578467
 30
0.0
 10
15.6112020643
 20
13.1854275212
 30
0.0
 10
15.6159959169
 20
13.1857001394
 30
0.0
 10
15.6205858887
 20
13.1862735772
 30
0.0
 10
15.6249344213
 20
13.1871433372
 30
0.0
 10
15.6290060197
 20
13.1883026697
 30
0.0
 10
15.632767438
 20
13.189742658
 30
0.0
 10
15.6361880017
 20
13.1914525789
 30
0.0
 10
15.6392390335
 20
13.1934193459
 30
0.0
 10
15.6414783874
 20
13.1952825756
 30
0.0
 10
15.6430478591
 20
13.1968841317
 30
0.0
 10
15.6437587828
 20
13.1977189881
 30
0.0
 10
15.6440948507
 20
13.1981442968
 30
0.0
  0
SPLINE
  5
326
100
AcDbEntity
  8
LAYER_FEATURE
100
AcDbSpline
 62
7
  6
CONTINUOUS
 70
0
 71
3
 72
25
 73
21
 74
0
 42
0.0000001
 43
0.0000001
 44
0.0000000001
 40
0.0
 40
0.0
 40
0.0
 40
0.0
 40
0.0217967231
 40
0.0437498789
 40
0.0659770953
 40
0.0885978675
 40
0.1354084363
 40
0.184935353
 40
0.2376610332
 40
0.2938484721
 40
0.3535661636
 40
0.4167183363
 40
0.4830740595
 40
0.5522930211
 40
0.6239478367
 40
0.6975434916
 40
0.7725346565
 40
0.8483415378
 40
0.9243648012
 40
1.0
 40
1.0
 40
1.0
 40
1.0
 10
15.5347695894
 20
13.2393015195
 30
0.0
 10
15.5348195273
 20
13.2394711028
 30
0.0
 10
15.5349035563
 20
13.2398164949
 30
0.0
 10
15.5349805613
 20
13.2403467825
 30
0.0
 10
15.5350084357
 20
13.240888646
 30
0.0
 10
15.5349798465
 20
13.2416323454
 30
0.0
 10
15.5348161724
 20
13.2425881023
 30
0.0
 10
15.5344279498
 20
13.2437374618
 30
0.0
 10
15.5338518492
 20
13.244890157
 30
0.0
 10
15.5330954371
 20
13.2460331397
 30
0.0
 10
15.532167939
 20
13.2471538014
 30
0.0
 10
15.5310803048
 20
13.2482395065
 30
0.0
 10
15.5298452488
 20
13.2492778793
 30
0.0
 10
15.5284771846
 20
13.2502569475
 30
0.0
 10
15.5269920978
 20
13.251165339
 30
0.0
 10
15.5254073708
 20
13.2519924481
 30
0.0
 10
15.5237415907
 20
13.2527285851
 30
0.0
 10
15.522014285
 20
13.2533651165
 30
0.0
 10
15.5202458409
 20
13.2538945452
 30
0.0
 10
15.5190468568
 20
13.2541734421
 30
0.0
 10
15.5184452326
 20
13.2542932736
 30
0.0
  0
SPLINE
  5
327
100
AcDbEntity
  8
LAYER_FEATURE
100
AcDbSpline
 62
7
  6
CONTINUOUS
 70
0
 71
3
 72
22
 73
18
 74
0
 42
0.0000001
 43
0.0000001
 44
0.0000000001
 40
0.0
 40
0.0
 40
0.0
 40
0.0
 40
0.1573711938
 40
0.2337077927
 40
0.308036315
 40
0.3800700637
 40
0.449568106
 40
0.5163382769
 40
0.5802464416
 40
0.6412271879
 40
0.6992949453
 40
0.7545563679
 40
0.807221373
 40
0.8576116356
 40
0.9061629901
 40
0.9534173763
 40
1.0
 40
1.0
 40
1.0
 40
1.0
 10
15.481353303
 20
13.2612410143
 30
0.0
 10
15.4804390071
 20
13.261401411
 30
0.0
 10
15.4790679608
 20
13.2615733866
 30
0.0
 10
15.4772521041
 20
13.2616535293
 30
0.0
 10
15.4759378285
 20
13.2616378101
 30
0.0
 10
15.4746670269
 20
13.2615469503
 30
0.0
 10
15.4734486319
 20
13.2613815737
 30
0.0
 10
15.4722912554
 20
13.2611428113
 30
0.0
 10
15.4712030468
 20
13.2608322733
 30
0.0
 10
15.4701916721
 20
13.2604520311
 30
0.0
 10
15.4692642735
 20
13.2600045796
 30
0.0
 10
15.4684274484
 20
13.2594928357
 30
0.0
 10
15.4676872616
 20
13.2589200994
 30
0.0
 10
15.4670492765
 20
13.2582901153
 30
0.0
 10
15.4665185223
 20
13.257607046
 30
0.0
 10
15.466099518
 20
13.256875977
 30
0.0
 10
15.4658964428
 20
13.2563585189
 30
0.0
 10
15.4658153194
 20
13.2560959984
 30
0.0
  0
SPLINE
  5
328
100
AcDbEntity
  8
LAYER_FEATURE
100
AcDbSpline
 62
7
  6
CONTINUOUS
 70
0
 71
3
 72
38
 73
34
 74
0
 42
0.0000001
 43
0.0000001
 44
0.0000000001
 40
0.0
 40
0.0
 40
0.0
 40
0.0
 40
0.0221832926
 40
0.0451982427
 40
0.0691990475
 40
0.0942998488
 40
0.1205752115
 40
0.1480636194
 40
0.176771053
 40
0.2066749592
 40
0.2377279622
 40
0.2698612952
 40
0.3029878901
 40
0.3370051601
 40
0.3717975174
 40
0.4072386779
 40
0.4431937984
 40
0.4795214878
 40
0.5160757286
 40
0.5527077369
 40
0.5892677866
 40
0.6256070229
 40
0.6615792865
 40
0.6970429709
 40
0.7318629415
 40
0.7659125423
 40
0.799075728
 40
0.8312493609
 40
0.86234572
 40
0.892295272
 40
0.9210497499
 40
0.9485855658
 40
1.0
 40
1.0
 40
1.0
 40
1.0
 10
15.3527762399
 20
13.2665932984
 30
0.0
 10
15.3528198793
 20
13.265665412
 30
0.0
 10
15.3530299658
 20
13.2637788318
 30
0.0
 10
15.3536883188
 20
13.2609509665
 30
0.0
 10
15.3546896426
 20
13.2580961021
 30
0.0
 10
15.356026895
 20
13.2552318101
 30
0.0
 10
15.3576913722
 20
13.2523747626
 30
0.0
 10
15.3596726287
 20
13.2495418007
 30
0.0
 10
15.361958504
 20
13.2467496165
 30
0.0
 10
15.3645351058
 20
13.244014761
 30
0.0
 10
15.3673868487
 20
13.2413535225
 30
0.0
 10
15.3704965099
 20
13.2387818219
 30
0.0
 10
15.3738453117
 20
13.2363150995
 30
0.0
 10
15.3774130235
 20
13.2339682071
 30
0.0
 10
15.3811780781
 20
13.2317553047
 30
0.0
 10
15.3851177002
 20
13.2296897649
 30
0.0
 10
15.3892080449
 20
13.2277840837
 30
0.0
 10
15.3934243435
 20
13.2260497985
 30
0.0
 10
15.3977410562
 20
13.2244974145
 30
0.0
 10
15.4021320297
 20
13.2231363369
 30
0.0
 10
15.4065706588
 20
13.2219748127
 30
0.0
 10
15.4110300512
 20
13.2210198791
 30
0.0
 10
15.4154831947
 20
13.2202773209
 30
0.0
 10
15.4199031241
 20
13.2197516361
 30
0.0
 10
15.4242630905
 20
13.2194460116
 30
0.0
 10
15.4285367251
 20
13.2193623065
 30
0.0
 10
15.432698213
 20
13.2195010511
 30
0.0
 10
15.4367224208
 20
13.2198614387
 30
0.0
 10
15.440585169
 20
13.2204413974
 30
0.0
 10
15.4442629598
 20
13.2212374313
 30
0.0
 10
15.4477345805
 20
13.22224534
 30
0.0
 10
15.451960605
 20
13.2238262095
 30
0.0
 10
15.4549160977
 20
13.2253596933
 30
0.0
 10
15.4567151266
 20
13.2265423521
 30
0.0
  0
SPLINE
  5
329
100
AcDbEntity
  8
LAYER_FEATURE
100
AcDbSpline
 62
7
  6
CONTINUOUS
 70
0
 71
3
 72
23
 73
19
 74
0
 42
0.0000001
 43
0.0000001
 44
0.0000000001
 40
0.0
 40
0.0
 40
0.0
 40
0.0
 40
0.0439836828
 40
0.090429389
 40
0.1398373693
 40
0.192496552
 40
0.2485059724
 40
0.3078031239
 40
0.370192044
 40
0.4353684445
 40
0.5029414925
 40
0.5724527378
 40
0.643392886
 40
0.715217069
 40
0.7873591425
 40
0.8592454409
 40
0.930308345
 40
1.0
 40
1.0
 40
1.0
 40
1.0
 10
15.3527762399
 20
13.2665932984
 30
0.0
 10
15.3527585782
 20
13.2669688324
 30
0.0
 10
15.3526525409
 20
13.2677388532
 30
0.0
 10
15.3523020204
 20
13.268885957
 30
0.0
 10
15.3517622901
 20
13.2700390891
 30
0.0
 10
15.3510406378
 20
13.2711849598
 30
0.0
 10
15.3501459521
 20
13.2723110149
 30
0.0
 10
15.3490888388
 20
13.2734045749
 30
0.0
 10
15.3478816679
 20
13.2744532106
 30
0.0
 10
15.3465385275
 20
13.2754448523
 30
0.0
 10
15.3450751064
 20
13.2763679968
 30
0.0
 10
15.3435085289
 20
13.2772118749
 30
0.0
 10
15.3418571579
 20
13.277966607
 30
0.0
 10
15.3401403718
 20
13.2786233386
 30
0.0
 10
15.3383783431
 20
13.2791743556
 30
0.0
 10
15.3365917419
 20
13.2796131871
 30
0.0
 10
15.3348016683
 20
13.2799346684
 30
0.0
 10
15.3336051293
 20
13.2800699104
 30
0.0
 10
15.3330112513
 20
13.2801163016
 30
0.0
  0
SPLINE
  5
32A
100
AcDbEntity
  8
LAYER_FEATURE
100
AcDbSpline
 62
7
  6
CONTINUOUS
 70
0
 71
3
 72
21
 73
17
 74
0
 42
0.0000001
 43
0.0000001
 44
0.0000000001
 40
0.0
 40
0.0
 40
0.0
 40
0.0
 40
0.1567245953
 40
0.3052307916
 40
0.3759926086
 40
0.444236935
 40
0.5098881456
 40
0.5729185519
 40
0.6333545632
 40
0.6912836367
 40
0.7468616352
 40
0.8003166226
 40
0.851951352
 40
0.9021419624
 40
0.951328604
 40
1.0
 40
1.0
 40
1.0
 40
1.0
 10
15.2967998948
 20
13.2824957919
 30
0.0
 10
15.2960449022
 20
13.2825359561
 30
0.0
 10
15.2945699297
 20
13.2825477465
 30
0.0
 10
15.2927601866
 20
13.2823784658
 30
0.0
 10
15.2913949855
 20
13.282129357
 30
0.0
 10
15.2904358218
 20
13.2818924841
 30
0.0
 10
15.2895299623
 20
13.2816037982
 30
0.0
 10
15.2886820616
 20
13.2812647324
 30
0.0
 10
15.2878965166
 20
13.2808769536
 30
0.0
 10
15.2871774318
 20
13.280442331
 30
0.0
 10
15.2865285886
 20
13.2799629977
 30
0.0
 10
15.2859534778
 20
13.2794412808
 30
0.0
 10
15.2854553122
 20
13.2788797535
 30
0.0
 10
15.2850369273
 20
13.2782812551
 30
0.0
 10
15.284700859
 20
13.277649092
 30
0.0
 10
15.2845326739
 20
13.2772064
 30
0.0
 10
15.2844633482
 20
13.2769820706
 30
0.0
  0
SPLINE
  5
32B
100
AcDbEntity
  8
LAYER_FEATURE
100
AcDbSpline
 62
7
  6
CONTINUOUS
 70
0
 71
3
 72
36
 73
32
 74
0
 42
0.0000001
 43
0.0000001
 44
0.0000000001
 40
0.0
 40
0.0
 40
0.0
 40
0.0
 40
0.0477868672
 40
0.0730938069
 40
0.099368654
 40
0.1266162144
 40
0.154826003
 40
0.183973021
 40
0.2140195905
 40
0.2449168894
 40
0.2766062897
 40
0.309020615
 40
0.3420852766
 40
0.3757193914
 40
0.4098367907
 40
0.4443469612
 40
0.4791559405
 40
0.5492703197
 40
0.6194044217
 40
0.6542378728
 40
0.6887820164
 40
0.7229426054
 40
0.7566287403
 40
0.7897537636
 40
0.8222362115
 40
0.8540008503
 40
0.8849797238
 40
0.9151132899
 40
0.944351663
 40
0.9726559935
 40
1.0
 40
1.0
 40
1.0
 40
1.0
 10
15.1772840047
 20
13.2711621474
 30
0.0
 10
15.1778571934
 20
13.2695251209
 30
0.0
 10
15.1789596586
 20
13.2670956674
 30
0.0
 10
15.1807996171
 20
13.2639919304
 30
0.0
 10
15.1824256096
 20
13.2616346988
 30
0.0
 10
15.1842636431
 20
13.2593038971
 30
0.0
 10
15.1863062157
 20
13.2570086242
 30
0.0
 10
15.188544698
 20
13.2547585194
 30
0.0
 10
15.1909697401
 20
13.2525628745
 30
0.0
 10
15.1935711948
 20
13.2504308303
 30
0.0
 10
15.1963381872
 20
13.2483712682
 30
0.0
 10
15.1992591449
 20
13.2463927874
 30
0.0
 10
15.2023218399
 20
13.2445036512
 30
0.0
 10
15.2055134524
 20
13.242711757
 30
0.0
 10
15.2088206041
 20
13.2410246137
 30
0.0
 10
15.212229492
 20
13.2394492561
 30
0.0
 10
15.2169019666
 20
13.2375022439
 30
0.0
 10
15.2229011828
 20
13.2353901948
 30
0.0
 10
15.2290408049
 20
13.2337265902
 30
0.0
 10
15.2339959977
 20
13.2326789072
 30
0.0
 10
15.2377005739
 20
13.2320416608
 30
0.0
 10
15.2413857576
 20
13.2315538737
 30
0.0
 10
15.2450361717
 20
13.2312175898
 30
0.0
 10
15.2486365143
 20
13.2310342236
 30
0.0
 10
15.2521717201
 20
13.231004553
 30
0.0
 10
15.2556269993
 20
13.2311287063
 30
0.0
 10
15.2589879137
 20
13.2314061795
 30
0.0
 10
15.2622404131
 20
13.2318358343
 30
0.0
 10
15.2653709677
 20
13.2324159345
 30
0.0
 10
15.2683663607
 20
13.2331440649
 30
0.0
 10
15.2702988697
 20
13.2337366472
 30
0.0
 10
15.2712378588
 20
13.2340580731
 30
0.0
  0
SPLINE
  5
32C
100
AcDbEntity
  8
LAYER_FEATURE
100
AcDbSpline
 62
7
  6
CONTINUOUS
 70
0
 71
3
 72
23
 73
19
 74
0
 42
0.0000001
 43
0.0000001
 44
0.0000000001
 40
0.0
 40
0.0
 40
0.0
 40
0.0
 40
0.096789975
 40
0.1230240485
 40
0.1500649363
 40
0.2065073073
 40
0.2659704215
 40
0.3281802382
 40
0.3927755661
 40
0.4593267621
 40
0.5273522244
 40
0.5963333247
 40
0.6657283135
 40
0.7349856285
 40
0.8035569581
 40
0.8709103864
 40
0.936543951
 40
1.0
 40
1.0
 40
1.0
 40
1.0
 10
15.1772840047
 20
13.2711621474
 30
0.0
 10
15.1769998502
 20
13.2719736922
 30
0.0
 10
15.1764788055
 20
13.2729532463
 30
0.0
 10
15.1757026013
 20
13.2740364276
 30
0.0
 10
15.175093472
 20
13.2747981159
 30
0.0
 10
15.1742262633
 20
13.2757285016
 30
0.0
 10
15.173047561
 20
13.276786911
 30
0.0
 10
15.1717299395
 20
13.2777906878
 30
0.0
 10
15.1702888494
 20
13.2787281671
 30
0.0
 10
15.1687411295
 20
13.2795884329
 30
0.0
 10
15.1671049206
 20
13.2803614168
 30
0.0
 10
15.1653994199
 20
13.2810380536
 30
0.0
 10
15.1636446578
 20
13.2816103972
 30
0.0
 10
15.1618612467
 20
13.2820717232
 30
0.0
 10
15.1600701474
 20
13.2824166131
 30
0.0
 10
15.1582923452
 20
13.2826410151
 30
0.0
 10
15.1565488277
 20
13.2827422969
 30
0.0
 10
15.1554008729
 20
13.2827266231
 30
0.0
 10
15.1548379417
 20
13.2826967182
 30
0.0
  0
SPLINE
  5
32D
100
AcDbEntity
  8
LAYER_FEATURE
100
AcDbSpline
 62
7
  6
CONTINUOUS
 70
0
 71
3
 72
18
 73
14
 74
0
 42
0.0000001
 43
0.0000001
 44
0.0000000001
 40
0.0
 40
0.0
 40
0.0
 40
0.0
 40
0.153693513
 40
0.2988419619
 40
0.4349407737
 40
0.5619403359
 40
0.6803674543
 40
0.7367634397
 40
0.7915238164
 40
0.8449097018
 40
0.8972225402
 40
0.9487987433
 40
1.0
 40
1.0
 40
1.0
 40
1.0
 10
15.1208987404
 20
13.2804165157
 30
0.0
 10
15.1203157202
 20
13.280369005
 30
0.0
 10
15.1191851997
 20
13.2802280121
 30
0.0
 10
15.117567547
 20
13.2798635865
 30
0.0
 10
15.1160950186
 20
13.2793563893
 30
0.0
 10
15.114788641
 20
13.2787128551
 30
0.0
 10
15.1138383202
 20
13.278058227
 30
0.0
 10
15.1131867366
 20
13.2774745704
 30
0.0
 10
15.1127586323
 20
13.2770162813
 30
0.0
 10
15.1123849202
 20
13.276532089
 30
0.0
 10
15.1120670605
 20
13.2760236675
 30
0.0
 10
15.1118063305
 20
13.2754929897
 30
0.0
 10
15.1116710756
 20
13.2751250467
 30
0.0
 10
15.1116135373
 20
13.2749388645
 30
0.0
  0
SPLINE
  5
32E
100
AcDbEntity
  8
LAYER_FEATURE
100
AcDbSpline
 62
7
  6
CONTINUOUS
 70
0
 71
3
 72
24
 73
20
 74
0
 42
0.0000001
 43
0.0000001
 44
0.0000000001
 40
0.0
 40
0.0
 40
0.0
 40
0.0
 40
0.051216979
 40
0.0779487508
 40
0.1054118554
 40
0.1624423652
 40
0.2221107973
 40
0.2841276384
 40
0.348140324
 40
0.4137471494
 40
0.4805095222
 40
0.5479632288
 40
0.615629185
 40
0.6830238108
 40
0.7496692729
 40
0.8151039259
 40
0.8788930631
 40
0.9406402918
 40
1.0
 40
1.0
 40
1.0
 40
1.0
 10
15.0150369518
 20
13.2528324883
 30
0.0
 10
15.0158665542
 20
13.2515403134
 30
0.0
 10
15.017240594
 20
13.2496431895
 30
0.0
 10
15.0192736985
 20
13.2472226976
 30
0.0
 10
15.0215345194
 20
13.2447698422
 30
0.0
 10
15.0246715781
 20
13.2417886476
 30
0.0
 10
15.0288387378
 20
13.2384126073
 30
0.0
 10
15.0334116146
 20
13.2352286998
 30
0.0
 10
15.0383418829
 20
13.2322704391
 30
0.0
 10
15.0435776729
 20
13.2295688684
 30
0.0
 10
15.0490637449
 20
13.227152486
 30
0.0
 10
15.0547421782
 20
13.2250467921
 30
0.0
 10
15.0605529801
 20
13.2232740265
 30
0.0
 10
15.0664347504
 20
13.2218529225
 30
0.0
 10
15.0723253673
 20
13.2207985047
 30
0.0
 10
15.0781626054
 20
13.2201218958
 30
0.0
 10
15.0838850558
 20
13.2198302647
 30
0.0
 10
15.0894319986
 20
13.2199266924
 30
0.0
 10
15.0930522606
 20
13.2202562458
 30
0.0
 10
15.0948165529
 20
13.2204898861
 30
0.0
  0
SPLINE
  5
32F
100
AcDbEntity
  8
LAYER_FEATURE
100
AcDbSpline
 62
7
  6
CONTINUOUS
 70
0
 71
3
 72
23
 73
19
 74
0
 42
0.0000001
 43
0.0000001
 44
0.0000000001
 40
0.0
 40
0.0
 40
0.0
 40
0.0
 40
0.0515400048
 40
0.1062178432
 40
0.1638952735
 40
0.2243230481
 40
0.28716265
 40
0.3520051101
 40
0.4183875333
 40
0.4858079794
 40
0.5537392442
 40
0.6216419795
 40
0.6889775107
 40
0.7552206703
 40
0.8198729698
 40
0.8824764747
 40
0.9426288308
 40
1.0
 40
1.0
 40
1.0
 40
1.0
 10
15.0150369518
 20
13.2528324883
 30
0.0
 10
15.0147843934
 20
13.2532258691
 30
0.0
 10
15.0142154752
 20
13.2540061672
 30
0.0
 10
15.0132209144
 20
13.255113852
 30
0.0
 10
15.012071108
 20
13.2561816511
 30
0.0
 10
15.0107796301
 20
13.2571970887
 30
0.0
 10
15.0093615142
 20
13.2581484874
 30
0.0
 10
15.0078333551
 20
13.2590247499
 30
0.0
 10
15.0062130502
 20
13.2598156356
 30
0.0
 10
15.0045196082
 20
13.2605118704
 30
0.0
 10
15.0027729138
 20
13.26110528
 30
0.0
 10
15.000993487
 20
13.261588893
 30
0.0
 10
14.9992022328
 20
13.2619570282
 30
0.0
 10
14.9974201785
 20
13.2622053616
 30
0.0
 10
14.9956682382
 20
13.2623309782
 30
0.0
 10
14.9939668648
 20
13.2623323793
 30
0.0
 10
14.9923361111
 20
13.2622095437
 30
0.0
 10
14.991281846
 20
13.262041425
 30
0.0
 10
14.9907724041
 20
13.2619353597
 30
0.0
  0
SPLINE
  5
330
100
AcDbEntity
  8
LAYER_FEATURE
100
AcDbSpline
 62
7
  6
CONTINUOUS
 70
0
 71
3
 72
15
 73
11
 74
0
 42
0.0000001
 43
0.0000001
 44
0.0000000001
 40
0.0
 40
0.0
 40
0.0
 40
0.0
 40
0.1483291591
 40
0.2889796172
 40
0.422020522
 40
0.547864959
 40
0.6672668998
 40
0.7813675841
 40
0.8916751304
 40
1.0
 40
1.0
 40
1.0
 40
1.0
 10
14.9604096225
 20
13.2550830913
 30
0.0
 10
14.9599966521
 20
13.2549824725
 30
0.0
 10
14.9591995674
 20
13.2547533773
 30
0.0
 10
14.9580715655
 20
13.2543122016
 30
0.0
 10
14.9570521777
 20
13.2537859361
 30
0.0
 10
14.9561507975
 20
13.2531788824
 30
0.0
 10
14.9553759077
 20
13.2524958751
 30
0.0
 10
14.9547352509
 20
13.2517424644
 30
0.0
 10
14.9542358855
 20
13.2509256144
 30
0.0
 10
14.9540000607
 20
13.2503414755
 30
0.0
 10
14.9539084122
 20
13.250044898
 30
0.0
  0
SPLINE
  5
331
100
AcDbEntity
  8
LAYER_FEATURE
100
AcDbSpline
 62
7
  6
CONTINUOUS
 70
0
 71
3
 72
23
 73
19
 74
0
 42
0.0000001
 43
0.0000001
 44
0.0000000001
 40
0.0
 40
0.0
 40
0.0
 40
0.0
 40
0.0547325963
 40
0.1114259622
 40
0.1699431949
 40
0.2301211225
 40
0.2917711733
 40
0.354685245
 40
0.4186386189
 40
0.4833936778
 40
0.5487030772
 40
0.6143129116
 40
0.6799657602
 40
0.7454037025
 40
0.8103713239
 40
0.8746187526
 40
0.9379047647
 40
1.0
 40
1.0
 40
1.0
 40
1.0
 10
14.8722701447
 20
13.2123087196
 30
0.0
 10
14.8731317152
 20
13.2113979704
 30
0.0
 10
14.8749478764
 20
13.2096018139
 30
0.0
 10
14.8778780956
 20
13.2070360264
 30
0.0
 10
14.8810474492
 20
13.2045638577
 30
0.0
 10
14.8844373413
 20
13.2021997686
 30
0.0
 10
14.8880281343
 20
13.1999574218
 30
0.0
 10
14.8917989215
 20
13.1978498504
 30
0.0
 10
14.8957277674
 20
13.195889309
 30
0.0
 10
14.8997917947
 20
13.1940872084
 30
0.0
 10
14.9039673333
 20
13.1924540441
 30
0.0
 10
14.9082300565
 20
13.1909993307
 30
0.0
 10
14.9125551253
 20
13.1897315448
 30
0.0
 10
14.9169173408
 20
13.1886580737
 30
0.0
 10
14.9212912759
 20
13.1877851722
 30
0.0
 10
14.9256514928
 20
13.1871179235
 30
0.0
 10
14.9299724565
 20
13.1866602234
 30
0.0
 10
14.9328410304
 20
13.186494789
 30
0.0
 10
14.9342626366
 20
13.1864488057
 30
0.0
  0
SPLINE
  5
332
100
AcDbEntity
  8
LAYER_FEATURE
100
AcDbSpline
 62
7
  6
CONTINUOUS
 70
0
 71
3
 72
23
 73
19
 74
0
 42
0.0000001
 43
0.0000001
 44
0.0000000001
 40
0.0
 40
0.0
 40
0.0
 40
0.0
 40
0.0570750834
 40
0.1169557356
 40
0.1793195792
 40
0.2437703268
 40
0.3098546961
 40
0.377077559
 40
0.4449158942
 40
0.5128320002
 40
0.5802863394
 40
0.6467503375
 40
0.7117194555
 40
0.7747268868
 40
0.8353583092
 40
0.8932682274
 40
0.9481985442
 40
1.0
 40
1.0
 40
1.0
 40
1.0
 10
14.8722701447
 20
13.2123087196
 30
0.0
 10
14.8719142003
 20
13.2126849813
 30
0.0
 10
14.8711477533
 20
13.213421554
 30
0.0
 10
14.8698830589
 20
13.2144481415
 30
0.0
 10
14.8684885419
 20
13.2154130474
 30
0.0
 10
14.8669806403
 20
13.2163049059
 30
0.0
 10
14.8653769729
 20
13.2171133361
 30
0.0
 10
14.8636963584
 20
13.2178288525
 30
0.0
 10
14.8619585254
 20
13.2184430589
 30
0.0
 10
14.8601838893
 20
13.2189487391
 30
0.0
 10
14.8583932989
 20
13.2193399526
 30
0.0
 10
14.8566077805
 20
13.2196121045
 30
0.0
 10
14.8548482812
 20
13.2197619989
 30
0.0
 10
14.8531353998
 20
13.2197878634
 30
0.0
 10
14.8514891648
 20
13.2196893682
 30
0.0
 10
14.8499286666
 20
13.2194675492
 30
0.0
 10
14.8484722553
 20
13.2191249261
 30
0.0
 10
14.8475543451
 20
13.2188088698
 30
0.0
 10
14.8471195851
 20
13.2186300733
 30
0.0
  0
SPLINE
  5
333
100
AcDbEntity
  8
LAYER_FEATURE
100
AcDbSpline
 62
7
  6
CONTINUOUS
 70
0
 71
3
 72
14
 73
10
 74
0
 42
0.0000001
 43
0.0000001
 44
0.0000000001
 40
0.0
 40
0.0
 40
0.0
 40
0.0
 40
0.2762498893
 40
0.4062513283
 40
0.5314182293
 40
0.6524508968
 40
0.7702056217
 40
0.8856856763
 40
1.0
 40
1.0
 40
1.0
 40
1.0
 10
14.8215000479
 20
13.2074690678
 30
0.0
 10
14.8209943561
 20
13.207235917
 30
0.0
 10
14.820273503
 20
13.2068363589
 30
0.0
 10
14.8194172571
 20
13.2061904907
 30
0.0
 10
14.8188590974
 20
13.2056750789
 30
0.0
 10
14.8183752986
 20
13.20512161
 30
0.0
 10
14.8179684769
 20
13.2045326973
 30
0.0
 10
14.8176410409
 20
13.2039114987
 30
0.0
 10
14.8174765258
 20
13.2034769896
 30
0.0
 10
14.8174084961
 20
13.2032568313
 30
0.0
  0
SPLINE
  5
334
100
AcDbEntity
  8
LAYER_FEATURE
100
AcDbSpline
 62
7
  6
CONTINUOUS
 70
0
 71
3
 72
15
 73
11
 74
0
 42
0.0000001
 43
0.0000001
 44
0.0000000001
 40
0.0
 40
0.0
 40
0.0
 40
0.0
 40
0.1169466055
 40
0.237691221
 40
0.3615544456
 40
0.4877834119
 40
0.6155789914
 40
0.7441101701
 40
0.8725315754
 40
1.0
 40
1.0
 40
1.0
 40
1.0
 10
14.7544700315
 20
13.1511481469
 30
0.0
 10
14.7558693287
 20
13.1500630501
 30
0.0
 10
14.7587938529
 20
13.1479597556
 30
0.0
 10
14.7634425489
 20
13.1450619478
 30
0.0
 10
14.768386535
 20
13.142392776
 30
0.0
 10
14.7735775123
 20
13.1399783949
 30
0.0
 10
14.7789650217
 20
13.1378422275
 30
0.0
 10
14.784496674
 20
13.1360050754
 30
0.0
 10
14.7901183481
 20
13.1344848605
 30
0.0
 10
14.7939125771
 20
13.1336877537
 30
0.0
 10
14.7958122086
 20
13.1333465027
 30
0.0
  0
SPLINE
  5
335
100
AcDbEntity
  8
LAYER_FEATURE
100
AcDbSpline
 62
7
  6
CONTINUOUS
 70
0
 71
3
 72
23
 73
19
 74
0
 42
0.0000001
 43
0.0000001
 44
0.0000000001
 40
0.0
 40
0.0
 40
0.0
 40
0.0
 40
0.0631419083
 40
0.1284969532
 40
0.1956129523
 40
0.2639921183
 40
0.3331054892
 40
0.4024065216
 40
0.4713442384
 40
0.5393762681
 40
0.6059820961
 40
0.6706768788
 40
0.7330262396
 40
0.7926625703
 40
0.8493034724
 40
0.8764497445
 40
0.9027913315
 40
1.0
 40
1.0
 40
1.0
 40
1.0
 10
14.7544700315
 20
13.1511481469
 30
0.0
 10
14.754026092
 20
13.1514924036
 30
0.0
 10
14.7530944933
 20
13.1521572867
 30
0.0
 10
14.7516075907
 20
13.153064297
 30
0.0
 10
14.7500212713
 20
13.1538899171
 30
0.0
 10
14.7483542518
 20
13.1546243872
 30
0.0
 10
14.746626068
 20
13.1552591123
 30
0.0
 10
14.7448570289
 20
13.1557866298
 30
0.0
 10
14.7430679154
 20
13.1562007441
 30
0.0
 10
14.7412797409
 20
13.1564965907
 30
0.0
 10
14.7395134856
 20
13.1566706956
 30
0.0
 10
14.7377898472
 20
13.1567210066
 30
0.0
 10
14.7361289499
 20
13.1566469068
 30
0.0
 10
14.7345502147
 20
13.1564491838
 30
0.0
 10
14.7333009889
 20
13.1561795102
 30
0.0
 10
14.7323608151
 20
13.1559015017
 30
0.0
 10
14.7310971965
 20
13.155454905
 30
0.0
 10
14.7301031616
 20
13.1549485883
 30
0.0
 10
14.7293999821
 20
13.1544450569
 30
0.0
  0
SPLINE
  5
336
100
AcDbEntity
  8
LAYER_FEATURE
100
AcDbSpline
 62
7
  6
CONTINUOUS
 70
0
 71
3
 72
12
 73
8
 74
0
 42
0.0000001
 43
0.0000001
 44
0.0000000001
 40
0.0
 40
0.0
 40
0.0
 40
0.0
 40
0.2633496863
 40
0.515540409
 40
0.7597463063
 40
0.8801369998
 40
1.0
 40
1.0
 40
1.0
 40
1.0
 10
14.7095082337
 20
13.1394042256
 30
0.0
 10
14.7092496616
 20
13.1391976963
 30
0.0
 10
14.7087679002
 20
13.1387611532
 30
0.0
 10
14.7081552057
 20
13.1380248182
 30
0.0
 10
14.7077538464
 20
13.1373576568
 30
0.0
 10
14.7075047735
 20
13.1368015886
 30
0.0
 10
14.7074038684
 20
13.1365166124
 30
0.0
 10
14.707359399
 20
13.1363727051
 30
0.0
  0
SPLINE
  5
337
100
AcDbEntity
  8
LAYER_FEATURE
100
AcDbSpline
 62
7
  6
CONTINUOUS
 70
0
 71
3
 72
11
 73
7
 74
0
 42
0.0000001
 43
0.0000001
 44
0.0000000001
 40
0.0
 40
0.0
 40
0.0
 40
0.0
 40
0.244740028
 40
0.493822374
 40
0.7460081241
 40
1.0
 40
1.0
 40
1.0
 40
1.0
 10
14.6661636047
 20
13.0717011369
 30
0.0
 10
14.6676047242
 20
13.0708611537
 30
0.0
 10
14.6705608165
 20
13.0692478368
 30
0.0
 10
14.6751497274
 20
13.0670531074
 30
0.0
 10
14.6799044541
 20
13.0650751175
 30
0.0
 10
14.6831546577
 20
13.0639132117
 30
0.0
 10
14.6847989
 20
13.0633717277
 30
0.0
  0
SPLINE
  5
338
100
AcDbEntity
  8
LAYER_FEATURE
100
AcDbSpline
 62
7
  6
CONTINUOUS
 70
0
 71
3
 72
23
 73
19
 74
0
 42
0.0000001
 43
0.0000001
 44
0.0000000001
 40
0.0
 40
0.0
 40
0.0
 40
0.0
 40
0.069378278
 40
0.1401729201
 40
0.2118398404
 40
0.2838139693
 40
0.3555229693
 40
0.4264007718
 40
0.4959012676
 40
0.5635125065
 40
0.6287718223
 40
0.6912824065
 40
0.7507319654
 40
0.8069141647
 40
0.8597533923
 40
0.9093325724
 40
0.9559216388
 40
1.0
 40
1.0
 40
1.0
 40
1.0
 10
14.6661636047
 20
13.0717011369
 30
0.0
 10
14.665650074
 20
13.0720004578
 30
0.0
 10
14.6645911849
 20
13.072569273
 30
0.0
 10
14.6629385688
 20
13.0733223358
 30
0.0
 10
14.6612208048
 20
13.0739772989
 30
0.0
 10
14.6594581698
 20
13.0745264121
 30
0.0
 10
14.6576713448
 20
13.0749632397
 30
0.0
 10
14.6558813247
 20
13.0752826466
 30
0.0
 10
14.6541091161
 20
13.0754808829
 30
0.0
 10
14.6523754888
 20
13.0755556157
 30
0.0
 10
14.6507007152
 20
13.0755059454
 30
0.0
 10
14.6491043189
 20
13.0753323908
 30
0.0
 10
14.6476048417
 20
13.075036848
 30
0.0
 10
14.646219626
 20
13.0746224886
 30
0.0
 10
14.6449647083
 20
13.074093698
 30
0.0
 10
14.6438546327
 20
13.0734557402
 30
0.0
 10
14.642903026
 20
13.0727153775
 30
0.0
 10
14.6423697281
 20
13.0721446948
 30
0.0
 10
14.6421374933
 20
13.0718469048
 30
0.0
  0
LINE
  5
339
100
AcDbEntity
  8
LAYER_FEATURE
100
AcDbLine
 62
7
  6
CONTINUOUS
 10
14.6287379624
 20
13.0535042582
 11
14.6279902401
 21
13.0519628406
  0
SPLINE
  5
33A
100
AcDbEntity
  8
LAYER_FEATURE
100
AcDbSpline
 62
7
  6
CONTINUOUS
 70
0
 71
3
 72
22
 73
18
 74
0
 42
0.0000001
 43
0.0000001
 44
0.0000000001
 40
0.0
 40
0.0
 40
0.0
 40
0.0
 40
0.156528258
 40
0.2328160138
 40
0.3072823435
 40
0.379600456
 40
0.4494829455
 40
0.5166908524
 40
0.5810436133
 40
0.6424299883
 40
0.7008204558
 40
0.7562806067
 40
0.8089848714
 40
0.8592289126
 40
0.9074323596
 40
0.9541440189
 40
1.0
 40
1.0
 40
1.0
 40
1.0
 10
14.6053667014
 20
12.9787561688
 30
0.0
 10
14.6044114934
 20
12.9789658973
 30
0.0
 10
14.6029734029
 20
12.9792068071
 30
0.0
 10
14.6010597527
 20
12.9793693895
 30
0.0
 10
14.5996657784
 20
12.9794091401
 30
0.0
 10
14.5983118938
 20
12.9793674242
 30
0.0
 10
14.5970083882
 20
12.9792445364
 30
0.0
 10
14.5957652487
 20
12.9790413785
 30
0.0
 10
14.5945919525
 20
12.9787594405
 30
0.0
 10
14.5934974367
 20
12.9784007642
 30
0.0
 10
14.5924900421
 20
12.977967907
 30
0.0
 10
14.5915774927
 20
12.9774639067
 30
0.0
 10
14.5907668829
 20
12.9768922558
 30
0.0
 10
14.5900647476
 20
12.976256942
 30
0.0
 10
14.589476935
 20
12.9755624387
 30
0.0
 10
14.5890089103
 20
12.9748142067
 30
0.0
 10
14.5887785039
 20
12.9742808251
 30
0.0
 10
14.5886855672
 20
12.9740098175
 30
0.0
  0
SPLINE
  5
33B
100
AcDbEntity
  8
LAYER_FEATURE
100
AcDbSpline
 62
7
  6
CONTINUOUS
 70
0
 71
3
 72
40
 73
36
 74
0
 42
0.0000001
 43
0.0000001
 44
0.0000000001
 40
0.0
 40
0.0
 40
0.0
 40
0.0
 40
0.039665119
 40
0.0788625779
 40
0.1175689642
 40
0.1557635445
 40
0.1934263296
 40
0.2305392284
 40
0.2670857827
 40
0.3030514013
 40
0.3384234642
 40
0.3731914561
 40
0.4073471071
 40
0.4408845372
 40
0.4738004077
 40
0.5060940775
 40
0.5377677657
 40
0.5688267098
 40
0.5992793256
 40
0.6291373641
 40
0.6584160591
 40
0.6728447437
 40
0.6871359821
 40
0.7153162787
 40
0.7429850724
 40
0.7701726315
 40
0.7969130885
 40
0.8232443842
 40
0.8492081426
 40
0.8748494725
 40
0.9002166865
 40
0.9253609337
 40
0.950335752
 40
0.9751965454
 40
1.0
 40
1.0
 40
1.0
 40
1.0
 10
15.2025282186
 20
13.3517415784
 30
0.0
 10
15.1916181445
 20
13.3517415784
 30
0.0
 10
15.1699257636
 20
13.3514969351
 30
0.0
 10
15.1376042676
 20
13.3503818758
 30
0.0
 10
15.1057219373
 20
13.3485220154
 30
0.0
 10
15.0743150874
 20
13.345919502
 30
0.0
 10
15.0434189964
 20
13.3425772108
 30
0.0
 10
15.0130685804
 20
13.3384989138
 30
0.0
 10
14.983298059
 20
13.3336891734
 30
0.0
 10
14.9541410158
 20
13.3281533859
 30
0.0
 10
14.9256303322
 20
13.3218977581
 30
0.0
 10
14.8977981589
 20
13.3149292978
 30
0.0
 10
14.8706758801
 20
13.3072558058
 30
0.0
 10
14.8442940802
 20
13.2988858646
 30
0.0
 10
14.8186825107
 20
13.2898288274
 30
0.0
 10
14.7938700607
 20
13.280094807
 30
0.0
 10
14.7698847153
 20
13.2696946643
 30
0.0
 10
14.7467535632
 20
13.2586400092
 30
0.0
 10
14.7245026554
 20
13.2469431122
 30
0.0
 10
14.7031574014
 20
13.2346171636
 30
0.0
 10
14.6860617292
 20
13.2237802612
 30
0.0
 10
14.6728704158
 20
13.2148071623
 30
0.0
 10
14.6601247105
 20
13.2057229246
 30
0.0
 10
14.6447901435
 20
13.194004335
 30
0.0
 10
14.6272980099
 20
13.1793056125
 30
0.0
 10
14.6108216029
 20
13.1640529098
 30
0.0
 10
14.595380019
 20
13.1482634294
 30
0.0
 10
14.5809909734
 20
13.1319548199
 30
0.0
 10
14.5676711091
 20
13.11514542
 30
0.0
 10
14.5554358815
 20
13.0978541961
 30
0.0
 10
14.5442995325
 20
13.0801007257
 30
0.0
 10
14.5342750887
 20
13.0619052787
 30
0.0
 10
14.5253742035
 20
13.0432884118
 30
0.0
 10
14.5176075675
 20
13.0242723717
 30
0.0
 10
14.5131896305
 20
13.0113363109
 30
0.0
 10
14.5111753657
 20
13.0048181379
 30
0.0
  0
SPLINE
  5
33C
100
AcDbEntity
  8
LAYER_FEATURE
100
AcDbSpline
 62
7
  6
CONTINUOUS
 70
0
 71
3
 72
87
 73
83
 74
0
 42
0.0000001
 43
0.0000001
 44
0.0000000001
 40
0.0
 40
0.0
 40
0.0
 40
0.0
 40
0.0181149957
 40
0.0364974033
 40
0.0551215771
 40
0.0739603492
 40
0.092985538
 40
0.1121679928
 40
0.131477782
 40
0.1508843498
 40
0.1703566712
 40
0.1898634051
 40
0.2093730453
 40
0.2288540722
 40
0.248275103
 40
0.2676050426
 40
0.2868132368
 40
0.3058696276
 40
0.3247449112
 40
0.343410699
 40
0.3618396848
 40
0.3800058197
 40
0.3978844922
 40
0.4154527169
 40
0.4326893343
 40
0.4495752231
 40
0.4660935282
 40
0.4822298999
 40
0.4979727511
 40
0.5133135326
 40
0.5282470284
 40
0.5427716658
 40
0.5568898352
 40
0.5637990819
 40
0.5706096015
 40
0.5773229508
 40
0.5839410012
 40
0.5904659338
 40
0.5969002559
 40
0.6095069703
 40
0.6217895094
 40
0.62782006
 40
0.63378207
 40
0.6396803795
 40
0.6455201469
 40
0.6513068279
 40
0.6570461581
 40
0.6627441339
 40
0.6684069806
 40
0.674041127
 40
0.6796531695
 40
0.6852498356
 40
0.6908379461
 40
0.6964243733
 40
0.7020159999
 40
0.7076196767
 40
0.7132421825
 40
0.7188901817
 40
0.72457019
 40
0.7302885363
 40
0.7360513315
 40
0.7418644432
 40
0.7477334653
 40
0.753663704
 40
0.7596601575
 40
0.7657275015
 40
0.7718700872
 40
0.7843948734
 40
0.7972645242
 40
0.8105017133
 40
0.8241238933
 40
0.8381435357
 40
0.852568422
 40
0.8674019626
 40
0.8826435215
 40
0.8982887433
 40
0.914329867
 40
0.9307560233
 40
0.9475535116
 40
0.9647060811
 40
0.9821950608
 40
1.0
 40
1.0
 40
1.0
 40
1.0
 10
15.105554021
 20
12.9365832338
 30
0.0
 10
15.1207289839
 20
12.9365832338
 30
0.0
 10
15.1513050947
 20
12.9360735437
 30
0.0
 10
15.1974329797
 20
12.9338238407
 30
0.0
 10
15.244072895
 20
12.9300884898
 30
0.0
 10
15.2911123449
 20
12.9248764315
 30
0.0
 10
15.3384385884
 20
12.9182001958
 30
0.0
 10
15.38593801
 20
12.9100758022
 30
0.0
 10
15.4334966145
 20
12.9005227612
 30
0.0
 10
15.4810002383
 20
12.8895640054
 30
0.0
 10
15.5283348467
 20
12.8772258403
 30
0.0
 10
15.5753868024
 20
12.8635378791
 30
0.0
 10
15.6220431473
 20
12.8485329872
 30
0.0
 10
15.668191873
 20
12.8322471909
 30
0.0
 10
15.713722191
 20
12.8147195878
 30
0.0
 10
15.7585247997
 20
12.7959922507
 30
0.0
 10
15.8024921509
 20
12.7761101296
 30
0.0
 10
15.8455187145
 20
12.7551209505
 30
0.0
 10
15.8875012274
 20
12.7330750838
 30
0.0
 10
15.9283389425
 20
12.7100254235
 30
0.0
 10
15.9679338701
 20
12.6860272524
 30
0.0
 10
16.0061910217
 20
12.6611381173
 30
0.0
 10
16.0430186368
 20
12.6354176807
 30
0.0
 10
16.0783283951
 20
12.6089275638
 30
0.0
 10
16.1120356268
 20
12.5817311935
 30
0.0
 10
16.1440595114
 20
12.5538936404
 30
0.0
 10
16.1743232785
 20
12.5254814643
 30
0.0
 10
16.2027543661
 20
12.4965625375
 30
0.0
 10
16.2292845932
 20
12.4672058484
 30
0.0
 10
16.2538502481
 20
12.4374814152
 30
0.0
 10
16.2763924162
 20
12.4074597924
 30
0.0
 10
16.2968564005
 20
12.3772130697
 30
0.0
 10
16.3122466456
 20
12.3516974215
 30
0.0
 10
16.3234501251
 20
12.3312420867
 30
0.0
 10
16.331244134
 20
12.3159999061
 30
0.0
 10
16.3384847192
 20
12.3007567956
 30
0.0
 10
16.3451675779
 20
12.2855218531
 30
0.0
 10
16.3512886922
 20
12.2703039893
 30
0.0
 10
16.3586454671
 20
12.2501873686
 30
0.0
 10
16.3664523967
 20
12.2251141668
 30
0.0
 10
16.372432353
 20
12.1998882006
 30
0.0
 10
16.3760325756
 20
12.1798701285
 30
0.0
 10
16.3781358566
 20
12.165027544
 30
0.0
 10
16.3796570001
 20
12.1502747488
 30
0.0
 10
16.3805951168
 20
12.1356204581
 30
0.0
 10
16.3809495507
 20
12.1210735701
 30
0.0
 10
16.3807200044
 20
12.1066428703
 30
0.0
 10
16.3799066066
 20
12.0923370999
 30
0.0
 10
16.3785097461
 20
12.0781649335
 30
0.0
 10
16.3765302568
 20
12.0641349721
 30
0.0
 10
16.3739693058
 20
12.0502557362
 30
0.0
 10
16.370828384
 20
12.0365356714
 30
0.0
 10
16.3671094351
 20
12.0229831086
 30
0.0
 10
16.3628146668
 20
12.0096063007
 30
0.0
 10
16.3579467121
 20
11.9964133761
 30
0.0
 10
16.3525085586
 20
11.9834123419
 30
0.0
 10
16.3465034898
 20
11.9706111089
 30
0.0
 10
16.3399352329
 20
11.958017414
 30
0.0
 10
16.3328077776
 20
11.9456388969
 30
0.0
 10
16.3251254937
 20
11.9334830384
 30
0.0
 10
16.3168931066
 20
11.9215571551
 30
0.0
 10
16.3081156051
 20
11.90986846
 30
0.0
 10
16.2987983896
 20
11.8984239541
 30
0.0
 10
16.2889471067
 20
11.8872305145
 30
0.0
 10
16.278567786
 20
11.8762948914
 30
0.0
 10
16.2676666007
 20
11.8656234815
 30
0.0
 10
16.2523469419
 20
11.851666668
 30
0.0
 10
16.2318884802
 20
11.8349159065
 30
0.0
 10
16.2055272843
 20
11.8161068729
 30
0.0
 10
16.1772591766
 20
11.7985020701
 30
0.0
 10
16.1471533567
 20
11.782143243
 30
0.0
 10
16.1152820596
 20
11.7670682437
 30
0.0
 10
16.0817218443
 20
11.7533122906
 30
0.0
 10
16.0465530966
 20
11.7409075283
 30
0.0
 10
16.0098600086
 20
11.7298830273
 30
0.0
 10
15.9717303799
 20
11.7202646852
 30
0.0
 10
15.9322554481
 20
11.7120751545
 30
0.0
 10
15.8915296731
 20
11.7053337682
 30
0.0
 10
15.8496505802
 20
11.7000564582
 30
0.0
 10
15.8067183553
 20
11.6962557267
 30
0.0
 10
15.7628363416
 20
11.6939405166
 30
0.0
 10
15.7332689917
 20
11.6933957362
 30
0.0
 10
15.7183537932
 20
11.6933660031
 30
0.0
  0
SPLINE
  5
33D
100
AcDbEntity
  8
LAYER_FEATURE
100
AcDbSpline
 62
7
  6
CONTINUOUS
 70
0
 71
3
 72
23
 73
19
 74
0
 42
0.0000001
 43
0.0000001
 44
0.0000000001
 40
0.0
 40
0.0
 40
0.0
 40
0.0
 40
0.0717977814
 40
0.1425465107
 40
0.2121861326
 40
0.2806611481
 40
0.3479213808
 40
0.4139222796
 40
0.4786254768
 40
0.5419992887
 40
0.6040192763
 40
0.6646688247
 40
0.7239397548
 40
0.7818329562
 40
0.838359037
 40
0.8935389767
 40
0.9474047649
 40
1.0
 40
1.0
 40
1.0
 40
1.0
 10
15.105554021
 20
12.9365832338
 30
0.0
 10
15.093017025
 20
12.9365832338
 30
0.0
 10
15.0681247059
 20
12.9362403745
 30
0.0
 10
15.0311019554
 20
12.9346731635
 30
0.0
 10
14.9947194859
 20
12.932059284
 30
0.0
 10
14.9590390171
 20
12.9284030972
 30
0.0
 10
14.9241206272
 20
12.9237107228
 30
0.0
 10
14.8900232044
 20
12.9179900016
 30
0.0
 10
14.8568042153
 20
12.911250492
 30
0.0
 10
14.8245196415
 20
12.903503441
 30
0.0
 10
14.793223882
 20
12.8947617637
 30
0.0
 10
14.7629696661
 20
12.8850400123
 30
0.0
 10
14.7338079797
 20
12.8743543522
 30
0.0
 10
14.7057879586
 20
12.8627225068
 30
0.0
 10
14.6789569316
 20
12.850163803
 30
0.0
 10
14.6533599504
 20
12.8366988512
 30
0.0
 10
14.6290411985
 20
12.8223505408
 30
0.0
 10
14.6135264314
 20
12.8120915299
 30
0.0
 10
14.6060061492
 20
12.8068199037
 30
0.0
  0
SPLINE
  5
33E
100
AcDbEntity
  8
LAYER_FEATURE
100
AcDbSpline
 62
7
  6
CONTINUOUS
 70
0
 71
3
 72
53
 73
49
 74
0
 42
0.0000001
 43
0.0000001
 44
0.0000000001
 40
0.0
 40
0.0
 40
0.0
 40
0.0
 40
0.0296785568
 40
0.0586124878
 40
0.0728212514
 40
0.0868680464
 40
0.1007623037
 40
0.1145141093
 40
0.1281341697
 40
0.141633806
 40
0.1550248992
 40
0.1683198658
 40
0.181531602
 40
0.194673429
 40
0.2077590388
 40
0.220802418
 40
0.2338177851
 40
0.2468195095
 40
0.2598220358
 40
0.2728398044
 40
0.2858871726
 40
0.2989783342
 40
0.3121272508
 40
0.3253475717
 40
0.3386525774
 40
0.3520551127
 40
0.3655675336
 40
0.3792016683
 40
0.392968761
 40
0.406879461
 40
0.4209437746
 40
0.4351710624
 40
0.4641447791
 40
0.4938662512
 40
0.524386191
 40
0.5557447875
 40
0.5879721123
 40
0.6210886398
 40
0.655105835
 40
0.6900267692
 40
0.7258467396
 40
0.7625538758
 40
0.8001297247
 40
0.8385498034
 40
0.87778412
 40
0.9177976628
 40
0.9585508581
 40
1.0
 40
1.0
 40
1.0
 40
1.0
 10
14.6060061492
 20
12.8068199037
 30
0.0
 10
14.5976976337
 20
12.8009957355
 30
0.0
 10
14.581629483
 20
12.7889978361
 30
0.0
 10
14.562661058
 20
12.7728433838
 30
0.0
 10
14.5484359884
 20
12.7594248011
 30
0.0
 10
14.5382982827
 20
12.7491793881
 30
0.0
 10
14.5286337172
 20
12.7386980622
 30
0.0
 10
14.5194474451
 20
12.7279864203
 30
0.0
 10
14.5107445772
 20
12.7170502466
 30
0.0
 10
14.5025298366
 20
12.7058955011
 30
0.0
 10
14.4948077868
 20
12.6945282039
 30
0.0
 10
14.4875826513
 20
12.6829545527
 30
0.0
 10
14.4808584156
 20
12.6711808414
 30
0.0
 10
14.4746388109
 20
12.6592134752
 30
0.0
 10
14.4689272225
 20
12.6470590077
 30
0.0
 10
14.4637268587
 20
12.6347240526
 30
0.0
 10
14.4590405268
 20
12.6222153824
 30
0.0
 10
14.4548708469
 20
12.6095398273
 30
0.0
 10
14.4512200898
 20
12.5967043383
 30
0.0
 10
14.4480902381
 20
12.5837159504
 30
0.0
 10
14.4454830356
 20
12.5705817726
 30
0.0
 10
14.4433998307
 20
12.5573090112
 30
0.0
 10
14.4418418016
 20
12.5439049247
 30
0.0
 10
14.4408097138
 20
12.5303768547
 30
0.0
 10
14.4403041229
 20
12.5167321942
 30
0.0
 10
14.4403252625
 20
12.5029783979
 30
0.0
 10
14.4408730449
 20
12.4891229671
 30
0.0
 10
14.4419471748
 20
12.4751734603
 30
0.0
 10
14.443546958
 20
12.4611374533
 30
0.0
 10
14.4456715167
 20
12.4470226308
 30
0.0
 10
14.4483196575
 20
12.4328364861
 30
0.0
 10
14.4525719829
 20
12.413722643
 30
0.0
 10
14.4592164723
 20
12.3896731429
 30
0.0
 10
14.4692056592
 20
12.360834101
 30
0.0
 10
14.4812362667
 20
12.3319009721
 30
0.0
 10
14.4952810665
 20
12.3029368148
 30
0.0
 10
14.5113089586
 20
12.2740034236
 30
0.0
 10
14.5292846881
 20
12.2451628657
 30
0.0
 10
14.5491689752
 20
12.2164769387
 30
0.0
 10
14.570918539
 20
12.1880071879
 30
0.0
 10
14.5944861594
 20
12.1598147477
 30
0.0
 10
14.619820752
 20
12.1319602232
 30
0.0
 10
14.6468674562
 20
12.1045035595
 30
0.0
 10
14.6755677476
 20
12.0775038976
 30
0.0
 10
14.705859503
 20
12.0510194736
 30
0.0
 10
14.7376773076
 20
12.0251073588
 30
0.0
 10
14.770951885
 20
11.9998238147
 30
0.0
 10
14.7938740028
 20
11.983554287
 30
0.0
 10
14.8055564458
 20
11.975533756
 30
0.0
  0
SPLINE
  5
33F
100
AcDbEntity
  8
LAYER_FEATURE
100
AcDbSpline
 62
7
  6
CONTINUOUS
 70
0
 71
3
 72
68
 73
64
 74
0
 42
0.0000001
 43
0.0000001
 44
0.0000000001
 40
0.0
 40
0.0
 40
0.0
 40
0.0
 40
0.0171788456
 40
0.0345306534
 40
0.0520446775
 40
0.0697104889
 40
0.0875169165
 40
0.1054526097
 40
0.1235058945
 40
0.141664841
 40
0.1599172928
 40
0.1782508911
 40
0.1966531056
 40
0.2151112604
 40
0.2521425354
 40
0.28924306
 40
0.3263089876
 40
0.3447973805
 40
0.3632383651
 40
0.3816191845
 40
0.3999272075
 40
0.4181499573
 40
0.4362751395
 40
0.4542906697
 40
0.4721847023
 40
0.4899456599
 40
0.5075622638
 40
0.525023566
 40
0.5423189791
 40
0.5594383092
 40
0.576371789
 40
0.5931101135
 40
0.6096444775
 40
0.6259666114
 40
0.6420688205
 40
0.6579440247
 40
0.6735858021
 40
0.6889884354
 40
0.704146957
 40
0.7190571972
 40
0.7337158342
 40
0.7481204471
 40
0.7622695731
 40
0.7761627631
 40
0.7898006386
 40
0.8031849497
 40
0.8163186336
 40
0.8292058738
 40
0.8418521562
 40
0.8542643185
 40
0.8664505942
 40
0.8784206496
 40
0.8901856082
 40
0.9017580632
 40
0.9131520671
 40
0.924383102
 40
0.9354680251
 40
0.9464249879
 40
0.9572733264
 40
0.9680334211
 40
0.9787265282
 40
0.9893745859
 40
1.0
 40
1.0
 40
1.0
 40
1.0
 10
15.0814950569
 20
12.9600781236
 30
0.0
 10
15.0920841035
 20
12.9600781236
 30
0.0
 10
15.1133694903
 20
12.9598451243
 30
0.0
 10
15.1454354003
 20
12.9588098522
 30
0.0
 10
15.1777724684
 20
12.9570880071
 30
0.0
 10
15.2103466946
 20
12.9546814512
 30
0.0
 10
15.2431243575
 20
12.9515926446
 30
0.0
 10
15.2760712785
 20
12.9478248198
 30
0.0
 10
15.3091531862
 20
12.9433818946
 30
0.0
 10
15.3423356416
 20
12.9382684992
 30
0.0
 10
15.3755841174
 20
12.9324899559
 30
0.0
 10
15.408863965
 20
12.9260522846
 30
0.0
 10
15.4421406952
 20
12.91896216
 30
0.0
 10
15.4865042386
 20
12.9086380471
 30
0.0
 10
15.54172214
 20
12.8941502954
 30
0.0
 10
15.6073465035
 20
12.87431299
 30
0.0
 10
15.6613820075
 20
12.8557754929
 30
0.0
 10
15.7040975802
 20
12.8397781583
 30
0.0
 10
15.7357986169
 20
12.8272268883
 30
0.0
 10
15.767155972
 20
12.8141261132
 30
0.0
 10
15.7981371431
 20
12.8004894003
 30
0.0
 10
15.8287098444
 20
12.786330964
 30
0.0
 10
15.8588422649
 20
12.7716655395
 30
0.0
 10
15.8885030389
 20
12.7565083924
 30
0.0
 10
15.9176612947
 20
12.7408752966
 30
0.0
 10
15.946286682
 20
12.7247825182
 30
0.0
 10
15.9743494086
 20
12.7082468032
 30
0.0
 10
16.001820272
 20
12.6912853611
 30
0.0
 10
16.028670686
 20
12.6739158397
 30
0.0
 10
16.0548727095
 20
12.656156308
 30
0.0
 10
16.0803990756
 20
12.6380252372
 30
0.0
 10
16.1052232212
 20
12.619541481
 30
0.0
 10
16.1293193211
 20
12.6007242636
 30
0.0
 10
16.1526623072
 20
12.5815931493
 30
0.0
 10
16.175227894
 20
12.5621680234
 30
0.0
 10
16.1969926028
 20
12.5424690717
 30
0.0
 10
16.2179337855
 20
12.5225167567
 30
0.0
 10
16.2380296565
 20
12.5023318043
 30
0.0
 10
16.257259309
 20
12.4819351748
 30
0.0
 10
16.2756027317
 20
12.4613480398
 30
0.0
 10
16.2930408294
 20
12.4405917612
 30
0.0
 10
16.309555439
 20
12.4196878661
 30
0.0
 10
16.3251293554
 20
12.3986580302
 30
0.0
 10
16.3397463477
 20
12.377524054
 30
0.0
 10
16.3533911648
 20
12.3563078361
 30
0.0
 10
16.3660495498
 20
12.3350313541
 30
0.0
 10
16.3777082509
 20
12.3137166421
 30
0.0
 10
16.3883550352
 20
12.2923857716
 30
0.0
 10
16.3979787094
 20
12.2710608358
 30
0.0
 10
16.4065691144
 20
12.2497639241
 30
0.0
 10
16.4141171355
 20
12.2285171083
 30
0.0
 10
16.4206147104
 20
12.2073424259
 30
0.0
 10
16.426054837
 20
12.1862618643
 30
0.0
 10
16.4304316005
 20
12.1652973502
 30
0.0
 10
16.433740171
 20
12.1444707305
 30
0.0
 10
16.4359768142
 20
12.12380376
 30
0.0
 10
16.4371389072
 20
12.1033180837
 30
0.0
 10
16.4372249529
 20
12.0830352252
 30
0.0
 10
16.4362346048
 20
12.0629765386
 30
0.0
 10
16.4341687078
 20
12.0431632737
 30
0.0
 10
16.4310291957
 20
12.0236162029
 30
0.0
 10
16.4268195004
 20
12.0043568525
 30
0.0
 10
16.423300641
 20
11.9917163098
 30
0.0
 10
16.4213669183
 20
11.9854587715
 30
0.0
  0
ENDSEC
  0
SECTION
  2
OBJECTS
  0
DICTIONARY
  5
C
100
AcDbDictionary
280
0
281
1
  3
ACAD_GROUP
350
D
  3
ACAD_MLINESTYLE
350
17
  3
ACAD_LAYOUT
350
1A
  3
ACAD_PLOTSETTINGS
350
19
  3
ACAD_PLOTSTYLENAME
350
E
  0
DICTIONARY
  5
D
102
{ACAD_REACTORS
330
C
102
}
100
AcDbDictionary
280
0
281
1
  0
ACDBDICTIONARYWDFLT
  5
E
102
{ACAD_REACTORS
330
C
102
}
100
AcDbDictionary
281
1
  3
Normal
350
F
100
AcDbDictionaryWithDefault
340
F
  0
DICTIONARY
  5
17
102
{ACAD_REACTORS
330
C
102
}
100
AcDbDictionary
280
0
281
1
  3
Standard
350
18
  0
DICTIONARY
  5
19
102
{ACAD_REACTORS
330
C
102
}
100
AcDbDictionary
281
1
  0
DICTIONARY
  5
1A
102
{ACAD_REACTORS
330
C
102
}
100
AcDbDictionary
281
1
  3
Model
350
340
  3
Layout1
350
341
  0
ACDBPLACEHOLDER
  5
F
102
{ACAD_REACTORS
330
E
102
}
  0
MLINESTYLE
  5
18
102
{ACAD_REACTORS
330
17
102
}
100
AcDbMlineStyle
  2
STANDARD
 70
0
  3

 62
256
 51
90.0
 52
90.0
 71
2
 49
0.5
 62
256
  6
BYLAYER
 49
-0.5
 62
256
  6
BYLAYER
  0
LAYOUT
  5
340
102
{ACAD_REACTORS
330
1A
102
}
100
AcDbPlotSettings
  1

  2
none_device
  4
ANSI_C_(22.00_x_17.00_Inches)
  6

 40
0.0
 41
0.0
 42
0.0
 43
0.0
 44
558.8
 45
431.8
 46
0.0
 47
0.0
 48
0.0
 49
0.0
140
0.0
141
0.0
142
1.0
143
1.0
 70
1024
 72
0
 73
0
 74
0
  7

 75
0
147
1.0
148
0.0
149
0.0
100
AcDbLayout
  1
Model
 70
0
 71
0
 10
0.0
 20
0.0
 11
22.0
 21
17.0
 12
0.0
 22
0.0
 32
0.0
 14
0.0
 24
0.0
 34
0.0
 15
0.0
 25
0.0
 35
0.0
146
0.0
 13
0.0
 23
0.0
 33
0.0
 16
1.0
 26
0.0
 36
0.0
 17
0.0
 27
1.0
 37
0.0
 76
0
330
222
345
0
346
0
  0
LAYOUT
  5
341
102
{ACAD_REACTORS
330
1A
102
}
100
AcDbPlotSettings
  1

  2
none_device
  4
ANSI_C_(22.00_x_17.00_Inches)
  6

 40
0.0
 41
0.0
 42
0.0
 43
0.0
 44
558.8
 45
431.8
 46
0.0
 47
0.0
 48
0.0
 49
0.0
140
0.0
141
0.0
142
1.0
143
1.0
 70
0
 72
0
 73
0
 74
0
  7

 75
0
147
1.0
148
0.0
149
0.0
100
AcDbLayout
  1
Layout1
 70
0
 71
1
 10
0.0
 20
0.0
 11
22.0
 21
17.0
 12
0.0
 22
0.0
 32
0.0
 14
0.0
 24
0.0
 34
0.0
 15
0.0
 25
0.0
 35
0.0
146
0.0
 13
0.0
 23
0.0
 33
0.0
 16
1.0
 26
0.0
 36
0.0
 17
0.0
 27
1.0
 37
0.0
 76
0
330
223
345
0
346
0
  0
ENDSEC
  0
EOF