999
DXF file: _cgs_temp_output.dxf
999
Pro/ENGINEER 2016360 by Parametric Technology Corporation
  0
SECTION
  2
HEADER
  9
$ACADVER
  1
AC1021
  9
$DWGCODEPAGE
  3
ANSI_1252
  9
$EXTMAX
 10
22.0
 20
17.0
 30
0.0
  9
$EXTMIN
 10
0.0
 20
0.0
 30
0.0
  9
$LIMMIN
 10
0.0
 20
0.0
  9
$LIMMAX
 10
22.0
 20
17.0
  9
$VIEWCTR
 10
11.0
 20
8.5
  9
$VIEWSIZE
 40
17.0
  9
$CLAYER
  8
0
  9
$LTSCALE
 40
1.21
  9
$CELTYPE
  6
BYLAYER
  9
$DIMSCALE
 40
1.0
  9
$DIMASZ
 40
0.1875
  9
$DIMEXO
 40
0.0625
  9
$DIMDLI
 40
0.836
  9
$DIMEXE
 40
0.125
  9
$DIMCEN
 40
0.198
  9
$DIMLFAC
 40
1.0
  9
$DIMBLK
  1
_CLOSED
  9
$DIMALT
 70
0
  9
$DIMALTF
 40
25.4
  9
$DIMTXT
 40
0.15625
  9
$DIMTOL
 70
0
  9
$DIMLIM
 70
0
  9
$DIMTFAC
 40
1.0
  9
$DIMGAP
 40
0.09
  9
$DIMDSEP
 70
46
  9
$AUNITS
 70
0
  9
$PDMODE
 70
3
  9
$PDSIZE
 40
0.3125
  9
$HANDSEED
  5
2D3
  9
$TILEMODE
 70
1
  9
$MEASUREMENT
 70
0
  9
$INSUNITS
 70
1
  0
ENDSEC
  0
SECTION
  2
CLASSES
  0
CLASS
  1
ACDBDICTIONARYWDFLT
  2
AcDbDictionaryWithDefault
  3
AutoCAD 2000
 90
0
 91
1
280
0
281
0
  0
CLASS
  1
ACDBPLACEHOLDER
  2
AcDbPlaceHolder
  3
AutoCAD 2000
 90
0
 91
1
280
0
281
0
  0
CLASS
  1
LAYOUT
  2
AcDbLayout
  3
AutoCAD 2000
 90
0
 91
0
280
0
281
0
  0
ENDSEC
  0
SECTION
  2
TABLES
  0
TABLE
  2
VPORT
  5
8
100
AcDbSymbolTable
 70
2
  0
VPORT
  5
1F4
100
AcDbSymbolTableRecord
100
AcDbViewportTableRecord
  2
*ACTIVE
 70
0
 10
0.0
 20
0.0
 11
1.0
 21
1.0
 12
11.0
 22
8.5
 13
0.0
 23
0.0
 14
1.0
 24
1.0
 15
0.0
 25
0.0
 16
0.0
 26
0.0
 36
1.0
 17
0.0
 27
0.0
 37
0.0
 40
17.0
 41
1.2941176471
 42
50.0
 43
0.0
 44
0.0
 50
0.0
 51
0.0
 71
0
 72
100
 73
1
 74
1
 75
0
 76
0
 77
0
 78
0
  0
ENDTAB
  0
TABLE
  2
LTYPE
  5
5
100
AcDbSymbolTable
 70
6
  0
LTYPE
  5
14
100
AcDbSymbolTableRecord
100
AcDbLinetypeTableRecord
  2
BYBLOCK
 70
0
  3

 72
65
 73
0
 40
0.0
  0
LTYPE
  5
15
100
AcDbSymbolTableRecord
100
AcDbLinetypeTableRecord
  2
BYLAYER
 70
0
  3

 72
65
 73
0
 40
0.0
  0
LTYPE
  5
16
100
AcDbSymbolTableRecord
100
AcDbLinetypeTableRecord
  2
CONTINUOUS
 70
64
  3
Solid line
 72
65
 73
0
 40
0.0
  0
LTYPE
  5
1F5
100
AcDbSymbolTableRecord
100
AcDbLinetypeTableRecord
  2
CENTER
 70
64
  3
____ _ ____ _ ____ _ ____ _ ____ _ ____ _ ____
 72
65
 73
4
 40
0.6
 49
0.375
 74
0
 49
-0.075
 74
0
 49
0.075
 74
0
 49
-0.075
 74
0
  0
LTYPE
  5
1F6
100
AcDbSymbolTableRecord
100
AcDbLinetypeTableRecord
  2
HIDDEN
 70
64
  3
- - - - - - - - - - - - - - - - - - - -
 72
65
 73
2
 40
0.2
 49
0.1
 74
0
 49
-0.1
 74
0
  0
LTYPE
  5
1F7
100
AcDbSymbolTableRecord
100
AcDbLinetypeTableRecord
  2
PHANTOM
 70
64
  3
_____ _ _ _____ _ _ _____ _ _ _____
 72
65
 73
6
 40
0.8
 49
0.45
 74
0
 49
-0.05
 74
0
 49
0.1
 74
0
 49
-0.05
 74
0
 49
0.1
 74
0
 49
-0.05
 74
0
  0
LTYPE
  5
1F8
100
AcDbSymbolTableRecord
100
AcDbLinetypeTableRecord
  2
DOT
 70
64
  3
. . . . . . . . . . . . . . . . . . . .
 72
65
 73
2
 40
0.2
 49
0.1
 74
0
 49
-0.1
 74
0
  0
LTYPE
  5
1F9
100
AcDbSymbolTableRecord
100
AcDbLinetypeTableRecord
  2
DASHED
 70
64
  3
- - - - - - - - - - - - - - - - - - - -
 72
65
 73
2
 40
0.2
 49
0.1
 74
0
 49
-0.1
 74
0
  0
ENDTAB
  0
TABLE
  2
LAYER
  5
2
100
AcDbSymbolTable
 70
36
  0
LAYER
  5
10
100
AcDbSymbolTableRecord
100
AcDbLayerTableRecord
  2
0
 70
0
 62
7
  6
CONTINUOUS
370
-3
390
F
  0
LAYER
  5
1FA
100
AcDbSymbolTableRecord
100
AcDbLayerTableRecord
  2
DEFAULT_1
 70
0
 62
7
  6
CENTER
370
-3
390
F
  0
LAYER
  5
1FB
100
AcDbSymbolTableRecord
100
AcDbLayerTableRecord
  2
DEFAULT_2
 70
0
 62
8
  6
HIDDEN
370
-3
390
F
  0
LAYER
  5
1FC
100
AcDbSymbolTableRecord
100
AcDbLayerTableRecord
  2
DEFAULT_3
 70
0
 62
7
  6
PHANTOM
370
-3
390
F
  0
LAYER
  5
1FD
100
AcDbSymbolTableRecord
100
AcDbLayerTableRecord
  2
01_ALL_DTM_PLN
 70
0
 62
7
  6
CONTINUOUS
370
-3
390
F
  0
LAYER
  5
1FE
100
AcDbSymbolTableRecord
100
AcDbLayerTableRecord
  2
01__ASM_ALL_DTM_PLN
 70
0
 62
7
  6
CONTINUOUS
370
-3
390
F
  0
LAYER
  5
1FF
100
AcDbSymbolTableRecord
100
AcDbLayerTableRecord
  2
01__ASM_DEF_DTM_PLN
 70
0
 62
7
  6
CONTINUOUS
370
-3
390
F
  0
LAYER
  5
200
100
AcDbSymbolTableRecord
100
AcDbLayerTableRecord
  2
01___PRT_ALL_DTM_PLN
 70
0
 62
7
  6
CONTINUOUS
370
-3
390
F
  0
LAYER
  5
201
100
AcDbSymbolTableRecord
100
AcDbLayerTableRecord
  2
01___PRT_DEF_DTM_PLN
 70
0
 62
7
  6
CONTINUOUS
370
-3
390
F
  0
LAYER
  5
202
100
AcDbSymbolTableRecord
100
AcDbLayerTableRecord
  2
02_ALL_AXES
 70
0
 62
7
  6
CONTINUOUS
370
-3
390
F
  0
LAYER
  5
203
100
AcDbSymbolTableRecord
100
AcDbLayerTableRecord
  2
02__ASM_ALL_AXES
 70
0
 62
7
  6
CONTINUOUS
370
-3
390
F
  0
LAYER
  5
204
100
AcDbSymbolTableRecord
100
AcDbLayerTableRecord
  2
02___PRT_ALL_AXES
 70
0
 62
7
  6
CONTINUOUS
370
-3
390
F
  0
LAYER
  5
205
100
AcDbSymbolTableRecord
100
AcDbLayerTableRecord
  2
03_ALL_CURVES
 70
0
 62
7
  6
CONTINUOUS
370
-3
390
F
  0
LAYER
  5
206
100
AcDbSymbolTableRecord
100
AcDbLayerTableRecord
  2
03__ASM_ALL_CURVES
 70
0
 62
7
  6
CONTINUOUS
370
-3
390
F
  0
LAYER
  5
207
100
AcDbSymbolTableRecord
100
AcDbLayerTableRecord
  2
03___PRT_ALL_CURVES
 70
0
 62
7
  6
CONTINUOUS
370
-3
390
F
  0
LAYER
  5
208
100
AcDbSymbolTableRecord
100
AcDbLayerTableRecord
  2
04_ALL_DTM_PNT
 70
0
 62
7
  6
CONTINUOUS
370
-3
390
F
  0
LAYER
  5
209
100
AcDbSymbolTableRecord
100
AcDbLayerTableRecord
  2
04__ASM_ALL_DTM_PNT
 70
0
 62
7
  6
CONTINUOUS
370
-3
390
F
  0
LAYER
  5
20A
100
AcDbSymbolTableRecord
100
AcDbLayerTableRecord
  2
04___PRT_ALL_DTM_PNT
 70
0
 62
7
  6
CONTINUOUS
370
-3
390
F
  0
LAYER
  5
20B
100
AcDbSymbolTableRecord
100
AcDbLayerTableRecord
  2
05_ALL_DTM_CSYS
 70
0
 62
7
  6
CONTINUOUS
370
-3
390
F
  0
LAYER
  5
20C
100
AcDbSymbolTableRecord
100
AcDbLayerTableRecord
  2
05__ASM_ALL_DTM_CSYS
 70
0
 62
7
  6
CONTINUOUS
370
-3
390
F
  0
LAYER
  5
20D
100
AcDbSymbolTableRecord
100
AcDbLayerTableRecord
  2
05__ASM_DEF_DTM_CSYS
 70
0
 62
7
  6
CONTINUOUS
370
-3
390
F
  0
LAYER
  5
20E
100
AcDbSymbolTableRecord
100
AcDbLayerTableRecord
  2
05___PRT_ALL_DTM_CSYS
 70
0
 62
7
  6
CONTINUOUS
370
-3
390
F
  0
LAYER
  5
20F
100
AcDbSymbolTableRecord
100
AcDbLayerTableRecord
  2
05___PRT_DEF_DTM_CSYS
 70
0
 62
7
  6
CONTINUOUS
370
-3
390
F
  0
LAYER
  5
210
100
AcDbSymbolTableRecord
100
AcDbLayerTableRecord
  2
06_ALL_SURFS
 70
0
 62
7
  6
CONTINUOUS
370
-3
390
F
  0
LAYER
  5
211
100
AcDbSymbolTableRecord
100
AcDbLayerTableRecord
  2
06__ASM_ALL_SURFS
 70
0
 62
7
  6
CONTINUOUS
370
-3
390
F
  0
LAYER
  5
212
100
AcDbSymbolTableRecord
100
AcDbLayerTableRecord
  2
06___PRT_ALL_SURFS
 70
0
 62
7
  6
CONTINUOUS
370
-3
390
F
  0
LAYER
  5
213
100
AcDbSymbolTableRecord
100
AcDbLayerTableRecord
  2
07__ASM_ALL_SKELETONS
 70
0
 62
7
  6
CONTINUOUS
370
-3
390
F
  0
LAYER
  5
214
100
AcDbSymbolTableRecord
100
AcDbLayerTableRecord
  2
LAYER_AXIS
 70
0
 62
7
  6
CONTINUOUS
370
-3
390
F
  0
LAYER
  5
215
100
AcDbSymbolTableRecord
100
AcDbLayerTableRecord
  2
LAYER_CHAMFER_FEAT
 70
0
 62
7
  6
CONTINUOUS
370
-3
390
F
  0
LAYER
  5
216
100
AcDbSymbolTableRecord
100
AcDbLayerTableRecord
  2
LAYER_CUT_FEAT
 70
0
 62
7
  6
CONTINUOUS
370
-3
390
F
  0
LAYER
  5
217
100
AcDbSymbolTableRecord
100
AcDbLayerTableRecord
  2
LAYER_DATUM
 70
0
 62
7
  6
CONTINUOUS
370
-3
390
F
  0
LAYER
  5
218
100
AcDbSymbolTableRecord
100
AcDbLayerTableRecord
  2
LAYER_DIM
 70
0
 62
7
  6
CONTINUOUS
370
-3
390
F
  0
LAYER
  5
219
100
AcDbSymbolTableRecord
100
AcDbLayerTableRecord
  2
LAYER_FEATURE
 70
0
 62
7
  6
CONTINUOUS
370
-3
390
F
  0
LAYER
  5
21A
100
AcDbSymbolTableRecord
100
AcDbLayerTableRecord
  2
LAYER_GEOM_FEAT
 70
0
 62
7
  6
CONTINUOUS
370
-3
390
F
  0
LAYER
  5
21B
100
AcDbSymbolTableRecord
100
AcDbLayerTableRecord
  2
LAYER_NOGEOM_FEAT
 70
0
 62
7
  6
CONTINUOUS
370
-3
390
F
  0
LAYER
  5
21C
100
AcDbSymbolTableRecord
100
AcDbLayerTableRecord
  2
LAYER_PARAMETER_DIM
 70
0
 62
7
  6
CONTINUOUS
370
-3
390
F
  0
LAYER
  5
21D
100
AcDbSymbolTableRecord
100
AcDbLayerTableRecord
  2
LAYER_PROTRUSION_FEAT
 70
0
 62
7
  6
CONTINUOUS
370
-3
390
F
  0
LAYER
  5
21E
100
AcDbSymbolTableRecord
100
AcDbLayerTableRecord
  2
LAYER_QUILT
 70
0
 62
7
  6
CONTINUOUS
370
-3
390
F
  0
LAYER
  5
21F
100
AcDbSymbolTableRecord
100
AcDbLayerTableRecord
  2
LAYER_ROUND_FEAT
 70
0
 62
7
  6
CONTINUOUS
370
-3
390
F
  0
ENDTAB
  0
TABLE
  2
STYLE
  5
3
100
AcDbSymbolTable
 70
1
  0
STYLE
  5
11
100
AcDbSymbolTableRecord
100
AcDbTextStyleTableRecord
  2
STANDARD
 70
0
 40
0.0
 41
0.8
 50
0.0
 71
0
 42
0.2
  3
txt
  4

  0
STYLE
  5
220
100
AcDbSymbolTableRecord
100
AcDbTextStyleTableRecord
  2
TEXTSTYLE_1
 70
0
 40
0.0
 41
0.8
 50
0.0
 71
0
 42
0.2
  3
gdt
  4

  0
ENDTAB
  0
TABLE
  2
VIEW
  5
6
100
AcDbSymbolTable
 70
0
  0
ENDTAB
  0
TABLE
  2
UCS
  5
7
100
AcDbSymbolTable
 70
0
  0
ENDTAB
  0
TABLE
  2
APPID
  5
9
100
AcDbSymbolTable
 70
1
  0
APPID
  5
221
100
AcDbSymbolTableRecord
100
AcDbRegAppTableRecord
  2
ACAD
 70
0
  0
ENDTAB
  0
TABLE
  2
BLOCK_RECORD
  5
1
100
AcDbSymbolTable
 70
0
  0
BLOCK_RECORD
  5
222
100
AcDbSymbolTableRecord
100
AcDbBlockTableRecord
  2
*Model_Space
  0
BLOCK_RECORD
  5
223
100
AcDbSymbolTableRecord
100
AcDbBlockTableRecord
  2
*Paper_Space
  0
ENDTAB
  0
TABLE
  2
DIMSTYLE
  5
A
100
AcDbSymbolTable
 70
1
100
AcDbDimStyleTable
 71
0
  0
DIMSTYLE
105
224
100
AcDbSymbolTableRecord
100
AcDbDimStyleTableRecord
  2
STANDARD
 70
0
  3

  4

 40
1.0
 41
0.1875
 42
0.0625
 43
0.38
 44
0.125
 45
0.0
 46
0.0
 47
0.0001
 48
0.0001
140
0.15625
141
0.09
142
0.0
143
25.4
144
1.0
145
0.0
146
1.0
147
0.09
 71
0.0
 72
0.0
 73
1
 74
1
 75
0
 76
0
 77
0
 78
4
 79
1
170
0
171
3
172
0
173
0
174
0
175
0
176
0
177
0
178
0
270
2
179
4
271
4
272
4
273
2
274
2
275
0
280
0
281
0
282
0
283
1
284
4
285
0
286
0
287
3
288
0
340
11
278
46
  0
ENDTAB
  0
ENDSEC
  0
SECTION
  2
BLOCKS
  0
BLOCK
  5
20
100
AcDbEntity
  8
0
100
AcDbBlockBegin
  2
*Model_Space
 70
0
 10
0.0
 20
0.0
 30
0.0
  3
*Model_Space
  1

  0
ENDBLK
  5
21
100
AcDbEntity
  8
0
100
AcDbBlockEnd
  0
BLOCK
  5
1C
100
AcDbEntity
  8
0
100
AcDbBlockBegin
  2
*Paper_Space
 70
0
 10
0.0
 20
0.0
 30
0.0
  3
*Paper_Space
  1

  0
ENDBLK
  5
1D
100
AcDbEntity
  8
0
100
AcDbBlockEnd
  0
ENDSEC
  0
SECTION
  2
ENTITIES
  0
MTEXT
  5
225
100
AcDbEntity
  8
0
100
AcDbMText
 62
7
  6
CONTINUOUS
  7
STANDARD
 71
1
 72
1
 10
15.9560215477
 20
0.9479130325
 30
0.0
 11
1.0
 21
0.0
 31
0.0
 44
0.9
  1
SCALE: 1:0.500
 40
0.3
 41
3.36
  0
LINE
  5
226
100
AcDbEntity
  8
0
100
AcDbLine
 62
7
  6
CONTINUOUS
 10
0.0
 20
0.0
 11
0.0
 21
17.0
  0
LINE
  5
227
100
AcDbEntity
  8
0
100
AcDbLine
 62
7
  6
CONTINUOUS
 10
0.0
 20
0.0
 11
22.0
 21
0.0
  0
LINE
  5
228
100
AcDbEntity
  8
0
100
AcDbLine
 62
7
  6
CONTINUOUS
 10
0.0
 20
17.0
 11
22.0
 21
17.0
  0
LINE
  5
229
100
AcDbEntity
  8
0
100
AcDbLine
 62
7
  6
CONTINUOUS
 10
22.0
 20
0.0
 11
22.0
 21
17.0
  0
LINE
  5
22A
100
AcDbEntity
  8
LAYER_FEATURE
100
AcDbLine
 62
7
  6
CONTINUOUS
 10
7.1458672762
 20
3.9888698968
 11
7.0837507053
 21
3.9888698968
  0
LINE
  5
22B
100
AcDbEntity
  8
LAYER_FEATURE
100
AcDbLine
 62
7
  6
CONTINUOUS
 10
5.1148672762
 20
3.9888698968
 11
5.176983847
 21
3.9888698968
  0
LINE
  5
22C
100
AcDbEntity
  8
02___PRT_ALL_AXES
100
AcDbLine
 62
7
  6
CONTINUOUS
 10
5.2103672762
 20
4.1441198968
 11
7.0503672762
 21
4.1441198968
  0
LINE
  5
22D
100
AcDbEntity
  8
LAYER_FEATURE
100
AcDbLine
 62
7
  6
CONTINUOUS
 10
5.1148672762
 20
7.0513698968
 11
5.1148672762
 21
3.9888698968
  0
LINE
  5
22E
100
AcDbEntity
  8
LAYER_FEATURE
100
AcDbLine
 62
7
  6
CONTINUOUS
 10
5.176983847
 20
7.0513698968
 11
5.176983847
 21
3.9888698968
  0
LINE
  5
22F
100
AcDbEntity
  8
LAYER_FEATURE
100
AcDbLine
 62
7
  6
CONTINUOUS
 10
5.2103672762
 20
6.9267812429
 11
5.2103672762
 21
4.1134585506
  0
LINE
  5
230
100
AcDbEntity
  8
LAYER_FEATURE
100
AcDbLine
 62
7
  6
CONTINUOUS
 10
5.176983847
 20
3.9888698968
 11
5.2103672762
 21
4.1134585506
  0
LINE
  5
231
100
AcDbEntity
  8
LAYER_FEATURE
100
AcDbLine
 62
7
  6
CONTINUOUS
 10
5.176983847
 20
7.0513698968
 11
5.2103672762
 21
6.9267812429
  0
LINE
  5
232
100
AcDbEntity
  8
LAYER_FEATURE
100
AcDbLine
 62
7
  6
CONTINUOUS
 10
7.0837507053
 20
7.0513698968
 11
7.0503672762
 21
6.9267812429
  0
LINE
  5
233
100
AcDbEntity
  8
LAYER_FEATURE
100
AcDbLine
 62
7
  6
CONTINUOUS
 10
7.0837507053
 20
3.9888698968
 11
7.0503672762
 21
4.1134585506
  0
LINE
  5
234
100
AcDbEntity
  8
LAYER_FEATURE
100
AcDbLine
 62
7
  6
CONTINUOUS
 10
7.0503672762
 20
6.9267812429
 11
7.0503672762
 21
4.1134585506
  0
LINE
  5
235
100
AcDbEntity
  8
LAYER_FEATURE
100
AcDbLine
 62
7
  6
CONTINUOUS
 10
7.0837507053
 20
7.0513698968
 11
7.0837507053
 21
3.9888698968
  0
LINE
  5
236
100
AcDbEntity
  8
LAYER_FEATURE
100
AcDbLine
 62
7
  6
CONTINUOUS
 10
7.1458672762
 20
7.0513698968
 11
7.1458672762
 21
3.9888698968
  0
LINE
  5
237
100
AcDbEntity
  8
LAYER_FEATURE
100
AcDbLine
 62
7
  6
CONTINUOUS
 10
5.2103672762
 20
6.5971099516
 11
7.0503672762
 21
6.5971099516
  0
LINE
  5
238
100
AcDbEntity
  8
LAYER_CUT_FEAT
100
AcDbLine
 62
7
  6
CONTINUOUS
 10
5.2103672762
 20
6.600423193
 11
7.0503672762
 21
6.600423193
  0
LINE
  5
239
100
AcDbEntity
  8
LAYER_FEATURE
100
AcDbLine
 62
7
  6
CONTINUOUS
 10
5.2103672762
 20
6.7235021796
 11
7.0503672762
 21
6.7235021796
  0
LINE
  5
23A
100
AcDbEntity
  8
LAYER_FEATURE
100
AcDbLine
 62
7
  6
CONTINUOUS
 10
5.2103672762
 20
6.7434966473
 11
7.0503672762
 21
6.7434966473
  0
LINE
  5
23B
100
AcDbEntity
  8
LAYER_CUT_FEAT
100
AcDbLine
 62
7
  6
CONTINUOUS
 10
5.2103672762
 20
6.7449931459
 11
7.0503672762
 21
6.7449931459
  0
LINE
  5
23C
100
AcDbEntity
  8
LAYER_FEATURE
100
AcDbLine
 62
7
  6
CONTINUOUS
 10
5.2103672762
 20
6.8305571282
 11
7.0503672762
 21
6.8305571282
  0
LINE
  5
23D
100
AcDbEntity
  8
LAYER_FEATURE
100
AcDbLine
 62
7
  6
CONTINUOUS
 10
5.2103672762
 20
6.8428696606
 11
7.0503672762
 21
6.8428696606
  0
LINE
  5
23E
100
AcDbEntity
  8
LAYER_CUT_FEAT
100
AcDbLine
 62
7
  6
CONTINUOUS
 10
5.2103672762
 20
6.8432474145
 11
7.0503672762
 21
6.8432474145
  0
LINE
  5
23F
100
AcDbEntity
  8
LAYER_FEATURE
100
AcDbLine
 62
7
  6
CONTINUOUS
 10
5.2103672762
 20
6.8872527089
 11
7.0503672762
 21
6.8872527089
  0
LINE
  5
240
100
AcDbEntity
  8
LAYER_FEATURE
100
AcDbLine
 62
7
  6
CONTINUOUS
 10
5.2103672762
 20
6.8914101423
 11
7.0503672762
 21
6.8914101423
  0
LINE
  5
241
100
AcDbEntity
  8
LAYER_FEATURE
100
AcDbLine
 62
7
  6
CONTINUOUS
 10
7.1458672762
 20
7.0513698968
 11
7.0837507053
 21
7.0513698968
  0
LINE
  5
242
100
AcDbEntity
  8
LAYER_FEATURE
100
AcDbLine
 62
7
  6
CONTINUOUS
 10
5.1148672762
 20
7.0513698968
 11
5.176983847
 21
7.0513698968
  0
LINE
  5
243
100
AcDbEntity
  8
LAYER_FEATURE
100
AcDbLine
 62
7
  6
CONTINUOUS
 10
5.0553720839
 20
11.0687977814
 11
5.1174886547
 21
11.0687977814
  0
LINE
  5
244
100
AcDbEntity
  8
LAYER_FEATURE
100
AcDbLine
 62
7
  6
CONTINUOUS
 10
7.024255513
 20
11.0687977814
 11
7.0863720839
 21
11.0687977814
  0
LINE
  5
245
100
AcDbEntity
  8
02___PRT_ALL_AXES
100
AcDbLine
 62
7
  6
CONTINUOUS
 10
5.1508720839
 20
11.2240477814
 11
6.9908720839
 21
11.2240477814
  0
LINE
  5
246
100
AcDbEntity
  8
LAYER_FEATURE
100
AcDbLine
 62
7
  6
CONTINUOUS
 10
5.0553720839
 20
11.0687977814
 11
5.0553720839
 21
14.1312977814
  0
LINE
  5
247
100
AcDbEntity
  8
LAYER_FEATURE
100
AcDbLine
 62
7
  6
CONTINUOUS
 10
5.1174886547
 20
11.0687977814
 11
5.1174886547
 21
14.1312977814
  0
LINE
  5
248
100
AcDbEntity
  8
LAYER_FEATURE
100
AcDbLine
 62
7
  6
CONTINUOUS
 10
5.1508720839
 20
11.1933865367
 11
5.1508720839
 21
14.0067090261
  0
LINE
  5
249
100
AcDbEntity
  8
LAYER_FEATURE
100
AcDbLine
 62
7
  6
CONTINUOUS
 10
5.1508720839
 20
11.7436200717
 11
6.9908720839
 21
11.7436200717
  0
LINE
  5
24A
100
AcDbEntity
  8
LAYER_FEATURE
100
AcDbLine
 62
7
  6
CONTINUOUS
 10
6.9908720839
 20
11.875390763
 11
5.1508720839
 21
11.875390763
  0
LINE
  5
24B
100
AcDbEntity
  8
LAYER_CUT_FEAT
100
AcDbLine
 62
7
  6
CONTINUOUS
 10
5.1508720839
 20
11.9240420934
 11
6.9908720839
 21
11.9240420934
  0
LINE
  5
24C
100
AcDbEntity
  8
LAYER_FEATURE
100
AcDbLine
 62
7
  6
CONTINUOUS
 10
5.1508720839
 20
11.9327794085
 11
6.9908720839
 21
11.9327794085
  0
LINE
  5
24D
100
AcDbEntity
  8
LAYER_FEATURE
100
AcDbLine
 62
7
  6
CONTINUOUS
 10
5.1508720839
 20
11.9701864266
 11
6.9908720839
 21
11.9701864266
  0
LINE
  5
24E
100
AcDbEntity
  8
LAYER_FEATURE
100
AcDbLine
 62
7
  6
CONTINUOUS
 10
5.1174886547
 20
11.0687977814
 11
5.1508720839
 21
11.1933864352
  0
LINE
  5
24F
100
AcDbEntity
  8
LAYER_FEATURE
100
AcDbLine
 62
7
  6
CONTINUOUS
 10
6.9908720839
 20
12.0903607465
 11
5.1508720839
 21
12.0903607465
  0
LINE
  5
250
100
AcDbEntity
  8
LAYER_FEATURE
100
AcDbLine
 62
7
  6
CONTINUOUS
 10
5.1174886547
 20
14.1312977814
 11
5.1508720839
 21
14.0067091276
  0
LINE
  5
251
100
AcDbEntity
  8
LAYER_FEATURE
100
AcDbLine
 62
7
  6
CONTINUOUS
 10
6.9908720839
 20
12.1457935185
 11
5.1508720839
 21
12.1457935185
  0
LINE
  5
252
100
AcDbEntity
  8
LAYER_CUT_FEAT
100
AcDbLine
 62
7
  6
CONTINUOUS
 10
5.1508720839
 20
12.1682328183
 11
6.9908720839
 21
12.1682328183
  0
LINE
  5
253
100
AcDbEntity
  8
LAYER_FEATURE
100
AcDbLine
 62
7
  6
CONTINUOUS
 10
5.1508720839
 20
12.1803690203
 11
6.9908720839
 21
12.1803690203
  0
LINE
  5
254
100
AcDbEntity
  8
LAYER_FEATURE
100
AcDbLine
 62
7
  6
CONTINUOUS
 10
5.1508720839
 20
12.2209580001
 11
6.9908720839
 21
12.2209580001
  0
LINE
  5
255
100
AcDbEntity
  8
LAYER_FEATURE
100
AcDbLine
 62
7
  6
CONTINUOUS
 10
6.9908720839
 20
12.3249177169
 11
5.1508720839
 21
12.3249177169
  0
LINE
  5
256
100
AcDbEntity
  8
LAYER_FEATURE
100
AcDbLine
 62
7
  6
CONTINUOUS
 10
6.9908720839
 20
12.3837648337
 11
5.1508720839
 21
12.3837648337
  0
LINE
  5
257
100
AcDbEntity
  8
LAYER_FEATURE
100
AcDbLine
 62
7
  6
CONTINUOUS
 10
5.1508720839
 20
12.4440866514
 11
6.9908720839
 21
12.4440866514
  0
LINE
  5
258
100
AcDbEntity
  8
LAYER_FEATURE
100
AcDbLine
 62
7
  6
CONTINUOUS
 10
5.1508720839
 20
12.4862977814
 11
6.9908720839
 21
12.4862977814
  0
LINE
  5
259
100
AcDbEntity
  8
LAYER_FEATURE
100
AcDbLine
 62
7
  6
CONTINUOUS
 10
6.9908720839
 20
12.5700477814
 11
5.1508720839
 21
12.5700477814
  0
LINE
  5
25A
100
AcDbEntity
  8
LAYER_FEATURE
100
AcDbLine
 62
7
  6
CONTINUOUS
 10
6.9908720839
 20
12.6300477814
 11
5.1508720839
 21
12.6300477814
  0
LINE
  5
25B
100
AcDbEntity
  8
LAYER_FEATURE
100
AcDbLine
 62
7
  6
CONTINUOUS
 10
5.1508720839
 20
12.7137977814
 11
6.9908720839
 21
12.7137977814
  0
LINE
  5
25C
100
AcDbEntity
  8
LAYER_FEATURE
100
AcDbLine
 62
7
  6
CONTINUOUS
 10
6.9908720839
 20
14.0067091276
 11
7.024255513
 21
14.1312977814
  0
LINE
  5
25D
100
AcDbEntity
  8
LAYER_FEATURE
100
AcDbLine
 62
7
  6
CONTINUOUS
 10
6.9908720839
 20
11.1933864352
 11
7.024255513
 21
11.0687977814
  0
LINE
  5
25E
100
AcDbEntity
  8
LAYER_FEATURE
100
AcDbLine
 62
7
  6
CONTINUOUS
 10
6.9908720839
 20
11.1933865265
 11
6.9908720839
 21
14.0067090362
  0
LINE
  5
25F
100
AcDbEntity
  8
LAYER_FEATURE
100
AcDbLine
 62
7
  6
CONTINUOUS
 10
7.024255513
 20
11.0687977814
 11
7.024255513
 21
14.1312977814
  0
LINE
  5
260
100
AcDbEntity
  8
LAYER_FEATURE
100
AcDbLine
 62
7
  6
CONTINUOUS
 10
7.0863720839
 20
11.0687977814
 11
7.0863720839
 21
14.1312977814
  0
LINE
  5
261
100
AcDbEntity
  8
02___PRT_ALL_AXES
100
AcDbLine
 62
7
  6
CONTINUOUS
 10
5.1508720839
 20
13.9760477814
 11
6.9908720839
 21
13.9760477814
  0
LINE
  5
262
100
AcDbEntity
  8
LAYER_FEATURE
100
AcDbLine
 62
7
  6
CONTINUOUS
 10
5.0553720839
 20
14.1312977814
 11
5.1174886547
 21
14.1312977814
  0
LINE
  5
263
100
AcDbEntity
  8
LAYER_FEATURE
100
AcDbLine
 62
7
  6
CONTINUOUS
 10
7.024255513
 20
14.1312977814
 11
7.0863720839
 21
14.1312977814
  0
LINE
  5
264
100
AcDbEntity
  8
LAYER_FEATURE
100
AcDbLine
 62
7
  6
CONTINUOUS
 10
14.5357906761
 20
10.9795549929
 11
14.5930038265
 21
10.9795549929
  0
LINE
  5
265
100
AcDbEntity
  8
LAYER_FEATURE
100
AcDbLine
 62
7
  6
CONTINUOUS
 10
16.3492524044
 20
10.9795549929
 11
16.4064655549
 21
10.9795549929
  0
LINE
  5
266
100
AcDbEntity
  8
LAYER_FEATURE
100
AcDbLine
 62
7
  6
CONTINUOUS
 10
14.1339829708
 20
12.5837476901
 11
14.1358908874
 21
12.6435473211
  0
LINE
  5
267
100
AcDbEntity
  8
LAYER_FEATURE
100
AcDbLine
 62
7
  6
CONTINUOUS
 10
14.1489353297
 20
12.8277100028
 11
14.1553496689
 21
12.8854047749
  0
LINE
  5
268
100
AcDbEntity
  8
LAYER_FEATURE
100
AcDbLine
 62
7
  6
CONTINUOUS
 10
14.182134627
 20
13.0594938337
 11
14.1928088893
 21
13.1128665692
  0
LINE
  5
269
100
AcDbEntity
  8
LAYER_FEATURE
100
AcDbLine
 62
7
  6
CONTINUOUS
 10
14.23581442
 20
13.2815482428
 11
14.2468290118
 21
13.3171914747
  0
LINE
  5
26A
100
AcDbEntity
  8
02___PRT_ALL_AXES
100
AcDbLine
 62
7
  6
CONTINUOUS
 10
14.623752001
 20
11.1348049929
 11
16.0878926628
 21
11.1348049929
  0
LINE
  5
26B
100
AcDbEntity
  8
LAYER_FEATURE
100
AcDbLine
 62
7
  6
CONTINUOUS
 10
14.1419992729
 20
12.9419903891
 11
14.1250893032
 21
12.9757164344
  0
LINE
  5
26C
100
AcDbEntity
  8
LAYER_FEATURE
100
AcDbLine
 62
7
  6
CONTINUOUS
 10
14.1840139255
 20
13.1750531716
 11
14.1699911029
 21
13.2166027162
  0
LINE
  5
26D
100
AcDbEntity
  8
LAYER_FEATURE
100
AcDbLine
 62
7
  6
CONTINUOUS
 10
14.2429274658
 20
13.3825892691
 11
14.2323306793
 21
13.4303655873
  0
LINE
  5
26E
100
AcDbEntity
  8
LAYER_FEATURE
100
AcDbLine
 62
7
  6
CONTINUOUS
 10
14.0932767034
 20
12.5265831107
 11
14.1137283158
 21
12.5428583161
  0
LINE
  5
26F
100
AcDbEntity
  8
02___PRT_ALL_AXES
100
AcDbLine
 62
7
  6
CONTINUOUS
 10
16.3593093512
 20
11.4366181755
 11
16.3119874143
 21
11.4461698277
  0
LINE
  5
270
100
AcDbEntity
  8
LAYER_FEATURE
100
AcDbLine
 62
7
  6
CONTINUOUS
 10
14.1184981075
 20
12.6923573936
 11
14.0993508314
 21
12.7169638666
  0
LINE
  5
271
100
AcDbEntity
  8
LAYER_FEATURE
100
AcDbLine
 62
7
  6
CONTINUOUS
 10
14.0879126374
 20
12.5094098756
 11
15.7530615307
 21
12.5094098756
  0
LINE
  5
272
100
AcDbEntity
  8
LAYER_FEATURE
100
AcDbLine
 62
7
  6
CONTINUOUS
 10
15.7537531571
 20
12.5837476901
 11
14.1339829708
 21
12.5837476901
  0
LINE
  5
273
100
AcDbEntity
  8
LAYER_FEATURE
100
AcDbLine
 62
7
  6
CONTINUOUS
 10
15.7553217348
 20
12.6435473211
 11
14.1358908874
 21
12.6435473211
  0
LINE
  5
274
100
AcDbEntity
  8
LAYER_FEATURE
100
AcDbLine
 62
7
  6
CONTINUOUS
 10
14.0951468214
 20
12.7361501431
 11
15.7594540505
 21
12.7361501431
  0
LINE
  5
275
100
AcDbEntity
  8
LAYER_FEATURE
100
AcDbLine
 62
7
  6
CONTINUOUS
 10
14.098102651
 20
12.7778808275
 11
15.7621990452
 21
12.7778808275
  0
LINE
  5
276
100
AcDbEntity
  8
LAYER_FEATURE
100
AcDbLine
 62
7
  6
CONTINUOUS
 10
15.7659888878
 20
12.8277100028
 11
14.1489353297
 21
12.8277100028
  0
LINE
  5
277
100
AcDbEntity
  8
LAYER_FEATURE
100
AcDbLine
 62
7
  6
CONTINUOUS
 10
15.7711986963
 20
12.8854047749
 11
14.1553496689
 21
12.8854047749
  0
LINE
  5
278
100
AcDbEntity
  8
LAYER_FEATURE
100
AcDbLine
 62
7
  6
CONTINUOUS
 10
14.1224236871
 20
12.9966401718
 11
15.7838830339
 21
12.9966401718
  0
LINE
  5
279
100
AcDbEntity
  8
LAYER_FEATURE
100
AcDbLine
 62
7
  6
CONTINUOUS
 10
14.1284930743
 20
13.0360882048
 11
15.7891582871
 21
13.0360882048
  0
LINE
  5
27A
100
AcDbEntity
  8
LAYER_CUT_FEAT
100
AcDbLine
 62
7
  6
CONTINUOUS
 10
14.1353032682
 20
13.0467663917
 11
15.7907650117
 21
13.0467663917
  0
LINE
  5
27B
100
AcDbEntity
  8
LAYER_FEATURE
100
AcDbLine
 62
7
  6
CONTINUOUS
 10
15.7926800834
 20
13.0594938337
 11
14.182134627
 21
13.0594938337
  0
LINE
  5
27C
100
AcDbEntity
  8
LAYER_FEATURE
100
AcDbLine
 62
7
  6
CONTINUOUS
 10
14.1046683287
 20
12.7920368006
 11
14.1259634249
 21
12.7977534588
  0
LINE
  5
27D
100
AcDbEntity
  8
LAYER_FEATURE
100
AcDbLine
 62
7
  6
CONTINUOUS
 10
15.801105151
 20
13.1128665692
 11
14.1928088893
 21
13.1128665692
  0
LINE
  5
27E
100
AcDbEntity
  8
LAYER_FEATURE
100
AcDbLine
 62
7
  6
CONTINUOUS
 10
14.1689663187
 20
13.2384598269
 11
15.8247113075
 21
13.2384598269
  0
LINE
  5
27F
100
AcDbEntity
  8
02___PRT_ALL_AXES
100
AcDbLine
 62
7
  6
CONTINUOUS
 10
16.3593093512
 20
13.5849918104
 11
16.3120324749
 21
13.5754492533
  0
LINE
  5
280
100
AcDbEntity
  8
LAYER_FEATURE
100
AcDbLine
 62
7
  6
CONTINUOUS
 10
14.1779160205
 20
13.274109243
 11
15.8324416056
 21
13.274109243
  0
LINE
  5
281
100
AcDbEntity
  8
0
100
AcDbLine
 62
7
  6
CONTINUOUS
 10
14.1839130241
 20
13.2815482428
 11
15.8341382671
 21
13.2815482428
  0
LINE
  5
282
100
AcDbEntity
  8
LAYER_FEATURE
100
AcDbLine
 62
7
  6
CONTINUOUS
 10
15.842398597
 20
13.3171914747
 11
14.2468290118
 21
13.3171914747
  0
LINE
  5
283
100
AcDbEntity
  8
02___PRT_ALL_AXES
100
AcDbLine
 62
7
  6
CONTINUOUS
 10
16.3757074675
 20
13.5874734427
 11
16.3757438134
 21
13.5874771076
  0
LINE
  5
284
100
AcDbEntity
  8
LAYER_FEATURE
100
AcDbLine
 62
7
  6
CONTINUOUS
 10
14.2329861091
 20
13.4523161149
 11
15.8790950546
 21
13.4523161149
  0
LINE
  5
285
100
AcDbEntity
  8
02___PRT_ALL_AXES
100
AcDbLine
 62
7
  6
CONTINUOUS
 10
16.3757074675
 20
13.5874734427
 11
16.375743844
 21
13.587475103
  0
LINE
  5
286
100
AcDbEntity
  8
02___PRT_ALL_AXES
100
AcDbLine
 62
7
  6
CONTINUOUS
 10
14.623752001
 20
13.8868049929
 11
16.0877037654
 21
13.8868049929
  0
LINE
  5
287
100
AcDbEntity
  8
LAYER_FEATURE
100
AcDbLine
 62
7
  6
CONTINUOUS
 10
14.5357906761
 20
14.0420549929
 11
14.5930038265
 21
14.0420549929
  0
LINE
  5
288
100
AcDbEntity
  8
LAYER_FEATURE
100
AcDbLine
 62
7
  6
CONTINUOUS
 10
16.3492524044
 20
14.0420549929
 11
16.4064655549
 21
14.0420549929
  0
CIRCLE
  5
289
100
AcDbEntity
  8
LAYER_FEATURE
100
AcDbCircle
 62
7
  6
CONTINUOUS
 10
15.5603552569
 20
5.4606247044
 40
1.53125
  0
CIRCLE
  5
28A
100
AcDbEntity
  8
LAYER_FEATURE
100
AcDbCircle
 62
7
  6
CONTINUOUS
 10
15.5603552569
 20
5.4606247044
 40
1.4066613462
  0
CIRCLE
  5
28B
100
AcDbEntity
  8
02___PRT_ALL_AXES
100
AcDbCircle
 62
7
  6
CONTINUOUS
 10
15.5603552569
 20
5.4606247044
 40
1.0775
  0
CIRCLE
  5
28C
100
AcDbEntity
  8
LAYER_CHAMFER_FEAT
100
AcDbCircle
 62
7
  6
CONTINUOUS
 10
15.5603552569
 20
5.4606247044
 40
1.01
  0
CIRCLE
  5
28D
100
AcDbEntity
  8
LAYER_CHAMFER_FEAT
100
AcDbCircle
 62
7
  6
CONTINUOUS
 10
15.5603552569
 20
5.4606247044
 40
0.98
  0
ARC
  5
28E
100
AcDbEntity
  8
LAYER_CUT_FEAT
100
AcDbCircle
 62
7
  6
CONTINUOUS
 10
15.5603552569
 20
5.4606247044
 40
0.84375
100
AcDbArc
 50
248.3827617612
 51
41.6172382388
  0
ARC
  5
28F
100
AcDbEntity
  8
02___PRT_ALL_AXES
100
AcDbCircle
 62
7
  6
CONTINUOUS
 10
15.5603552569
 20
5.4606247044
 40
0.84375
100
AcDbArc
 50
58.3827617612
 51
136.6172382388
  0
ARC
  5
290
100
AcDbEntity
  8
02___PRT_ALL_AXES
100
AcDbCircle
 62
7
  6
CONTINUOUS
 10
15.5603552569
 20
5.4606247044
 40
0.84375
100
AcDbArc
 50
153.3827617612
 51
231.6172382388
  0
ARC
  5
291
100
AcDbEntity
  8
02___PRT_ALL_AXES
100
AcDbCircle
 62
7
  6
CONTINUOUS
 10
15.5603552569
 20
5.4606247044
 40
0.7989968404
100
AcDbArc
 50
136.1543259312
 51
153.8456740688
  0
ARC
  5
292
100
AcDbEntity
  8
LAYER_CUT_FEAT
100
AcDbCircle
 62
7
  6
CONTINUOUS
 10
15.5603552569
 20
5.4606247044
 40
0.7825640395
100
AcDbArc
 50
248.7288156508
 51
41.2711843492
  0
ARC
  5
293
100
AcDbEntity
  8
LAYER_CUT_FEAT
100
AcDbCircle
 62
7
  6
CONTINUOUS
 10
15.5603552569
 20
5.4606247044
 40
0.7825640395
100
AcDbArc
 50
58.7288156508
 51
231.2711843492
  0
ARC
  5
294
100
AcDbEntity
  8
02___PRT_ALL_AXES
100
AcDbCircle
 62
7
  6
CONTINUOUS
 10
14.894794221
 20
5.926655559
 40
0.125
100
AcDbArc
 50
44.3942086307
 51
245.6057913693
  0
ARC
  5
295
100
AcDbEntity
  8
02___PRT_ALL_AXES
100
AcDbCircle
 62
7
  6
CONTINUOUS
 10
15.1541052569
 20
4.7569790639
 40
0.125
100
AcDbArc
 50
160.2465688135
 51
319.7534311865
  0
ARC
  5
296
100
AcDbEntity
  8
LAYER_CUT_FEAT
100
AcDbCircle
 62
7
  6
CONTINUOUS
 10
16.0826201898
 20
6.0830358145
 40
0.125
100
AcDbArc
 50
301.820265907
 51
158.179734093
  0
ARC
  5
297
100
AcDbEntity
  8
LAYER_CUT_FEAT
100
AcDbCircle
 62
7
  6
CONTINUOUS
 10
15.1541052569
 20
4.7569790639
 40
0.125
100
AcDbArc
 50
131.820265907
 51
160.2465688135
  0
ARC
  5
298
100
AcDbEntity
  8
LAYER_CUT_FEAT
100
AcDbCircle
 62
7
  6
CONTINUOUS
 10
15.1541052569
 20
4.7569790639
 40
0.125
100
AcDbArc
 50
319.7534311865
 51
348.179734093
  0
ARC
  5
299
100
AcDbEntity
  8
LAYER_FEATURE
100
AcDbCircle
 62
7
  6
CONTINUOUS
 10
17.4743413568
 20
12.5177681579
 40
3.3862437005
100
AcDbArc
 50
175.5945127778
 51
176.3023760905
  0
ARC
  5
29A
100
AcDbEntity
  8
LAYER_FEATURE
100
AcDbCircle
 62
7
  6
CONTINUOUS
 10
17.0277085176
 20
12.5698303915
 40
2.936468378
100
AcDbArc
 50
170.8638038288
 51
171.6425688911
  0
ARC
  5
29B
100
AcDbEntity
  8
LAYER_FEATURE
100
AcDbCircle
 62
7
  6
CONTINUOUS
 10
16.3945298382
 20
12.6986854653
 40
2.2900850073
100
AcDbArc
 50
165.447475077
 51
166.3670769196
  0
ARC
  5
29C
100
AcDbEntity
  8
LAYER_FEATURE
100
AcDbCircle
 62
7
  6
CONTINUOUS
 10
16.3174039083
 20
13.4163875889
 40
0.1717483955
100
AcDbArc
 50
77.5449430426
 51
80.2503165462
  0
ARC
  5
29D
100
AcDbEntity
  8
LAYER_FEATURE
100
AcDbCircle
 62
7
  6
CONTINUOUS
 10
16.3175082848
 20
11.6046880382
 40
0.1712041052
100
AcDbArc
 50
279.9021226722
 51
282.4675395502
  0
ARC
  5
29E
100
AcDbEntity
  8
02___PRT_ALL_AXES
100
AcDbCircle
 62
7
  6
CONTINUOUS
 10
16.392654951
 20
13.4200695175
 40
0.1682595952
100
AcDbArc
 50
95.7807618614
 51
101.4305203935
  0
ARC
  5
29F
100
AcDbEntity
  8
02___PRT_ALL_AXES
100
AcDbCircle
 62
7
  6
CONTINUOUS
 10
16.3926524268
 20
11.6015247528
 40
0.1682436864
100
AcDbArc
 50
258.5692612714
 51
264.2382082161
  0
ARC
  5
2A0
100
AcDbEntity
  8
LAYER_FEATURE
100
AcDbCircle
 62
7
  6
CONTINUOUS
 10
16.3757167354
 20
11.59701744
 40
0.1634624382
100
AcDbArc
 50
270.0002260894
 51
272.5405937161
  0
SPLINE
  5
2A1
100
AcDbEntity
  8
02___PRT_ALL_AXES
100
AcDbSpline
 62
7
  6
CONTINUOUS
 70
0
 71
3
 72
38
 73
34
 74
0
 42
0.0000001
 43
0.0000001
 44
0.0000000001
 40
0.0
 40
0.0
 40
0.0
 40
0.0
 40
0.0890778825
 40
0.1323291691
 40
0.1746913098
 40
0.2161437993
 40
0.2566680191
 40
0.2962475551
 40
0.3348680872
 40
0.3725176451
 40
0.4091867628
 40
0.4448687288
 40
0.479559822
 40
0.5132595187
 40
0.5459708317
 40
0.5777006456
 40
0.6084600089
 40
0.6382645557
 40
0.6671349576
 40
0.6950973015
 40
0.7221835716
 40
0.7484321588
 40
0.773888242
 40
0.7986041879
 40
0.8226398969
 40
0.8460629126
 40
0.8689483768
 40
0.8913787706
 40
0.9134432822
 40
0.9352368682
 40
0.956859013
 40
0.9784121672
 40
1.0
 40
1.0
 40
1.0
 40
1.0
 10
16.7208717208
 20
11.8410202521
 30
0.0
 10
16.7158626158
 20
11.8248107826
 30
0.0
 10
16.7080194521
 20
11.8008514374
 30
0.0
 10
16.6967951261
 20
11.769528631
 30
0.0
 10
16.6881971854
 20
11.7469046911
 30
0.0
 10
16.6793446202
 20
11.7249382052
 30
0.0
 10
16.6702449629
 20
11.7036479421
 30
0.0
 10
16.6609060434
 20
11.6830522321
 30
0.0
 10
16.6513358689
 20
11.6631687272
 30
0.0
 10
16.6415426567
 20
11.6440144823
 30
0.0
 10
16.6315347717
 20
11.6256059307
 30
0.0
 10
16.6213207704
 20
11.607958848
 30
0.0
 10
16.6109093853
 20
11.5910883411
 30
0.0
 10
16.6003094663
 20
11.5750088671
 30
0.0
 10
16.5895300133
 20
11.5597341973
 30
0.0
 10
16.5785801791
 20
11.5452773947
 30
0.0
 10
16.5674691994
 20
11.5316508524
 30
0.0
 10
16.556206414
 20
11.5188662699
 30
0.0
 10
16.5448012905
 20
11.5069346173
 30
0.0
 10
16.5332633518
 20
11.4958661965
 30
0.0
 10
16.5216021897
 20
11.4856706385
 30
0.0
 10
16.5098275151
 20
11.4763568513
 30
0.0
 10
16.4979490994
 20
11.4679331008
 30
0.0
 10
16.4859767991
 20
11.4604070281
 30
0.0
 10
16.4739206356
 20
11.4537855664
 30
0.0
 10
16.4617907736
 20
11.448075012
 30
0.0
 10
16.449597562
 20
11.4432810303
 30
0.0
 10
16.437351627
 20
11.4394085043
 30
0.0
 10
16.4250638291
 20
11.4364615433
 30
0.0
 10
16.4127453743
 20
11.4344434384
 30
0.0
 10
16.4004074197
 20
11.4333564984
 30
0.0
 10
16.3880624226
 20
11.4332018685
 30
0.0
 10
16.379852937
 20
11.4337194645
 30
0.0
 10
16.3757619671
 20
11.434131054
 30
0.0
  0
SPLINE
  5
2A2
100
AcDbEntity
  8
LAYER_CHAMFER_FEAT
100
AcDbSpline
 62
7
  6
CONTINUOUS
 70
0
 71
3
 72
15
 73
11
 74
0
 42
0.0000001
 43
0.0000001
 44
0.0000000001
 40
0.0
 40
0.0
 40
0.0
 40
0.0
 40
0.1375055938
 40
0.2714668076
 40
0.4018486921
 40
0.5286395806
 40
0.6518353103
 40
0.7714434022
 40
0.8874859864
 40
1.0
 40
1.0
 40
1.0
 40
1.0
 10
16.1477021228
 20
11.7196448142
 30
0.0
 10
16.1506713041
 20
11.713594259
 30
0.0
 10
16.1566735741
 20
11.7017173233
 30
0.0
 10
16.1659954764
 20
11.6843639606
 30
0.0
 10
16.1755114214
 20
11.6677182312
 30
0.0
 10
16.185213124
 20
11.6517946376
 30
0.0
 10
16.1950924086
 20
11.6366065826
 30
0.0
 10
16.2051409849
 20
11.622166987
 30
0.0
 10
16.2153501658
 20
11.6084884387
 30
0.0
 10
16.222365319
 20
11.5997503614
 30
0.0
 10
16.2258992415
 20
11.5955165528
 30
0.0
  0
SPLINE
  5
2A3
100
AcDbEntity
  8
LAYER_FEATURE
100
AcDbSpline
 62
7
  6
CONTINUOUS
 70
0
 71
3
 72
23
 73
19
 74
0
 42
0.0000001
 43
0.0000001
 44
0.0000000001
 40
0.0
 40
0.0
 40
0.0
 40
0.0
 40
0.0538214507
 40
0.1078842098
 40
0.1624256241
 40
0.2176753532
 40
0.2738521271
 40
0.3311611914
 40
0.3897923729
 40
0.4499188378
 40
0.5116965963
 40
0.5752644219
 40
0.6407441316
 40
0.7082413529
 40
0.777846366
 40
0.849634944
 40
0.9236694764
 40
1.0
 40
1.0
 40
1.0
 40
1.0
 10
14.5930038265
 20
14.0420549871
 30
0.0
 10
14.598645217
 20
14.0420549953
 30
0.0
 10
14.609957587
 20
14.0416420551
 30
0.0
 10
14.6268952043
 20
14.0397860045
 30
0.0
 10
14.6438042076
 20
14.0366947435
 30
0.0
 10
14.6606689245
 20
14.0323715074
 30
0.0
 10
14.6774755006
 20
14.0268206983
 30
0.0
 10
14.6942099728
 20
14.0200477013
 30
0.0
 10
14.7108588009
 20
14.0120588804
 30
0.0
 10
14.7274087203
 20
14.002861541
 30
0.0
 10
14.7438466845
 20
13.9924637738
 30
0.0
 10
14.7601598237
 20
13.9808744875
 30
0.0
 10
14.7763354614
 20
13.9681034693
 30
0.0
 10
14.7923610241
 20
13.9541612785
 30
0.0
 10
14.808224005
 20
13.9390593129
 30
0.0
 10
14.8239121179
 20
13.9228097762
 30
0.0
 10
14.8394128765
 20
13.9054260691
 30
0.0
 10
14.8494591558
 20
13.8932769372
 30
0.0
 10
14.8544504829
 20
13.8870240856
 30
0.0
  0
SPLINE
  5
2A4
100
AcDbEntity
  8
LAYER_FEATURE
100
AcDbSpline
 62
7
  6
CONTINUOUS
 70
0
 71
3
 72
23
 73
19
 74
0
 42
0.0000001
 43
0.0000001
 44
0.0000000001
 40
0.0
 40
0.0
 40
0.0
 40
0.0
 40
0.0538203924
 40
0.1078821339
 40
0.162422591
 40
0.2176714555
 40
0.2738475166
 40
0.3311560088
 40
0.3897867674
 40
0.4499130346
 40
0.511690793
 40
0.5752587856
 40
0.6407389142
 40
0.7082367837
 40
0.7778426047
 40
0.8496322298
 40
0.9236680483
 40
1.0
 40
1.0
 40
1.0
 40
1.0
 10
14.5930038265
 20
10.9795549987
 30
0.0
 10
14.5986456823
 20
10.9795550068
 30
0.0
 10
14.6099589922
 20
10.9799679695
 30
0.0
 10
14.6268980056
 20
10.9818243744
 30
0.0
 10
14.6438083999
 20
10.9849161354
 30
0.0
 10
14.6606745052
 20
10.9892400595
 30
0.0
 10
14.677482439
 20
10.9947918117
 30
0.0
 10
14.6942182551
 20
11.0015659271
 30
0.0
 10
14.7108684228
 20
11.0095560311
 30
0.0
 10
14.727419635
 20
11.0187548958
 30
0.0
 10
14.7438588642
 20
11.0291543738
 30
0.0
 10
14.7601732635
 20
11.0407455231
 30
0.0
 10
14.7763501055
 20
11.0535186243
 30
0.0
 10
14.7923768272
 20
11.067463088
 30
0.0
 10
14.8082409575
 20
11.0825674716
 30
0.0
 10
14.8239301641
 20
11.0988196188
 30
0.0
 10
14.8394319445
 20
11.11620613
 30
0.0
 10
14.8494788954
 20
11.1283571657
 30
0.0
 10
14.8544705277
 20
11.134611011
 30
0.0
  0
SPLINE
  5
2A5
100
AcDbEntity
  8
LAYER_FEATURE
100
AcDbSpline
 62
7
  6
CONTINUOUS
 70
0
 71
3
 72
65
 73
61
 74
0
 42
0.0000001
 43
0.0000001
 44
0.0000000001
 40
0.0
 40
0.0
 40
0.0
 40
0.0
 40
0.0038448409
 40
0.0076962681
 40
0.0115608266
 40
0.0154449778
 40
0.0193550647
 40
0.0232972696
 40
0.0313000849
 40
0.0395005045
 40
0.0479396761
 40
0.0566542483
 40
0.065676231
 40
0.075033051
 40
0.0847477472
 40
0.0948392496
 40
0.1053227011
 40
0.1162097924
 40
0.12750909
 40
0.1392263423
 40
0.1513647611
 40
0.1639252737
 40
0.1769067479
 40
0.1903061902
 40
0.2041189202
 40
0.2183387261
 40
0.2329580007
 40
0.2479678624
 40
0.2633582619
 40
0.2791180778
 40
0.2952352027
 40
0.3116966201
 40
0.3284884754
 40
0.3455961418
 40
0.3630042806
 40
0.3806968972
 40
0.3986573936
 40
0.4168686184
 40
0.4353129134
 40
0.4539721589
 40
0.4728278175
 40
0.5110513761
 40
0.5498295651
 40
0.589003197
 40
0.6284102107
 40
0.6678868681
 40
0.7072689338
 40
0.7463928482
 40
0.7850969095
 40
0.8232224728
 40
0.8420204092
 40
0.8606162558
 40
0.8789915976
 40
0.8971284502
 40
0.9150093066
 40
0.9326171706
 40
0.9499356493
 40
0.9669488635
 40
0.9836418655
 40
1.0
 40
1.0
 40
1.0
 40
1.0
 10
16.4064655549
 20
14.0420549843
 30
0.0
 10
16.4099471282
 20
14.0420549809
 30
0.0
 10
16.4169172535
 20
14.0418981353
 30
0.0
 10
16.4273653278
 20
14.0411925712
 30
0.0
 10
16.4378070082
 20
14.0400168868
 30
0.0
 10
16.4482386737
 20
14.0383715526
 30
0.0
 10
16.4586572948
 20
14.0362569627
 30
0.0
 10
16.472594879
 20
14.0327963041
 30
0.0
 10
16.4900042928
 20
14.0272710263
 30
0.0
 10
16.5106759883
 20
14.0188086974
 30
0.0
 10
16.531210986
 20
14.0084935611
 30
0.0
 10
16.5515834528
 20
13.9963407693
 30
0.0
 10
16.5717696725
 20
13.9823669947
 30
0.0
 10
16.5917459919
 20
13.9665907036
 30
0.0
 10
16.6114891945
 20
13.949032092
 30
0.0
 10
16.6309762616
 20
13.9297131691
 30
0.0
 10
16.6501843792
 20
13.9086578211
 30
0.0
 10
16.6690909226
 20
13.8858918639
 30
0.0
 10
16.6876734825
 20
13.8614430777
 30
0.0
 10
16.7059099021
 20
13.8353412258
 30
0.0
 10
16.7237783214
 20
13.8076180559
 30
0.0
 10
16.7412572236
 20
13.7783072873
 30
0.0
 10
16.7583254796
 20
13.7474445871
 30
0.0
 10
16.7749623907
 20
13.7150675378
 30
0.0
 10
16.7911477329
 20
13.6812156002
 30
0.0
 10
16.8068617892
 20
13.6459300641
 30
0.0
 10
16.8220853849
 20
13.6092539982
 30
0.0
 10
16.8367999183
 20
13.5712321962
 30
0.0
 10
16.8509873906
 20
13.5319111215
 30
0.0
 10
16.8646304327
 20
13.4913388487
 30
0.0
 10
16.8777123299
 20
13.4495650033
 30
0.0
 10
16.890217047
 20
13.406640701
 30
0.0
 10
16.9021292523
 20
13.3626184833
 30
0.0
 10
16.9134343347
 20
13.3175522498
 30
0.0
 10
16.9241184236
 20
13.2714971906
 30
0.0
 10
16.9341684079
 20
13.2245097159
 30
0.0
 10
16.9435719504
 20
13.1766473903
 30
0.0
 10
16.9523175109
 20
13.1279688472
 30
0.0
 10
16.9603943356
 20
13.0785337682
 30
0.0
 10
16.9677925655
 20
13.0284026156
 30
0.0
 10
16.9767801508
 20
12.9604093486
 30
0.0
 10
16.9862363167
 20
12.8741118177
 30
0.0
 10
16.9947019337
 20
12.7692404808
 30
0.0
 10
17.0002946031
 20
12.6631035075
 30
0.0
 10
17.0029867822
 20
12.556221096
 30
0.0
 10
17.0027652057
 20
12.4491162938
 30
0.0
 10
16.9996309652
 20
12.3423135472
 30
0.0
 10
16.993599503
 20
12.2363355049
 30
0.0
 10
16.9847005295
 20
12.1317015814
 30
0.0
 10
16.9748863422
 20
12.0456533976
 30
0.0
 10
16.9656159835
 20
11.9778983415
 30
0.0
 10
16.9580104575
 20
11.9279722932
 30
0.0
 10
16.949729264
 20
11.8787608296
 30
0.0
 10
16.9407825133
 20
11.8303241352
 30
0.0
 10
16.9311812042
 20
11.7827216004
 30
0.0
 10
16.9209371219
 20
11.7360115125
 30
0.0
 10
16.91006284
 20
11.6902511684
 30
0.0
 10
16.8985716886
 20
11.6454964257
 30
0.0
 10
16.8864778223
 20
11.6018024784
 30
0.0
 10
16.8779342908
 20
11.5731169843
 30
0.0
 10
16.8735609132
 20
11.558964729
 30
0.0
  0
SPLINE
  5
2A6
100
AcDbEntity
  8
LAYER_FEATURE
100
AcDbSpline
 62
7
  6
CONTINUOUS
 70
0
 71
3
 72
39
 73
35
 74
0
 42
0.0000001
 43
0.0000001
 44
0.0000000001
 40
0.0
 40
0.0
 40
0.0
 40
0.0
 40
0.0212769801
 40
0.0426477408
 40
0.064204549
 40
0.0860367292
 40
0.1082294288
 40
0.130862627
 40
0.1540103832
 40
0.1777403606
 40
0.2021136172
 40
0.2271845624
 40
0.2530010613
 40
0.2796047131
 40
0.3070311702
 40
0.335310462
 40
0.3644674108
 40
0.3945220331
 40
0.4254898731
 40
0.4573823658
 40
0.4902072026
 40
0.5239686097
 40
0.5586676032
 40
0.5943022901
 40
0.630868089
 40
0.6683578927
 40
0.7067623032
 40
0.7460698008
 40
0.7862668429
 40
0.827338124
 40
0.8692664914
 40
0.9120330705
 40
0.9556187519
 40
1.0
 40
1.0
 40
1.0
 40
1.0
 10
16.4064655549
 20
10.9795550015
 30
0.0
 10
16.4120587445
 20
10.979554996
 30
0.0
 10
16.4232739638
 20
10.9799608694
 30
0.0
 10
16.4400666596
 20
10.9817852464
 30
0.0
 10
16.4568315017
 20
10.9848238038
 30
0.0
 10
16.4735532307
 20
10.9890734052
 30
0.0
 10
16.4902183413
 20
10.9945298275
 30
0.0
 10
16.5068132172
 20
11.0011878767
 30
0.0
 10
16.5233246568
 20
11.009041393
 30
0.0
 10
16.5397397117
 20
11.018083329
 30
0.0
 10
16.556045649
 20
11.0283058632
 30
0.0
 10
16.5722299114
 20
11.0397003746
 30
0.0
 10
16.5882801231
 20
11.0522574035
 30
0.0
 10
16.6041840103
 20
11.0659667291
 30
0.0
 10
16.6199293844
 20
11.0808173431
 30
0.0
 10
16.6355041919
 20
11.0967973755
 30
0.0
 10
16.650896467
 20
11.113894144
 30
0.0
 10
16.6660943216
 20
11.1320941572
 30
0.0
 10
16.6810860023
 20
11.1513830615
 30
0.0
 10
16.6958598911
 20
11.1717456568
 30
0.0
 10
16.710404479
 20
11.1931659333
 30
0.0
 10
16.7247084074
 20
11.2156270475
 30
0.0
 10
16.7387605121
 20
11.2391113137
 30
0.0
 10
16.75254978
 20
11.2636002553
 30
0.0
 10
16.7660653697
 20
11.2890746062
 30
0.0
 10
16.7792966782
 20
11.3155142943
 30
0.0
 10
16.7922332984
 20
11.3428984875
 30
0.0
 10
16.80486502
 20
11.3712056099
 30
0.0
 10
16.8171819012
 20
11.4004133489
 30
0.0
 10
16.8291742264
 20
11.4304986599
 30
0.0
 10
16.8408325016
 20
11.4614377529
 30
0.0
 10
16.8521476152
 20
11.4932064384
 30
0.0
 10
16.8631104547
 20
11.5257792783
 30
0.0
 10
16.8701163424
 20
11.5478180941
 30
0.0
 10
16.8735609132
 20
11.558964729
 30
0.0
  0
SPLINE
  5
2A7
100
AcDbEntity
  8
LAYER_FEATURE
100
AcDbSpline
 62
7
  6
CONTINUOUS
 70
0
 71
3
 72
37
 73
33
 74
0
 42
0.0000001
 43
0.0000001
 44
0.0000000001
 40
0.0
 40
0.0
 40
0.0
 40
0.0
 40
0.0879644224
 40
0.1726563381
 40
0.2137279372
 40
0.2539252505
 40
0.2932329877
 40
0.331637671
 40
0.3691277215
 40
0.4056937503
 40
0.4413286899
 40
0.4760279101
 40
0.5097895314
 40
0.5426145993
 40
0.5745072999
 40
0.6054753406
 40
0.6355301694
 40
0.6646873084
 40
0.6929667893
 40
0.7203934285
 40
0.7469972543
 40
0.7728139311
 40
0.7978850382
 40
0.822258454
 40
0.8459885976
 40
0.8691365021
 40
0.8917698481
 40
0.913962702
 40
0.9357950238
 40
0.9573519736
 40
0.9787228787
 40
1.0
 40
1.0
 40
1.0
 40
1.0
 10
16.0471110296
 20
13.1804343312
 30
0.0
 10
16.0519140028
 20
13.1959767582
 30
0.0
 10
16.0618294369
 20
13.2263353977
 30
0.0
 10
16.0754092103
 20
13.2634648986
 30
0.0
 10
16.0867742037
 20
13.2919768196
 30
0.0
 10
16.0954392967
 20
13.3125247942
 30
0.0
 10
16.1043258433
 20
13.3324391312
 30
0.0
 10
16.113426876
 20
13.3517041977
 30
0.0
 10
16.1227352387
 20
13.3703047867
 30
0.0
 10
16.1322436059
 20
13.3882262463
 30
0.0
 10
16.1419444812
 20
13.4054544749
 30
0.0
 10
16.1518302847
 20
13.4219758938
 30
0.0
 10
16.1618932536
 20
13.4377775104
 30
0.0
 10
16.1721255063
 20
13.4528469021
 30
0.0
 10
16.1825190935
 20
13.4671721927
 30
0.0
 10
16.193065898
 20
13.4807421296
 30
0.0
 10
16.2037577359
 20
13.4935460308
 30
0.0
 10
16.2145863642
 20
13.5055737779
 30
0.0
 10
16.2255433978
 20
13.5168158952
 30
0.0
 10
16.2366204285
 20
13.5272634541
 30
0.0
 10
16.2478089802
 20
13.5369080997
 30
0.0
 10
16.25910046
 20
13.5457421072
 30
0.0
 10
16.2704862587
 20
13.5537582556
 30
0.0
 10
16.2819576557
 20
13.5609499059
 30
0.0
 10
16.2935058041
 20
13.5673110192
 30
0.0
 10
16.3051217775
 20
13.5728360346
 30
0.0
 10
16.3167964444
 20
13.577520031
 30
0.0
 10
16.3285205113
 20
13.5813587064
 30
0.0
 10
16.3402844241
 20
13.5843483266
 30
0.0
 10
16.3520786617
 20
13.5864859713
 30
0.0
 10
16.3638924919
 20
13.5877694741
 30
0.0
 10
16.3717825145
 20
13.5880549799
 30
0.0
 10
16.3757173804
 20
13.588054984
 30
0.0
  0
SPLINE
  5
2A8
100
AcDbEntity
  8
LAYER_FEATURE
100
AcDbSpline
 62
7
  6
CONTINUOUS
 70
0
 71
3
 72
58
 73
54
 74
0
 42
0.0000001
 43
0.0000001
 44
0.0000000001
 40
0.0
 40
0.0
 40
0.0
 40
0.0
 40
0.0163582481
 40
0.0330514994
 40
0.0500648505
 40
0.0673835111
 40
0.0849915534
 40
0.1028725904
 40
0.1393839957
 40
0.1767770746
 40
0.2149030248
 40
0.2536074777
 40
0.2927317881
 40
0.3321142523
 40
0.3715913093
 40
0.4109987216
 40
0.4501727498
 40
0.4889513323
 40
0.5271752768
 40
0.564689491
 40
0.6013442337
 40
0.6193049118
 40
0.6369977085
 40
0.6544060248
 40
0.6715138642
 40
0.6883058873
 40
0.7047674698
 40
0.7208847585
 40
0.7366447362
 40
0.7520352925
 40
0.767045305
 40
0.7816647263
 40
0.7958846761
 40
0.8096975468
 40
0.8230971246
 40
0.8360787288
 40
0.8486393682
 40
0.8607779112
 40
0.8724952842
 40
0.8837946964
 40
0.8946818955
 40
0.9051654509
 40
0.9152570557
 40
0.9249718524
 40
0.9343287685
 40
0.9433508417
 40
0.9520655012
 40
0.960504758
 40
0.9687052611
 40
0.9767081575
 40
0.9845587034
 40
0.9923055923
 40
1.0
 40
1.0
 40
1.0
 40
1.0
 10
16.0471110296
 20
13.1804343312
 30
0.0
 10
16.0440343235
 20
13.1704781068
 30
0.0
 10
16.0380238619
 20
13.15029755
 30
0.0
 10
16.029515697
 20
13.1195584198
 30
0.0
 10
16.0214315506
 20
13.0880729644
 30
0.0
 10
16.0137813898
 20
13.0558801287
 30
0.0
 10
16.0065745342
 20
13.0230190476
 30
0.0
 10
15.9975057172
 20
12.9780558803
 30
0.0
 10
15.9873629363
 20
12.920460659
 30
0.0
 10
15.9771701306
 20
12.8498142973
 30
0.0
 10
15.968923171
 20
12.7775083207
 30
0.0
 10
15.9626626597
 20
12.7038970207
 30
0.0
 10
15.958419461
 20
12.6293404597
 30
0.0
 10
15.9562144952
 20
12.5542036167
 30
0.0
 10
15.9560586044
 20
12.4788543061
 30
0.0
 10
15.9579525896
 20
12.4036614187
 30
0.0
 10
15.9618870901
 20
12.3289930469
 30
0.0
 10
15.967842722
 20
12.2552147272
 30
0.0
 10
15.9757901504
 20
12.1826873589
 30
0.0
 10
15.9856901888
 20
12.1117663252
 30
0.0
 10
15.9955925644
 20
12.053907007
 30
0.0
 10
16.0044730125
 20
12.008706482
 30
0.0
 10
16.0115433126
 20
11.9756502583
 30
0.0
 10
16.0190596658
 20
11.9432500662
 30
0.0
 10
16.0270129098
 20
11.9115455082
 30
0.0
 10
16.0353932713
 20
11.8805754335
 30
0.0
 10
16.0441904698
 20
11.8503777512
 30
0.0
 10
16.0533937165
 20
11.8209894234
 30
0.0
 10
16.0629917317
 20
11.7924464114
 30
0.0
 10
16.0729727619
 20
11.7647836322
 30
0.0
 10
16.083324589
 20
11.7380349085
 30
0.0
 10
16.0940345455
 20
11.7122329243
 30
0.0
 10
16.1050895443
 20
11.6874091898
 30
0.0
 10
16.1164760957
 20
11.6635940048
 30
0.0
 10
16.1281803323
 20
11.6408164206
 30
0.0
 10
16.1401880271
 20
11.6191041987
 30
0.0
 10
16.1524846136
 20
11.5984837745
 30
0.0
 10
16.1650552275
 20
11.5789802384
 30
0.0
 10
16.1778847317
 20
11.5606173143
 30
0.0
 10
16.1909577513
 20
11.543417343
 30
0.0
 10
16.2042587015
 20
11.5274012665
 30
0.0
 10
16.2177718104
 20
11.5125886204
 30
0.0
 10
16.2314811609
 20
11.4989975607
 30
0.0
 10
16.245370701
 20
11.486644891
 30
0.0
 10
16.2594242468
 20
11.475546103
 30
0.0
 10
16.2736254496
 20
11.4657154156
 30
0.0
 10
16.2879577288
 20
11.4571658004
 30
0.0
 10
16.3024041674
 20
11.449909021
 30
0.0
 10
16.3169474217
 20
11.443955599
 30
0.0
 10
16.331569379
 20
11.439314706
 30
0.0
 10
16.3462517437
 20
11.4359939518
 30
0.0
 10
16.3609734579
 20
11.4339990891
 30
0.0
 10
16.3708157748
 20
11.4335549967
 30
0.0
 10
16.3757173804
 20
11.4335550018
 30
0.0
  0
SPLINE
  5
2A9
100
AcDbEntity
  8
LAYER_FEATURE
100
AcDbSpline
 62
7
  6
CONTINUOUS
 70
0
 71
3
 72
65
 73
61
 74
0
 42
0.0000001
 43
0.0000001
 44
0.0000000001
 40
0.0
 40
0.0
 40
0.0
 40
0.0
 40
0.0163581345
 40
0.0330511365
 40
0.0500643507
 40
0.0673828294
 40
0.0849906934
 40
0.1028715498
 40
0.1210084024
 40
0.1393837442
 40
0.1579795908
 40
0.1767775272
 40
0.2149030905
 40
0.2536071518
 40
0.2927310662
 40
0.3321131319
 40
0.3715897893
 40
0.410996803
 40
0.4501704349
 40
0.4889486239
 40
0.5271721825
 40
0.5460278411
 40
0.5646870866
 40
0.5831313816
 40
0.6013426064
 40
0.6193031028
 40
0.6369957194
 40
0.6544038582
 40
0.6715115246
 40
0.6883033799
 40
0.7047647973
 40
0.7208819222
 40
0.7366417381
 40
0.7520321376
 40
0.7670419993
 40
0.7816612739
 40
0.7958810798
 40
0.8096938098
 40
0.8230932521
 40
0.8360747263
 40
0.8486352389
 40
0.8607736577
 40
0.87249091
 40
0.8837902076
 40
0.8946772989
 40
0.9051607504
 40
0.9152522528
 40
0.924966949
 40
0.934323769
 40
0.9433457517
 40
0.9520603239
 40
0.9604994955
 40
0.9686999151
 40
0.9767027304
 40
0.9806449353
 40
0.9845550222
 40
0.9884391734
 40
0.9923037319
 40
0.9961551591
 40
1.0
 40
1.0
 40
1.0
 40
1.0
 10
15.8821570461
 20
13.4626452568
 30
0.0
 10
15.8777836685
 20
13.4484930015
 30
0.0
 10
15.869240137
 20
13.4198075074
 30
0.0
 10
15.8571462707
 20
13.3761135601
 30
0.0
 10
15.8456551193
 20
13.3313588174
 30
0.0
 10
15.8347808373
 20
13.2855984733
 30
0.0
 10
15.8245367551
 20
13.2388883854
 30
0.0
 10
15.814935446
 20
13.1912858506
 30
0.0
 10
15.8059886953
 20
13.1428491562
 30
0.0
 10
15.7977075018
 20
13.0936376927
 30
0.0
 10
15.7901019758
 20
13.0437116443
 30
0.0
 10
15.7808316171
 20
12.9759565882
 30
0.0
 10
15.7710174298
 20
12.8899084045
 30
0.0
 10
15.7621184563
 20
12.7852744809
 30
0.0
 10
15.756086994
 20
12.6792964386
 30
0.0
 10
15.7529527536
 20
12.5724936921
 30
0.0
 10
15.7527311771
 20
12.4653888898
 30
0.0
 10
15.7554233561
 20
12.3585064783
 30
0.0
 10
15.7610160256
 20
12.252369505
 30
0.0
 10
15.7694816425
 20
12.1474981681
 30
0.0
 10
15.7789378085
 20
12.0612006373
 30
0.0
 10
15.7879253938
 20
11.9932073702
 30
0.0
 10
15.7953236237
 20
11.9430762176
 30
0.0
 10
15.8034004484
 20
11.8936411386
 30
0.0
 10
15.8121460089
 20
11.8449625955
 30
0.0
 10
15.8215495514
 20
11.7971002699
 30
0.0
 10
15.8315995356
 20
11.7501127952
 30
0.0
 10
15.8422836246
 20
11.704057736
 30
0.0
 10
15.8535887069
 20
11.6589915025
 30
0.0
 10
15.8655009123
 20
11.6149692848
 30
0.0
 10
15.8780056294
 20
11.5720449825
 30
0.0
 10
15.8910875265
 20
11.5302711371
 30
0.0
 10
15.9047305687
 20
11.4896988643
 30
0.0
 10
15.918918041
 20
11.4503777896
 30
0.0
 10
15.9336325744
 20
11.4123559876
 30
0.0
 10
15.94885617
 20
11.3756799217
 30
0.0
 10
15.9645702264
 20
11.3403943856
 30
0.0
 10
15.9807555686
 20
11.306542448
 30
0.0
 10
15.9973924797
 20
11.2741653988
 30
0.0
 10
16.0144607357
 20
11.2433026985
 30
0.0
 10
16.0319396379
 20
11.2139919299
 30
0.0
 10
16.0498080572
 20
11.18626876
 30
0.0
 10
16.0680444768
 20
11.1601669081
 30
0.0
 10
16.0866270367
 20
11.135718122
 30
0.0
 10
16.1055335801
 20
11.1129521648
 30
0.0
 10
16.1247416976
 20
11.0918968167
 30
0.0
 10
16.1442287647
 20
11.0725778939
 30
0.0
 10
16.1639719674
 20
11.0550192822
 30
0.0
 10
16.1839482868
 20
11.0392429912
 30
0.0
 10
16.2041345065
 20
11.0252692165
 30
0.0
 10
16.2245069733
 20
11.0131164247
 30
0.0
 10
16.245041971
 20
11.0028012884
 30
0.0
 10
16.2657136665
 20
10.9943389595
 30
0.0
 10
16.2831230803
 20
10.9888136817
 30
0.0
 10
16.2970606645
 20
10.9853530231
 30
0.0
 10
16.3074792856
 20
10.9832384332
 30
0.0
 10
16.3179109511
 20
10.981593099
 30
0.0
 10
16.3283526314
 20
10.9804174146
 30
0.0
 10
16.3388007058
 20
10.9797118506
 30
0.0
 10
16.3457708311
 20
10.9795550049
 30
0.0
 10
16.3492524044
 20
10.9795550015
 30
0.0
  0
SPLINE
  5
2AA
100
AcDbEntity
  8
02___PRT_ALL_AXES
100
AcDbSpline
 62
7
  6
CONTINUOUS
 70
0
 71
3
 72
61
 73
57
 74
0
 42
0.0000001
 43
0.0000001
 44
0.0000000001
 40
0.0
 40
0.0
 40
0.0
 40
0.0
 40
0.0077653424
 40
0.0155251782
 40
0.0233343729
 40
0.0312465183
 40
0.0393126455
 40
0.0475801801
 40
0.0560922012
 40
0.0648870108
 40
0.069401723
 40
0.0739992335
 40
0.0834548722
 40
0.0932790334
 40
0.1034912248
 40
0.1141069551
 40
0.1251380949
 40
0.1365932316
 40
0.1484779976
 40
0.1607953704
 40
0.1735459408
 40
0.1867281479
 40
0.2003384898
 40
0.2143717107
 40
0.2288209632
 40
0.2436779513
 40
0.2589330556
 40
0.2745754435
 40
0.2905931703
 40
0.3069732718
 40
0.3237018451
 40
0.3407641232
 40
0.3581445422
 40
0.375826803
 40
0.3937939324
 40
0.4120283394
 40
0.4305118679
 40
0.4681499971
 40
0.5065548014
 40
0.5455655033
 40
0.585016678
 40
0.6247395751
 40
0.6645634208
 40
0.7043166931
 40
0.7438283922
 40
0.7829293181
 40
0.8214533565
 40
0.8592388099
 40
0.8778061712
 40
0.8961309723
 40
0.914194867
 40
0.9319800514
 40
0.9494693634
 40
0.9666461443
 40
0.9834948484
 40
1.0
 40
1.0
 40
1.0
 40
1.0
 10
16.3757438134
 20
13.5874771076
 30
0.0
 10
16.3807092645
 20
13.5879772388
 30
0.0
 10
16.3906881374
 20
13.5885273499
 30
0.0
 10
16.4056944009
 20
13.5879759645
 30
0.0
 10
16.4206824159
 20
13.5860474406
 30
0.0
 10
16.4356292772
 20
13.5827452919
 30
0.0
 10
16.4505147697
 20
13.5780755808
 30
0.0
 10
16.4653190676
 20
13.5720462406
 30
0.0
 10
16.4800228609
 20
13.5646671888
 30
0.0
 10
16.492071444
 20
13.5574655567
 30
0.0
 10
16.50163678
 20
13.5510634671
 30
0.0
 10
16.51132974
 20
13.5440999031
 30
0.0
 10
16.523353351
 20
13.534548003
 30
0.0
 10
16.5374775865
 20
13.5218939868
 30
0.0
 10
16.5514142302
 20
13.5079586488
 30
0.0
 10
16.5651459563
 20
13.4927601503
 30
0.0
 10
16.578656165
 20
13.4763176791
 30
0.0
 10
16.5919282498
 20
13.4586520234
 30
0.0
 10
16.6049458416
 20
13.4397854291
 30
0.0
 10
16.6176927833
 20
13.419741645
 30
0.0
 10
16.6301531803
 20
13.3985459007
 30
0.0
 10
16.6423114372
 20
13.3762248967
 30
0.0
 10
16.6541522913
 20
13.3528067751
 30
0.0
 10
16.6656608371
 20
13.3283210836
 30
0.0
 10
16.6768225566
 20
13.3027987389
 30
0.0
 10
16.6876233455
 20
13.2762719888
 30
0.0
 10
16.6980495344
 20
13.2487743723
 30
0.0
 10
16.7080879197
 20
13.2203406804
 30
0.0
 10
16.7177257789
 20
13.1910069079
 30
0.0
 10
16.7269508875
 20
13.1608102033
 30
0.0
 10
16.7357515374
 20
13.1297888203
 30
0.0
 10
16.7441165539
 20
13.0979820678
 30
0.0
 10
16.7520353086
 20
13.0654302634
 30
0.0
 10
16.7594977482
 20
13.0321746738
 30
0.0
 10
16.7664943789
 20
12.9982574962
 30
0.0
 10
16.7730163626
 20
12.9637216589
 30
0.0
 10
16.7811168356
 20
12.916624832
 30
0.0
 10
16.7899781583
 20
12.8565141259
 30
0.0
 10
16.7985385039
 20
12.7830588098
 30
0.0
 10
16.8050449306
 20
12.7082235524
 30
0.0
 10
16.8094642284
 20
12.6323879997
 30
0.0
 10
16.8117738499
 20
12.5559362538
 30
0.0
 10
16.811962021
 20
12.4792557953
 30
0.0
 10
16.8100277608
 20
12.4027352169
 30
0.0
 10
16.8059809504
 20
12.3267623523
 30
0.0
 10
16.7998422536
 20
12.2517220153
 30
0.0
 10
16.7916429622
 20
12.177994904
 30
0.0
 10
16.7830789284
 20
12.1176138065
 30
0.0
 10
16.7752122123
 20
12.0702678998
 30
0.0
 10
16.768860482
 20
12.0355233087
 30
0.0
 10
16.7620310908
 20
12.0013819471
 30
0.0
 10
16.7547326705
 20
11.9678870065
 30
0.0
 10
16.7469745099
 20
11.9350810594
 30
0.0
 10
16.738766453
 20
11.903005509
 30
0.0
 10
16.7301189625
 20
11.8717013652
 30
0.0
 10
16.7240035315
 20
11.8511547952
 30
0.0
 10
16.7208717208
 20
11.8410202521
 30
0.0
  0
SPLINE
  5
2AB
100
AcDbEntity
  8
LAYER_CHAMFER_FEAT
100
AcDbSpline
 62
7
  6
CONTINUOUS
 70
0
 71
3
 72
52
 73
48
 74
0
 42
0.0000001
 43
0.0000001
 44
0.0000000001
 40
0.0
 40
0.0
 40
0.0
 40
0.0
 40
0.0101614709
 40
0.0206687435
 40
0.0315255272
 40
0.0427338291
 40
0.0542941158
 40
0.0662054634
 40
0.0784656682
 40
0.0910713481
 40
0.1040180593
 40
0.1173003809
 40
0.1309119754
 40
0.1448456723
 40
0.1590935382
 40
0.1736469201
 40
0.1884964954
 40
0.2036323346
 40
0.2347191651
 40
0.26681843
 40
0.2998325923
 40
0.3336578061
 40
0.3681848716
 40
0.4033001154
 40
0.4388862012
 40
0.4748229358
 40
0.5109880194
 40
0.5472578003
 40
0.5835080095
 40
0.6196144934
 40
0.6554539445
 40
0.6909046481
 40
0.7258472231
 40
0.7601654032
 40
0.7937468312
 40
0.8264838924
 40
0.8582746285
 40
0.8737855912
 40
0.8890248213
 40
0.9039816153
 40
0.9186458185
 40
0.9330078779
 40
0.9470589141
 40
0.9607906909
 40
0.9741956693
 40
0.9872675822
 40
1.0
 40
1.0
 40
1.0
 40
1.0
 10
16.2258992421
 20
13.4260934299
 30
0.0
 10
16.2220583504
 20
13.4214918559
 30
0.0
 10
16.2144391923
 20
13.4119692393
 30
0.0
 10
16.2033806249
 20
13.397013965
 30
0.0
 10
16.1925130721
 20
13.3811647477
 30
0.0
 10
16.1818475736
 20
13.3644378249
 30
0.0
 10
16.1713946608
 20
13.3468498948
 30
0.0
 10
16.1611648006
 20
13.3284186266
 30
0.0
 10
16.1511682325
 20
13.309162517
 30
0.0
 10
16.1414149618
 20
13.2891009282
 30
0.0
 10
16.1319147842
 20
13.268254027
 30
0.0
 10
16.1226772702
 20
13.2466427745
 30
0.0
 10
16.1137117046
 20
13.2242889278
 30
0.0
 10
16.1050271142
 20
13.2012149998
 30
0.0
 10
16.0966322638
 20
13.1774442214
 30
0.0
 10
16.0885356408
 20
13.1530005616
 30
0.0
 10
16.0807453405
 20
13.1279086003
 30
0.0
 10
16.0706881086
 20
13.0933148007
 30
0.0
 10
16.0589625491
 20
13.0486180951
 30
0.0
 10
16.0463541694
 20
12.9932819827
 30
0.0
 10
16.0351368361
 20
12.9360006891
 30
0.0
 10
16.0253560042
 20
12.8770053186
 30
0.0
 10
16.0170512914
 20
12.8165333362
 30
0.0
 10
16.0102563948
 20
12.7548284669
 30
0.0
 10
16.0049988281
 20
12.6921394447
 30
0.0
 10
16.001299952
 20
12.6287190477
 30
0.0
 10
15.9991747397
 20
12.5648230472
 30
0.0
 10
15.9986318222
 20
12.5007091606
 30
0.0
 10
15.999673411
 20
12.4366359966
 30
0.0
 10
16.0022952542
 20
12.3728619973
 30
0.0
 10
16.0064867557
 20
12.309644381
 30
0.0
 10
16.0122308773
 20
12.2472380906
 30
0.0
 10
16.0195043531
 20
12.185894735
 30
0.0
 10
16.0282776799
 20
12.1258616128
 30
0.0
 10
16.0385152904
 20
12.0673804668
 30
0.0
 10
16.0501757089
 20
12.0106872994
 30
0.0
 10
16.0611268471
 20
11.9647535076
 30
0.0
 10
16.0705816672
 20
11.929093341
 30
0.0
 10
16.0779393939
 20
11.9031542452
 30
0.0
 10
16.0856141504
 20
11.8778286201
 30
0.0
 10
16.0935982579
 20
11.853141948
 30
0.0
 10
16.1018836287
 20
11.8291191184
 30
0.0
 10
16.1104619077
 20
11.8057843341
 30
0.0
 10
16.1193244316
 20
11.7831611677
 30
0.0
 10
16.1284623322
 20
11.7612721876
 30
0.0
 10
16.1378662918
 20
11.7401398327
 30
0.0
 10
16.144393461
 20
11.7263871582
 30
0.0
 10
16.1477021228
 20
11.7196448142
 30
0.0
  0
SPLINE
  5
2AC
100
AcDbEntity
  8
LAYER_CHAMFER_FEAT
100
AcDbSpline
 62
7
  6
CONTINUOUS
 70
0
 71
3
 72
20
 73
16
 74
0
 42
0.0000001
 43
0.0000001
 44
0.0000000001
 40
0.0
 40
0.0
 40
0.0
 40
0.0
 40
0.1464451593
 40
0.2167400855
 40
0.2851615838
 40
0.4166729198
 40
0.5417678895
 40
0.6022207551
 40
0.6614428795
 40
0.7195834476
 40
0.7768027561
 40
0.8332714371
 40
0.8891688136
 40
0.944681265
 40
1.0
 40
1.0
 40
1.0
 40
1.0
 10
16.2156138968
 20
11.6085236125
 30
0.0
 10
16.2213252822
 20
11.6023065043
 30
0.0
 10
16.2300938268
 20
11.5933844757
 30
0.0
 10
16.2422886597
 20
11.582355114
 30
0.0
 10
16.2542627733
 20
11.5723843846
 30
0.0
 10
16.2694181304
 20
11.5613214348
 30
0.0
 10
16.2851729852
 20
11.5519884574
 30
0.0
 10
16.2978540819
 20
11.5457862109
 30
0.0
 10
16.3073012023
 20
11.5417933438
 30
0.0
 10
16.3167857174
 20
11.5384097741
 30
0.0
 10
16.3263018352
 20
11.5356379285
 30
0.0
 10
16.3358432871
 20
11.5334797906
 30
0.0
 10
16.3454040135
 20
11.531937102
 30
0.0
 10
16.3549771421
 20
11.5310109672
 30
0.0
 10
16.3613682557
 20
11.5308050055
 30
0.0
 10
16.3645572796
 20
11.5308049996
 30
0.0
  0
SPLINE
  5
2AD
100
AcDbEntity
  8
LAYER_CHAMFER_FEAT
100
AcDbSpline
 62
7
  6
CONTINUOUS
 70
0
 71
3
 72
19
 73
15
 74
0
 42
0.0000001
 43
0.0000001
 44
0.0000000001
 40
0.0
 40
0.0
 40
0.0
 40
0.0
 40
0.0552355398
 40
0.1106674273
 40
0.1664894499
 40
0.2228903651
 40
0.2800518067
 40
0.3381462878
 40
0.3973359676
 40
0.4577713517
 40
0.5828805987
 40
0.7144771259
 40
0.8533231826
 40
1.0
 40
1.0
 40
1.0
 40
1.0
 10
16.3645572796
 20
13.4908049862
 30
0.0
 10
16.3613441364
 20
13.4908049921
 30
0.0
 10
16.3549044874
 20
13.490595864
 30
0.0
 10
16.3452588654
 20
13.4896556693
 30
0.0
 10
16.3356259532
 20
13.4880894693
 30
0.0
 10
16.3260127496
 20
13.4858985877
 30
0.0
 10
16.3164255069
 20
13.4830846122
 30
0.0
 10
16.3068705688
 20
13.4796498127
 30
0.0
 10
16.2973539242
 20
13.4755964797
 30
0.0
 10
16.2845786961
 20
13.4692997633
 30
0.0
 10
16.268708696
 20
13.459824369
 30
0.0
 10
16.2501506217
 20
13.4461688523
 30
0.0
 10
16.2319009041
 20
13.430137716
 30
0.0
 10
16.2202960089
 20
13.4182309689
 30
0.0
 10
16.2145499953
 20
13.4119233729
 30
0.0
  0
SPLINE
  5
2AE
100
AcDbEntity
  8
LAYER_FEATURE
100
AcDbSpline
 62
7
  6
CONTINUOUS
 70
0
 71
3
 72
39
 73
35
 74
0
 42
0.0000001
 43
0.0000001
 44
0.0000000001
 40
0.0
 40
0.0
 40
0.0
 40
0.0
 40
0.0443812481
 40
0.0879669295
 40
0.1307335086
 40
0.172661876
 40
0.2137331571
 40
0.2539301992
 40
0.2932376968
 40
0.3316421073
 40
0.369131911
 40
0.4056977099
 40
0.4413323968
 40
0.4760313903
 40
0.5097927974
 40
0.5426176342
 40
0.5745101269
 40
0.6054779669
 40
0.6355325892
 40
0.664689538
 40
0.6929688298
 40
0.7203952869
 40
0.7469989387
 40
0.7728154376
 40
0.7978863828
 40
0.8222596394
 40
0.8459896168
 40
0.869137373
 40
0.8917705712
 40
0.9139632708
 40
0.935795451
 40
0.9573522592
 40
0.9787230199
 40
1.0
 40
1.0
 40
1.0
 40
1.0
 10
15.8821570461
 20
13.4626452568
 30
0.0
 10
15.8856016168
 20
13.4737918918
 30
0.0
 10
15.8926075046
 20
13.4958307075
 30
0.0
 10
15.9035703441
 20
13.5284035474
 30
0.0
 10
15.9148854577
 20
13.5601722329
 30
0.0
 10
15.9265437328
 20
13.5911113259
 30
0.0
 10
15.938536058
 20
13.6211966369
 30
0.0
 10
15.9508529392
 20
13.650404376
 30
0.0
 10
15.9634846609
 20
13.6787114983
 30
0.0
 10
15.9764212811
 20
13.7060956915
 30
0.0
 10
15.9896525896
 20
13.7325353796
 30
0.0
 10
16.0031681793
 20
13.7580097305
 30
0.0
 10
16.0169574472
 20
13.7824986722
 30
0.0
 10
16.0310095519
 20
13.8059829383
 30
0.0
 10
16.0453134803
 20
13.8284440525
 30
0.0
 10
16.0598580681
 20
13.849864329
 30
0.0
 10
16.074631957
 20
13.8702269243
 30
0.0
 10
16.0896236377
 20
13.8895158286
 30
0.0
 10
16.1048214922
 20
13.9077158418
 30
0.0
 10
16.1202137674
 20
13.9248126103
 30
0.0
 10
16.1357885749
 20
13.9407926427
 30
0.0
 10
16.151533949
 20
13.9556432567
 30
0.0
 10
16.1674378362
 20
13.9693525823
 30
0.0
 10
16.1834880479
 20
13.9819096112
 30
0.0
 10
16.1996723103
 20
13.9933041226
 30
0.0
 10
16.2159782475
 20
14.0035266568
 30
0.0
 10
16.2323933025
 20
14.0125685928
 30
0.0
 10
16.2489047421
 20
14.0204221091
 30
0.0
 10
16.265499618
 20
14.0270801583
 30
0.0
 10
16.2821647286
 20
14.0325365806
 30
0.0
 10
16.2988864575
 20
14.036786182
 30
0.0
 10
16.3156512997
 20
14.0398247394
 30
0.0
 10
16.3324439955
 20
14.0416491164
 30
0.0
 10
16.3436592148
 20
14.0420549898
 30
0.0
 10
16.3492524044
 20
14.0420549843
 30
0.0
  0
SPLINE
  5
2AF
100
AcDbEntity
  8
LAYER_FEATURE
100
AcDbSpline
 62
7
  6
CONTINUOUS
 70
0
 71
3
 72
65
 73
61
 74
0
 42
0.0000001
 43
0.0000001
 44
0.0000000001
 40
0.0
 40
0.0
 40
0.0
 40
0.0
 40
0.0163581197
 40
0.0330511451
 40
0.0500643483
 40
0.0673828299
 40
0.084990693
 40
0.1028715492
 40
0.1210084025
 40
0.1393837448
 40
0.1579795916
 40
0.1767775276
 40
0.21490309
 40
0.2536071518
 40
0.2927310665
 40
0.3321131318
 40
0.3715897894
 40
0.4109968029
 40
0.4501704345
 40
0.4889486246
 40
0.5271721828
 40
0.5460278405
 40
0.5646870855
 40
0.5831313807
 40
0.6013426065
 40
0.6193031038
 40
0.6369957203
 40
0.6544038584
 40
0.671511524
 40
0.6883033789
 40
0.7047647965
 40
0.7208819223
 40
0.7366417387
 40
0.752032138
 40
0.7670419993
 40
0.7816612736
 40
0.7958810795
 40
0.8096938098
 40
0.8230932521
 40
0.8360747259
 40
0.8486352383
 40
0.8607736572
 40
0.8724909101
 40
0.8837902083
 40
0.8946772999
 40
0.9051607504
 40
0.9152522516
 40
0.9249669475
 40
0.9343237681
 40
0.9433457518
 40
0.9520603249
 40
0.9604994965
 40
0.9686999153
 40
0.9767027298
 40
0.9806449359
 40
0.9845550216
 40
0.9884391738
 40
0.9923037317
 40
0.9961551592
 40
1.0
 40
1.0
 40
1.0
 40
1.0
 10
14.0686953178
 20
13.4626452568
 30
0.0
 10
14.0643219441
 20
13.4484930143
 30
0.0
 10
14.0557784125
 20
13.4198075122
 30
0.0
 10
14.0436845433
 20
13.3761135679
 30
0.0
 10
14.0321933918
 20
13.331358811
 30
0.0
 10
14.021319109
 20
13.2855984753
 30
0.0
 10
14.0110750258
 20
13.238888386
 30
0.0
 10
14.0014737158
 20
13.1912858517
 30
0.0
 10
13.9925269665
 20
13.1428491561
 30
0.0
 10
13.9842457759
 20
13.0936376909
 30
0.0
 10
13.9766402502
 20
13.0437116423
 30
0.0
 10
13.9673698902
 20
12.9759565875
 30
0.0
 10
13.9575556971
 20
12.889908405
 30
0.0
 10
13.9486567269
 20
12.785274481
 30
0.0
 10
13.9426252723
 20
12.679296438
 30
0.0
 10
13.939491024
 20
12.5724936917
 30
0.0
 10
13.9392694426
 20
12.4653888897
 30
0.0
 10
13.9419616327
 20
12.3585064788
 30
0.0
 10
13.9475543019
 20
12.2523695053
 30
0.0
 10
13.9560199077
 20
12.147498167
 30
0.0
 10
13.9654760785
 20
12.0612006367
 30
0.0
 10
13.9744636681
 20
11.9932073718
 30
0.0
 10
13.9818618996
 20
11.9430762206
 30
0.0
 10
13.9899387231
 20
11.8936411407
 30
0.0
 10
13.9986842798
 20
11.844962595
 30
0.0
 10
14.0080878198
 20
11.7971002672
 30
0.0
 10
14.0181378051
 20
11.7501127927
 30
0.0
 10
14.0288218961
 20
11.7040577354
 30
0.0
 10
14.0401269803
 20
11.6589915043
 30
0.0
 10
14.0520391863
 20
11.6149692878
 30
0.0
 10
14.064543903
 20
11.5720449847
 30
0.0
 10
14.0776257976
 20
11.5302711369
 30
0.0
 10
14.0912688389
 20
11.4896988626
 30
0.0
 10
14.1054563121
 20
11.4503777884
 30
0.0
 10
14.1201708464
 20
11.4123559877
 30
0.0
 10
14.1353944424
 20
11.3756799226
 30
0.0
 10
14.1511084986
 20
11.3403943864
 30
0.0
 10
14.1672938401
 20
11.3065424482
 30
0.0
 10
14.183930751
 20
11.2741653989
 30
0.0
 10
14.2009990079
 20
11.2433026998
 30
0.0
 10
14.2184779105
 20
11.213991932
 30
0.0
 10
14.2363463297
 20
11.1862687616
 30
0.0
 10
14.2545827485
 20
11.1601669077
 30
0.0
 10
14.2731653074
 20
11.135718119
 30
0.0
 10
14.2920718498
 20
11.1129521609
 30
0.0
 10
14.311279969
 20
11.0918968167
 30
0.0
 10
14.3307670385
 20
11.0725778994
 30
0.0
 10
14.350510241
 20
11.0550192891
 30
0.0
 10
14.3704865595
 20
11.0392429951
 30
0.0
 10
14.3906727779
 20
11.0252692149
 30
0.0
 10
14.4110452433
 20
11.0131164168
 30
0.0
 10
14.4315802413
 20
11.0028012816
 30
0.0
 10
14.4522519369
 20
10.9943389522
 30
0.0
 10
14.4696613587
 20
10.9888137083
 30
0.0
 10
14.4835989307
 20
10.9853530006
 30
0.0
 10
14.4940175625
 20
10.9832384597
 30
0.0
 10
14.5044492193
 20
10.9815930766
 30
0.0
 10
14.5148909049
 20
10.9804174284
 30
0.0
 10
14.525338977
 20
10.9797118509
 30
0.0
 10
14.5323091028
 20
10.9795549936
 30
0.0
 10
14.5357906761
 20
10.9795549987
 30
0.0
  0
SPLINE
  5
2B0
100
AcDbEntity
  8
LAYER_FEATURE
100
AcDbSpline
 62
7
  6
CONTINUOUS
 70
0
 71
3
 72
39
 73
35
 74
0
 42
0.0000001
 43
0.0000001
 44
0.0000000001
 40
0.0
 40
0.0
 40
0.0
 40
0.0
 40
0.0443811822
 40
0.0879669451
 40
0.1307335213
 40
0.1726618635
 40
0.2137331588
 40
0.2539302027
 40
0.2932376924
 40
0.3316421064
 40
0.3691319148
 40
0.4056977065
 40
0.4413323939
 40
0.4760313948
 40
0.5097927958
 40
0.542617629
 40
0.574510131
 40
0.6054779683
 40
0.6355325823
 40
0.6646895404
 40
0.6929688339
 40
0.7203952799
 40
0.7469989387
 40
0.7728154432
 40
0.7978863777
 40
0.822259637
 40
0.8459896216
 40
0.8691373708
 40
0.8917705679
 40
0.9139632733
 40
0.9357954509
 40
0.957352257
 40
0.9787230198
 40
1.0
 40
1.0
 40
1.0
 40
1.0
 10
14.0686953178
 20
13.4626452568
 30
0.0
 10
14.0721398834
 20
13.4737918752
 30
0.0
 10
14.0791457747
 20
13.4958306941
 30
0.0
 10
14.0901086119
 20
13.5284035383
 30
0.0
 10
14.1014237286
 20
13.5601722375
 30
0.0
 10
14.1130820082
 20
13.5911113249
 30
0.0
 10
14.1250743289
 20
13.6211966351
 30
0.0
 10
14.1373912077
 20
13.6504043775
 30
0.0
 10
14.1500229363
 20
13.6787114961
 30
0.0
 10
14.162959554
 20
13.7060956904
 30
0.0
 10
14.1761908561
 20
13.732535382
 30
0.0
 10
14.1897064545
 20
13.7580097278
 30
0.0
 10
14.2034957221
 20
13.7824986696
 30
0.0
 10
14.2175478176
 20
13.8059829418
 30
0.0
 10
14.2318517532
 20
13.828444051
 30
0.0
 10
14.2463963456
 20
13.8498643239
 30
0.0
 10
14.2611702233
 20
13.8702269283
 30
0.0
 10
14.2761619067
 20
13.8895158302
 30
0.0
 10
14.2913597722
 20
13.9077158335
 30
0.0
 10
14.3067520356
 20
13.9248126132
 30
0.0
 10
14.32232684
 20
13.9407926491
 30
0.0
 10
14.3380722299
 20
13.9556432454
 30
0.0
 10
14.3539761071
 20
13.9693525822
 30
0.0
 10
14.370026311
 20
13.9819096229
 30
0.0
 10
14.3862105893
 20
13.9933041109
 30
0.0
 10
14.4025165214
 20
14.0035266513
 30
0.0
 10
14.4189315662
 20
14.0125686086
 30
0.0
 10
14.4354430174
 20
14.0204221011
 30
0.0
 10
14.4520378933
 20
14.0270801457
 30
0.0
 10
14.468702995
 20
14.0325365975
 30
0.0
 10
14.48542473
 20
14.0367861814
 30
0.0
 10
14.5021895735
 20
14.0398247181
 30
0.0
 10
14.5189822655
 20
14.0416491398
 30
0.0
 10
14.5301974864
 20
14.042054979
 30
0.0
 10
14.5357906761
 20
14.0420549871
 30
0.0
  0
SPLINE
  5
2B1
100
AcDbEntity
  8
LAYER_FEATURE
100
AcDbSpline
 62
7
  6
CONTINUOUS
 70
0
 71
3
 72
11
 73
7
 74
0
 42
0.0000001
 43
0.0000001
 44
0.0000000001
 40
0.0
 40
0.0
 40
0.0
 40
0.0
 40
0.2220195663
 40
0.4623197084
 40
0.7215917389
 40
1.0
 40
1.0
 40
1.0
 40
1.0
 10
14.1728473041
 20
13.0466982298
 30
0.0
 10
14.173710256
 20
13.0474961365
 30
0.0
 10
14.1754092649
 20
13.0492653217
 30
0.0
 10
14.1777778252
 20
13.0522682393
 30
0.0
 10
14.1800530487
 20
13.055705978
 30
0.0
 10
14.1814507398
 20
13.0581883023
 30
0.0
 10
14.182134627
 20
13.0594938337
 30
0.0
  0
SPLINE
  5
2B2
100
AcDbEntity
  8
LAYER_FEATURE
100
AcDbSpline
 62
7
  6
CONTINUOUS
 70
0
 71
3
 72
20
 73
16
 74
0
 42
0.0000001
 43
0.0000001
 44
0.0000000001
 40
0.0
 40
0.0
 40
0.0
 40
0.0
 40
0.0390944158
 40
0.079185914
 40
0.1211955657
 40
0.165885858
 40
0.2138469448
 40
0.2655013941
 40
0.3211271891
 40
0.3808796769
 40
0.44481323
 40
0.512903213
 40
0.6610815564
 40
0.8241085274
 40
1.0
 40
1.0
 40
1.0
 40
1.0
 10
14.1353032682
 20
13.0467663773
 30
0.0
 10
14.135127846
 20
13.0467663899
 30
0.0
 10
14.1347717719
 20
13.0467346568
 30
0.0
 10
14.1342441978
 20
13.0465930983
 30
0.0
 10
14.1337232425
 20
13.0463589722
 30
0.0
 10
14.1332114723
 20
13.0460343815
 30
0.0
 10
14.1327109055
 20
13.0456213594
 30
0.0
 10
14.132223413
 20
13.0451221757
 30
0.0
 10
14.131750908
 20
13.044539196
 30
0.0
 10
14.1312953517
 20
13.0438750946
 30
0.0
 10
14.1308586415
 20
13.0431329052
 30
0.0
 10
14.1302880732
 20
13.0420117989
 30
0.0
 10
14.1296428292
 20
13.0404336117
 30
0.0
 10
14.1289927004
 20
13.0383447557
 30
0.0
 10
14.1286478551
 20
13.0368621292
 30
0.0
 10
14.1284930743
 20
13.0360882048
 30
0.0
  0
SPLINE
  5
2B3
100
AcDbEntity
  8
LAYER_FEATURE
100
AcDbSpline
 62
7
  6
CONTINUOUS
 70
0
 71
3
 72
17
 73
13
 74
0
 42
0.0000001
 43
0.0000001
 44
0.0000000001
 40
0.0
 40
0.0
 40
0.0
 40
0.0
 40
0.0426455307
 40
0.0860340479
 40
0.130862184
 40
0.1777466722
 40
0.2795083499
 40
0.3943797033
 40
0.5238234907
 40
0.668238905
 40
0.8272721358
 40
1.0
 40
1.0
 40
1.0
 40
1.0
 10
14.1839130241
 20
13.2815482282
 30
0.0
 10
14.1837691781
 20
13.2815482265
 30
0.0
 10
14.1834785546
 20
13.2815270779
 30
0.0
 10
14.1830460508
 20
13.2814322931
 30
0.0
 10
14.1826169181
 20
13.2812750573
 30
0.0
 10
14.1820356881
 20
13.2809751157
 30
0.0
 10
14.1813226552
 20
13.2804329921
 30
0.0
 10
14.1805298025
 20
13.2795703102
 30
0.0
 10
14.1797818893
 20
13.278489241
 30
0.0
 10
14.1790867091
 20
13.2772025174
 30
0.0
 10
14.1784518976
 20
13.2757252404
 30
0.0
 10
14.178088038
 20
13.2746658919
 30
0.0
 10
14.1779160205
 20
13.274109243
 30
0.0
  0
SPLINE
  5
2B4
100
AcDbEntity
  8
LAYER_CHAMFER_FEAT
100
AcDbSpline
 62
7
  6
CONTINUOUS
 70
0
 71
3
 72
40
 73
36
 74
0
 42
0.0000001
 43
0.0000001
 44
0.0000000001
 40
0.0
 40
0.0
 40
0.0
 40
0.0
 40
0.0439502082
 40
0.0865556089
 40
0.1278039602
 40
0.1676916594
 40
0.2062199345
 40
0.2433975177
 40
0.2792409161
 40
0.3137752554
 40
0.3470352743
 40
0.3790663128
 40
0.4099253766
 40
0.439682129
 40
0.468419808
 40
0.4962359317
 40
0.5232426418
 40
0.5495664611
 40
0.5753473441
 40
0.6007368914
 40
0.6258956914
 40
0.6509898757
 40
0.6761871593
 40
0.7016527355
 40
0.7275454091
 40
0.7540143079
 40
0.7811964213
 40
0.8092150179
 40
0.8235746375
 40
0.8381829068
 40
0.8681862288
 40
0.8993090498
 40
0.931618031
 40
0.9651674077
 40
1.0
 40
1.0
 40
1.0
 40
1.0
 10
16.6366760961
 20
13.3019651716
 30
0.0
 10
16.6331757276
 20
13.3090981727
 30
0.0
 10
16.6260873784
 20
13.3230515507
 30
0.0
 10
16.6150113537
 20
13.343332874
 30
0.0
 10
16.6036684157
 20
13.3626193572
 30
0.0
 10
16.5920722368
 20
13.3808877617
 30
0.0
 10
16.5802363069
 20
13.3981165358
 30
0.0
 10
16.5681745495
 20
13.4142851715
 30
0.0
 10
16.5559010277
 20
13.4293744801
 30
0.0
 10
16.5434299699
 20
13.443366499
 30
0.0
 10
16.530775748
 20
13.4562444997
 30
0.0
 10
16.5179528546
 20
13.4679929754
 30
0.0
 10
16.5049759199
 20
13.4785976311
 30
0.0
 10
16.4918597013
 20
13.4880453168
 30
0.0
 10
16.4786191364
 20
13.4963239904
 30
0.0
 10
16.465269418
 20
13.5034226883
 30
0.0
 10
16.4518261268
 20
13.5093315817
 30
0.0
 10
16.4383053387
 20
13.5140420177
 30
0.0
 10
16.4247237405
 20
13.5175466614
 30
0.0
 10
16.4110986811
 20
13.5198397113
 30
0.0
 10
16.3974481211
 20
13.5209171976
 30
0.0
 10
16.3837904356
 20
13.5207772138
 30
0.0
 10
16.3701441242
 20
13.5194200141
 30
0.0
 10
16.3565274819
 20
13.5168479945
 30
0.0
 10
16.3429583665
 20
13.5130655646
 30
0.0
 10
16.3294538888
 20
13.5080788581
 30
0.0
 10
16.3160309197
 20
13.5018957287
 30
0.0
 10
16.3050165774
 20
13.495803443
 30
0.0
 10
16.2962677285
 20
13.4903602112
 30
0.0
 10
16.2874068598
 20
13.4844286646
 30
0.0
 10
16.2764057444
 20
13.4762613656
 30
0.0
 10
16.2634631878
 20
13.4653927221
 30
0.0
 10
16.2506776645
 20
13.4533831455
 30
0.0
 10
16.2380644764
 20
13.4402478542
 30
0.0
 10
16.2299345122
 20
13.4309278786
 30
0.0
 10
16.2258992421
 20
13.4260934299
 30
0.0
  0
SPLINE
  5
2B5
100
AcDbEntity
  8
LAYER_FEATURE
100
AcDbSpline
 62
7
  6
CONTINUOUS
 70
0
 71
3
 72
97
 73
93
 74
0
 42
0.0000001
 43
0.0000001
 44
0.0000000001
 40
0.0
 40
0.0
 40
0.0
 40
0.0
 40
0.0178412376
 40
0.0361832135
 40
0.0549944187
 40
0.074241066
 40
0.0938876513
 40
0.113897033
 40
0.1342306523
 40
0.1548487152
 40
0.1757103672
 40
0.1967738616
 40
0.2179967225
 40
0.2393359046
 40
0.2607479509
 40
0.2821891481
 40
0.3036156806
 40
0.3249837838
 40
0.3462498992
 40
0.3673708283
 40
0.3883038897
 40
0.4090070766
 40
0.4294392205
 40
0.4495601586
 40
0.4693309048
 40
0.4887138301
 40
0.5076728518
 40
0.5261736384
 40
0.5441838288
 40
0.5616732697
 40
0.5786142811
 40
0.5949819546
 40
0.6107544977
 40
0.6259136292
 40
0.6332589064
 40
0.6404458264
 40
0.647473317
 40
0.6543406256
 40
0.6610473406
 40
0.6675934321
 40
0.673979257
 40
0.6802056102
 40
0.6862737458
 40
0.6921854098
 40
0.6979428935
 40
0.7035490518
 40
0.7090073655
 40
0.7143219742
 40
0.7245379299
 40
0.7294535147
 40
0.7342494151
 40
0.7389336877
 40
0.7435152525
 40
0.7480039043
 40
0.752410281
 40
0.7567458339
 40
0.7610227568
 40
0.765253892
 40
0.7694526172
 40
0.7736326972
 40
0.7778081276
 40
0.7819929614
 40
0.7862011358
 40
0.7904463004
 40
0.7947416673
 40
0.7990998716
 40
0.8035328628
 40
0.808051826
 40
0.8126671138
 40
0.8222210265
 40
0.8271788103
 40
0.8322657374
 40
0.8374879119
 40
0.8428506722
 40
0.8483586173
 40
0.8540156549
 40
0.8598250543
 40
0.8657894703
 40
0.8719110073
 40
0.8781912419
 40
0.8846312646
 40
0.8912317241
 40
0.8979928384
 40
0.9049144471
 40
0.9119960223
 40
0.919236696
 40
0.9266352941
 40
0.9341903366
 40
0.9497618613
 40
0.9659349879
 40
0.9826889555
 40
1.0
 40
1.0
 40
1.0
 40
1.0
 10
15.9466267777
 20
13.3851997077
 30
0.0
 10
15.9409729256
 20
13.3669038357
 30
0.0
 10
15.9300406548
 20
13.3296316078
 30
0.0
 10
15.9149492343
 20
13.272559725
 30
0.0
 10
15.9009646262
 20
13.2136550565
 30
0.0
 10
15.8881207435
 20
13.1530596153
 30
0.0
 10
15.8764485188
 20
13.0909189197
 30
0.0
 10
15.8659761385
 20
13.0273823875
 30
0.0
 10
15.856728868
 20
12.9626028027
 30
0.0
 10
15.84872903
 20
12.8967359874
 30
0.0
 10
15.8419959384
 20
12.8299404017
 30
0.0
 10
15.8365458538
 20
12.7623767636
 30
0.0
 10
15.8323919402
 20
12.6942076577
 30
0.0
 10
15.8295442227
 20
12.6255971402
 30
0.0
 10
15.8280095763
 20
12.5567103385
 30
0.0
 10
15.8277917072
 20
12.4877130499
 30
0.0
 10
15.8288911453
 20
12.41877134
 30
0.0
 10
15.8313052386
 20
12.3500511401
 30
0.0
 10
15.8350281519
 20
12.281717843
 30
0.0
 10
15.8400508937
 20
12.2139359021
 30
0.0
 10
15.8463613359
 20
12.1468684327
 30
0.0
 10
15.8539442456
 20
12.0806768157
 30
0.0
 10
15.8627813169
 20
12.0155203031
 30
0.0
 10
15.8728512105
 20
11.9515556275
 30
0.0
 10
15.8841296189
 20
11.8889366215
 30
0.0
 10
15.8965893248
 20
11.8278138425
 30
0.0
 10
15.9102002737
 20
11.768334202
 30
0.0
 10
15.9249296449
 20
11.7106405981
 30
0.0
 10
15.9407419328
 20
11.6548715634
 30
0.0
 10
15.9575990631
 20
11.6011609017
 30
0.0
 10
15.9754604732
 20
11.549637435
 30
0.0
 10
15.994283323
 20
11.5004243872
 30
0.0
 10
16.0140223226
 20
11.4536400914
 30
0.0
 10
16.0313734383
 20
11.4163878252
 30
0.0
 10
16.0456949247
 20
11.3879163467
 30
0.0
 10
16.056522113
 20
11.3674628459
 30
0.0
 10
16.0675414619
 20
11.3476975191
 30
0.0
 10
16.0787464443
 20
11.3286321682
 30
0.0
 10
16.0901303676
 20
11.3102782646
 30
0.0
 10
16.1016863884
 20
11.2926467917
 30
0.0
 10
16.1134076542
 20
11.2757483504
 30
0.0
 10
16.1252871563
 20
11.2595930646
 30
0.0
 10
16.1373178282
 20
11.2441906196
 30
0.0
 10
16.1494925497
 20
11.229550296
 30
0.0
 10
16.1618041028
 20
11.2156808153
 30
0.0
 10
16.1742451034
 20
11.2025906976
 30
0.0
 10
16.186808729
 20
11.1902873121
 30
0.0
 10
16.2034918898
 20
11.1751432624
 30
0.0
 10
16.2206076266
 20
11.1613582773
 30
0.0
 10
16.2381347977
 20
11.1490888391
 30
0.0
 10
16.2511972562
 20
11.1408240488
 30
0.0
 10
16.2643364115
 20
11.1333845244
 30
0.0
 10
16.277544821
 20
11.1267749131
 30
0.0
 10
16.2908144858
 20
11.1209995361
 30
0.0
 10
16.3041374653
 20
11.1160623186
 30
0.0
 10
16.3175056238
 20
11.1119666323
 30
0.0
 10
16.3309107161
 20
11.1087153424
 30
0.0
 10
16.3443443825
 20
11.106310858
 30
0.0
 10
16.3577981191
 20
11.1047548654
 30
0.0
 10
16.3712633575
 20
11.1040485973
 30
0.0
 10
16.384731455
 20
11.1041925562
 30
0.0
 10
16.3981937662
 20
11.1051866109
 30
0.0
 10
16.4116416606
 20
11.1070300804
 30
0.0
 10
16.4250666001
 20
11.1097215102
 30
0.0
 10
16.4384601146
 20
11.1132589961
 30
0.0
 10
16.4518139041
 20
11.1176399947
 30
0.0
 10
16.4651196774
 20
11.1228613589
 30
0.0
 10
16.4783697285
 20
11.1289198319
 30
0.0
 10
16.4961535597
 20
11.1382138021
 30
0.0
 10
16.5136002689
 20
11.1491061317
 30
0.0
 10
16.5306507079
 20
11.16143392
 30
0.0
 10
16.5435035046
 20
11.1716073614
 30
0.0
 10
16.5562533369
 20
11.1825863665
 30
0.0
 10
16.5688934313
 20
11.194364741
 30
0.0
 10
16.5814161561
 20
11.2069351934
 30
0.0
 10
16.5938142115
 20
11.2202901495
 30
0.0
 10
16.60608022
 20
11.2344215865
 30
0.0
 10
16.6182069793
 20
11.2493209712
 30
0.0
 10
16.6301872632
 20
11.2649793811
 30
0.0
 10
16.6420139655
 20
11.2813874107
 30
0.0
 10
16.6536800688
 20
11.2985352054
 30
0.0
 10
16.6651785759
 20
11.3164125032
 30
0.0
 10
16.6765026703
 20
11.3350085538
 30
0.0
 10
16.6876455479
 20
11.3543122167
 30
0.0
 10
16.6986005515
 20
11.3743119069
 30
0.0
 10
16.7093611216
 20
11.3949955959
 30
0.0
 10
16.7199208338
 20
11.4163509388
 30
0.0
 10
16.733864275
 20
11.4460013734
 30
0.0
 10
16.7507229134
 20
11.4846786509
 30
0.0
 10
16.7698537601
 20
11.5331010037
 30
0.0
 10
16.788037919
 20
11.5838735319
 30
0.0
 10
16.7993221482
 20
11.6186581097
 30
0.0
 10
16.8048079832
 20
11.6364102781
 30
0.0
  0
SPLINE
  5
2B6
100
AcDbEntity
  8
LAYER_FEATURE
100
AcDbSpline
 62
7
  6
CONTINUOUS
 70
0
 71
3
 72
65
 73
61
 74
0
 42
0.0000001
 43
0.0000001
 44
0.0000000001
 40
0.0
 40
0.0
 40
0.0
 40
0.0
 40
0.0163581345
 40
0.0330511365
 40
0.0500643507
 40
0.0673828294
 40
0.0849906934
 40
0.1028715498
 40
0.1210084024
 40
0.1393837442
 40
0.1579795908
 40
0.1767775272
 40
0.2149030905
 40
0.2536071518
 40
0.2927310662
 40
0.3321131319
 40
0.3715897893
 40
0.410996803
 40
0.4501704349
 40
0.4889486239
 40
0.5271721825
 40
0.5460278411
 40
0.5646870866
 40
0.5831313816
 40
0.6013426064
 40
0.6193031028
 40
0.6369957194
 40
0.6544038582
 40
0.6715115246
 40
0.6883033799
 40
0.7047647973
 40
0.7208819222
 40
0.7366417381
 40
0.7520321376
 40
0.7670419993
 40
0.7816612739
 40
0.7958810798
 40
0.8096938098
 40
0.8230932521
 40
0.8360747263
 40
0.8486352389
 40
0.8607736577
 40
0.87249091
 40
0.8837902076
 40
0.8946772989
 40
0.9051607504
 40
0.9152522528
 40
0.924966949
 40
0.934323769
 40
0.9433457517
 40
0.9520603239
 40
0.9604994955
 40
0.9686999151
 40
0.9767027304
 40
0.9806449353
 40
0.9845550222
 40
0.9884391734
 40
0.9923037319
 40
0.9961551591
 40
1.0
 40
1.0
 40
1.0
 40
1.0
 10
15.9393701966
 20
13.4626452568
 30
0.0
 10
15.9349968189
 20
13.4484930015
 30
0.0
 10
15.9264532875
 20
13.4198075074
 30
0.0
 10
15.9143594212
 20
13.3761135601
 30
0.0
 10
15.9028682698
 20
13.3313588174
 30
0.0
 10
15.8919939878
 20
13.2855984733
 30
0.0
 10
15.8817499056
 20
13.2388883854
 30
0.0
 10
15.8721485965
 20
13.1912858506
 30
0.0
 10
15.8632018457
 20
13.1428491562
 30
0.0
 10
15.8549206523
 20
13.0936376927
 30
0.0
 10
15.8473151263
 20
13.0437116443
 30
0.0
 10
15.8380447676
 20
12.9759565882
 30
0.0
 10
15.8282305802
 20
12.8899084045
 30
0.0
 10
15.8193316068
 20
12.7852744809
 30
0.0
 10
15.8133001445
 20
12.6792964386
 30
0.0
 10
15.8101659041
 20
12.5724936921
 30
0.0
 10
15.8099443276
 20
12.4653888898
 30
0.0
 10
15.8126365066
 20
12.3585064783
 30
0.0
 10
15.8182291761
 20
12.252369505
 30
0.0
 10
15.826694793
 20
12.1474981681
 30
0.0
 10
15.836150959
 20
12.0612006373
 30
0.0
 10
15.8451385443
 20
11.9932073702
 30
0.0
 10
15.8525367741
 20
11.9430762176
 30
0.0
 10
15.8606135989
 20
11.8936411386
 30
0.0
 10
15.8693591594
 20
11.8449625955
 30
0.0
 10
15.8787627019
 20
11.7971002699
 30
0.0
 10
15.8888126861
 20
11.7501127952
 30
0.0
 10
15.8994967751
 20
11.704057736
 30
0.0
 10
15.9108018574
 20
11.6589915025
 30
0.0
 10
15.9227140628
 20
11.6149692848
 30
0.0
 10
15.9352187799
 20
11.5720449825
 30
0.0
 10
15.948300677
 20
11.5302711371
 30
0.0
 10
15.9619437192
 20
11.4896988643
 30
0.0
 10
15.9761311915
 20
11.4503777896
 30
0.0
 10
15.9908457249
 20
11.4123559876
 30
0.0
 10
16.0060693205
 20
11.3756799217
 30
0.0
 10
16.0217833769
 20
11.3403943856
 30
0.0
 10
16.0379687191
 20
11.306542448
 30
0.0
 10
16.0546056302
 20
11.2741653988
 30
0.0
 10
16.0716738861
 20
11.2433026985
 30
0.0
 10
16.0891527883
 20
11.2139919299
 30
0.0
 10
16.1070212077
 20
11.18626876
 30
0.0
 10
16.1252576272
 20
11.1601669081
 30
0.0
 10
16.1438401872
 20
11.135718122
 30
0.0
 10
16.1627467306
 20
11.1129521648
 30
0.0
 10
16.1819548481
 20
11.0918968167
 30
0.0
 10
16.2014419152
 20
11.0725778939
 30
0.0
 10
16.2211851178
 20
11.0550192822
 30
0.0
 10
16.2411614373
 20
11.0392429912
 30
0.0
 10
16.2613476569
 20
11.0252692165
 30
0.0
 10
16.2817201238
 20
11.0131164247
 30
0.0
 10
16.3022551214
 20
11.0028012884
 30
0.0
 10
16.322926817
 20
10.9943389595
 30
0.0
 10
16.3403362307
 20
10.9888136817
 30
0.0
 10
16.3542738149
 20
10.9853530231
 30
0.0
 10
16.364692436
 20
10.9832384332
 30
0.0
 10
16.3751241016
 20
10.981593099
 30
0.0
 10
16.3855657819
 20
10.9804174146
 30
0.0
 10
16.3960138563
 20
10.9797118506
 30
0.0
 10
16.4029839816
 20
10.9795550049
 30
0.0
 10
16.4064655549
 20
10.9795550015
 30
0.0
  0
SPLINE
  5
2B7
100
AcDbEntity
  8
LAYER_CHAMFER_FEAT
100
AcDbSpline
 62
7
  6
CONTINUOUS
 70
0
 71
3
 72
26
 73
22
 74
0
 42
0.0000001
 43
0.0000001
 44
0.0000000001
 40
0.0
 40
0.0
 40
0.0
 40
0.0
 40
0.0835121999
 40
0.1639108229
 40
0.2411705756
 40
0.3152881382
 40
0.386282236
 40
0.4541980821
 40
0.5191103057
 40
0.5811270451
 40
0.6403940687
 40
0.6970990336
 40
0.7514753381
 40
0.8038049285
 40
0.8544191391
 40
0.8792073461
 40
0.9037123659
 40
0.9279878287
 40
0.9520893438
 40
0.9760740144
 40
1.0
 40
1.0
 40
1.0
 40
1.0
 10
16.6017822766
 20
13.2784653643
 30
0.0
 10
16.597680656
 20
13.2868235883
 30
0.0
 10
16.5893557209
 20
13.303095766
 30
0.0
 10
16.5762390571
 20
13.3265733461
 30
0.0
 10
16.5627501345
 20
13.3486213501
 30
0.0
 10
16.5489123685
 20
13.3692010892
 30
0.0
 10
16.5347492595
 20
13.388276953
 30
0.0
 10
16.5202847951
 20
13.405815763
 30
0.0
 10
16.5055431653
 20
13.4217869452
 30
0.0
 10
16.4905487901
 20
13.4361624153
 30
0.0
 10
16.4753262138
 20
13.4489164886
 30
0.0
 10
16.4599003325
 20
13.4600256923
 30
0.0
 10
16.4442959704
 20
13.4694687286
 30
0.0
 10
16.4285402556
 20
13.4772259415
 30
0.0
 10
16.4152112769
 20
13.4823068165
 30
0.0
 10
16.404532258
 20
13.4854860348
 30
0.0
 10
16.3965591924
 20
13.4874254745
 30
0.0
 10
16.3885716239
 20
13.4889348521
 30
0.0
 10
16.3805729324
 20
13.490013581
 30
0.0
 10
16.3725671205
 20
13.4906610244
 30
0.0
 10
16.3672246749
 20
13.4908049813
 30
0.0
 10
16.3645572796
 20
13.4908049862
 30
0.0
  0
SPLINE
  5
2B8
100
AcDbEntity
  8
02___PRT_ALL_AXES
100
AcDbSpline
 62
7
  6
CONTINUOUS
 70
0
 71
3
 72
56
 73
52
 74
0
 42
0.0000001
 43
0.0000001
 44
0.0000000001
 40
0.0
 40
0.0
 40
0.0
 40
0.0
 40
0.0077385622
 40
0.0156305711
 40
0.023716753
 40
0.0320341325
 40
0.0494812597
 40
0.0586740285
 40
0.0682058468
 40
0.0780941093
 40
0.0883528524
 40
0.0989930445
 40
0.1100228676
 40
0.1214479819
 40
0.1332717641
 40
0.1454955247
 40
0.1581187111
 40
0.1711390831
 40
0.1845528675
 40
0.1983548893
 40
0.2125386948
 40
0.2270966644
 40
0.2420201079
 40
0.2572993489
 40
0.2729237966
 40
0.288882021
 40
0.3051618187
 40
0.3217502704
 40
0.3386337914
 40
0.3557981806
 40
0.3732286717
 40
0.4088252478
 40
0.4452968516
 40
0.4825091816
 40
0.520322667
 40
0.5585935516
 40
0.5971749676
 40
0.635917954
 40
0.6746724732
 40
0.7132884093
 40
0.7516165733
 40
0.7895097051
 40
0.8268235094
 40
0.8634176959
 40
0.8991570858
 40
0.9166662351
 40
0.9339139187
 40
0.9508852325
 40
0.9675656753
 40
0.9839418197
 40
1.0
 40
1.0
 40
1.0
 40
1.0
 10
16.3593093514
 20
11.4366181813
 30
0.0
 10
16.3545596497
 20
11.4375768729
 30
0.0
 10
16.3450437364
 20
11.4399207794
 30
0.0
 10
16.3309464499
 20
11.4446358096
 30
0.0
 10
16.3169234012
 20
11.4505723435
 30
0.0
 10
16.298052214
 20
11.4602565441
 30
0.0
 10
16.2796788514
 20
11.4722888944
 30
0.0
 10
16.2619081312
 20
11.4863427951
 30
0.0
 10
16.2484969124
 20
11.4982371702
 30
0.0
 10
16.2352539453
 20
11.5112850143
 30
0.0
 10
16.2221921096
 20
11.5254723699
 30
0.0
 10
16.2093262154
 20
11.5407827208
 30
0.0
 10
16.1966703596
 20
11.5571987438
 30
0.0
 10
16.1842386508
 20
11.5747017968
 30
0.0
 10
16.1720449694
 20
11.5932720511
 30
0.0
 10
16.1601029894
 20
11.6128884512
 30
0.0
 10
16.1484261539
 20
11.6335287561
 30
0.0
 10
16.137027649
 20
11.6551695543
 30
0.0
 10
16.1259203841
 20
11.677786286
 30
0.0
 10
16.1151169558
 20
11.7013532581
 30
0.0
 10
16.1046296328
 20
11.7258436764
 30
0.0
 10
16.0944703455
 20
11.7512296847
 30
0.0
 10
16.0846506651
 20
11.7774823967
 30
0.0
 10
16.0751817903
 20
11.8045719253
 30
0.0
 10
16.0660745151
 20
11.8324674103
 30
0.0
 10
16.0573392296
 20
11.8611370629
 30
0.0
 10
16.0489859076
 20
11.8905482044
 30
0.0
 10
16.0410240898
 20
11.9206673108
 30
0.0
 10
16.033462889
 20
11.9514600152
 30
0.0
 10
16.026310884
 20
11.9828912703
 30
0.0
 10
16.0172685368
 20
12.0259029823
 30
0.0
 10
16.0070678481
 20
12.0810164182
 30
0.0
 10
15.9966620959
 20
12.1486562182
 30
0.0
 10
15.9880551244
 20
12.2179471876
 30
0.0
 10
15.9812864535
 20
12.2885731213
 30
0.0
 10
15.9763870947
 20
12.3602122914
 30
0.0
 10
15.9733795552
 20
12.4325380839
 30
0.0
 10
15.9722776199
 20
12.5052207523
 30
0.0
 10
15.9730863434
 20
12.5779288833
 30
0.0
 10
15.9758020325
 20
12.6503309463
 30
0.0
 10
15.9804121963
 20
12.7220968415
 30
0.0
 10
15.9868957202
 20
12.7928993661
 30
0.0
 10
15.9952228252
 20
12.8624159734
 30
0.0
 10
16.0053553419
 20
12.9303294151
 30
0.0
 10
16.0153317187
 20
12.9857026815
 30
0.0
 10
16.0241983863
 20
13.0289457441
 30
0.0
 10
16.0312230814
 20
13.0605658857
 30
0.0
 10
16.0386595346
 20
13.0915583486
 30
0.0
 10
16.0464993102
 20
13.1218880658
 30
0.0
 10
16.0547334058
 20
13.1515200727
 30
0.0
 10
16.0605378438
 20
13.1709831648
 30
0.0
 10
16.0635064982
 20
13.1805897337
 30
0.0
  0
SPLINE
  5
2B9
100
AcDbEntity
  8
LAYER_CUT_FEAT
100
AcDbSpline
 62
7
  6
CONTINUOUS
 70
0
 71
3
 72
23
 73
19
 74
0
 42
0.0000001
 43
0.0000001
 44
0.0000000001
 40
0.0
 40
0.0
 40
0.0
 40
0.0
 40
0.0596088329
 40
0.1203601282
 40
0.1821008944
 40
0.244673362
 40
0.307915826
 40
0.3716634594
 40
0.4357491111
 40
0.5000040906
 40
0.5642589395
 40
0.6283441989
 40
0.6920911787
 40
0.755332733
 40
0.8179040414
 40
0.879643403
 40
0.9403930514
 40
1.0
 40
1.0
 40
1.0
 40
1.0
 10
16.0254359983
 20
12.8748723754
 30
0.0
 10
16.0280993902
 20
12.8605730556
 30
0.0
 10
16.0331015901
 20
12.831629148
 30
0.0
 10
16.0395846291
 20
12.7876657354
 30
0.0
 10
16.0451048019
 20
12.7428422524
 30
0.0
 10
16.0496448207
 20
12.6972982328
 30
0.0
 10
16.0531905411
 20
12.651174979
 30
0.0
 10
16.0557308982
 20
12.6046157521
 30
0.0
 10
16.0572579738
 20
12.5577651459
 30
0.0
 10
16.0577670048
 20
12.5107686789
 30
0.0
 10
16.057256403
 20
12.4637723246
 30
0.0
 10
16.0557277577
 20
12.4169220567
 30
0.0
 10
16.0531858351
 20
12.370363393
 30
0.0
 10
16.0496385674
 20
12.3242409243
 30
0.0
 10
16.0450970257
 20
12.2786979082
 30
0.0
 10
16.0395753568
 20
12.2338756443
 30
0.0
 10
16.033090842
 20
12.1899136667
 30
0.0
 10
16.0280876715
 20
12.1609708007
 30
0.0
 10
16.0254237837
 20
12.146672041
 30
0.0
  0
SPLINE
  5
2BA
100
AcDbEntity
  8
LAYER_CHAMFER_FEAT
100
AcDbSpline
 62
7
  6
CONTINUOUS
 70
0
 71
3
 72
79
 73
75
 74
0
 42
0.0000001
 43
0.0000001
 44
0.0000000001
 40
0.0
 40
0.0
 40
0.0
 40
0.0
 40
0.0113884778
 40
0.0222283805
 40
0.0325469698
 40
0.0423804741
 40
0.0517750307
 40
0.0607873866
 40
0.0651724044
 40
0.06948811
 40
0.0737445441
 40
0.0779522934
 40
0.08212242
 40
0.0862663633
 40
0.0903958368
 40
0.0945227058
 40
0.0986588639
 40
0.1028161062
 40
0.1070060052
 40
0.1112398023
 40
0.1155283001
 40
0.1198817896
 40
0.1243099706
 40
0.1288219197
 40
0.1381276224
 40
0.1478607801
 40
0.158069804
 40
0.1687930154
 40
0.1800595522
 40
0.1918903756
 40
0.2042992575
 40
0.217293686
 40
0.2308756647
 40
0.2450424028
 40
0.2597869035
 40
0.2750984628
 40
0.2909630942
 40
0.3073638901
 40
0.3242813334
 40
0.341693567
 40
0.3595766306
 40
0.3779046711
 40
0.3966501312
 40
0.4157839217
 40
0.4352755793
 40
0.4550934147
 40
0.4752046505
 40
0.4955755542
 40
0.5161715638
 40
0.5369574107
 40
0.5578972378
 40
0.5789547166
 40
0.600093161
 40
0.6212756403
 40
0.6424650913
 40
0.66362443
 40
0.6847166629
 40
0.7057049987
 40
0.726552961
 40
0.7472245022
 40
0.7676841185
 40
0.7878969684
 40
0.8078289927
 40
0.82744704
 40
0.8467189961
 40
0.86561392
 40
0.884102188
 40
0.9021556477
 40
0.9197477841
 40
0.9368539024
 40
0.953451327
 40
0.9695196366
 40
0.9850408961
 40
1.0
 40
1.0
 40
1.0
 40
1.0
 10
16.2258992415
 20
11.5955165528
 30
0.0
 10
16.2311655577
 20
11.5892072536
 30
0.0
 10
16.2417975227
 20
11.5771804479
 30
0.0
 10
16.2584628558
 20
11.5606058507
 30
0.0
 10
16.2754134626
 20
11.545984044
 30
0.0
 10
16.292617141
 20
11.5333472227
 30
0.0
 10
16.3100400092
 20
11.5227244346
 30
0.0
 10
16.324851292
 20
11.51550605
 30
0.0
 10
16.3367426265
 20
11.5108036209
 30
0.0
 10
16.3456106777
 20
11.5078248964
 30
0.0
 10
16.3545036377
 20
11.5053645135
 30
0.0
 10
16.3634170126
 20
11.5034238553
 30
0.0
 10
16.3723459765
 20
11.502004088
 30
0.0
 10
16.3812857389
 20
11.5011061296
 30
0.0
 10
16.3902314391
 20
11.5007304866
 30
0.0
 10
16.3991782074
 20
11.5008774548
 30
0.0
 10
16.4081211675
 20
11.5015468773
 30
0.0
 10
16.4170554506
 20
11.5027384033
 30
0.0
 10
16.4259762366
 20
11.5044512228
 30
0.0
 10
16.434878721
 20
11.5066843597
 30
0.0
 10
16.443758205
 20
11.5094364028
 30
0.0
 10
16.4526099462
 20
11.512705775
 30
0.0
 10
16.4614295369
 20
11.5164906183
 30
0.0
 10
16.4732602673
 20
11.5222803245
 30
0.0
 10
16.4879672207
 20
11.5308501473
 30
0.0
 10
16.5052208341
 20
11.5430483106
 30
0.0
 10
16.5222297288
 20
11.5572384035
 30
0.0
 10
16.5389604329
 20
11.5733889074
 30
0.0
 10
16.5553815408
 20
11.5914660558
 30
0.0
 10
16.5714613067
 20
11.6114325448
 30
0.0
 10
16.5871683582
 20
11.6332476224
 30
0.0
 10
16.6024716204
 20
11.6568668947
 30
0.0
 10
16.6173405113
 20
11.6822423183
 30
0.0
 10
16.6317450648
 20
11.70932222
 30
0.0
 10
16.6456560642
 20
11.7380513667
 30
0.0
 10
16.6590451552
 20
11.7683710619
 30
0.0
 10
16.6718849462
 20
11.8002192616
 30
0.0
 10
16.6841490973
 20
11.833530704
 30
0.0
 10
16.6958123979
 20
11.8682370495
 30
0.0
 10
16.7068508358
 20
11.9042670283
 30
0.0
 10
16.7172416598
 20
11.9415465935
 30
0.0
 10
16.7269634355
 20
11.9799990813
 30
0.0
 10
16.7359960964
 20
12.0195453742
 30
0.0
 10
16.7443209897
 20
12.0601040697
 30
0.0
 10
16.7519209185
 20
12.1015916529
 30
0.0
 10
16.7587801794
 20
12.1439226723
 30
0.0
 10
16.7648845972
 20
12.1870099195
 30
0.0
 10
16.7702215546
 20
12.2307646125
 30
0.0
 10
16.7747800197
 20
12.2750965806
 30
0.0
 10
16.7785505691
 20
12.3199144528
 30
0.0
 10
16.7815254079
 20
12.3651258487
 30
0.0
 10
16.7836983859
 20
12.4106375698
 30
0.0
 10
16.7850650105
 20
12.4563557943
 30
0.0
 10
16.7856224563
 20
12.5021862711
 30
0.0
 10
16.7853695708
 20
12.5480345164
 30
0.0
 10
16.7843068768
 20
12.5938060092
 30
0.0
 10
16.7824365714
 20
12.6394063882
 30
0.0
 10
16.7797625214
 20
12.684741647
 30
0.0
 10
16.7762902552
 20
12.7297183303
 30
0.0
 10
16.7720269512
 20
12.7742437273
 30
0.0
 10
16.7669814228
 20
12.8182260651
 30
0.0
 10
16.7611640998
 20
12.8615746999
 30
0.0
 10
16.7545870064
 20
12.9042003054
 30
0.0
 10
16.7472637357
 20
12.9460150603
 30
0.0
 10
16.7392094205
 20
12.9869328313
 30
0.0
 10
16.7304407004
 20
13.0268693548
 30
0.0
 10
16.7209756857
 20
13.0657424136
 30
0.0
 10
16.7108339162
 20
13.103472012
 30
0.0
 10
16.7000363197
 20
13.1399805413
 30
0.0
 10
16.6886051522
 20
13.1751929633
 30
0.0
 10
16.6765639811
 20
13.2090369044
 30
0.0
 10
16.663937497
 20
13.2414430586
 30
0.0
 10
16.6507518962
 20
13.2723444306
 30
0.0
 10
16.6414317776
 20
13.2922741116
 30
0.0
 10
16.6366760961
 20
13.3019651716
 30
0.0
  0
SPLINE
  5
2BB
100
AcDbEntity
  8
02___PRT_ALL_AXES
100
AcDbSpline
 62
7
  6
CONTINUOUS
 70
0
 71
3
 72
34
 73
30
 74
0
 42
0.0000001
 43
0.0000001
 44
0.0000000001
 40
0.0
 40
0.0
 40
0.0
 40
0.0
 40
0.0855274594
 40
0.1681678032
 40
0.2477936314
 40
0.3242947934
 40
0.3613469992
 40
0.3975867579
 40
0.4330067482
 40
0.4676014352
 40
0.5013670636
 40
0.5343019034
 40
0.5664063688
 40
0.5976831359
 40
0.6281374426
 40
0.6577771488
 40
0.686613064
 40
0.7146591313
 40
0.7419326385
 40
0.7684545737
 40
0.794249758
 40
0.8193472128
 40
0.8675731012
 40
0.8907964583
 40
0.9134840403
 40
0.9356884908
 40
0.9574672565
 40
0.9788823515
 40
1.0
 40
1.0
 40
1.0
 40
1.0
 10
16.0635064982
 20
13.1805897337
 30
0.0
 10
16.06789889
 20
13.1948035188
 30
0.0
 10
16.0769443888
 20
13.2226272355
 30
0.0
 10
16.0915656652
 20
13.2631817355
 30
0.0
 10
16.106976807
 20
13.3017578077
 30
0.0
 10
16.1205852539
 20
13.3324912315
 30
0.0
 10
16.1318521697
 20
13.3559866416
 30
0.0
 10
16.140383988
 20
13.3728639779
 30
0.0
 10
16.1490816786
 20
13.3891735752
 30
0.0
 10
16.1579395582
 20
13.4049047908
 30
0.0
 10
16.1669518443
 20
13.4200472702
 30
0.0
 10
16.1761126359
 20
13.4345910825
 30
0.0
 10
16.1854159329
 20
13.4485266937
 30
0.0
 10
16.1948557092
 20
13.4618449375
 30
0.0
 10
16.2044257743
 20
13.474537104
 30
0.0
 10
16.2141199515
 20
13.4865948378
 30
0.0
 10
16.2239319464
 20
13.4980102309
 30
0.0
 10
16.2338553914
 20
13.5087757768
 30
0.0
 10
16.2438839718
 20
13.5188843817
 30
0.0
 10
16.2540110188
 20
13.5283292822
 30
0.0
 10
16.2642306793
 20
13.5371045974
 30
0.0
 10
16.2777887262
 20
13.5477609042
 30
0.0
 10
16.2916907837
 20
13.5572381613
 30
0.0
 10
16.3058967292
 20
13.5653940862
 30
0.0
 10
16.3164774182
 20
13.5707396961
 30
0.0
 10
16.327109693
 20
13.5753860368
 30
0.0
 10
16.3377870273
 20
13.579329899
 30
0.0
 10
16.3485016377
 20
13.58256806
 30
0.0
 10
16.3557086774
 20
13.5842650388
 30
0.0
 10
16.3593093512
 20
13.5849918093
 30
0.0
  0
SPLINE
  5
2BC
100
AcDbEntity
  8
LAYER_CHAMFER_FEAT
100
AcDbSpline
 62
7
  6
CONTINUOUS
 70
0
 71
3
 72
65
 73
61
 74
0
 42
0.0000001
 43
0.0000001
 44
0.0000000001
 40
0.0
 40
0.0
 40
0.0
 40
0.0
 40
0.0038602073
 40
0.0077284464
 40
0.0116126859
 40
0.0155207763
 40
0.0194603851
 40
0.023438957
 40
0.0315392985
 40
0.0398774698
 40
0.0485011701
 40
0.0574519224
 40
0.0667650383
 40
0.0764698445
 40
0.0865900713
 40
0.0971443242
 40
0.1081465786
 40
0.119606659
 40
0.1315306884
 40
0.1439214939
 40
0.1567789661
 40
0.1701003727
 40
0.1838806323
 40
0.1981125517
 40
0.212787031
 40
0.2278932469
 40
0.2434188128
 40
0.2593499184
 40
0.2756714548
 40
0.2923671264
 40
0.3094195505
 40
0.3268103507
 40
0.3445202436
 40
0.3625291185
 40
0.3808161118
 40
0.3993596768
 40
0.4181376506
 40
0.456304217
 40
0.4951298843
 40
0.5344214445
 40
0.5739815665
 40
0.6136105714
 40
0.6531081836
 40
0.6922752681
 40
0.7309155891
 40
0.7688375963
 40
0.7874717779
 40
0.8058576376
 40
0.8239733897
 40
0.8417979064
 40
0.8593107861
 40
0.8764924263
 40
0.8933241007
 40
0.9097880424
 40
0.9258675371
 40
0.9415470099
 40
0.9568121816
 40
0.9716500175
 40
0.9860493246
 40
1.0
 40
1.0
 40
1.0
 40
1.0
 10
16.3645572796
 20
11.5308049996
 30
0.0
 10
16.3670134279
 20
11.5308049951
 30
0.0
 10
16.3719317046
 20
11.5309270114
 30
0.0
 10
16.379303
 20
11.531475846
 30
0.0
 10
16.3866687839
 20
11.5323902551
 30
0.0
 10
16.3940259194
 20
11.5336699253
 30
0.0
 10
16.4013718189
 20
11.5353142949
 30
0.0
 10
16.4112049173
 20
11.5380077399
 30
0.0
 10
16.4234831395
 20
11.542310236
 30
0.0
 10
16.4380294841
 20
11.548889481
 30
0.0
 10
16.4524580451
 20
11.5569039527
 30
0.0
 10
16.4667471585
 20
11.5663394001
 30
0.0
 10
16.4808769899
 20
11.5771802677
 30
0.0
 10
16.4948277149
 20
11.5894093939
 30
0.0
 10
16.5085798344
 20
11.6030080204
 30
0.0
 10
16.5221139825
 20
11.6179556805
 30
0.0
 10
16.5354109509
 20
11.6342301293
 30
0.0
 10
16.5484517097
 20
11.6518072826
 30
0.0
 10
16.5612174512
 20
11.6706611936
 30
0.0
 10
16.5736896366
 20
11.690764052
 30
0.0
 10
16.5858500497
 20
11.7120861975
 30
0.0
 10
16.5976808467
 20
11.7345961461
 30
0.0
 10
16.6091646015
 20
11.7582606273
 30
0.0
 10
16.6202843483
 20
11.7830446263
 30
0.0
 10
16.6310236261
 20
11.8089114316
 30
0.0
 10
16.6413665069
 20
11.8358226944
 30
0.0
 10
16.6512976286
 20
11.8637384887
 30
0.0
 10
16.6608022235
 20
11.8926173724
 30
0.0
 10
16.6698661458
 20
11.9224164512
 30
0.0
 10
16.6784758949
 20
11.9530914432
 30
0.0
 10
16.686618642
 20
11.9845967443
 30
0.0
 10
16.6942822528
 20
12.0168854995
 30
0.0
 10
16.7014553004
 20
12.0499096738
 30
0.0
 10
16.7081270912
 20
12.0836201371
 30
0.0
 10
16.7142876583
 20
12.1179666955
 30
0.0
 10
16.7199278649
 20
12.1528983294
 30
0.0
 10
16.7267797191
 20
12.200440101
 30
0.0
 10
16.7339677909
 20
12.2609625364
 30
0.0
 10
16.7403582969
 20
12.3346860829
 30
0.0
 10
16.7445211526
 20
12.40945702
 30
0.0
 10
16.7464314206
 20
12.4848303267
 30
0.0
 10
16.7460776618
 20
12.560358099
 30
0.0
 10
16.7434619966
 20
12.6355912313
 30
0.0
 10
16.7386000913
 20
12.7100826756
 30
0.0
 10
16.7315210742
 20
12.7833890891
 30
0.0
 10
16.7237652638
 20
12.8434735968
 30
0.0
 10
16.7164662434
 20
12.8905972683
 30
0.0
 10
16.7104999312
 20
12.925169531
 30
0.0
 10
16.7040189121
 20
12.9591246768
 30
0.0
 10
16.6970327967
 20
12.9924122736
 30
0.0
 10
16.6895520207
 20
13.0249827627
 30
0.0
 10
16.6815877346
 20
13.0567876956
 30
0.0
 10
16.6731518116
 20
13.0877797647
 30
0.0
 10
16.6642568202
 20
13.1179128888
 30
0.0
 10
16.6549160094
 20
13.1471422732
 30
0.0
 10
16.6451432877
 20
13.1754245208
 30
0.0
 10
16.6349531984
 20
13.2027175584
 30
0.0
 10
16.6243608451
 20
13.2289810945
 30
0.0
 10
16.6133820892
 20
13.2541757041
 30
0.0
 10
16.6056927307
 20
13.2704966966
 30
0.0
 10
16.6017822766
 20
13.2784653643
 30
0.0
  0
SPLINE
  5
2BD
100
AcDbEntity
  8
LAYER_FEATURE
100
AcDbSpline
 62
7
  6
CONTINUOUS
 70
0
 71
3
 72
37
 73
33
 74
0
 42
0.0000001
 43
0.0000001
 44
0.0000000001
 40
0.0
 40
0.0
 40
0.0
 40
0.0
 40
0.0221622481
 40
0.0444050975
 40
0.0668080674
 40
0.0894485794
 40
0.1124010528
 40
0.1357361058
 40
0.1595200052
 40
0.1838141911
 40
0.2341374859
 40
0.2602800392
 40
0.287127389
 40
0.3147155645
 40
0.3430758989
 40
0.372235353
 40
0.4022166739
 40
0.4330387728
 40
0.4647169488
 40
0.4972631126
 40
0.5306861329
 40
0.5649919413
 40
0.6001838345
 40
0.6362626563
 40
0.6732269132
 40
0.7110730444
 40
0.7497954455
 40
0.7893867447
 40
0.8298378829
 40
0.8711378276
 40
0.9132746045
 40
1.0
 40
1.0
 40
1.0
 40
1.0
 10
14.623752001
 20
13.8868049819
 30
0.0
 10
14.619188496
 20
13.8868049815
 30
0.0
 10
14.6100420681
 20
13.8865045531
 30
0.0
 10
14.5963425742
 20
13.8851537274
 30
0.0
 10
14.582661568
 20
13.8829036135
 30
0.0
 10
14.5690092473
 20
13.8797560472
 30
0.0
 10
14.5553946723
 20
13.8757134549
 30
0.0
 10
14.5418271161
 20
13.8707791223
 30
0.0
 10
14.5283151157
 20
13.8649564288
 30
0.0
 10
14.5101752941
 20
13.855909834
 30
0.0
 10
14.4923807332
 20
13.8451575864
 30
0.0
 10
14.475002265
 20
13.8328789386
 30
0.0
 10
14.4618993364
 20
13.8226900072
 30
0.0
 10
14.4489042204
 20
13.8116466786
 30
0.0
 10
14.4360242654
 20
13.7997557893
 30
0.0
 10
14.4232679449
 20
13.7870252564
 30
0.0
 10
14.4106432666
 20
13.7734634169
 30
0.0
 10
14.3981583232
 20
13.7590791116
 30
0.0
 10
14.3858211083
 20
13.7438816931
 30
0.0
 10
14.3736394907
 20
13.7278810698
 30
0.0
 10
14.3616213464
 20
13.7110876018
 30
0.0
 10
14.349774377
 20
13.6935122172
 30
0.0
 10
14.3381062294
 20
13.6751663226
 30
0.0
 10
14.3266244689
 20
13.6560618157
 30
0.0
 10
14.3153364793
 20
13.636211126
 30
0.0
 10
14.304249619
 20
13.6156271299
 30
0.0
 10
14.2933710529
 20
13.594323214
 30
0.0
 10
14.2827078263
 20
13.5723132063
 30
0.0
 10
14.2722669496
 20
13.5496114704
 30
0.0
 10
14.2620550528
 20
13.5262326684
 30
0.0
 10
14.2486249902
 20
13.4938684821
 30
0.0
 10
14.2391147157
 20
13.4690894774
 30
0.0
 10
14.2329861091
 20
13.4523161149
 30
0.0
  0
SPLINE
  5
2BE
100
AcDbEntity
  8
LAYER_FEATURE
100
AcDbSpline
 62
7
  6
CONTINUOUS
 70
0
 71
3
 72
97
 73
93
 74
0
 42
0.0000001
 43
0.0000001
 44
0.0000000001
 40
0.0
 40
0.0
 40
0.0
 40
0.0
 40
0.0173110445
 40
0.0340650121
 40
0.0502381387
 40
0.0658096634
 40
0.0733647059
 40
0.080763304
 40
0.0880039777
 40
0.0950855529
 40
0.1020071616
 40
0.1087682759
 40
0.1153687354
 40
0.1218087581
 40
0.1280889927
 40
0.1342105297
 40
0.1401749457
 40
0.1459843451
 40
0.1516413827
 40
0.1571493278
 40
0.1625120881
 40
0.1677342626
 40
0.1728211897
 40
0.1777789735
 40
0.1873328862
 40
0.191948174
 40
0.1964671372
 40
0.2009001284
 40
0.2052583327
 40
0.2095536996
 40
0.2137988642
 40
0.2180070386
 40
0.2221918724
 40
0.2263673028
 40
0.2305473828
 40
0.234746108
 40
0.2389772432
 40
0.2432541661
 40
0.247589719
 40
0.2519960957
 40
0.2564847475
 40
0.2610663123
 40
0.2657505849
 40
0.2705464853
 40
0.2754620701
 40
0.2856780258
 40
0.2909926345
 40
0.2964509482
 40
0.3020571065
 40
0.3078145902
 40
0.3137262542
 40
0.3197943898
 40
0.326020743
 40
0.3324065679
 40
0.3389526594
 40
0.3456593744
 40
0.352526683
 40
0.3595541736
 40
0.3667410936
 40
0.3740863708
 40
0.3892455023
 40
0.4050180454
 40
0.4213857189
 40
0.4383267303
 40
0.4558161712
 40
0.4738263616
 40
0.4923271482
 40
0.5112861699
 40
0.5306690952
 40
0.5504398414
 40
0.5705607795
 40
0.5909929234
 40
0.6116961103
 40
0.6326291717
 40
0.6537501008
 40
0.6750162162
 40
0.6963843194
 40
0.7178108519
 40
0.7392520491
 40
0.7606640954
 40
0.7820032775
 40
0.8032261384
 40
0.8242896328
 40
0.8451512848
 40
0.8657693477
 40
0.886102967
 40
0.9061123487
 40
0.925758934
 40
0.9450055813
 40
0.9638167865
 40
0.9821587624
 40
1.0
 40
1.0
 40
1.0
 40
1.0
 10
15.9466267777
 20
13.3851997077
 30
0.0
 10
15.9521126126
 20
13.4029518761
 30
0.0
 10
15.9633968419
 20
13.4377364539
 30
0.0
 10
15.9815810007
 20
13.4885089821
 30
0.0
 10
16.0007118474
 20
13.5369313349
 30
0.0
 10
16.0175704858
 20
13.5756086124
 30
0.0
 10
16.031513927
 20
13.605259047
 30
0.0
 10
16.0420736393
 20
13.6266143899
 30
0.0
 10
16.0528342093
 20
13.6472980789
 30
0.0
 10
16.0637892129
 20
13.6672977691
 30
0.0
 10
16.0749320906
 20
13.686601432
 30
0.0
 10
16.086256185
 20
13.7051974826
 30
0.0
 10
16.097754692
 20
13.7230747804
 30
0.0
 10
16.1094207953
 20
13.7402225751
 30
0.0
 10
16.1212474976
 20
13.7566306048
 30
0.0
 10
16.1332277815
 20
13.7722890146
 30
0.0
 10
16.1453545408
 20
13.7871883993
 30
0.0
 10
16.1576205493
 20
13.8013198363
 30
0.0
 10
16.1700186048
 20
13.8146747924
 30
0.0
 10
16.1825413295
 20
13.8272452448
 30
0.0
 10
16.1951814239
 20
13.8390236193
 30
0.0
 10
16.2079312562
 20
13.8500026244
 30
0.0
 10
16.220784053
 20
13.8601760658
 30
0.0
 10
16.2378344919
 20
13.8725038541
 30
0.0
 10
16.2552812012
 20
13.8833961837
 30
0.0
 10
16.2730650323
 20
13.8926901539
 30
0.0
 10
16.2863150834
 20
13.8987486269
 30
0.0
 10
16.2996208567
 20
13.9039699911
 30
0.0
 10
16.3129746462
 20
13.9083509897
 30
0.0
 10
16.3263681608
 20
13.9118884756
 30
0.0
 10
16.3397931003
 20
13.9145799054
 30
0.0
 10
16.3532409946
 20
13.9164233749
 30
0.0
 10
16.3667033058
 20
13.9174174296
 30
0.0
 10
16.3801714033
 20
13.9175613885
 30
0.0
 10
16.3936366417
 20
13.9168551205
 30
0.0
 10
16.4070903783
 20
13.9152991278
 30
0.0
 10
16.4205240447
 20
13.9128946434
 30
0.0
 10
16.4339291371
 20
13.9096433535
 30
0.0
 10
16.4472972956
 20
13.9055476672
 30
0.0
 10
16.460620275
 20
13.9006104497
 30
0.0
 10
16.4738899398
 20
13.8948350727
 30
0.0
 10
16.4870983494
 20
13.8882254614
 30
0.0
 10
16.5002375046
 20
13.880785937
 30
0.0
 10
16.5132999631
 20
13.8725211467
 30
0.0
 10
16.5308271342
 20
13.8602517086
 30
0.0
 10
16.5479428711
 20
13.8464667234
 30
0.0
 10
16.5646260318
 20
13.8313226737
 30
0.0
 10
16.5771896574
 20
13.8190192882
 30
0.0
 10
16.5896306581
 20
13.8059291705
 30
0.0
 10
16.6019422111
 20
13.7920596898
 30
0.0
 10
16.6141169327
 20
13.7774193662
 30
0.0
 10
16.6261476045
 20
13.7620169212
 30
0.0
 10
16.6380271067
 20
13.7458616354
 30
0.0
 10
16.6497483725
 20
13.7289631941
 30
0.0
 10
16.6613043932
 20
13.7113317212
 30
0.0
 10
16.6726883165
 20
13.6929778176
 30
0.0
 10
16.6838932989
 20
13.6739124667
 30
0.0
 10
16.6949126479
 20
13.6541471399
 30
0.0
 10
16.7057398361
 20
13.6336936391
 30
0.0
 10
16.7200613225
 20
13.6052221606
 30
0.0
 10
16.7374124382
 20
13.5679698944
 30
0.0
 10
16.7571514378
 20
13.5211855987
 30
0.0
 10
16.7759742877
 20
13.4719725508
 30
0.0
 10
16.7938356978
 20
13.4204490841
 30
0.0
 10
16.810692828
 20
13.3667384224
 30
0.0
 10
16.826505116
 20
13.3109693878
 30
0.0
 10
16.8412344872
 20
13.2532757838
 30
0.0
 10
16.854845436
 20
13.1937961434
 30
0.0
 10
16.867305142
 20
13.1326733643
 30
0.0
 10
16.8785835503
 20
13.0700543583
 30
0.0
 10
16.8886534439
 20
13.0060896827
 30
0.0
 10
16.8974905153
 20
12.9409331701
 30
0.0
 10
16.9050734249
 20
12.8747415531
 30
0.0
 10
16.9113838671
 20
12.8076740837
 30
0.0
 10
16.9164066089
 20
12.7398921428
 30
0.0
 10
16.9201295223
 20
12.6715588457
 30
0.0
 10
16.9225436156
 20
12.6028386458
 30
0.0
 10
16.9236430536
 20
12.533896936
 30
0.0
 10
16.9234251845
 20
12.4648996473
 30
0.0
 10
16.9218905381
 20
12.3960128456
 30
0.0
 10
16.9190428206
 20
12.3274023281
 30
0.0
 10
16.914888907
 20
12.2592332222
 30
0.0
 10
16.9094388225
 20
12.1916695842
 30
0.0
 10
16.9027057309
 20
12.1248739984
 30
0.0
 10
16.8947058928
 20
12.0590071831
 30
0.0
 10
16.8854586223
 20
11.9942275983
 30
0.0
 10
16.874986242
 20
11.9306910661
 30
0.0
 10
16.8633140173
 20
11.8685503705
 30
0.0
 10
16.8504701347
 20
11.8079549293
 30
0.0
 10
16.8364855266
 20
11.7490502609
 30
0.0
 10
16.8213941061
 20
11.691978378
 30
0.0
 10
16.8104618353
 20
11.6547061502
 30
0.0
 10
16.8048079832
 20
11.6364102781
 30
0.0
  0
SPLINE
  5
2BF
100
AcDbEntity
  8
LAYER_FEATURE
100
AcDbSpline
 62
7
  6
CONTINUOUS
 70
0
 71
3
 72
39
 73
35
 74
0
 42
0.0000001
 43
0.0000001
 44
0.0000000001
 40
0.0
 40
0.0
 40
0.0
 40
0.0
 40
0.0443812481
 40
0.0879669295
 40
0.1307335086
 40
0.172661876
 40
0.2137331571
 40
0.2539301992
 40
0.2932376968
 40
0.3316421073
 40
0.369131911
 40
0.4056977099
 40
0.4413323968
 40
0.4760313903
 40
0.5097927974
 40
0.5426176342
 40
0.5745101269
 40
0.6054779669
 40
0.6355325892
 40
0.664689538
 40
0.6929688298
 40
0.7203952869
 40
0.7469989387
 40
0.7728154376
 40
0.7978863828
 40
0.8222596394
 40
0.8459896168
 40
0.869137373
 40
0.8917705712
 40
0.9139632708
 40
0.935795451
 40
0.9573522592
 40
0.9787230199
 40
1.0
 40
1.0
 40
1.0
 40
1.0
 10
15.9393701966
 20
13.4626452568
 30
0.0
 10
15.9428147673
 20
13.4737918918
 30
0.0
 10
15.949820655
 20
13.4958307075
 30
0.0
 10
15.9607834946
 20
13.5284035474
 30
0.0
 10
15.9720986081
 20
13.5601722329
 30
0.0
 10
15.9837568833
 20
13.5911113259
 30
0.0
 10
15.9957492085
 20
13.6211966369
 30
0.0
 10
16.0080660897
 20
13.650404376
 30
0.0
 10
16.0206978114
 20
13.6787114983
 30
0.0
 10
16.0336344315
 20
13.7060956915
 30
0.0
 10
16.04686574
 20
13.7325353796
 30
0.0
 10
16.0603813298
 20
13.7580097305
 30
0.0
 10
16.0741705977
 20
13.7824986722
 30
0.0
 10
16.0882227023
 20
13.8059829383
 30
0.0
 10
16.1025266307
 20
13.8284440525
 30
0.0
 10
16.1170712186
 20
13.849864329
 30
0.0
 10
16.1318451075
 20
13.8702269243
 30
0.0
 10
16.1468367881
 20
13.8895158286
 30
0.0
 10
16.1620346427
 20
13.9077158418
 30
0.0
 10
16.1774269179
 20
13.9248126103
 30
0.0
 10
16.1930017253
 20
13.9407926427
 30
0.0
 10
16.2087470995
 20
13.9556432567
 30
0.0
 10
16.2246509866
 20
13.9693525823
 30
0.0
 10
16.2407011983
 20
13.9819096112
 30
0.0
 10
16.2568854608
 20
13.9933041226
 30
0.0
 10
16.273191398
 20
14.0035266568
 30
0.0
 10
16.289606453
 20
14.0125685928
 30
0.0
 10
16.3061178926
 20
14.0204221091
 30
0.0
 10
16.3227127685
 20
14.0270801583
 30
0.0
 10
16.3393778791
 20
14.0325365806
 30
0.0
 10
16.356099608
 20
14.036786182
 30
0.0
 10
16.3728644502
 20
14.0398247394
 30
0.0
 10
16.389657146
 20
14.0416491164
 30
0.0
 10
16.4008723653
 20
14.0420549898
 30
0.0
 10
16.4064655549
 20
14.0420549843
 30
0.0
  0
SPLINE
  5
2C0
100
AcDbEntity
  8
LAYER_FEATURE
100
AcDbSpline
 62
7
  6
CONTINUOUS
 70
0
 71
3
 72
65
 73
61
 74
0
 42
0.0000001
 43
0.0000001
 44
0.0000000001
 40
0.0
 40
0.0
 40
0.0
 40
0.0
 40
0.0163581197
 40
0.0330511451
 40
0.0500643483
 40
0.0673828299
 40
0.084990693
 40
0.1028715492
 40
0.1210084025
 40
0.1393837448
 40
0.1579795916
 40
0.1767775276
 40
0.21490309
 40
0.2536071518
 40
0.2927310665
 40
0.3321131318
 40
0.3715897894
 40
0.4109968029
 40
0.4501704345
 40
0.4889486246
 40
0.5271721828
 40
0.5460278405
 40
0.5646870855
 40
0.5831313807
 40
0.6013426065
 40
0.6193031038
 40
0.6369957203
 40
0.6544038584
 40
0.671511524
 40
0.6883033789
 40
0.7047647965
 40
0.7208819223
 40
0.7366417387
 40
0.752032138
 40
0.7670419993
 40
0.7816612736
 40
0.7958810795
 40
0.8096938098
 40
0.8230932521
 40
0.8360747259
 40
0.8486352383
 40
0.8607736572
 40
0.8724909101
 40
0.8837902083
 40
0.8946772999
 40
0.9051607504
 40
0.9152522516
 40
0.9249669475
 40
0.9343237681
 40
0.9433457518
 40
0.9520603249
 40
0.9604994965
 40
0.9686999153
 40
0.9767027298
 40
0.9806449359
 40
0.9845550216
 40
0.9884391738
 40
0.9923037317
 40
0.9961551592
 40
1.0
 40
1.0
 40
1.0
 40
1.0
 10
14.1259084682
 20
13.4626452568
 30
0.0
 10
14.1215350945
 20
13.4484930143
 30
0.0
 10
14.112991563
 20
13.4198075122
 30
0.0
 10
14.1008976938
 20
13.3761135679
 30
0.0
 10
14.0894065423
 20
13.331358811
 30
0.0
 10
14.0785322595
 20
13.2855984753
 30
0.0
 10
14.0682881762
 20
13.238888386
 30
0.0
 10
14.0586868663
 20
13.1912858517
 30
0.0
 10
14.049740117
 20
13.1428491561
 30
0.0
 10
14.0414589263
 20
13.0936376909
 30
0.0
 10
14.0338534007
 20
13.0437116423
 30
0.0
 10
14.0245830407
 20
12.9759565875
 30
0.0
 10
14.0147688476
 20
12.889908405
 30
0.0
 10
14.0058698774
 20
12.785274481
 30
0.0
 10
13.9998384228
 20
12.679296438
 30
0.0
 10
13.9967041744
 20
12.5724936917
 30
0.0
 10
13.996482593
 20
12.4653888897
 30
0.0
 10
13.9991747831
 20
12.3585064788
 30
0.0
 10
14.0047674524
 20
12.2523695053
 30
0.0
 10
14.0132330582
 20
12.147498167
 30
0.0
 10
14.022689229
 20
12.0612006367
 30
0.0
 10
14.0316768186
 20
11.9932073718
 30
0.0
 10
14.03907505
 20
11.9430762206
 30
0.0
 10
14.0471518736
 20
11.8936411407
 30
0.0
 10
14.0558974302
 20
11.844962595
 30
0.0
 10
14.0653009702
 20
11.7971002672
 30
0.0
 10
14.0753509555
 20
11.7501127927
 30
0.0
 10
14.0860350465
 20
11.7040577354
 30
0.0
 10
14.0973401307
 20
11.6589915043
 30
0.0
 10
14.1092523368
 20
11.6149692878
 30
0.0
 10
14.1217570535
 20
11.5720449847
 30
0.0
 10
14.1348389481
 20
11.5302711369
 30
0.0
 10
14.1484819894
 20
11.4896988626
 30
0.0
 10
14.1626694626
 20
11.4503777884
 30
0.0
 10
14.1773839969
 20
11.4123559877
 30
0.0
 10
14.1926075929
 20
11.3756799226
 30
0.0
 10
14.2083216491
 20
11.3403943864
 30
0.0
 10
14.2245069906
 20
11.3065424482
 30
0.0
 10
14.2411439015
 20
11.2741653989
 30
0.0
 10
14.2582121584
 20
11.2433026998
 30
0.0
 10
14.275691061
 20
11.213991932
 30
0.0
 10
14.2935594802
 20
11.1862687616
 30
0.0
 10
14.311795899
 20
11.1601669077
 30
0.0
 10
14.3303784579
 20
11.135718119
 30
0.0
 10
14.3492850003
 20
11.1129521609
 30
0.0
 10
14.3684931195
 20
11.0918968167
 30
0.0
 10
14.387980189
 20
11.0725778994
 30
0.0
 10
14.4077233914
 20
11.0550192891
 30
0.0
 10
14.42769971
 20
11.0392429951
 30
0.0
 10
14.4478859283
 20
11.0252692149
 30
0.0
 10
14.4682583937
 20
11.0131164168
 30
0.0
 10
14.4887933917
 20
11.0028012816
 30
0.0
 10
14.5094650873
 20
10.9943389522
 30
0.0
 10
14.5268745091
 20
10.9888137083
 30
0.0
 10
14.5408120811
 20
10.9853530006
 30
0.0
 10
14.5512307129
 20
10.9832384597
 30
0.0
 10
14.5616623698
 20
10.9815930766
 30
0.0
 10
14.5721040554
 20
10.9804174284
 30
0.0
 10
14.5825521275
 20
10.9797118509
 30
0.0
 10
14.5895222533
 20
10.9795549936
 30
0.0
 10
14.5930038265
 20
10.9795549987
 30
0.0
  0
SPLINE
  5
2C1
100
AcDbEntity
  8
LAYER_FEATURE
100
AcDbSpline
 62
7
  6
CONTINUOUS
 70
0
 71
3
 72
39
 73
35
 74
0
 42
0.0000001
 43
0.0000001
 44
0.0000000001
 40
0.0
 40
0.0
 40
0.0
 40
0.0
 40
0.0468737503
 40
0.0927033643
 40
0.1374538248
 40
0.1810949186
 40
0.2235984207
 40
0.2649398972
 40
0.3050984902
 40
0.3440574027
 40
0.3818042654
 40
0.4183315736
 40
0.4536371951
 40
0.4877249381
 40
0.5206052017
 40
0.5522956977
 40
0.5828222404
 40
0.6122196148
 40
0.6405324963
 40
0.6678163882
 40
0.694138523
 40
0.7195786213
 40
0.7442294023
 40
0.7681967023
 40
0.7915990373
 40
0.8145664664
 40
0.837238671
 40
0.8597622593
 40
0.8822874551
 40
0.9049644427
 40
0.9279397154
 40
0.9513527749
 40
0.9753334515
 40
1.0
 40
1.0
 40
1.0
 40
1.0
 10
14.1946613982
 20
13.3851997077
 30
0.0
 10
14.1985494936
 20
13.3977815888
 30
0.0
 10
14.2064860718
 20
13.4225896579
 30
0.0
 10
14.2190213436
 20
13.4591184717
 30
0.0
 10
14.2320413172
 20
13.4945115785
 30
0.0
 10
14.2455302182
 20
13.5287263335
 30
0.0
 10
14.2594720386
 20
13.5617220455
 30
0.0
 10
14.2738500801
 20
13.593459251
 30
0.0
 10
14.2886472155
 20
13.6239001021
 30
0.0
 10
14.3038458192
 20
13.6530083052
 30
0.0
 10
14.3194278333
 20
13.6807491863
 30
0.0
 10
14.3353747936
 20
13.7070897218
 30
0.0
 10
14.351667863
 20
13.7319985725
 30
0.0
 10
14.3682878728
 20
13.7554461113
 30
0.0
 10
14.3852153548
 20
13.7774044503
 30
0.0
 10
14.4024305793
 20
13.7978474526
 30
0.0
 10
14.4199136014
 20
13.8167507216
 30
0.0
 10
14.4376442891
 20
13.834091582
 30
0.0
 10
14.4556023407
 20
13.849849047
 30
0.0
 10
14.473767285
 20
13.8640037689
 30
0.0
 10
14.4921184333
 20
13.876537999
 30
0.0
 10
14.5106348048
 20
13.8874355348
 30
0.0
 10
14.5292950005
 20
13.8966816946
 30
0.0
 10
14.5480770312
 20
13.9042633645
 30
0.0
 10
14.5669581392
 20
13.9101691412
 30
0.0
 10
14.5859146666
 20
13.9143895822
 30
0.0
 10
14.6049220336
 20
13.9169175727
 30
0.0
 10
14.6239549011
 20
13.9177486681
 30
0.0
 10
14.6429874886
 20
13.9168813764
 30
0.0
 10
14.6619940475
 20
13.9143172461
 30
0.0
 10
14.68094917
 20
13.9100608228
 30
0.0
 10
14.6998286031
 20
13.9041191148
 30
0.0
 10
14.7186075215
 20
13.8965022311
 30
0.0
 10
14.7308572776
 20
13.8904082769
 30
0.0
 10
14.7369489444
 20
13.8871043882
 30
0.0
  0
SPLINE
  5
2C2
100
AcDbEntity
  8
LAYER_FEATURE
100
AcDbSpline
 62
7
  6
CONTINUOUS
 70
0
 71
3
 72
75
 73
71
 74
0
 42
0.0000001
 43
0.0000001
 44
0.0000000001
 40
0.0
 40
0.0
 40
0.0
 40
0.0
 40
0.0170835971
 40
0.0345474587
 40
0.0523733381
 40
0.0705423092
 40
0.0890343699
 40
0.1078287775
 40
0.1269040183
 40
0.1462379135
 40
0.1658076744
 40
0.1855899698
 40
0.2055609862
 40
0.225696489
 40
0.2459718798
 40
0.2663622547
 40
0.3073859935
 40
0.3485656618
 40
0.3896966934
 40
0.4305749374
 40
0.4508566105
 40
0.4709996219
 40
0.4909793572
 40
0.5107715619
 40
0.5303524007
 40
0.5496985168
 40
0.5687870936
 40
0.5875959187
 40
0.6061034502
 40
0.6242888862
 40
0.6421322382
 40
0.6596144089
 40
0.6767172764
 40
0.6934237839
 40
0.7097180393
 40
0.725585423
 40
0.7410127081
 40
0.7559881954
 40
0.770501865
 40
0.7845455487
 40
0.7981131269
 40
0.8112007542
 40
0.8238071184
 40
0.8359337379
 40
0.8475853015
 40
0.8587700546
 40
0.8695002294
 40
0.8797925144
 40
0.8896685492
 40
0.8944594227
 40
0.899156879
 40
0.9082875391
 40
0.9171011588
 40
0.9256432176
 40
0.9298293741
 40
0.933967476
 40
0.9380648229
 40
0.9421289969
 40
0.9461678128
 40
0.9501892739
 40
0.9542015102
 40
0.958212723
 40
0.962231121
 40
0.9662648579
 40
0.9703219738
 40
0.9744103357
 40
0.9785375874
 40
0.9827111039
 40
0.9912228229
 40
1.0
 40
1.0
 40
1.0
 40
1.0
 10
14.1946613982
 20
13.3851997077
 30
0.0
 10
14.1902665991
 20
13.3709781325
 30
0.0
 10
14.1817012067
 20
13.3421179545
 30
0.0
 10
14.1696454081
 20
13.2981025454
 30
0.0
 10
14.1582536626
 20
13.2529346146
 30
0.0
 10
14.1475427362
 20
13.2066805911
 30
0.0
 10
14.1375283125
 20
13.1594079576
 30
0.0
 10
14.1282250736
 20
13.1111859247
 30
0.0
 10
14.1196466638
 20
13.0620850216
 30
0.0
 10
14.1118056623
 20
13.0121771026
 30
0.0
 10
14.10471357
 20
12.9615352018
 30
0.0
 10
14.0983807905
 20
12.9102334417
 30
0.0
 10
14.0928166102
 20
12.858346903
 30
0.0
 10
14.088029205
 20
12.8059515774
 30
0.0
 10
14.084025549
 20
12.7531240204
 30
0.0
 10
14.0797319268
 20
12.682074324
 30
0.0
 10
14.0763677318
 20
12.5927317781
 30
0.0
 10
14.0755289922
 20
12.4852567146
 30
0.0
 10
14.0778857316
 20
12.3779309816
 30
0.0
 10
14.0825127291
 20
12.2889089634
 30
0.0
 10
14.0878124173
 20
12.2182649436
 30
0.0
 10
14.0925612072
 20
12.1658462941
 30
0.0
 10
14.0980870946
 20
12.1139327956
 30
0.0
 10
14.1043820257
 20
12.0626002953
 30
0.0
 10
14.1114367524
 20
12.0119239682
 30
0.0
 10
14.1192409301
 20
11.9619779738
 30
0.0
 10
14.1277831113
 20
11.912835408
 30
0.0
 10
14.1370507688
 20
11.8645681787
 30
0.0
 10
14.1470303127
 20
11.8172469034
 30
0.0
 10
14.1577071118
 20
11.7709408032
 30
0.0
 10
14.169065516
 20
11.7257176003
 30
0.0
 10
14.1810888807
 20
11.6816434163
 30
0.0
 10
14.1937595932
 20
11.6387826736
 30
0.0
 10
14.2070591009
 20
11.5971979982
 30
0.0
 10
14.2209679407
 20
11.5569501247
 30
0.0
 10
14.2354657738
 20
11.518097805
 30
0.0
 10
14.2505314206
 20
11.4806977199
 30
0.0
 10
14.2661428993
 20
11.4448043933
 30
0.0
 10
14.2822774685
 20
11.41047011
 30
0.0
 10
14.2989116725
 20
11.3777448383
 30
0.0
 10
14.3160213923
 20
11.3466761575
 30
0.0
 10
14.3335819004
 20
11.3173091931
 30
0.0
 10
14.3515679239
 20
11.2896865588
 30
0.0
 10
14.3699537027
 20
11.2638483185
 30
0.0
 10
14.3887130872
 20
11.2398319372
 30
0.0
 10
14.4078195129
 20
11.2176723484
 30
0.0
 10
14.4272463998
 20
11.1974017136
 30
0.0
 10
14.4469660294
 20
11.1790503957
 30
0.0
 10
14.4637885632
 20
11.1652418578
 30
0.0
 10
14.4773625327
 20
11.1552153527
 30
0.0
 10
14.4907443031
 20
11.1460392862
 30
0.0
 10
14.5076131105
 20
11.1357706154
 30
0.0
 10
14.5282295863
 20
11.1253461422
 30
0.0
 10
14.5456569208
 20
11.1183056881
 30
0.0
 10
14.5596263678
 20
11.1137289068
 30
0.0
 10
14.5700584686
 20
11.1108311448
 30
0.0
 10
14.5805107416
 20
11.1084469927
 30
0.0
 10
14.5909794544
 20
11.1065772472
 30
0.0
 10
14.6014606208
 20
11.1052228105
 30
0.0
 10
14.6119502685
 20
11.1043841291
 30
0.0
 10
14.6224444154
 20
11.1040616826
 30
0.0
 10
14.6329390599
 20
11.1042554822
 30
0.0
 10
14.6434302026
 20
11.1049655616
 30
0.0
 10
14.653913854
 20
11.1061915223
 30
0.0
 10
14.6643860426
 20
11.107932928
 30
0.0
 10
14.6748427734
 20
11.1101889852
 30
0.0
 10
14.6852802873
 20
11.1129588711
 30
0.0
 10
14.6992558979
 20
11.1173637438
 30
0.0
 10
14.7166934979
 20
11.1241889318
 30
0.0
 10
14.7302224645
 20
11.1308575419
 30
0.0
 10
14.7369450863
 20
11.1345035053
 30
0.0
  0
SPLINE
  5
2C3
100
AcDbEntity
  8
LAYER_FEATURE
100
AcDbSpline
 62
7
  6
CONTINUOUS
 70
0
 71
3
 72
15
 73
11
 74
0
 42
0.0000001
 43
0.0000001
 44
0.0000000001
 40
0.0
 40
0.0
 40
0.0
 40
0.0
 40
0.1232686976
 40
0.2518076674
 40
0.3832749815
 40
0.5152192146
 40
0.6451786479
 40
0.7707562063
 40
0.8896979195
 40
1.0
 40
1.0
 40
1.0
 40
1.0
 10
14.1689663187
 20
13.2384598269
 30
0.0
 10
14.1687882616
 20
13.2375695175
 30
0.0
 10
14.1684896825
 20
13.2357373625
 30
0.0
 10
14.168211089
 20
13.2329265063
 30
0.0
 10
14.1680959496
 20
13.230040227
 30
0.0
 10
14.1681469111
 20
13.2271416913
 30
0.0
 10
14.1683628075
 20
13.2242941995
 30
0.0
 10
14.1687388138
 20
13.2215597921
 30
0.0
 10
14.1692663997
 20
13.21899815
 30
0.0
 10
14.1697313063
 20
13.217372492
 30
0.0
 10
14.1699911029
 20
13.2166027162
 30
0.0
  0
SPLINE
  5
2C4
100
AcDbEntity
  8
LAYER_FEATURE
100
AcDbSpline
 62
7
  6
CONTINUOUS
 70
0
 71
3
 72
15
 73
11
 74
0
 42
0.0000001
 43
0.0000001
 44
0.0000000001
 40
0.0
 40
0.0
 40
0.0
 40
0.0
 40
0.1339970083
 40
0.2672231724
 40
0.3987425915
 40
0.5276344624
 40
0.6530140803
 40
0.7740424973
 40
0.8899382983
 40
1.0
 40
1.0
 40
1.0
 40
1.0
 10
14.1928088893
 20
13.1128665692
 30
0.0
 10
14.192827933
 20
13.1156837056
 30
0.0
 10
14.192766088
 20
13.1213029627
 30
0.0
 10
14.1923748758
 20
13.1296788553
 30
0.0
 10
14.1916885993
 20
13.1379282293
 30
0.0
 10
14.1907130014
 20
13.1459823515
 30
0.0
 10
14.189456325
 20
13.1537742479
 30
0.0
 10
14.1879290899
 20
13.1612392823
 30
0.0
 10
14.1861442269
 20
13.1683153291
 30
0.0
 10
14.1847538787
 20
13.1728606945
 30
0.0
 10
14.1840139255
 20
13.1750531716
 30
0.0
  0
SPLINE
  5
2C5
100
AcDbEntity
  8
LAYER_FEATURE
100
AcDbSpline
 62
7
  6
CONTINUOUS
 70
0
 71
3
 72
15
 73
11
 74
0
 42
0.0000001
 43
0.0000001
 44
0.0000000001
 40
0.0
 40
0.0
 40
0.0
 40
0.0
 40
0.1343690706
 40
0.2709529618
 40
0.4072132278
 40
0.5406071851
 40
0.6686918996
 40
0.7892063743
 40
0.9001662638
 40
1.0
 40
1.0
 40
1.0
 40
1.0
 10
14.1224236871
 20
12.9966401718
 30
0.0
 10
14.1223180899
 20
12.9956903618
 30
0.0
 10
14.1221648512
 20
12.9937680158
 30
0.0
 10
14.1221030597
 20
12.9908709783
 30
0.0
 10
14.1222073597
 20
12.9879819715
 30
0.0
 10
14.1224754545
 20
12.9851641742
 30
0.0
 10
14.1229012921
 20
12.9824790137
 30
0.0
 10
14.1234754051
 20
12.9799845674
 30
0.0
 10
14.1241848401
 20
12.9777348717
 30
0.0
 10
14.1247710574
 20
12.9763511589
 30
0.0
 10
14.1250893032
 20
12.9757164344
 30
0.0
  0
SPLINE
  5
2C6
100
AcDbEntity
  8
LAYER_FEATURE
100
AcDbSpline
 62
7
  6
CONTINUOUS
 70
0
 71
3
 72
15
 73
11
 74
0
 42
0.0000001
 43
0.0000001
 44
0.0000000001
 40
0.0
 40
0.0
 40
0.0
 40
0.0
 40
0.1414929375
 40
0.2800068924
 40
0.4145974903
 40
0.544365594
 40
0.6684818716
 40
0.7862003747
 40
0.8968768709
 40
1.0
 40
1.0
 40
1.0
 40
1.0
 10
14.1553496689
 20
12.8854047749
 30
0.0
 10
14.1551558172
 20
12.888156127
 30
0.0
 10
14.1546735469
 20
12.8935945359
 30
0.0
 10
14.1536559104
 20
12.9016140487
 30
0.0
 10
14.1523586069
 20
12.909361739
 30
0.0
 10
14.1507925065
 20
12.9167732051
 30
0.0
 10
14.1489707936
 20
12.9237870323
 30
0.0
 10
14.1469086109
 20
12.9303454393
 30
0.0
 10
14.1446233274
 20
12.9363941052
 30
0.0
 10
14.1429002695
 20
12.9401933987
 30
0.0
 10
14.1419992729
 20
12.9419903891
 30
0.0
  0
SPLINE
  5
2C7
100
AcDbEntity
  8
LAYER_FEATURE
100
AcDbSpline
 62
7
  6
CONTINUOUS
 70
0
 71
3
 72
19
 73
15
 74
0
 42
0.0000001
 43
0.0000001
 44
0.0000000001
 40
0.0
 40
0.0
 40
0.0
 40
0.0
 40
0.0440073833
 40
0.0895201125
 40
0.1368946912
 40
0.1864440792
 40
0.2929654438
 40
0.3503634612
 40
0.4106581517
 40
0.4739218298
 40
0.5401951349
 40
0.6817601602
 40
0.8351957323
 40
1.0
 40
1.0
 40
1.0
 40
1.0
 10
14.1259634249
 20
12.7977534588
 30
0.0
 10
14.1265167632
 20
12.7979020022
 30
0.0
 10
14.1276261646
 20
12.7982677983
 30
0.0
 10
14.1292538198
 20
12.7990007041
 30
0.0
 10
14.1308653924
 20
12.799923672
 30
0.0
 10
14.1330399912
 20
12.8014407077
 30
0.0
 10
14.1351142776
 20
12.8033084398
 30
0.0
 10
14.1370852527
 20
12.8054628347
 30
0.0
 10
14.1385690047
 20
12.8072946763
 30
0.0
 10
14.1400182079
 20
12.8092979116
 30
0.0
 10
14.141943075
 20
12.8122577525
 30
0.0
 10
14.1442317764
 20
12.8163737672
 30
0.0
 10
14.1467377562
 20
12.8218150464
 30
0.0
 10
14.1482226593
 20
12.8256862432
 30
0.0
 10
14.1489353297
 20
12.8277100028
 30
0.0
  0
SPLINE
  5
2C8
100
AcDbEntity
  8
LAYER_FEATURE
100
AcDbSpline
 62
7
  6
CONTINUOUS
 70
0
 71
3
 72
20
 73
16
 74
0
 42
0.0000001
 43
0.0000001
 44
0.0000000001
 40
0.0
 40
0.0
 40
0.0
 40
0.0
 40
0.036797865
 40
0.0759340278
 40
0.118079149
 40
0.1637322073
 40
0.2132119693
 40
0.2666938685
 40
0.3242379619
 40
0.3858118659
 40
0.4513095838
 40
0.520561594
 40
0.6693831399
 40
0.8300927633
 40
1.0
 40
1.0
 40
1.0
 40
1.0
 10
14.1046683287
 20
12.7920368006
 30
0.0
 10
14.1044754196
 20
12.7919850142
 30
0.0
 10
14.1040866345
 20
12.7918409963
 30
0.0
 10
14.1035276612
 20
12.7915227225
 30
0.0
 10
14.1029812582
 20
12.7910997362
 30
0.0
 10
14.1024500497
 20
12.7905750397
 30
0.0
 10
14.1019362127
 20
12.7899516339
 30
0.0
 10
14.1014422409
 20
12.7892328367
 30
0.0
 10
14.1009705533
 20
12.7884224896
 30
0.0
 10
14.1005235861
 20
12.7875249087
 30
0.0
 10
14.1001037247
 20
12.7865448896
 30
0.0
 10
14.0995702793
 20
12.7851004736
 30
0.0
 10
14.0989937687
 20
12.7831240748
 30
0.0
 10
14.0984565596
 20
12.7805757302
 30
0.0
 10
14.0982045571
 20
12.7787974381
 30
0.0
 10
14.098102651
 20
12.7778808275
 30
0.0
  0
SPLINE
  5
2C9
100
AcDbEntity
  8
LAYER_FEATURE
100
AcDbSpline
 62
7
  6
CONTINUOUS
 70
0
 71
3
 72
17
 73
13
 74
0
 42
0.0000001
 43
0.0000001
 44
0.0000000001
 40
0.0
 40
0.0
 40
0.0
 40
0.0
 40
0.1462408988
 40
0.2912467438
 40
0.4323373764
 40
0.5669462124
 40
0.6927397171
 40
0.8077227775
 40
0.8606824601
 40
0.9104227638
 40
0.9568733771
 40
1.0
 40
1.0
 40
1.0
 40
1.0
 10
14.0951468214
 20
12.7361501431
 30
0.0
 10
14.0951158033
 20
12.735177946
 30
0.0
 10
14.0951102144
 20
12.733239514
 30
0.0
 10
14.0952676532
 20
12.7303666618
 30
0.0
 10
14.0955873017
 20
12.7275849566
 30
0.0
 10
14.0960620191
 20
12.7249549301
 30
0.0
 10
14.0966812074
 20
12.7225337711
 30
0.0
 10
14.0973226439
 20
12.7206849328
 30
0.0
 10
14.0979042172
 20
12.7193582645
 30
0.0
 10
14.098355228
 20
12.7184739183
 30
0.0
 10
14.098830541
 20
12.7176776351
 30
0.0
 10
14.0991746727
 20
12.717190251
 30
0.0
 10
14.0993508314
 20
12.7169638666
 30
0.0
  0
SPLINE
  5
2CA
100
AcDbEntity
  8
LAYER_FEATURE
100
AcDbSpline
 62
7
  6
CONTINUOUS
 70
0
 71
3
 72
15
 73
11
 74
0
 42
0.0000001
 43
0.0000001
 44
0.0000000001
 40
0.0
 40
0.0
 40
0.0
 40
0.0
 40
0.1497451156
 40
0.2939547162
 40
0.4317176883
 40
0.5622126842
 40
0.684741294
 40
0.7987529558
 40
0.9038811173
 40
1.0
 40
1.0
 40
1.0
 40
1.0
 10
14.1358908874
 20
12.6435473211
 30
0.0
 10
14.1354949171
 20
12.6461279557
 30
0.0
 10
14.1346176263
 20
12.6511792145
 30
0.0
 10
14.1330129467
 20
12.6585357035
 30
0.0
 10
14.1311547591
 20
12.6654859094
 30
0.0
 10
14.1290585447
 20
12.6719723943
 30
0.0
 10
14.1267417706
 20
12.677941885
 30
0.0
 10
14.1242231879
 20
12.6833460199
 30
0.0
 10
14.1215235507
 20
12.6881405478
 30
0.0
 10
14.1195272795
 20
12.691034788
 30
0.0
 10
14.1184981075
 20
12.6923573936
 30
0.0
  0
SPLINE
  5
2CB
100
AcDbEntity
  8
LAYER_FEATURE
100
AcDbSpline
 62
7
  6
CONTINUOUS
 70
0
 71
3
 72
17
 73
13
 74
0
 42
0.0000001
 43
0.0000001
 44
0.0000000001
 40
0.0
 40
0.0
 40
0.0
 40
0.0
 40
0.0910583064
 40
0.1401238249
 40
0.1916495874
 40
0.2456904361
 40
0.3022717828
 40
0.4230221916
 40
0.5537263359
 40
0.6939245845
 40
0.8429542185
 40
1.0
 40
1.0
 40
1.0
 40
1.0
 10
14.1137283158
 20
12.5428583161
 30
0.0
 10
14.1148294308
 20
12.5437345733
 30
0.0
 10
14.1164147471
 20
12.545223833
 30
0.0
 10
14.118373918
 20
12.5474459974
 30
0.0
 10
14.1198478354
 20
12.5493288928
 30
0.0
 10
14.121286302
 20
12.5513819864
 30
0.0
 10
14.1231948175
 20
12.554407109
 30
0.0
 10
14.1254609925
 20
12.5586001914
 30
0.0
 10
14.1279383305
 20
12.5641275124
 30
0.0
 10
14.130209961
 20
12.5702108536
 30
0.0
 10
14.1322571221
 20
12.5767999988
 30
0.0
 10
14.1334326488
 20
12.5813839041
 30
0.0
 10
14.1339829708
 20
12.5837476901
 30
0.0
  0
SPLINE
  5
2CC
100
AcDbEntity
  8
LAYER_FEATURE
100
AcDbSpline
 62
7
  6
CONTINUOUS
 70
0
 71
3
 72
18
 73
14
 74
0
 42
0.0000001
 43
0.0000001
 44
0.0000000001
 40
0.0
 40
0.0
 40
0.0
 40
0.0
 40
0.0392232437
 40
0.0817555041
 40
0.1277775369
 40
0.1773841064
 40
0.2305738201
 40
0.2872734693
 40
0.4105968515
 40
0.5458273833
 40
0.6908476493
 40
0.8431530628
 40
1.0
 40
1.0
 40
1.0
 40
1.0
 10
14.0932767034
 20
12.5265831107
 30
0.0
 10
14.0930883266
 20
12.5264332022
 30
0.0
 10
14.0927162075
 20
12.5260944639
 30
0.0
 10
14.0921959579
 20
12.525505997
 30
0.0
 10
14.0916945858
 20
12.5248207694
 30
0.0
 10
14.0912146941
 20
12.5240426239
 30
0.0
 10
14.0907585927
 20
12.5231756431
 30
0.0
 10
14.0901690157
 20
12.5218705114
 30
0.0
 10
14.0895167181
 20
12.5200452726
 30
0.0
 10
14.0888837265
 20
12.5176480428
 30
0.0
 10
14.0883939723
 20
12.5150364758
 30
0.0
 10
14.0880583337
 20
12.5122674168
 30
0.0
 10
14.0879433368
 20
12.5103720853
 30
0.0
 10
14.0879126374
 20
12.5094098756
 30
0.0
  0
SPLINE
  5
2CD
100
AcDbEntity
  8
LAYER_FEATURE
100
AcDbSpline
 62
7
  6
CONTINUOUS
 70
0
 71
3
 72
52
 73
48
 74
0
 42
0.0000001
 43
0.0000001
 44
0.0000000001
 40
0.0
 40
0.0
 40
0.0
 40
0.0
 40
0.0428821662
 40
0.0856748099
 40
0.1282911149
 40
0.1706443027
 40
0.2126487998
 40
0.2542202062
 40
0.2952757056
 40
0.3357343805
 40
0.3755175525
 40
0.4145491363
 40
0.4527560116
 40
0.4900684186
 40
0.5264203854
 40
0.5617501931
 40
0.5960008848
 40
0.6291208377
 40
0.6610644149
 40
0.6917927161
 40
0.706691765
 40
0.7212759649
 40
0.7355427664
 40
0.7494902346
 40
0.7631171099
 40
0.7764228142
 40
0.789407558
 40
0.8020723452
 40
0.814419069
 40
0.8264505718
 40
0.8381706961
 40
0.8495844056
 40
0.8606978139
 40
0.8715183171
 40
0.8820546528
 40
0.8923169906
 40
0.9023170387
 40
0.9120680825
 40
0.9308789473
 40
0.9399796514
 40
0.948901549
 40
0.9576664452
 40
0.9662977366
 40
0.9748202363
 40
0.9832599901
 40
0.9916440144
 40
1.0
 40
1.0
 40
1.0
 40
1.0
 10
14.0879126374
 20
12.5094098756
 30
0.0
 10
14.0879215178
 20
12.4869180971
 30
0.0
 10
14.0883681189
 20
12.4419804765
 30
0.0
 10
14.0903237725
 20
12.3747160347
 30
0.0
 10
14.0935601751
 20
12.3077785075
 30
0.0
 10
14.0980695585
 20
12.2413289924
 30
0.0
 10
14.1038410269
 20
12.1755271953
 30
0.0
 10
14.1108606736
 20
12.1105312497
 30
0.0
 10
14.1191115717
 20
12.0464973364
 30
0.0
 10
14.1285738243
 20
11.9835792995
 30
0.0
 10
14.1392246184
 20
11.9219282706
 30
0.0
 10
14.151038282
 20
11.8616923013
 30
0.0
 10
14.163986349
 20
11.8030160011
 30
0.0
 10
14.1780376342
 20
11.7460401787
 30
0.0
 10
14.1931583103
 20
11.6909014969
 30
0.0
 10
14.2093120009
 20
11.6377321089
 30
0.0
 10
14.2264598709
 20
11.5866594061
 30
0.0
 10
14.2445608113
 20
11.5378054272
 30
0.0
 10
14.263571309
 20
11.4912875132
 30
0.0
 10
14.280301392
 20
11.4541888467
 30
0.0
 10
14.2941235319
 20
11.4257912071
 30
0.0
 10
14.3045818938
 20
11.4053641648
 30
0.0
 10
14.3152321406
 20
11.3856016459
 30
0.0
 10
14.3260679877
 20
11.3665154513
 30
0.0
 10
14.3370828952
 20
11.3481170157
 30
0.0
 10
14.3482703454
 20
11.3304173881
 30
0.0
 10
14.3596236098
 20
11.3134271464
 30
0.0
 10
14.3711359623
 20
11.2971564875
 30
0.0
 10
14.3828005491
 20
11.2816151565
 30
0.0
 10
14.3946104232
 20
11.2668124511
 30
0.0
 10
14.4065586361
 20
11.2527572815
 30
0.0
 10
14.4186380638
 20
11.2394580425
 30
0.0
 10
14.4308416379
 20
11.2269227694
 30
0.0
 10
14.4431621238
 20
11.215159003
 30
0.0
 10
14.4555923463
 20
11.2041738285
 30
0.0
 10
14.4681248179
 20
11.1939740781
 30
0.0
 10
14.4807529297
 20
11.1845655145
 30
0.0
 10
14.4975035946
 20
11.17322156
 30
0.0
 10
14.5146303689
 20
11.1632997341
 30
0.0
 10
14.5320643014
 20
11.1549582495
 30
0.0
 10
14.545054913
 20
11.1495862508
 30
0.0
 10
14.5580946429
 20
11.1450344733
 30
0.0
 10
14.5711759156
 20
11.1413057224
 30
0.0
 10
14.584290508
 20
11.1384027855
 30
0.0
 10
14.5974304076
 20
11.1363277115
 30
0.0
 10
14.6105866023
 20
11.1350820275
 30
0.0
 10
14.6193692702
 20
11.1348050032
 30
0.0
 10
14.623752001
 20
11.1348050039
 30
0.0
  0
SPLINE
  5
2CE
100
AcDbEntity
  8
LAYER_FEATURE
100
AcDbSpline
 62
7
  6
CONTINUOUS
 70
0
 71
3
 72
15
 73
11
 74
0
 42
0.0000001
 43
0.0000001
 44
0.0000000001
 40
0.0
 40
0.0
 40
0.0
 40
0.0
 40
0.1126204601
 40
0.233296856
 40
0.3599530997
 40
0.4902911285
 40
0.6218950407
 40
0.7523079002
 40
0.8791063589
 40
1.0
 40
1.0
 40
1.0
 40
1.0
 10
14.2329861091
 20
13.4523161149
 30
0.0
 10
14.2327403495
 20
13.4515208365
 30
0.0
 10
14.232304215
 20
13.449850367
 30
0.0
 10
14.2318197447
 20
13.4472325122
 30
0.0
 10
14.2314896776
 20
13.44445886
 30
0.0
 10
14.231321509
 20
13.4415900002
 30
0.0
 10
14.2313189959
 20
13.4386884908
 30
0.0
 10
14.2314822142
 20
13.4358176937
 30
0.0
 10
14.2318074327
 20
13.4330404265
 30
0.0
 10
14.2321371958
 20
13.4312379206
 30
0.0
 10
14.2323306793
 20
13.4303655873
 30
0.0
  0
SPLINE
  5
2CF
100
AcDbEntity
  8
LAYER_FEATURE
100
AcDbSpline
 62
7
  6
CONTINUOUS
 70
0
 71
3
 72
15
 73
11
 74
0
 42
0.0000001
 43
0.0000001
 44
0.0000000001
 40
0.0
 40
0.0
 40
0.0
 40
0.0
 40
0.1270541201
 40
0.2553207885
 40
0.383896457
 40
0.511868149
 40
0.6383329274
 40
0.7624063719
 40
0.8832318236
 40
1.0
 40
1.0
 40
1.0
 40
1.0
 10
14.2468290118
 20
13.3171914747
 30
0.0
 10
14.2470635028
 20
13.3199661259
 30
0.0
 10
14.2474310173
 20
13.3255511756
 30
0.0
 10
14.2476813822
 20
13.3339626883
 30
0.0
 10
14.2476327104
 20
13.3423980032
 30
0.0
 10
14.2472853712
 20
13.3507867762
 30
0.0
 10
14.2466423189
 20
13.3590591687
 30
0.0
 10
14.2457089353
 20
13.3671463678
 30
0.0
 10
14.2444931418
 20
13.3749809534
 30
0.0
 10
14.2434816101
 20
13.3800908725
 30
0.0
 10
14.2429274658
 20
13.3825892691
 30
0.0
  0
SPLINE
  5
2D0
100
AcDbEntity
  8
LAYER_FEATURE
100
AcDbSpline
 62
7
  6
CONTINUOUS
 70
0
 71
3
 72
39
 73
35
 74
0
 42
0.0000001
 43
0.0000001
 44
0.0000000001
 40
0.0
 40
0.0
 40
0.0
 40
0.0
 40
0.0443811822
 40
0.0879669451
 40
0.1307335213
 40
0.1726618635
 40
0.2137331588
 40
0.2539302027
 40
0.2932376924
 40
0.3316421064
 40
0.3691319148
 40
0.4056977065
 40
0.4413323939
 40
0.4760313948
 40
0.5097927958
 40
0.542617629
 40
0.574510131
 40
0.6054779683
 40
0.6355325823
 40
0.6646895404
 40
0.6929688339
 40
0.7203952799
 40
0.7469989387
 40
0.7728154432
 40
0.7978863777
 40
0.822259637
 40
0.8459896216
 40
0.8691373708
 40
0.8917705679
 40
0.9139632733
 40
0.9357954509
 40
0.957352257
 40
0.9787230198
 40
1.0
 40
1.0
 40
1.0
 40
1.0
 10
14.1259084682
 20
13.4626452568
 30
0.0
 10
14.1293530338
 20
13.4737918752
 30
0.0
 10
14.1363589252
 20
13.4958306941
 30
0.0
 10
14.1473217624
 20
13.5284035383
 30
0.0
 10
14.1586368791
 20
13.5601722375
 30
0.0
 10
14.1702951586
 20
13.5911113249
 30
0.0
 10
14.1822874794
 20
13.6211966351
 30
0.0
 10
14.1946043581
 20
13.6504043775
 30
0.0
 10
14.2072360867
 20
13.6787114961
 30
0.0
 10
14.2201727044
 20
13.7060956904
 30
0.0
 10
14.2334040065
 20
13.732535382
 30
0.0
 10
14.2469196049
 20
13.7580097278
 30
0.0
 10
14.2607088725
 20
13.7824986696
 30
0.0
 10
14.2747609681
 20
13.8059829418
 30
0.0
 10
14.2890649036
 20
13.828444051
 30
0.0
 10
14.3036094961
 20
13.8498643239
 30
0.0
 10
14.3183833738
 20
13.8702269283
 30
0.0
 10
14.3333750572
 20
13.8895158302
 30
0.0
 10
14.3485729227
 20
13.9077158335
 30
0.0
 10
14.3639651861
 20
13.9248126132
 30
0.0
 10
14.3795399905
 20
13.9407926491
 30
0.0
 10
14.3952853804
 20
13.9556432454
 30
0.0
 10
14.4111892576
 20
13.9693525822
 30
0.0
 10
14.4272394614
 20
13.9819096229
 30
0.0
 10
14.4434237398
 20
13.9933041109
 30
0.0
 10
14.4597296719
 20
14.0035266513
 30
0.0
 10
14.4761447166
 20
14.0125686086
 30
0.0
 10
14.4926561679
 20
14.0204221011
 30
0.0
 10
14.5092510437
 20
14.0270801457
 30
0.0
 10
14.5259161455
 20
14.0325365975
 30
0.0
 10
14.5426378805
 20
14.0367861814
 30
0.0
 10
14.5594027239
 20
14.0398247181
 30
0.0
 10
14.576195416
 20
14.0416491398
 30
0.0
 10
14.5874106369
 20
14.042054979
 30
0.0
 10
14.5930038265
 20
14.0420549871
 30
0.0
  0
ENDSEC
  0
SECTION
  2
OBJECTS
  0
DICTIONARY
  5
C
100
AcDbDictionary
280
0
281
1
  3
ACAD_GROUP
350
D
  3
ACAD_MLINESTYLE
350
17
  3
ACAD_LAYOUT
350
1A
  3
ACAD_PLOTSETTINGS
350
19
  3
ACAD_PLOTSTYLENAME
350
E
  0
DICTIONARY
  5
D
102
{ACAD_REACTORS
330
C
102
}
100
AcDbDictionary
280
0
281
1
  0
ACDBDICTIONARYWDFLT
  5
E
102
{ACAD_REACTORS
330
C
102
}
100
AcDbDictionary
281
1
  3
Normal
350
F
100
AcDbDictionaryWithDefault
340
F
  0
DICTIONARY
  5
17
102
{ACAD_REACTORS
330
C
102
}
100
AcDbDictionary
280
0
281
1
  3
Standard
350
18
  0
DICTIONARY
  5
19
102
{ACAD_REACTORS
330
C
102
}
100
AcDbDictionary
281
1
  0
DICTIONARY
  5
1A
102
{ACAD_REACTORS
330
C
102
}
100
AcDbDictionary
281
1
  3
Model
350
2D1
  3
Layout1
350
2D2
  0
ACDBPLACEHOLDER
  5
F
102
{ACAD_REACTORS
330
E
102
}
  0
MLINESTYLE
  5
18
102
{ACAD_REACTORS
330
17
102
}
100
AcDbMlineStyle
  2
STANDARD
 70
0
  3

 62
256
 51
90.0
 52
90.0
 71
2
 49
0.5
 62
256
  6
BYLAYER
 49
-0.5
 62
256
  6
BYLAYER
  0
LAYOUT
  5
2D1
102
{ACAD_REACTORS
330
1A
102
}
100
AcDbPlotSettings
  1

  2
none_device
  4
ANSI_C_(22.00_x_17.00_Inches)
  6

 40
0.0
 41
0.0
 42
0.0
 43
0.0
 44
558.8
 45
431.8
 46
0.0
 47
0.0
 48
0.0
 49
0.0
140
0.0
141
0.0
142
1.0
143
1.0
 70
1024
 72
0
 73
0
 74
0
  7

 75
0
147
1.0
148
0.0
149
0.0
100
AcDbLayout
  1
Model
 70
0
 71
0
 10
0.0
 20
0.0
 11
22.0
 21
17.0
 12
0.0
 22
0.0
 32
0.0
 14
0.0
 24
0.0
 34
0.0
 15
0.0
 25
0.0
 35
0.0
146
0.0
 13
0.0
 23
0.0
 33
0.0
 16
1.0
 26
0.0
 36
0.0
 17
0.0
 27
1.0
 37
0.0
 76
0
330
222
345
0
346
0
  0
LAYOUT
  5
2D2
102
{ACAD_REACTORS
330
1A
102
}
100
AcDbPlotSettings
  1

  2
none_device
  4
ANSI_C_(22.00_x_17.00_Inches)
  6

 40
0.0
 41
0.0
 42
0.0
 43
0.0
 44
558.8
 45
431.8
 46
0.0
 47
0.0
 48
0.0
 49
0.0
140
0.0
141
0.0
142
1.0
143
1.0
 70
0
 72
0
 73
0
 74
0
  7

 75
0
147
1.0
148
0.0
149
0.0
100
AcDbLayout
  1
Layout1
 70
0
 71
1
 10
0.0
 20
0.0
 11
22.0
 21
17.0
 12
0.0
 22
0.0
 32
0.0
 14
0.0
 24
0.0
 34
0.0
 15
0.0
 25
0.0
 35
0.0
146
0.0
 13
0.0
 23
0.0
 33
0.0
 16
1.0
 26
0.0
 36
0.0
 17
0.0
 27
1.0
 37
0.0
 76
0
330
223
345
0
346
0
  0
ENDSEC
  0
EOF