999
DXF file: _cgs_temp_output.dxf
999
Pro/ENGINEER 2016360 by Parametric Technology Corporation
  0
SECTION
  2
HEADER
  9
$ACADVER
  1
AC1021
  9
$DWGCODEPAGE
  3
ANSI_1252
  9
$EXTMAX
 10
22.0
 20
17.0
 30
0.0
  9
$EXTMIN
 10
0.0
 20
0.0
 30
0.0
  9
$LIMMIN
 10
0.0
 20
0.0
  9
$LIMMAX
 10
22.0
 20
17.0
  9
$VIEWCTR
 10
11.0
 20
8.5
  9
$VIEWSIZE
 40
17.0
  9
$CLAYER
  8
0
  9
$LTSCALE
 40
1.21
  9
$CELTYPE
  6
BYLAYER
  9
$DIMSCALE
 40
1.0
  9
$DIMASZ
 40
0.1875
  9
$DIMEXO
 40
0.0625
  9
$DIMDLI
 40
0.836
  9
$DIMEXE
 40
0.125
  9
$DIMCEN
 40
0.198
  9
$DIMLFAC
 40
1.0
  9
$DIMBLK
  1
_CLOSED
  9
$DIMALT
 70
0
  9
$DIMALTF
 40
25.4
  9
$DIMTXT
 40
0.15625
  9
$DIMTOL
 70
0
  9
$DIMLIM
 70
0
  9
$DIMTFAC
 40
1.0
  9
$DIMGAP
 40
0.09
  9
$DIMDSEP
 70
46
  9
$AUNITS
 70
0
  9
$PDMODE
 70
3
  9
$PDSIZE
 40
0.3125
  9
$HANDSEED
  5
333
  9
$TILEMODE
 70
1
  9
$MEASUREMENT
 70
0
  9
$INSUNITS
 70
1
  0
ENDSEC
  0
SECTION
  2
CLASSES
  0
CLASS
  1
ACDBDICTIONARYWDFLT
  2
AcDbDictionaryWithDefault
  3
AutoCAD 2000
 90
0
 91
1
280
0
281
0
  0
CLASS
  1
ACDBPLACEHOLDER
  2
AcDbPlaceHolder
  3
AutoCAD 2000
 90
0
 91
1
280
0
281
0
  0
CLASS
  1
LAYOUT
  2
AcDbLayout
  3
AutoCAD 2000
 90
0
 91
0
280
0
281
0
  0
ENDSEC
  0
SECTION
  2
TABLES
  0
TABLE
  2
VPORT
  5
8
100
AcDbSymbolTable
 70
2
  0
VPORT
  5
1F4
100
AcDbSymbolTableRecord
100
AcDbViewportTableRecord
  2
*ACTIVE
 70
0
 10
0.0
 20
0.0
 11
1.0
 21
1.0
 12
11.0
 22
8.5
 13
0.0
 23
0.0
 14
1.0
 24
1.0
 15
0.0
 25
0.0
 16
0.0
 26
0.0
 36
1.0
 17
0.0
 27
0.0
 37
0.0
 40
17.0
 41
1.2941176471
 42
50.0
 43
0.0
 44
0.0
 50
0.0
 51
0.0
 71
0
 72
100
 73
1
 74
1
 75
0
 76
0
 77
0
 78
0
  0
ENDTAB
  0
TABLE
  2
LTYPE
  5
5
100
AcDbSymbolTable
 70
6
  0
LTYPE
  5
14
100
AcDbSymbolTableRecord
100
AcDbLinetypeTableRecord
  2
BYBLOCK
 70
0
  3

 72
65
 73
0
 40
0.0
  0
LTYPE
  5
15
100
AcDbSymbolTableRecord
100
AcDbLinetypeTableRecord
  2
BYLAYER
 70
0
  3

 72
65
 73
0
 40
0.0
  0
LTYPE
  5
16
100
AcDbSymbolTableRecord
100
AcDbLinetypeTableRecord
  2
CONTINUOUS
 70
64
  3
Solid line
 72
65
 73
0
 40
0.0
  0
LTYPE
  5
1F5
100
AcDbSymbolTableRecord
100
AcDbLinetypeTableRecord
  2
CENTER
 70
64
  3
____ _ ____ _ ____ _ ____ _ ____ _ ____ _ ____
 72
65
 73
4
 40
0.6
 49
0.375
 74
0
 49
-0.075
 74
0
 49
0.075
 74
0
 49
-0.075
 74
0
  0
LTYPE
  5
1F6
100
AcDbSymbolTableRecord
100
AcDbLinetypeTableRecord
  2
HIDDEN
 70
64
  3
- - - - - - - - - - - - - - - - - - - -
 72
65
 73
2
 40
0.2
 49
0.1
 74
0
 49
-0.1
 74
0
  0
LTYPE
  5
1F7
100
AcDbSymbolTableRecord
100
AcDbLinetypeTableRecord
  2
PHANTOM
 70
64
  3
_____ _ _ _____ _ _ _____ _ _ _____
 72
65
 73
6
 40
0.8
 49
0.45
 74
0
 49
-0.05
 74
0
 49
0.1
 74
0
 49
-0.05
 74
0
 49
0.1
 74
0
 49
-0.05
 74
0
  0
LTYPE
  5
1F8
100
AcDbSymbolTableRecord
100
AcDbLinetypeTableRecord
  2
DOT
 70
64
  3
. . . . . . . . . . . . . . . . . . . .
 72
65
 73
2
 40
0.2
 49
0.1
 74
0
 49
-0.1
 74
0
  0
LTYPE
  5
1F9
100
AcDbSymbolTableRecord
100
AcDbLinetypeTableRecord
  2
DASHED
 70
64
  3
- - - - - - - - - - - - - - - - - - - -
 72
65
 73
2
 40
0.2
 49
0.1
 74
0
 49
-0.1
 74
0
  0
ENDTAB
  0
TABLE
  2
LAYER
  5
2
100
AcDbSymbolTable
 70
36
  0
LAYER
  5
10
100
AcDbSymbolTableRecord
100
AcDbLayerTableRecord
  2
0
 70
0
 62
7
  6
CONTINUOUS
370
-3
390
F
  0
LAYER
  5
1FA
100
AcDbSymbolTableRecord
100
AcDbLayerTableRecord
  2
DEFAULT_1
 70
0
 62
7
  6
CENTER
370
-3
390
F
  0
LAYER
  5
1FB
100
AcDbSymbolTableRecord
100
AcDbLayerTableRecord
  2
DEFAULT_2
 70
0
 62
8
  6
HIDDEN
370
-3
390
F
  0
LAYER
  5
1FC
100
AcDbSymbolTableRecord
100
AcDbLayerTableRecord
  2
DEFAULT_3
 70
0
 62
7
  6
PHANTOM
370
-3
390
F
  0
LAYER
  5
1FD
100
AcDbSymbolTableRecord
100
AcDbLayerTableRecord
  2
01_ALL_DTM_PLN
 70
0
 62
7
  6
CONTINUOUS
370
-3
390
F
  0
LAYER
  5
1FE
100
AcDbSymbolTableRecord
100
AcDbLayerTableRecord
  2
01__ASM_ALL_DTM_PLN
 70
0
 62
7
  6
CONTINUOUS
370
-3
390
F
  0
LAYER
  5
1FF
100
AcDbSymbolTableRecord
100
AcDbLayerTableRecord
  2
01__ASM_DEF_DTM_PLN
 70
0
 62
7
  6
CONTINUOUS
370
-3
390
F
  0
LAYER
  5
200
100
AcDbSymbolTableRecord
100
AcDbLayerTableRecord
  2
01___PRT_ALL_DTM_PLN
 70
0
 62
7
  6
CONTINUOUS
370
-3
390
F
  0
LAYER
  5
201
100
AcDbSymbolTableRecord
100
AcDbLayerTableRecord
  2
01___PRT_DEF_DTM_PLN
 70
0
 62
7
  6
CONTINUOUS
370
-3
390
F
  0
LAYER
  5
202
100
AcDbSymbolTableRecord
100
AcDbLayerTableRecord
  2
02_ALL_AXES
 70
0
 62
7
  6
CONTINUOUS
370
-3
390
F
  0
LAYER
  5
203
100
AcDbSymbolTableRecord
100
AcDbLayerTableRecord
  2
02__ASM_ALL_AXES
 70
0
 62
7
  6
CONTINUOUS
370
-3
390
F
  0
LAYER
  5
204
100
AcDbSymbolTableRecord
100
AcDbLayerTableRecord
  2
02___PRT_ALL_AXES
 70
0
 62
7
  6
CONTINUOUS
370
-3
390
F
  0
LAYER
  5
205
100
AcDbSymbolTableRecord
100
AcDbLayerTableRecord
  2
03_ALL_CURVES
 70
0
 62
7
  6
CONTINUOUS
370
-3
390
F
  0
LAYER
  5
206
100
AcDbSymbolTableRecord
100
AcDbLayerTableRecord
  2
03__ASM_ALL_CURVES
 70
0
 62
7
  6
CONTINUOUS
370
-3
390
F
  0
LAYER
  5
207
100
AcDbSymbolTableRecord
100
AcDbLayerTableRecord
  2
03___PRT_ALL_CURVES
 70
0
 62
7
  6
CONTINUOUS
370
-3
390
F
  0
LAYER
  5
208
100
AcDbSymbolTableRecord
100
AcDbLayerTableRecord
  2
04_ALL_DTM_PNT
 70
0
 62
7
  6
CONTINUOUS
370
-3
390
F
  0
LAYER
  5
209
100
AcDbSymbolTableRecord
100
AcDbLayerTableRecord
  2
04__ASM_ALL_DTM_PNT
 70
0
 62
7
  6
CONTINUOUS
370
-3
390
F
  0
LAYER
  5
20A
100
AcDbSymbolTableRecord
100
AcDbLayerTableRecord
  2
04___PRT_ALL_DTM_PNT
 70
0
 62
7
  6
CONTINUOUS
370
-3
390
F
  0
LAYER
  5
20B
100
AcDbSymbolTableRecord
100
AcDbLayerTableRecord
  2
05_ALL_DTM_CSYS
 70
0
 62
7
  6
CONTINUOUS
370
-3
390
F
  0
LAYER
  5
20C
100
AcDbSymbolTableRecord
100
AcDbLayerTableRecord
  2
05__ASM_ALL_DTM_CSYS
 70
0
 62
7
  6
CONTINUOUS
370
-3
390
F
  0
LAYER
  5
20D
100
AcDbSymbolTableRecord
100
AcDbLayerTableRecord
  2
05__ASM_DEF_DTM_CSYS
 70
0
 62
7
  6
CONTINUOUS
370
-3
390
F
  0
LAYER
  5
20E
100
AcDbSymbolTableRecord
100
AcDbLayerTableRecord
  2
05___PRT_ALL_DTM_CSYS
 70
0
 62
7
  6
CONTINUOUS
370
-3
390
F
  0
LAYER
  5
20F
100
AcDbSymbolTableRecord
100
AcDbLayerTableRecord
  2
05___PRT_DEF_DTM_CSYS
 70
0
 62
7
  6
CONTINUOUS
370
-3
390
F
  0
LAYER
  5
210
100
AcDbSymbolTableRecord
100
AcDbLayerTableRecord
  2
06_ALL_SURFS
 70
0
 62
7
  6
CONTINUOUS
370
-3
390
F
  0
LAYER
  5
211
100
AcDbSymbolTableRecord
100
AcDbLayerTableRecord
  2
06__ASM_ALL_SURFS
 70
0
 62
7
  6
CONTINUOUS
370
-3
390
F
  0
LAYER
  5
212
100
AcDbSymbolTableRecord
100
AcDbLayerTableRecord
  2
06___PRT_ALL_SURFS
 70
0
 62
7
  6
CONTINUOUS
370
-3
390
F
  0
LAYER
  5
213
100
AcDbSymbolTableRecord
100
AcDbLayerTableRecord
  2
07__ASM_ALL_SKELETONS
 70
0
 62
7
  6
CONTINUOUS
370
-3
390
F
  0
LAYER
  5
214
100
AcDbSymbolTableRecord
100
AcDbLayerTableRecord
  2
ANNOTATIONS
 70
0
 62
7
  6
CONTINUOUS
370
-3
390
F
  0
LAYER
  5
215
100
AcDbSymbolTableRecord
100
AcDbLayerTableRecord
  2
ASM_DATUMS
 70
0
 62
7
  6
CONTINUOUS
370
-3
390
F
  0
LAYER
  5
216
100
AcDbSymbolTableRecord
100
AcDbLayerTableRecord
  2
ASM_DEF_DATUMS
 70
0
 62
7
  6
CONTINUOUS
370
-3
390
F
  0
LAYER
  5
217
100
AcDbSymbolTableRecord
100
AcDbLayerTableRecord
  2
AXIS
 70
0
 62
7
  6
CONTINUOUS
370
-3
390
F
  0
LAYER
  5
218
100
AcDbSymbolTableRecord
100
AcDbLayerTableRecord
  2
CSYS
 70
0
 62
7
  6
CONTINUOUS
370
-3
390
F
  0
LAYER
  5
219
100
AcDbSymbolTableRecord
100
AcDbLayerTableRecord
  2
CURVES
 70
0
 62
7
  6
CONTINUOUS
370
-3
390
F
  0
LAYER
  5
21A
100
AcDbSymbolTableRecord
100
AcDbLayerTableRecord
  2
DATUMS
 70
0
 62
7
  6
CONTINUOUS
370
-3
390
F
  0
LAYER
  5
21B
100
AcDbSymbolTableRecord
100
AcDbLayerTableRecord
  2
DEF_CSYS
 70
0
 62
7
  6
CONTINUOUS
370
-3
390
F
  0
LAYER
  5
21C
100
AcDbSymbolTableRecord
100
AcDbLayerTableRecord
  2
DEF_DATUMS
 70
0
 62
7
  6
CONTINUOUS
370
-3
390
F
  0
LAYER
  5
21D
100
AcDbSymbolTableRecord
100
AcDbLayerTableRecord
  2
GTOL
 70
0
 62
7
  6
CONTINUOUS
370
-3
390
F
  0
LAYER
  5
21E
100
AcDbSymbolTableRecord
100
AcDbLayerTableRecord
  2
POINTS
 70
0
 62
7
  6
CONTINUOUS
370
-3
390
F
  0
LAYER
  5
21F
100
AcDbSymbolTableRecord
100
AcDbLayerTableRecord
  2
SKELETONS
 70
0
 62
7
  6
CONTINUOUS
370
-3
390
F
  0
LAYER
  5
220
100
AcDbSymbolTableRecord
100
AcDbLayerTableRecord
  2
SURFACES
 70
0
 62
7
  6
CONTINUOUS
370
-3
390
F
  0
LAYER
  5
221
100
AcDbSymbolTableRecord
100
AcDbLayerTableRecord
  2
XSEC_DATUMS
 70
0
 62
7
  6
CONTINUOUS
370
-3
390
F
  0
ENDTAB
  0
TABLE
  2
STYLE
  5
3
100
AcDbSymbolTable
 70
1
  0
STYLE
  5
11
100
AcDbSymbolTableRecord
100
AcDbTextStyleTableRecord
  2
STANDARD
 70
0
 40
0.0
 41
0.8
 50
0.0
 71
0
 42
0.2
  3
txt
  4

  0
STYLE
  5
222
100
AcDbSymbolTableRecord
100
AcDbTextStyleTableRecord
  2
TEXTSTYLE_1
 70
0
 40
0.0
 41
0.8
 50
0.0
 71
0
 42
0.2
  3
gdt
  4

  0
ENDTAB
  0
TABLE
  2
VIEW
  5
6
100
AcDbSymbolTable
 70
0
  0
ENDTAB
  0
TABLE
  2
UCS
  5
7
100
AcDbSymbolTable
 70
0
  0
ENDTAB
  0
TABLE
  2
APPID
  5
9
100
AcDbSymbolTable
 70
1
  0
APPID
  5
223
100
AcDbSymbolTableRecord
100
AcDbRegAppTableRecord
  2
ACAD
 70
0
  0
ENDTAB
  0
TABLE
  2
BLOCK_RECORD
  5
1
100
AcDbSymbolTable
 70
0
  0
BLOCK_RECORD
  5
224
100
AcDbSymbolTableRecord
100
AcDbBlockTableRecord
  2
*Model_Space
  0
BLOCK_RECORD
  5
225
100
AcDbSymbolTableRecord
100
AcDbBlockTableRecord
  2
*Paper_Space
  0
ENDTAB
  0
TABLE
  2
DIMSTYLE
  5
A
100
AcDbSymbolTable
 70
1
100
AcDbDimStyleTable
 71
0
  0
DIMSTYLE
105
226
100
AcDbSymbolTableRecord
100
AcDbDimStyleTableRecord
  2
STANDARD
 70
0
  3

  4

 40
1.0
 41
0.1875
 42
0.0625
 43
0.38
 44
0.125
 45
0.0
 46
0.0
 47
0.0001
 48
0.0001
140
0.15625
141
0.09
142
0.0
143
25.4
144
1.0
145
0.0
146
1.0
147
0.09
 71
0.0
 72
0.0
 73
1
 74
1
 75
0
 76
0
 77
0
 78
4
 79
1
170
0
171
3
172
0
173
0
174
0
175
0
176
0
177
0
178
0
270
2
179
4
271
4
272
4
273
2
274
2
275
0
280
0
281
0
282
0
283
1
284
4
285
0
286
0
287
3
288
0
340
11
278
46
  0
ENDTAB
  0
ENDSEC
  0
SECTION
  2
BLOCKS
  0
BLOCK
  5
20
100
AcDbEntity
  8
0
100
AcDbBlockBegin
  2
*Model_Space
 70
0
 10
0.0
 20
0.0
 30
0.0
  3
*Model_Space
  1

  0
ENDBLK
  5
21
100
AcDbEntity
  8
0
100
AcDbBlockEnd
  0
BLOCK
  5
1C
100
AcDbEntity
  8
0
100
AcDbBlockBegin
  2
*Paper_Space
 70
0
 10
0.0
 20
0.0
 30
0.0
  3
*Paper_Space
  1

  0
ENDBLK
  5
1D
100
AcDbEntity
  8
0
100
AcDbBlockEnd
  0
ENDSEC
  0
SECTION
  2
ENTITIES
  0
MTEXT
  5
227
100
AcDbEntity
  8
0
100
AcDbMText
 62
7
  6
CONTINUOUS
  7
STANDARD
 71
1
 72
1
 10
15.9560215477
 20
0.9479130325
 30
0.0
 11
1.0
 21
0.0
 31
0.0
 44
0.9
  1
SCALE: 1:1.000
 40
0.3
 41
3.36
  0
LINE
  5
228
100
AcDbEntity
  8
0
100
AcDbLine
 62
7
  6
CONTINUOUS
 10
0.0
 20
0.0
 11
0.0
 21
17.0
  0
LINE
  5
229
100
AcDbEntity
  8
0
100
AcDbLine
 62
7
  6
CONTINUOUS
 10
0.0
 20
0.0
 11
22.0
 21
0.0
  0
LINE
  5
22A
100
AcDbEntity
  8
0
100
AcDbLine
 62
7
  6
CONTINUOUS
 10
0.0
 20
17.0
 11
22.0
 21
17.0
  0
LINE
  5
22B
100
AcDbEntity
  8
0
100
AcDbLine
 62
7
  6
CONTINUOUS
 10
22.0
 20
0.0
 11
22.0
 21
17.0
  0
LINE
  5
22C
100
AcDbEntity
  8
02___PRT_ALL_AXES
100
AcDbLine
 62
7
  6
CONTINUOUS
 10
5.7139347042
 20
7.1931198968
 11
5.6278672762
 21
7.1668064433
  0
LINE
  5
22D
100
AcDbEntity
  8
02___PRT_ALL_AXES
100
AcDbLine
 62
7
  6
CONTINUOUS
 10
5.7139347042
 20
3.8471198968
 11
5.6278672762
 21
3.8734333502
  0
LINE
  5
22E
100
AcDbEntity
  8
0
100
AcDbLine
 62
7
  6
CONTINUOUS
 10
5.7528672762
 20
4.0478410634
 11
6.5078672762
 21
4.0478410634
  0
LINE
  5
22F
100
AcDbEntity
  8
0
100
AcDbLine
 62
7
  6
CONTINUOUS
 10
5.7528672762
 20
4.1064048534
 11
6.5078672762
 21
4.1064048534
  0
LINE
  5
230
100
AcDbEntity
  8
0
100
AcDbLine
 62
7
  6
CONTINUOUS
 10
5.7528672762
 20
4.2258806786
 11
6.5078672762
 21
4.2258806786
  0
LINE
  5
231
100
AcDbEntity
  8
0
100
AcDbLine
 62
7
  6
CONTINUOUS
 10
5.7528672762
 20
4.4010468721
 11
6.5078672762
 21
4.4010468721
  0
LINE
  5
232
100
AcDbEntity
  8
0
100
AcDbLine
 62
7
  6
CONTINUOUS
 10
5.7528672762
 20
4.6242478307
 11
6.5078672762
 21
4.6242478307
  0
LINE
  5
233
100
AcDbEntity
  8
0
100
AcDbLine
 62
7
  6
CONTINUOUS
 10
5.7528672762
 20
4.8857286015
 11
6.5078672762
 21
4.8857286015
  0
LINE
  5
234
100
AcDbEntity
  8
02___PRT_ALL_AXES
100
AcDbLine
 62
7
  6
CONTINUOUS
 10
5.6278672762
 20
7.1668064433
 11
5.6278672762
 21
3.8734333502
  0
LINE
  5
235
100
AcDbEntity
  8
02___PRT_ALL_AXES
100
AcDbLine
 62
7
  6
CONTINUOUS
 10
5.7139347042
 20
7.1931198968
 11
5.7139347042
 21
3.8471198968
  0
LINE
  5
236
100
AcDbEntity
  8
02___PRT_ALL_AXES
100
AcDbLine
 62
7
  6
CONTINUOUS
 10
5.7528672762
 20
7.0657771918
 11
5.7528672762
 21
3.9744626017
  0
LINE
  5
237
100
AcDbEntity
  8
02___PRT_ALL_AXES
100
AcDbLine
 62
7
  6
CONTINUOUS
 10
6.5078672762
 20
7.0657771918
 11
6.5467998481
 21
7.1931198968
  0
LINE
  5
238
100
AcDbEntity
  8
02___PRT_ALL_AXES
100
AcDbLine
 62
7
  6
CONTINUOUS
 10
6.5078672762
 20
3.9744626017
 11
6.5467998481
 21
3.8471198968
  0
LINE
  5
239
100
AcDbEntity
  8
02___PRT_ALL_AXES
100
AcDbLine
 62
7
  6
CONTINUOUS
 10
5.7528672762
 20
3.9744626017
 11
5.7139347042
 21
3.8471198968
  0
LINE
  5
23A
100
AcDbEntity
  8
02___PRT_ALL_AXES
100
AcDbLine
 62
7
  6
CONTINUOUS
 10
5.7528672762
 20
7.0657771918
 11
5.7139347042
 21
7.1931198968
  0
LINE
  5
23B
100
AcDbEntity
  8
02___PRT_ALL_AXES
100
AcDbLine
 62
7
  6
CONTINUOUS
 10
6.5078672762
 20
3.9744626017
 11
6.5078672762
 21
7.0657771918
  0
LINE
  5
23C
100
AcDbEntity
  8
02___PRT_ALL_AXES
100
AcDbLine
 62
7
  6
CONTINUOUS
 10
6.5467998481
 20
3.8471198968
 11
6.5467998481
 21
7.1931198968
  0
LINE
  5
23D
100
AcDbEntity
  8
02___PRT_ALL_AXES
100
AcDbLine
 62
7
  6
CONTINUOUS
 10
6.6328672762
 20
3.8734333502
 11
6.6328672762
 21
7.1668064433
  0
LINE
  5
23E
100
AcDbEntity
  8
0
100
AcDbLine
 62
7
  6
CONTINUOUS
 10
6.5078672762
 20
6.154511192
 11
5.7528672762
 21
6.154511192
  0
LINE
  5
23F
100
AcDbEntity
  8
0
100
AcDbLine
 62
7
  6
CONTINUOUS
 10
6.5078672762
 20
6.4159919628
 11
5.7528672762
 21
6.4159919628
  0
LINE
  5
240
100
AcDbEntity
  8
0
100
AcDbLine
 62
7
  6
CONTINUOUS
 10
6.5078672762
 20
6.6391929214
 11
5.7528672762
 21
6.6391929214
  0
LINE
  5
241
100
AcDbEntity
  8
0
100
AcDbLine
 62
7
  6
CONTINUOUS
 10
6.5078672762
 20
6.8143591149
 11
5.7528672762
 21
6.8143591149
  0
LINE
  5
242
100
AcDbEntity
  8
0
100
AcDbLine
 62
7
  6
CONTINUOUS
 10
6.5078672762
 20
6.9338349401
 11
5.7528672762
 21
6.9338349401
  0
LINE
  5
243
100
AcDbEntity
  8
0
100
AcDbLine
 62
7
  6
CONTINUOUS
 10
6.5078672762
 20
6.9923987301
 11
5.7528672762
 21
6.9923987301
  0
LINE
  5
244
100
AcDbEntity
  8
02___PRT_ALL_AXES
100
AcDbLine
 62
7
  6
CONTINUOUS
 10
6.5467998481
 20
3.8471198968
 11
6.6328672762
 21
3.8734333502
  0
LINE
  5
245
100
AcDbEntity
  8
02___PRT_ALL_AXES
100
AcDbLine
 62
7
  6
CONTINUOUS
 10
6.5467998481
 20
7.1931198968
 11
6.6328672762
 21
7.1668064433
  0
LINE
  5
246
100
AcDbEntity
  8
02___PRT_ALL_AXES
100
AcDbLine
 62
7
  6
CONTINUOUS
 10
5.5683720839
 20
14.2467343279
 11
5.6544395119
 21
14.2730477814
  0
LINE
  5
247
100
AcDbEntity
  8
02___PRT_ALL_AXES
100
AcDbLine
 62
7
  6
CONTINUOUS
 10
5.5683720839
 20
10.9533612348
 11
5.6544395119
 21
10.9270477814
  0
LINE
  5
248
100
AcDbEntity
  8
0
100
AcDbLine
 62
7
  6
CONTINUOUS
 10
5.6933720839
 20
11.1492125781
 11
6.4483720839
 21
11.1492125781
  0
LINE
  5
249
100
AcDbEntity
  8
0
100
AcDbLine
 62
7
  6
CONTINUOUS
 10
5.6933720839
 20
11.2387227316
 11
6.4483720839
 21
11.2387227316
  0
LINE
  5
24A
100
AcDbEntity
  8
0
100
AcDbLine
 62
7
  6
CONTINUOUS
 10
5.6933720839
 20
11.3868552263
 11
6.4483720839
 21
11.3868552263
  0
LINE
  5
24B
100
AcDbEntity
  8
0
100
AcDbLine
 62
7
  6
CONTINUOUS
 10
5.6933720839
 20
11.5871359612
 11
6.4483720839
 21
11.5871359612
  0
LINE
  5
24C
100
AcDbEntity
  8
0
100
AcDbLine
 62
7
  6
CONTINUOUS
 10
5.6933720839
 20
11.8308117071
 11
6.4483720839
 21
11.8308117071
  0
LINE
  5
24D
100
AcDbEntity
  8
02___PRT_ALL_AXES
100
AcDbLine
 62
7
  6
CONTINUOUS
 10
5.5683720839
 20
10.9533612348
 11
5.5683720839
 21
14.2467343279
  0
LINE
  5
24E
100
AcDbEntity
  8
0
100
AcDbLine
 62
7
  6
CONTINUOUS
 10
5.6933720839
 20
12.1066632589
 11
6.4483720839
 21
12.1066632589
  0
LINE
  5
24F
100
AcDbEntity
  8
02___PRT_ALL_AXES
100
AcDbLine
 62
7
  6
CONTINUOUS
 10
5.6544395119
 20
10.9270477814
 11
5.6544395119
 21
14.2730477814
  0
LINE
  5
250
100
AcDbEntity
  8
02___PRT_ALL_AXES
100
AcDbLine
 62
7
  6
CONTINUOUS
 10
5.6933720839
 20
11.0543904863
 11
5.6933720839
 21
14.1457050764
  0
LINE
  5
251
100
AcDbEntity
  8
02___PRT_ALL_AXES
100
AcDbLine
 62
7
  6
CONTINUOUS
 10
6.4873046558
 20
14.2730477814
 11
6.4483720839
 21
14.1457050764
  0
LINE
  5
252
100
AcDbEntity
  8
02___PRT_ALL_AXES
100
AcDbLine
 62
7
  6
CONTINUOUS
 10
6.4873046558
 20
10.9270477814
 11
6.4483720839
 21
11.0543904863
  0
LINE
  5
253
100
AcDbEntity
  8
02___PRT_ALL_AXES
100
AcDbLine
 62
7
  6
CONTINUOUS
 10
5.6544395119
 20
10.9270477814
 11
5.6933720839
 21
11.0543904863
  0
LINE
  5
254
100
AcDbEntity
  8
02___PRT_ALL_AXES
100
AcDbLine
 62
7
  6
CONTINUOUS
 10
5.6544395119
 20
14.2730477814
 11
5.6933720839
 21
14.1457050764
  0
LINE
  5
255
100
AcDbEntity
  8
02___PRT_ALL_AXES
100
AcDbLine
 62
7
  6
CONTINUOUS
 10
6.4483720839
 20
11.0543904863
 11
6.4483720839
 21
14.1457050764
  0
LINE
  5
256
100
AcDbEntity
  8
02___PRT_ALL_AXES
100
AcDbLine
 62
7
  6
CONTINUOUS
 10
6.4873046558
 20
10.9270477814
 11
6.4873046558
 21
14.2730477814
  0
LINE
  5
257
100
AcDbEntity
  8
02___PRT_ALL_AXES
100
AcDbLine
 62
7
  6
CONTINUOUS
 10
6.5733720839
 20
10.9533612348
 11
6.5733720839
 21
14.2467343279
  0
LINE
  5
258
100
AcDbEntity
  8
0
100
AcDbLine
 62
7
  6
CONTINUOUS
 10
5.6933720839
 20
13.0934323038
 11
6.4483720839
 21
13.0934323038
  0
LINE
  5
259
100
AcDbEntity
  8
0
100
AcDbLine
 62
7
  6
CONTINUOUS
 10
6.4483720839
 20
13.3692838556
 11
5.6933720839
 21
13.3692838556
  0
LINE
  5
25A
100
AcDbEntity
  8
0
100
AcDbLine
 62
7
  6
CONTINUOUS
 10
6.4483720839
 20
13.6129596016
 11
5.6933720839
 21
13.6129596016
  0
LINE
  5
25B
100
AcDbEntity
  8
0
100
AcDbLine
 62
7
  6
CONTINUOUS
 10
6.4483720839
 20
13.8132403364
 11
5.6933720839
 21
13.8132403364
  0
LINE
  5
25C
100
AcDbEntity
  8
0
100
AcDbLine
 62
7
  6
CONTINUOUS
 10
6.4483720839
 20
13.9613728311
 11
5.6933720839
 21
13.9613728311
  0
LINE
  5
25D
100
AcDbEntity
  8
0
100
AcDbLine
 62
7
  6
CONTINUOUS
 10
6.4483720839
 20
14.0508829847
 11
5.6933720839
 21
14.0508829847
  0
LINE
  5
25E
100
AcDbEntity
  8
02___PRT_ALL_AXES
100
AcDbLine
 62
7
  6
CONTINUOUS
 10
6.5733720839
 20
10.9533612348
 11
6.4873046558
 21
10.9270477814
  0
LINE
  5
25F
100
AcDbEntity
  8
02___PRT_ALL_AXES
100
AcDbLine
 62
7
  6
CONTINUOUS
 10
6.5733720839
 20
14.2467343279
 11
6.4873046558
 21
14.2730477814
  0
LINE
  5
260
100
AcDbEntity
  8
02___PRT_ALL_AXES
100
AcDbLine
 62
7
  6
CONTINUOUS
 10
14.9253908003
 20
14.1436768675
 11
15.0033396227
 21
14.1697695675
  0
LINE
  5
261
100
AcDbEntity
  8
02___PRT_ALL_AXES
100
AcDbLine
 62
7
  6
CONTINUOUS
 10
14.9253908003
 20
10.8779331183
 11
15.0033396227
 21
10.8518404183
  0
LINE
  5
262
100
AcDbEntity
  8
0
100
AcDbLine
 62
7
  6
CONTINUOUS
 10
14.920495714
 20
13.8939046517
 11
14.9232415361
 21
13.8951882702
  0
LINE
  5
263
100
AcDbEntity
  8
0
100
AcDbLine
 62
7
  6
CONTINUOUS
 10
15.5495198146
 20
11.0333121154
 11
15.108232853
 21
11.0333190718
  0
LINE
  5
264
100
AcDbEntity
  8
0
100
AcDbLine
 62
7
  6
CONTINUOUS
 10
14.9907601129
 20
11.0731650145
 11
14.9889404575
 21
11.0737098486
  0
LINE
  5
265
100
AcDbEntity
  8
0
100
AcDbLine
 62
7
  6
CONTINUOUS
 10
14.9907600987
 20
11.0731563323
 11
15.5226763187
 21
11.0731563323
  0
LINE
  5
266
100
AcDbEntity
  8
0
100
AcDbLine
 62
7
  6
CONTINUOUS
 10
14.8788794662
 20
11.1749585983
 11
15.4633105623
 21
11.1749585983
  0
LINE
  5
267
100
AcDbEntity
  8
AXIS
100
AcDbLine
 62
7
  6
CONTINUOUS
 10
15.9316429655
 20
11.2385549929
 11
15.885446855
 21
11.2385549929
  0
LINE
  5
268
100
AcDbEntity
  8
0
100
AcDbLine
 62
7
  6
CONTINUOUS
 10
14.7776860763
 20
11.3342696659
 11
15.392304152
 21
11.3342696659
  0
LINE
  5
269
100
AcDbEntity
  8
0
100
AcDbLine
 62
7
  6
CONTINUOUS
 10
14.6916025658
 20
11.544126877
 11
15.3235069107
 21
11.544126877
  0
LINE
  5
26A
100
AcDbEntity
  8
02___PRT_ALL_AXES
100
AcDbLine
 62
7
  6
CONTINUOUS
 10
15.6912686423
 20
11.078658103
 11
15.6904614183
 21
11.0794086606
  0
LINE
  5
26B
100
AcDbEntity
  8
02___PRT_ALL_AXES
100
AcDbLine
 62
7
  6
CONTINUOUS
 10
15.6910628544
 20
11.0772575964
 11
15.6902591449
 21
11.0780380493
  0
LINE
  5
26C
100
AcDbEntity
  8
0
100
AcDbLine
 62
7
  6
CONTINUOUS
 10
14.6243911972
 20
11.7953584643
 11
15.2662619168
 21
11.7953584643
  0
LINE
  5
26D
100
AcDbEntity
  8
02___PRT_ALL_AXES
100
AcDbLine
 62
7
  6
CONTINUOUS
 10
15.5150720965
 20
13.7576318565
 11
15.5144873002
 21
13.7563347635
  0
LINE
  5
26E
100
AcDbEntity
  8
02___PRT_ALL_AXES
100
AcDbLine
 62
7
  6
CONTINUOUS
 10
15.5152192025
 20
13.7571939716
 11
15.514616
 21
13.7559525999
  0
LINE
  5
26F
100
AcDbEntity
  8
0
100
AcDbLine
 62
7
  6
CONTINUOUS
 10
14.5962710033
 20
12.0749706732
 11
15.2262007801
 21
12.0749706732
  0
LINE
  5
270
100
AcDbEntity
  8
02___PRT_ALL_AXES
100
AcDbLine
 62
7
  6
CONTINUOUS
 10
15.5007249593
 20
11.3779421768
 11
15.4994836933
 21
11.3807209244
  0
LINE
  5
271
100
AcDbEntity
  8
02___PRT_ALL_AXES
100
AcDbLine
 62
7
  6
CONTINUOUS
 10
15.5003829692
 20
11.3769759712
 11
15.4991652246
 21
11.3798261488
  0
LINE
  5
272
100
AcDbEntity
  8
02___PRT_ALL_AXES
100
AcDbLine
 62
7
  6
CONTINUOUS
 10
15.3737720341
 20
13.3122593974
 11
15.3739534908
 21
13.3130951663
  0
LINE
  5
273
100
AcDbEntity
  8
02___PRT_ALL_AXES
100
AcDbLine
 62
7
  6
CONTINUOUS
 10
15.3741191624
 20
13.3117627511
 11
15.3743094679
 21
13.3125851634
  0
LINE
  5
274
100
AcDbEntity
  8
0
100
AcDbLine
 62
7
  6
CONTINUOUS
 10
15.2398721363
 20
13.0617613045
 11
14.5945823216
 21
13.0617613045
  0
LINE
  5
275
100
AcDbEntity
  8
0
100
AcDbLine
 62
7
  6
CONTINUOUS
 10
14.5957214743
 20
13.0617696836
 11
14.5945823216
 21
13.0617613045
  0
LINE
  5
276
100
AcDbEntity
  8
AXIS
100
AcDbLine
 62
7
  6
CONTINUOUS
 10
15.6984212978
 20
13.2294718468
 11
15.6295459448
 21
13.226747458
  0
LINE
  5
277
100
AcDbEntity
  8
0
100
AcDbLine
 62
7
  6
CONTINUOUS
 10
15.287621425
 20
13.3324789221
 11
14.6491709199
 21
13.3324789221
  0
LINE
  5
278
100
AcDbEntity
  8
0
100
AcDbLine
 62
7
  6
CONTINUOUS
 10
15.3502139258
 20
13.5681592132
 11
14.7244414539
 21
13.5681592132
  0
LINE
  5
279
100
AcDbEntity
  8
AXIS
100
AcDbLine
 62
7
  6
CONTINUOUS
 10
15.9008258726
 20
13.7805914011
 11
15.9020349402
 21
13.7807810867
  0
LINE
  5
27A
100
AcDbEntity
  8
AXIS
100
AcDbLine
 62
7
  6
CONTINUOUS
 10
16.0979674286
 20
11.3123908919
 11
16.0988800961
 21
11.3132287304
  0
LINE
  5
27B
100
AcDbEntity
  8
AXIS
100
AcDbLine
 62
7
  6
CONTINUOUS
 10
16.097767407
 20
11.3138321367
 11
16.0986852816
 21
11.3146238207
  0
LINE
  5
27C
100
AcDbEntity
  8
AXIS
100
AcDbLine
 62
7
  6
CONTINUOUS
 10
15.9008258726
 20
13.7805914011
 11
15.902037108
 21
13.7806880991
  0
LINE
  5
27D
100
AcDbEntity
  8
0
100
AcDbLine
 62
7
  6
CONTINUOUS
 10
15.4207948996
 20
13.7585021471
 11
14.8171489128
 21
13.7585021471
  0
LINE
  5
27E
100
AcDbEntity
  8
AXIS
100
AcDbLine
 62
7
  6
CONTINUOUS
 10
15.9316429655
 20
13.7830549929
 11
15.8864532961
 21
13.7830549929
  0
LINE
  5
27F
100
AcDbEntity
  8
0
100
AcDbLine
 62
7
  6
CONTINUOUS
 10
15.4899709924
 20
13.8951888241
 11
14.9232415357
 21
13.8951888241
  0
LINE
  5
280
100
AcDbEntity
  8
0
100
AcDbLine
 62
7
  6
CONTINUOUS
 10
15.5388357924
 20
13.9722453808
 11
15.038082566
 21
13.9722453808
  0
LINE
  5
281
100
AcDbEntity
  8
0
100
AcDbLine
 62
7
  6
CONTINUOUS
 10
15.1383856331
 20
13.9882978704
 11
15.5500824705
 21
13.9882978704
  0
LINE
  5
282
100
AcDbEntity
  8
0
100
AcDbLine
 62
7
  6
CONTINUOUS
 10
15.036912067
 20
13.9720182256
 11
15.0380825772
 21
13.97223083
  0
LINE
  5
283
100
AcDbEntity
  8
02___PRT_ALL_AXES
100
AcDbLine
 62
7
  6
CONTINUOUS
 10
16.0168341366
 20
10.8779331183
 11
15.9388853143
 21
10.8518404183
  0
LINE
  5
284
100
AcDbEntity
  8
02___PRT_ALL_AXES
100
AcDbLine
 62
7
  6
CONTINUOUS
 10
16.0168341366
 20
14.1436768675
 11
15.9388853143
 21
14.1697695675
  0
CIRCLE
  5
285
100
AcDbEntity
  8
02___PRT_ALL_AXES
100
AcDbCircle
 62
7
  6
CONTINUOUS
 10
15.5603552569
 20
5.4606247044
 40
1.673
  0
CIRCLE
  5
286
100
AcDbEntity
  8
02___PRT_ALL_AXES
100
AcDbCircle
 62
7
  6
CONTINUOUS
 10
15.5603552569
 20
5.4606247044
 40
1.6466865466
  0
CIRCLE
  5
287
100
AcDbEntity
  8
02___PRT_ALL_AXES
100
AcDbCircle
 62
7
  6
CONTINUOUS
 10
15.5603552569
 20
5.4606247044
 40
1.5322067049
  0
CIRCLE
  5
288
100
AcDbEntity
  8
02___PRT_ALL_AXES
100
AcDbCircle
 62
7
  6
CONTINUOUS
 10
15.5603552569
 20
5.4606247044
 40
1.274
  0
CIRCLE
  5
289
100
AcDbEntity
  8
AXIS
100
AcDbCircle
 62
7
  6
CONTINUOUS
 10
15.5603552569
 20
5.4606247044
 40
1.27225
  0
ARC
  5
28A
100
AcDbEntity
  8
AXIS
100
AcDbCircle
 62
7
  6
CONTINUOUS
 10
15.5603552569
 20
5.4606247044
 40
0.9355
100
AcDbArc
 50
101.7602331395
 51
175.9533565027
  0
ARC
  5
28B
100
AcDbEntity
  8
AXIS
100
AcDbCircle
 62
7
  6
CONTINUOUS
 10
15.5603552569
 20
5.4606247044
 40
0.9355
100
AcDbArc
 50
4.0466434973
 51
78.2397668605
  0
ARC
  5
28C
100
AcDbEntity
  8
AXIS
100
AcDbCircle
 62
7
  6
CONTINUOUS
 10
15.5603552569
 20
5.4606247044
 40
0.9355
100
AcDbArc
 50
194.0466434973
 51
345.9533565027
  0
ARC
  5
28D
100
AcDbEntity
  8
AXIS
100
AcDbCircle
 62
7
  6
CONTINUOUS
 10
15.5603552569
 20
5.4606247044
 40
0.90484
100
AcDbArc
 50
77.5670455441
 51
102.4329544559
  0
ARC
  5
28E
100
AcDbEntity
  8
AXIS
100
AcDbCircle
 62
7
  6
CONTINUOUS
 10
15.558599878
 20
5.497319644
 40
0.8734649784
100
AcDbArc
 50
359.4569081775
 51
2.7587682451
  0
ARC
  5
28F
100
AcDbEntity
  8
AXIS
100
AcDbCircle
 62
7
  6
CONTINUOUS
 10
15.5621106296
 20
5.4973196441
 40
0.8734649721
100
AcDbArc
 50
177.241231743
 51
180.5430918344
  0
CIRCLE
  5
290
100
AcDbEntity
  8
AXIS
100
AcDbCircle
 62
7
  6
CONTINUOUS
 10
15.5603552569
 20
5.4606247044
 40
0.8655
  0
ARC
  5
291
100
AcDbEntity
  8
AXIS
100
AcDbCircle
 62
7
  6
CONTINUOUS
 10
15.5603552569
 20
6.3356247044
 40
0.195
100
AcDbArc
 50
2.5336644105
 51
177.4663355895
  0
ARC
  5
292
100
AcDbEntity
  8
AXIS
100
AcDbCircle
 62
7
  6
CONTINUOUS
 10
16.4320256178
 20
5.3843634295
 40
0.155
100
AcDbArc
 50
259.6402988182
 51
90.3597011818
  0
ARC
  5
293
100
AcDbEntity
  8
AXIS
100
AcDbCircle
 62
7
  6
CONTINUOUS
 10
14.6886848961
 20
5.3843634295
 40
0.155
100
AcDbArc
 50
89.6402988182
 51
280.3597011818
  0
ARC
  5
294
100
AcDbEntity
  8
AXIS
100
AcDbCircle
 62
7
  6
CONTINUOUS
 10
13.9858737104
 20
42.5253238994
 40
29.5294493557
100
AcDbArc
 50
273.1130649726
 51
274.3401468139
  0
ARC
  5
295
100
AcDbEntity
  8
0
100
AcDbCircle
 62
7
  6
CONTINUOUS
 10
16.3048195061
 20
12.937446034
 40
1.7045459308
100
AcDbArc
 50
158.4918772892
 51
159.7147219004
  0
ARC
  5
296
100
AcDbEntity
  8
AXIS
100
AcDbCircle
 62
7
  6
CONTINUOUS
 10
15.0130490249
 20
12.9167450653
 40
1.3615699413
100
AcDbArc
 50
21.6586320605
 51
22.4140552496
  0
ARC
  5
297
100
AcDbEntity
  8
0
100
AcDbCircle
 62
7
  6
CONTINUOUS
 10
16.2708748983
 20
11.1588845554
 40
1.3067726854
100
AcDbArc
 50
179.362705223
 51
182.4661655033
  0
ARC
  5
298
100
AcDbEntity
  8
0
100
AcDbCircle
 62
7
  6
CONTINUOUS
 10
16.1980464816
 20
13.8646906408
 40
1.2996153944
100
AcDbArc
 50
180.3103986507
 51
183.423943291
  0
ARC
  5
299
100
AcDbEntity
  8
0
100
AcDbCircle
 62
7
  6
CONTINUOUS
 10
16.2797220909
 20
13.8507397539
 40
1.2710608264
100
AcDbArc
 50
175.5967562406
 51
177.9955137104
  0
ARC
  5
29A
100
AcDbEntity
  8
AXIS
100
AcDbCircle
 62
7
  6
CONTINUOUS
 10
15.1030513735
 20
12.9543422615
 40
1.2640314148
100
AcDbArc
 50
22.3941480653
 51
24.1511840886
  0
ARC
  5
29B
100
AcDbEntity
  8
0
100
AcDbCircle
 62
7
  6
CONTINUOUS
 10
16.108996183
 20
11.1698251705
 40
1.2551577078
100
AcDbArc
 50
174.6132372427
 51
177.80784837
  0
ARC
  5
29C
100
AcDbEntity
  8
0
100
AcDbCircle
 62
7
  6
CONTINUOUS
 10
15.8888189172
 20
11.9043523251
 40
1.251189073
100
AcDbArc
 50
205.3839082221
 51
206.8931182271
  0
ARC
  5
29D
100
AcDbEntity
  8
AXIS
100
AcDbCircle
 62
7
  6
CONTINUOUS
 10
15.1653455607
 20
12.9821350176
 40
1.1958186162
100
AcDbArc
 50
24.1572869747
 51
24.5753051894
  0
ARC
  5
29E
100
AcDbEntity
  8
0
100
AcDbCircle
 62
7
  6
CONTINUOUS
 10
15.9716587998
 20
13.8120337691
 40
1.1819172305
100
AcDbArc
 50
185.0444040657
 51
188.3545093726
  0
ARC
  5
29F
100
AcDbEntity
  8
0
100
AcDbCircle
 62
7
  6
CONTINUOUS
 10
16.24791925
 20
11.1992056916
 40
1.1747814771
100
AcDbArc
 50
186.1599193916
 51
187.3450406443
  0
ARC
  5
2A0
100
AcDbEntity
  8
0
100
AcDbCircle
 62
7
  6
CONTINUOUS
 10
15.8234633684
 20
11.2581898529
 40
1.0755690955
100
AcDbArc
 50
169.4373744443
 51
172.9861773034
  0
ARC
  5
2A1
100
AcDbEntity
  8
0
100
AcDbCircle
 62
7
  6
CONTINUOUS
 10
16.1801315157
 20
13.8011414347
 40
1.0634086155
100
AcDbArc
 50
170.5261649626
 51
170.7390820034
  0
ARC
  5
2A2
100
AcDbEntity
  8
0
100
AcDbCircle
 62
7
  6
CONTINUOUS
 10
15.6741336924
 20
13.2322470754
 40
1.0076063308
100
AcDbArc
 50
148.7249415801
 51
150.4600571067
  0
ARC
  5
2A3
100
AcDbEntity
  8
0
100
AcDbCircle
 62
7
  6
CONTINUOUS
 10
15.6316410521
 20
13.6721367756
 40
0.9417956094
100
AcDbArc
 50
190.1453809216
 51
194.0078469692
  0
ARC
  5
2A4
100
AcDbEntity
  8
0
100
AcDbCircle
 62
7
  6
CONTINUOUS
 10
15.4027835604
 20
11.6070135652
 40
0.6804349868
100
AcDbArc
 50
216.9389988778
 51
219.2054479157
  0
ARC
  5
2A5
100
AcDbEntity
  8
0
100
AcDbCircle
 62
7
  6
CONTINUOUS
 10
15.2865177856
 20
13.5160402428
 40
0.5260738242
100
AcDbArc
 50
134.0879540736
 51
136.7630667278
  0
ARC
  5
2A6
100
AcDbEntity
  8
AXIS
100
AcDbCircle
 62
7
  6
CONTINUOUS
 10
15.8594637552
 20
13.4510402254
 40
0.351443068
100
AcDbArc
 50
50.8930542328
 51
51.8639154207
  0
ARC
  5
2A7
100
AcDbEntity
  8
0
100
AcDbCircle
 62
7
  6
CONTINUOUS
 10
15.1716774109
 20
11.3696974342
 40
0.3478526196
100
AcDbArc
 50
234.76511914
 51
238.3096283324
  0
ARC
  5
2A8
100
AcDbEntity
  8
0
100
AcDbCircle
 62
7
  6
CONTINUOUS
 10
15.1388701101
 20
13.7113563131
 40
0.2798929709
100
AcDbArc
 50
111.3629786287
 51
115.4405571835
  0
ARC
  5
2A9
100
AcDbEntity
  8
0
100
AcDbCircle
 62
7
  6
CONTINUOUS
 10
14.6708352141
 20
13.7929950963
 40
0.2304104637
100
AcDbArc
 50
351.3329299728
 51
356.0694091835
  0
ARC
  5
2AA
100
AcDbEntity
  8
0
100
AcDbCircle
 62
7
  6
CONTINUOUS
 10
15.1236052152
 20
11.2600029468
 40
0.2272045086
100
AcDbArc
 50
261.4216516091
 51
266.1204781717
  0
ARC
  5
2AB
100
AcDbEntity
  8
02___PRT_ALL_AXES
100
AcDbCircle
 62
7
  6
CONTINUOUS
 10
15.9013878245
 20
13.5876801917
 40
0.1971387395
100
AcDbArc
 50
81.2625691133
 51
85.1709070735
  0
ARC
  5
2AC
100
AcDbEntity
  8
02___PRT_ALL_AXES
100
AcDbCircle
 62
7
  6
CONTINUOUS
 10
15.9014050806
 20
11.4338441572
 40
0.1970515935
100
AcDbArc
 50
274.5326217656
 51
278.7787358292
  0
ARC
  5
2AD
100
AcDbEntity
  8
AXIS
100
AcDbCircle
 62
7
  6
CONTINUOUS
 10
15.9316987863
 20
13.5883996429
 40
0.1946549862
100
AcDbArc
 50
90.0164305706
 51
98.7655670602
  0
ARC
  5
2AE
100
AcDbEntity
  8
AXIS
100
AcDbCircle
 62
7
  6
CONTINUOUS
 10
15.93168792
 20
11.4330255748
 40
0.1944702154
100
AcDbArc
 50
261.4743000912
 51
269.9867552633
  0
ARC
  5
2AF
100
AcDbEntity
  8
02___PRT_ALL_AXES
100
AcDbCircle
 62
7
  6
CONTINUOUS
 10
15.9016902543
 20
11.4306327239
 40
0.19382767
100
AcDbArc
 50
270.0053884761
 51
274.5236080138
  0
ARC
  5
2B0
100
AcDbEntity
  8
02___PRT_ALL_AXES
100
AcDbCircle
 62
7
  6
CONTINUOUS
 10
15.9016952361
 20
13.5910262744
 40
0.1937786572
100
AcDbArc
 50
85.1781908859
 51
89.9960831579
  0
ARC
  5
2B1
100
AcDbEntity
  8
0
100
AcDbCircle
 62
7
  6
CONTINUOUS
 10
14.8871846867
 20
11.1742744483
 40
0.0770031095
100
AcDbArc
 50
359.3637311027
 51
0.5098322089
  0
ARC
  5
2B2
100
AcDbEntity
  8
0
100
AcDbCircle
 62
7
  6
CONTINUOUS
 10
14.8244819792
 20
13.7825018676
 40
0.0764058401
100
AcDbArc
 50
356.0216977706
 51
3.4299070021
  0
ARC
  5
2B3
100
AcDbEntity
  8
0
100
AcDbCircle
 62
7
  6
CONTINUOUS
 10
14.7841275291
 20
11.2947178819
 40
0.0755846264
100
AcDbArc
 50
354.6399770507
 51
2.1124817265
  0
ARC
  5
2B4
100
AcDbEntity
  8
AXIS
100
AcDbCircle
 62
7
  6
CONTINUOUS
 10
17.6701726224
 20
-25.4700809664
 40
38.783198984
100
AcDbArc
 50
92.2650181882
 51
92.8879579387
  0
ARC
  5
2B5
100
AcDbEntity
  8
02___PRT_ALL_AXES
100
AcDbCircle
 62
7
  6
CONTINUOUS
 10
19.0802624078
 20
12.5412384652
 40
3.8758517157
100
AcDbArc
 50
172.0810933603
 51
174.5938293895
  0
ARC
  5
2B6
100
AcDbEntity
  8
0
100
AcDbCircle
 62
7
  6
CONTINUOUS
 10
18.322731301
 20
12.5104683024
 40
3.7748766548
100
AcDbArc
 50
181.029651673
 51
181.750883381
  0
ARC
  5
2B7
100
AcDbEntity
  8
0
100
AcDbCircle
 62
7
  6
CONTINUOUS
 10
18.2433974344
 20
12.514536439
 40
3.6954675917
100
AcDbArc
 50
176.3298767039
 51
177.0610542678
  0
ARC
  5
2B8
100
AcDbEntity
  8
0
100
AcDbCircle
 62
7
  6
CONTINUOUS
 10
17.9951004696
 20
12.485892275
 40
3.4462429992
100
AcDbArc
 50
185.8078561243
 51
186.574612626
  0
ARC
  5
2B9
100
AcDbEntity
  8
0
100
AcDbCircle
 62
7
  6
CONTINUOUS
 10
17.7806084919
 20
12.5629849873
 40
3.2300161759
100
AcDbArc
 50
171.3451271106
 51
172.1445669641
  0
ARC
  5
2BA
100
AcDbEntity
  8
0
100
AcDbCircle
 62
7
  6
CONTINUOUS
 10
17.3568196816
 20
12.3846552856
 40
2.7997629365
100
AcDbArc
 50
191.0505447786
 51
191.9316597147
  0
ARC
  5
2BB
100
AcDbEntity
  8
0
100
AcDbCircle
 62
7
  6
CONTINUOUS
 10
17.0690154451
 20
12.7017485208
 40
2.5047392319
100
AcDbArc
 50
165.627772163
 51
166.5744126305
  0
ARC
  5
2BC
100
AcDbEntity
  8
02___PRT_ALL_AXES
100
AcDbCircle
 62
7
  6
CONTINUOUS
 10
17.3811016152
 20
12.8625948881
 40
2.0373335836
100
AcDbArc
 50
160.8922701638
 51
162.853303608
  0
ARC
  5
2BD
100
AcDbEntity
  8
0
100
AcDbCircle
 62
7
  6
CONTINUOUS
 10
16.5884990527
 20
12.1836524839
 40
2.0051917849
100
AcDbArc
 50
197.2858469584
 51
198.3871943323
  0
SPLINE
  5
2BE
100
AcDbEntity
  8
AXIS
100
AcDbSpline
 62
7
  6
CONTINUOUS
 70
0
 71
3
 72
31
 73
27
 74
0
 42
0.0000001
 43
0.0000001
 44
0.0000000001
 40
0.0
 40
0.0
 40
0.0
 40
0.0
 40
0.1236399491
 40
0.2472693027
 40
0.3090988733
 40
0.3709563929
 40
0.4019064564
 40
0.432882034
 40
0.4639012494
 40
0.4950027747
 40
0.5262859436
 40
0.5580913726
 40
0.5745720717
 40
0.5919883163
 40
0.6098911681
 40
0.6268531346
 40
0.6430895836
 40
0.6589898439
 40
0.6903662155
 40
0.7215048797
 40
0.7525422708
 40
0.7835279728
 40
0.8144841434
 40
0.8763480967
 40
0.9381804666
 40
1.0
 40
1.0
 40
1.0
 40
1.0
 10
16.4041523849
 20
5.2318902093
 30
0.0
 10
16.4065100461
 20
5.2423022827
 30
0.0
 10
16.4108439253
 20
5.2632138423
 30
0.0
 10
16.4152990961
 20
5.2895347701
 30
0.0
 10
16.418282813
 20
5.310680782
 30
0.0
 10
16.4199059848
 20
5.323934716
 30
0.0
 10
16.421059913
 20
5.3345603901
 30
0.0
 10
16.4218538215
 20
5.3425464453
 30
0.0
 10
16.4225769033
 20
5.3505523465
 30
0.0
 10
16.4232310128
 20
5.3585908199
 30
0.0
 10
16.4238222916
 20
5.3667022159
 30
0.0
 10
16.4242699452
 20
5.3735580544
 30
0.0
 10
16.4246345454
 20
5.3792193465
 30
0.0
 10
16.424950601
 20
5.3836809951
 30
0.0
 10
16.4253678039
 20
5.3881762307
 30
0.0
 10
16.4258440865
 20
5.3925628131
 30
0.0
 10
16.4263110961
 20
5.3967764204
 30
0.0
 10
16.4269071917
 20
5.4022279554
 30
0.0
 10
16.4276110262
 20
5.4089620926
 30
0.0
 10
16.4283837434
 20
5.4170029157
 30
0.0
 10
16.4290829171
 20
5.42501661
 30
0.0
 10
16.4297088078
 20
5.4330205662
 30
0.0
 10
16.4304455068
 20
5.4436852584
 30
0.0
 10
16.4311835471
 20
5.4570191077
 30
0.0
 10
16.4317758535
 20
5.4730273122
 30
0.0
 10
16.4319749994
 20
5.4837028654
 30
0.0
 10
16.4320256178
 20
5.4890404202
 30
0.0
  0
SPLINE
  5
2BF
100
AcDbEntity
  8
AXIS
100
AcDbSpline
 62
7
  6
CONTINUOUS
 70
0
 71
3
 72
31
 73
27
 74
0
 42
0.0000001
 43
0.0000001
 44
0.0000000001
 40
0.0
 40
0.0
 40
0.0
 40
0.0
 40
0.0618198752
 40
0.1236525643
 40
0.1855168441
 40
0.2164731767
 40
0.2474590292
 40
0.2784966175
 40
0.3096354571
 40
0.3410120692
 40
0.3569123216
 40
0.373148747
 40
0.3901111363
 40
0.4080093186
 40
0.4254249533
 40
0.4419056696
 40
0.4737113356
 40
0.5049946581
 40
0.5360963546
 40
0.5671157273
 40
0.5980914592
 40
0.6290416778
 40
0.6908995077
 40
0.7527293984
 40
0.8763593969
 40
1.0
 40
1.0
 40
1.0
 40
1.0
 10
14.6886848961
 20
5.4890404202
 30
0.0
 10
14.6887355147
 20
5.4837028359
 30
0.0
 10
14.6889346623
 20
5.4730272256
 30
0.0
 10
14.6895269741
 20
5.457018936
 30
0.0
 10
14.6902650216
 20
5.4436850172
 30
0.0
 10
14.6910017276
 20
5.4330202702
 30
0.0
 10
14.6916276258
 20
5.4250162704
 30
0.0
 10
14.6923268042
 20
5.4170025312
 30
0.0
 10
14.6930995326
 20
5.408961656
 30
0.0
 10
14.6938033655
 20
5.4022274831
 30
0.0
 10
14.6943994746
 20
5.3967759315
 30
0.0
 10
14.694866495
 20
5.3925622913
 30
0.0
 10
14.6953426877
 20
5.3881760704
 30
0.0
 10
14.6957599431
 20
5.3836812607
 30
0.0
 10
14.6960758995
 20
5.37922006
 30
0.0
 10
14.6964405312
 20
5.3735588011
 30
0.0
 10
14.6968881701
 20
5.3667029262
 30
0.0
 10
14.6974794501
 20
5.3585914816
 30
0.0
 10
14.6981335572
 20
5.3505529662
 30
0.0
 10
14.6988566374
 20
5.3425470231
 30
0.0
 10
14.6996505449
 20
5.3345609272
 30
0.0
 10
14.7008044726
 20
5.3239351993
 30
0.0
 10
14.7024276457
 20
5.310681197
 30
0.0
 10
14.7054113688
 20
5.2895350748
 30
0.0
 10
14.7098665553
 20
5.2632140077
 30
0.0
 10
14.7142004553
 20
5.2423023378
 30
0.0
 10
14.7165581289
 20
5.2318902093
 30
0.0
  0
SPLINE
  5
2C0
100
AcDbEntity
  8
02___PRT_ALL_AXES
100
AcDbSpline
 62
7
  6
CONTINUOUS
 70
0
 71
3
 72
41
 73
37
 74
0
 42
0.0000001
 43
0.0000001
 44
0.0000000001
 40
0.0
 40
0.0
 40
0.0
 40
0.0
 40
0.032027984
 40
0.06523626
 40
0.0995132372
 40
0.1347486352
 40
0.1708206164
 40
0.2076023662
 40
0.2449624806
 40
0.2827655305
 40
0.3208732439
 40
0.3591453853
 40
0.3974407022
 40
0.4356177718
 40
0.4735359112
 40
0.5110561355
 40
0.5480420174
 40
0.5843605871
 40
0.6198834288
 40
0.654487665
 40
0.688056953
 40
0.7204826993
 40
0.7516655555
 40
0.7815167724
 40
0.8099598848
 40
0.8369329594
 40
0.8623913221
 40
0.8863106089
 40
0.9086908683
 40
0.9295620004
 40
0.9489902115
 40
0.9581991841
 40
0.9670929312
 40
0.9840167973
 40
0.9921110624
 40
1.0
 40
1.0
 40
1.0
 40
1.0
 10
14.5059709811
 20
13.5344017649
 30
0.0
 10
14.4970291253
 20
13.5054659091
 30
0.0
 10
14.4799610014
 20
13.4461688665
 30
0.0
 10
14.4571353001
 20
13.3548609138
 30
0.0
 10
14.4366980755
 20
13.2598843146
 30
0.0
 10
14.4187381079
 20
13.1616559105
 30
0.0
 10
14.4033342188
 20
13.0605987298
 30
0.0
 10
14.3905534286
 20
12.9571525354
 30
0.0
 10
14.3804514689
 20
12.8517665432
 30
0.0
 10
14.3730728288
 20
12.74489851
 30
0.0
 10
14.3684497726
 20
12.6370129318
 30
0.0
 10
14.3666022543
 20
12.5285787481
 30
0.0
 10
14.3675383687
 20
12.4200672995
 30
0.0
 10
14.3712543101
 20
12.3119502885
 30
0.0
 10
14.3777337169
 20
12.2046976701
 30
0.0
 10
14.386948056
 20
12.0987755493
 30
0.0
 10
14.3988570918
 20
11.9946441914
 30
0.0
 10
14.4134090743
 20
11.8927559954
 30
0.0
 10
14.4305401679
 20
11.7935533248
 30
0.0
 10
14.4501754069
 20
11.6974665981
 30
0.0
 10
14.4722291922
 20
11.6049124981
 30
0.0
 10
14.4966056343
 20
11.5162919942
 30
0.0
 10
14.5231983068
 20
11.4319882271
 30
0.0
 10
14.5518916823
 20
11.3523649688
 30
0.0
 10
14.5825619243
 20
11.2777650594
 30
0.0
 10
14.6150774094
 20
11.2085085753
 30
0.0
 10
14.6492995776
 20
11.1448908751
 30
0.0
 10
14.6850846347
 20
11.0871824242
 30
0.0
 10
14.7222873904
 20
11.0356263019
 30
0.0
 10
14.760756341
 20
10.9904445908
 30
0.0
 10
14.7943312612
 20
10.9576955424
 30
0.0
 10
14.8216889328
 20
10.9350594258
 30
0.0
 10
14.8483888668
 20
10.9154395707
 30
0.0
 10
14.8759440664
 20
10.8988197797
 30
0.0
 10
14.9041669186
 20
10.8856633131
 30
0.0
 10
14.9183167708
 20
10.8803013846
 30
0.0
 10
14.9253908142
 20
10.877933393
 30
0.0
  0
SPLINE
  5
2C1
100
AcDbEntity
  8
02___PRT_ALL_AXES
100
AcDbSpline
 62
7
  6
CONTINUOUS
 70
0
 71
3
 72
23
 73
19
 74
0
 42
0.0000001
 43
0.0000001
 44
0.0000000001
 40
0.0
 40
0.0
 40
0.0
 40
0.0
 40
0.0562749509
 40
0.1115107947
 40
0.166136571
 40
0.2205994652
 40
0.2753515433
 40
0.3308363865
 40
0.3874755588
 40
0.4456597298
 40
0.5057397616
 40
0.5680245365
 40
0.6327786216
 40
0.7002235334
 40
0.7705411368
 40
0.8438744268
 40
0.9203345856
 40
1.0
 40
1.0
 40
1.0
 40
1.0
 10
15.0033396268
 20
14.1697694859
 30
0.0
 10
15.0115488688
 20
14.1725175704
 30
0.0
 10
15.0280714013
 20
14.1772363474
 30
0.0
 10
15.053238346
 20
14.1819003768
 30
0.0
 10
15.0784663702
 20
14.1840597573
 30
0.0
 10
15.1037095616
 20
14.1837074938
 30
0.0
 10
15.1289250637
 20
14.1808464821
 30
0.0
 10
15.1540693771
 20
14.1754810798
 30
0.0
 10
15.1791017805
 20
14.1676259226
 30
0.0
 10
15.203982207
 20
14.1572951562
 30
0.0
 10
15.2286740553
 20
14.1445106672
 30
0.0
 10
15.2531410684
 20
14.1292942558
 30
0.0
 10
15.2773488486
 20
14.1116720154
 30
0.0
 10
15.3012638583
 20
14.0916723654
 30
0.0
 10
15.3248519073
 20
14.0693255771
 30
0.0
 10
15.3480812454
 20
14.0446662969
 30
0.0
 10
15.3709170688
 20
14.017730852
 30
0.0
 10
15.3855554095
 20
13.9986773541
 30
0.0
 10
15.3928086206
 20
13.9887989947
 30
0.0
  0
SPLINE
  5
2C2
100
AcDbEntity
  8
02___PRT_ALL_AXES
100
AcDbSpline
 62
7
  6
CONTINUOUS
 70
0
 71
3
 72
23
 73
19
 74
0
 42
0.0000001
 43
0.0000001
 44
0.0000000001
 40
0.0
 40
0.0
 40
0.0
 40
0.0
 40
0.0838346687
 40
0.1650436693
 40
0.2434895293
 40
0.3190804931
 40
0.3917410857
 40
0.4614081462
 40
0.528039855
 40
0.591620661
 40
0.6521628064
 40
0.7097098985
 40
0.7643437711
 40
0.8161881557
 40
0.8654171491
 40
0.9122586948
 40
0.95700246
 40
1.0
 40
1.0
 40
1.0
 40
1.0
 10
14.5059709811
 20
13.5344017649
 30
0.0
 10
14.5122713477
 20
13.5547897589
 30
0.0
 10
14.5252266704
 20
13.5947595876
 30
0.0
 10
14.5460753616
 20
13.6531353763
 30
0.0
 10
14.5679941229
 20
13.7088706059
 30
0.0
 10
14.5909295215
 20
13.7618332997
 30
0.0
 10
14.6148301069
 20
13.8119039268
 30
0.0
 10
14.6396409268
 20
13.8589684179
 30
0.0
 10
14.665305958
 20
13.9029182459
 30
0.0
 10
14.6917669667
 20
13.9436530296
 30
0.0
 10
14.7189645299
 20
13.9810802118
 30
0.0
 10
14.7468393688
 20
14.0151138853
 30
0.0
 10
14.7753297777
 20
14.0456767426
 30
0.0
 10
14.8043763207
 20
14.0726966959
 30
0.0
 10
14.8339157868
 20
14.0961106693
 30
0.0
 10
14.8638896314
 20
14.1158584784
 30
0.0
 10
14.8942270291
 20
14.1318870244
 30
0.0
 10
14.9150122703
 20
14.1402024115
 30
0.0
 10
14.9253908136
 20
14.1436766057
 30
0.0
  0
SPLINE
  5
2C3
100
AcDbEntity
  8
02___PRT_ALL_AXES
100
AcDbSpline
 62
7
  6
CONTINUOUS
 70
0
 71
3
 72
23
 73
19
 74
0
 42
0.0000001
 43
0.0000001
 44
0.0000000001
 40
0.0
 40
0.0
 40
0.0
 40
0.0
 40
0.0562966087
 40
0.1115545395
 40
0.1662017544
 40
0.2206845722
 40
0.2754542124
 40
0.3309530512
 40
0.387602523
 40
0.4457921403
 40
0.5058728611
 40
0.5681533257
 40
0.6328975613
 40
0.700328279
 40
0.7706258456
 40
0.8439355142
 40
0.9203666839
 40
1.0
 40
1.0
 40
1.0
 40
1.0
 10
15.0033396279
 20
10.8518405222
 30
0.0
 10
15.0115388969
 20
10.8490960013
 30
0.0
 10
15.0280409454
 20
10.8443819569
 30
0.0
 10
15.0531763318
 20
10.8397186743
 30
0.0
 10
15.07837281
 20
10.8375551588
 30
0.0
 10
15.1035845702
 20
10.8378949666
 30
0.0
 10
15.1287687442
 20
10.8407396933
 30
0.0
 10
15.153882582
 20
10.8460802474
 30
0.0
 10
15.1788846123
 20
10.8539064941
 30
0.0
 10
15.2037358774
 20
10.8642009312
 30
0.0
 10
15.2283991824
 20
10.876943936
 30
0.0
 10
15.2528385261
 20
10.8921131189
 30
0.0
 10
15.2770202739
 20
10.9096819287
 30
0.0
 10
15.3009094989
 20
10.9296237072
 30
0.0
 10
15.3244743547
 20
10.9519060896
 30
0.0
 10
15.347680523
 20
10.9764970559
 30
0.0
 10
15.3704960602
 20
11.0033581901
 30
0.0
 10
15.3851218417
 20
11.0223608162
 30
0.0
 10
15.3923690508
 20
11.0322130227
 30
0.0
  0
SPLINE
  5
2C4
100
AcDbEntity
  8
02___PRT_ALL_AXES
100
AcDbSpline
 62
7
  6
CONTINUOUS
 70
0
 71
3
 72
35
 73
31
 74
0
 42
0.0000001
 43
0.0000001
 44
0.0000000001
 40
0.0
 40
0.0
 40
0.0
 40
0.0
 40
0.0936669374
 40
0.1826004072
 40
0.266516869
 40
0.3065367107
 40
0.3452355858
 40
0.3826022311
 40
0.4186324758
 40
0.4533287949
 40
0.4867028444
 40
0.5187743405
 40
0.5495741543
 40
0.6075144221
 40
0.6348045675
 40
0.6610732059
 40
0.6864211497
 40
0.7109656591
 40
0.7348403903
 40
0.7581948238
 40
0.781191115
 40
0.8040014303
 40
0.826803023
 40
0.8497735063
 40
0.8730855249
 40
0.8969027494
 40
0.9213756351
 40
0.9466396311
 40
0.9728138235
 40
1.0
 40
1.0
 40
1.0
 40
1.0
 10
14.6519217568
 20
13.471600975
 30
0.0
 10
14.6610352433
 20
13.5010922282
 30
0.0
 10
14.680017944
 20
13.5582201354
 30
0.0
 10
14.7116589629
 20
13.6401875741
 30
0.0
 10
14.7403753971
 20
13.704236581
 30
0.0
 10
14.7645186984
 20
13.7520944883
 30
0.0
 10
14.7828424322
 20
13.7856839056
 30
0.0
 10
14.8016428607
 20
13.8174913065
 30
0.0
 10
14.8208937541
 20
13.8474730525
 30
0.0
 10
14.8405700269
 20
13.8755871291
 30
0.0
 10
14.8606428633
 20
13.9017947852
 30
0.0
 10
14.8810882336
 20
13.9260611546
 30
0.0
 10
14.9082493752
 20
13.9551833089
 30
0.0
 10
14.9365648655
 20
13.9810408438
 30
0.0
 10
14.9660144307
 20
14.0030541498
 30
0.0
 10
14.9878944794
 20
14.0171480988
 30
0.0
 10
15.0099750463
 20
14.0291327961
 30
0.0
 10
15.0322271778
 20
14.038989232
 30
0.0
 10
15.0546200773
 20
14.046698467
 30
0.0
 10
15.077120506
 20
14.0522481176
 30
0.0
 10
15.0996949579
 20
14.0556245763
 30
0.0
 10
15.1223074586
 20
14.0568221835
 30
0.0
 10
15.1449218397
 20
14.0558380248
 30
0.0
 10
15.1675014012
 20
14.0526731058
 30
0.0
 10
15.1900108965
 20
14.0473364386
 30
0.0
 10
15.2124154482
 20
14.039836495
 30
0.0
 10
15.2346828087
 20
14.0301895539
 30
0.0
 10
15.2567819024
 20
14.0184117847
 30
0.0
 10
15.2786811622
 20
14.0045230988
 30
0.0
 10
15.2928476363
 20
13.9940791509
 30
0.0
 10
15.2998861718
 20
13.9885363184
 30
0.0
  0
SPLINE
  5
2C5
100
AcDbEntity
  8
02___PRT_ALL_AXES
100
AcDbSpline
 62
7
  6
CONTINUOUS
 70
0
 71
3
 72
22
 73
18
 74
0
 42
0.0000001
 43
0.0000001
 44
0.0000000001
 40
0.0
 40
0.0
 40
0.0
 40
0.0
 40
0.0800358063
 40
0.1579512057
 40
0.2336440445
 40
0.3070429104
 40
0.3780911066
 40
0.4467383498
 40
0.5129422679
 40
0.5766754974
 40
0.6379253511
 40
0.6966954305
 40
0.7530073692
 40
0.8069033271
 40
0.8584495461
 40
0.9077379115
 40
1.0
 40
1.0
 40
1.0
 40
1.0
 10
14.5772176269
 20
13.5507584698
 30
0.0
 10
14.5827005169
 20
13.5685011084
 30
0.0
 10
14.5939335541
 20
13.6033906751
 30
0.0
 10
14.6118375645
 20
13.6545667432
 30
0.0
 10
14.6305467382
 20
13.7038109087
 30
0.0
 10
14.6500270748
 20
13.7510365239
 30
0.0
 10
14.6702470016
 20
13.7961654162
 30
0.0
 10
14.6911718644
 20
13.8391231778
 30
0.0
 10
14.7127675357
 20
13.8798370403
 30
0.0
 10
14.734997236
 20
13.9182385375
 30
0.0
 10
14.7578243278
 20
13.954263332
 30
0.0
 10
14.7812109416
 20
13.987851151
 30
0.0
 10
14.8051189295
 20
14.0189462653
 30
0.0
 10
14.8295085027
 20
14.0474950057
 30
0.0
 10
14.8543445638
 20
14.0734539171
 30
0.0
 10
14.8872607418
 20
14.1038693998
 30
0.0
 10
14.9135859396
 20
14.1237665327
 30
0.0
 10
14.9316757417
 20
14.1352134854
 30
0.0
  0
SPLINE
  5
2C6
100
AcDbEntity
  8
02___PRT_ALL_AXES
100
AcDbSpline
 62
7
  6
CONTINUOUS
 70
0
 71
3
 72
9
 73
5
 74
0
 42
0.0000001
 43
0.0000001
 44
0.0000000001
 40
0.0
 40
0.0
 40
0.0
 40
0.0
 40
0.5118900111
 40
1.0
 40
1.0
 40
1.0
 40
1.0
 10
14.9316757417
 20
14.1352134854
 30
0.0
 10
14.9431682283
 20
14.1424857567
 30
0.0
 10
14.9663945451
 20
14.1555169305
 30
0.0
 10
14.9910420542
 20
14.1656528123
 30
0.0
 10
15.0033396268
 20
14.1697694859
 30
0.0
  0
SPLINE
  5
2C7
100
AcDbEntity
  8
02___PRT_ALL_AXES
100
AcDbSpline
 62
7
  6
CONTINUOUS
 70
0
 71
3
 72
39
 73
35
 74
0
 42
0.0000001
 43
0.0000001
 44
0.0000000001
 40
0.0
 40
0.0
 40
0.0
 40
0.0
 40
0.031163063
 40
0.0634201113
 40
0.0966735489
 40
0.1308282206
 40
0.1657787729
 40
0.2014154228
 40
0.2376245738
 40
0.2742889479
 40
0.3112886097
 40
0.3485017337
 40
0.3858052676
 40
0.423075613
 40
0.460189388
 40
0.4970241119
 40
0.5334588599
 40
0.5693750806
 40
0.6046573183
 40
0.6391938891
 40
0.6728777548
 40
0.7056074834
 40
0.7372880233
 40
0.7678317031
 40
0.797159624
 40
0.8252028903
 40
0.8519040712
 40
0.8772192829
 40
0.9011207094
 40
0.9235993305
 40
0.9446686476
 40
0.9643695756
 40
0.9827758275
 40
1.0
 40
1.0
 40
1.0
 40
1.0
 10
14.5772176269
 20
13.5507584698
 30
0.0
 10
14.5686221903
 20
13.5229436267
 30
0.0
 10
14.5521704597
 20
13.4660113513
 30
0.0
 10
14.5300210321
 20
13.378441401
 30
0.0
 10
14.5100398985
 20
13.2874879484
 30
0.0
 10
14.4923050912
 20
13.1935095073
 30
0.0
 10
14.4768860986
 20
13.0968690206
 30
0.0
 10
14.4638431741
 20
12.9979437719
 30
0.0
 10
14.4532273701
 20
12.8971192016
 30
0.0
 10
14.4450806933
 20
12.7947881549
 30
0.0
 10
14.4394347689
 20
12.6913496843
 30
0.0
 10
14.4363116297
 20
12.5872071359
 30
0.0
 10
14.4357237752
 20
12.4827666215
 30
0.0
 10
14.4376735623
 20
12.3784354567
 30
0.0
 10
14.4421530548
 20
12.2746205076
 30
0.0
 10
14.4491447383
 20
12.1717266094
 30
0.0
 10
14.4586215272
 20
12.070154989
 30
0.0
 10
14.4705460095
 20
11.9703015767
 30
0.0
 10
14.4848713135
 20
11.872555486
 30
0.0
 10
14.5015415363
 20
11.7772975671
 30
0.0
 10
14.5204914905
 20
11.6848987576
 30
0.0
 10
14.541646676
 20
11.5957184822
 30
0.0
 10
14.5649243724
 20
11.5101034185
 30
0.0
 10
14.5902340435
 20
11.4283861076
 30
0.0
 10
14.6174768062
 20
11.3508832072
 30
0.0
 10
14.6465466666
 20
11.2778943419
 30
0.0
 10
14.6773314866
 20
11.2097011196
 30
0.0
 10
14.7097133596
 20
11.1465656729
 30
0.0
 10
14.743568963
 20
11.0887293518
 30
0.0
 10
14.7787721414
 20
11.0364122911
 30
0.0
 10
14.8151941182
 20
10.9898141802
 30
0.0
 10
14.8527087348
 20
10.9491112958
 30
0.0
 10
14.8911786354
 20
10.9144679013
 30
0.0
 10
14.9182164555
 20
10.8949049247
 30
0.0
 10
14.9318174305
 20
10.8863066516
 30
0.0
  0
SPLINE
  5
2C8
100
AcDbEntity
  8
02___PRT_ALL_AXES
100
AcDbSpline
 62
7
  6
CONTINUOUS
 70
0
 71
3
 72
9
 73
5
 74
0
 42
0.0000001
 43
0.0000001
 44
0.0000000001
 40
0.0
 40
0.0
 40
0.0
 40
0.0
 40
0.5118606999
 40
1.0
 40
1.0
 40
1.0
 40
1.0
 10
14.9318174305
 20
10.8863066516
 30
0.0
 10
14.9432882379
 20
10.8790550294
 30
0.0
 10
14.9664705733
 20
10.8660603622
 30
0.0
 10
14.9910670621
 20
10.8559484876
 30
0.0
 10
15.0033396279
 20
10.8518405222
 30
0.0
  0
SPLINE
  5
2C9
100
AcDbEntity
  8
02___PRT_ALL_AXES
100
AcDbSpline
 62
7
  6
CONTINUOUS
 70
0
 71
3
 72
52
 73
48
 74
0
 42
0.0000001
 43
0.0000001
 44
0.0000000001
 40
0.0
 40
0.0
 40
0.0
 40
0.0
 40
0.0350557657
 40
0.0716273768
 40
0.1095414199
 40
0.1486153375
 40
0.1886515224
 40
0.2294441506
 40
0.2707797666
 40
0.3124399318
 40
0.3542031892
 40
0.3958471474
 40
0.4371505179
 40
0.4778951554
 40
0.5178681406
 40
0.5568639282
 40
0.5946866129
 40
0.6311523883
 40
0.6660922178
 40
0.6993548711
 40
0.7308105171
 40
0.745828718
 40
0.7603586402
 40
0.7743921922
 40
0.7879239056
 40
0.8009506351
 40
0.8134726784
 40
0.8254932956
 40
0.837019861
 40
0.8480638773
 40
0.8586416284
 40
0.8687749746
 40
0.8784914204
 40
0.8878253211
 40
0.896817623
 40
0.9055165979
 40
0.9139773487
 40
0.9222612939
 40
0.9304350284
 40
0.9385684937
 40
0.9467329497
 40
0.954998675
 40
0.9634327632
 40
0.9720973931
 40
0.9810486124
 40
0.9903354273
 40
1.0
 40
1.0
 40
1.0
 40
1.0
 10
14.6519217568
 20
13.471600975
 30
0.0
 10
14.6418044412
 20
13.4388613299
 30
0.0
 10
14.6226968585
 20
13.3714749788
 30
0.0
 10
14.5978047505
 20
13.2673034869
 30
0.0
 10
14.5761900864
 20
13.1583961296
 30
0.0
 10
14.5579888069
 20
13.0454378445
 30
0.0
 10
14.5433162164
 20
12.9291320062
 30
0.0
 10
14.5322646156
 20
12.8102071301
 30
0.0
 10
14.5249040071
 20
12.6894072183
 30
0.0
 10
14.5212808744
 20
12.5674887546
 30
0.0
 10
14.5214180732
 20
12.4452152789
 30
0.0
 10
14.5253146962
 20
12.3233526141
 30
0.0
 10
14.5329461089
 20
12.2026639282
 30
0.0
 10
14.5442641075
 20
12.0839048683
 30
0.0
 10
14.5591972342
 20
11.9678187171
 30
0.0
 10
14.5776512468
 20
11.8551316348
 30
0.0
 10
14.5995097913
 20
11.7465478026
 30
0.0
 10
14.624635046
 20
11.6427451247
 30
0.0
 10
14.6528690577
 20
11.544369308
 30
0.0
 10
14.6840344717
 20
11.4520343185
 30
0.0
 10
14.7127134996
 20
11.379513233
 30
0.0
 10
14.7370561224
 20
11.3250678311
 30
0.0
 10
14.755637005
 20
11.2867238958
 30
0.0
 10
14.7747949302
 20
11.2502984753
 30
0.0
 10
14.7944993213
 20
11.215847591
 30
0.0
 10
14.8147212294
 20
11.1834255926
 30
0.0
 10
14.8354279675
 20
11.1530820275
 30
0.0
 10
14.8565892697
 20
11.1248647454
 30
0.0
 10
14.8781722419
 20
11.098817176
 30
0.0
 10
14.900144564
 20
11.0749799119
 30
0.0
 10
14.9224741304
 20
11.0533910053
 30
0.0
 10
14.9451267656
 20
11.034083615
 30
0.0
 10
14.9680707651
 20
11.0170908816
 30
0.0
 10
14.9912708785
 20
11.0024396223
 30
0.0
 10
15.0146939179
 20
10.9901575606
 30
0.0
 10
15.0383035002
 20
10.9802670502
 30
0.0
 10
15.0620625243
 20
10.9727886188
 30
0.0
 10
15.0859316687
 20
10.9677400951
 30
0.0
 10
15.1098689527
 20
10.9651316768
 30
0.0
 10
15.1338312327
 20
10.9649727775
 30
0.0
 10
15.1577743685
 20
10.9672609119
 30
0.0
 10
15.1816546728
 20
10.9719926546
 30
0.0
 10
15.2054303863
 20
10.9791548942
 30
0.0
 10
15.2290617212
 20
10.9887317213
 30
0.0
 10
15.2525109416
 20
11.0007040516
 30
0.0
 10
15.275741864
 20
11.0150463331
 30
0.0
 10
15.2907456793
 20
11.0259440576
 30
0.0
 10
15.2981974234
 20
11.0317510214
 30
0.0
  0
SPLINE
  5
2CA
100
AcDbEntity
  8
02___PRT_ALL_AXES
100
AcDbSpline
 62
7
  6
CONTINUOUS
 70
0
 71
3
 72
23
 73
19
 74
0
 42
0.0000001
 43
0.0000001
 44
0.0000000001
 40
0.0
 40
0.0
 40
0.0
 40
0.0
 40
0.0426285774
 40
0.0859998629
 40
0.1308108304
 40
0.1776770664
 40
0.2271131305
 40
0.2795289354
 40
0.335232959
 40
0.3944462074
 40
0.4573098827
 40
0.5239019816
 40
0.5942437678
 40
0.6683089634
 40
0.7460288179
 40
0.8273093295
 40
0.912029545
 40
1.0
 40
1.0
 40
1.0
 40
1.0
 10
15.9017084832
 20
13.7848049311
 30
0.0
 10
15.8923869225
 20
13.7848047646
 30
0.0
 10
15.8735540279
 20
13.7834327465
 30
0.0
 10
15.845526127
 20
13.7772918433
 30
0.0
 10
15.8177182205
 20
13.7671019138
 30
0.0
 10
15.7902320057
 20
13.7529191655
 30
0.0
 10
15.7631466527
 20
13.7348093862
 30
0.0
 10
15.7365396085
 20
13.7128411574
 30
0.0
 10
15.7104819827
 20
13.6870921894
 30
0.0
 10
15.6850487156
 20
13.6576438663
 30
0.0
 10
15.6603105015
 20
13.6245902444
 30
0.0
 10
15.6363419315
 20
13.5880323938
 30
0.0
 10
15.6132138732
 20
13.5480841612
 30
0.0
 10
15.5909978457
 20
13.5048697195
 30
0.0
 10
15.5697617328
 20
13.4585233234
 30
0.0
 10
15.5495709128
 20
13.4091868439
 30
0.0
 10
15.5304918652
 20
13.3570188043
 30
0.0
 10
15.5187646525
 20
13.3211149852
 30
0.0
 10
15.5130851451
 20
13.3027360925
 30
0.0
  0
SPLINE
  5
2CB
100
AcDbEntity
  8
02___PRT_ALL_AXES
100
AcDbSpline
 62
7
  6
CONTINUOUS
 70
0
 71
3
 72
28
 73
24
 74
0
 42
0.0000001
 43
0.0000001
 44
0.0000000001
 40
0.0
 40
0.0
 40
0.0
 40
0.0
 40
0.022910253
 40
0.0454449955
 40
0.0677236623
 40
0.0898711362
 40
0.112014933
 40
0.1342827335
 40
0.1567994808
 40
0.1796851489
 40
0.2030525826
 40
0.2270056094
 40
0.2770098096
 40
0.3303593094
 40
0.3875243486
 40
0.4488308955
 40
0.5144813152
 40
0.5845749623
 40
0.6591273658
 40
0.7380837637
 40
0.8213278067
 40
0.9087067175
 40
1.0
 40
1.0
 40
1.0
 40
1.0
 10
15.938885309
 20
14.1697694636
 30
0.0
 10
15.9320257376
 20
14.1720655509
 30
0.0
 10
15.9182420594
 20
14.1761124231
 30
0.0
 10
15.8972942456
 20
14.1805113924
 30
0.0
 10
15.8762963145
 20
14.1831729189
 30
0.0
 10
15.8552739071
 20
14.1840938214
 30
0.0
 10
15.8342506517
 20
14.1832729707
 30
0.0
 10
15.8132510369
 20
14.1807101849
 30
0.0
 10
15.7922986897
 20
14.1764109142
 30
0.0
 10
15.7714172116
 20
14.1703803384
 30
0.0
 10
15.7506287771
 20
14.1626259089
 30
0.0
 10
15.7226686339
 20
14.1498230281
 30
0.0
 10
15.6879593043
 20
14.1293031315
 30
0.0
 10
15.6476957192
 20
14.0983511867
 30
0.0
 10
15.6083531092
 20
14.0608686707
 30
0.0
 10
15.5700762135
 20
14.0170201712
 30
0.0
 10
15.5330013881
 20
13.9669848006
 30
0.0
 10
15.4972686419
 20
13.9109647309
 30
0.0
 10
15.4630168901
 20
13.8491849878
 30
0.0
 10
15.4303831708
 20
13.7818956127
 30
0.0
 10
15.3994971506
 20
13.7093677427
 30
0.0
 10
15.3704879427
 20
13.631900463
 30
0.0
 10
15.3528476768
 20
13.5782983043
 30
0.0
 10
15.3443372243
 20
13.5507584698
 30
0.0
  0
SPLINE
  5
2CC
100
AcDbEntity
  8
02___PRT_ALL_AXES
100
AcDbSpline
 62
7
  6
CONTINUOUS
 70
0
 71
3
 72
23
 73
19
 74
0
 42
0.0000001
 43
0.0000001
 44
0.0000000001
 40
0.0
 40
0.0
 40
0.0
 40
0.0
 40
0.0838346687
 40
0.1650436693
 40
0.2434895293
 40
0.3190804931
 40
0.3917410857
 40
0.4614081462
 40
0.528039855
 40
0.591620661
 40
0.6521628064
 40
0.7097098985
 40
0.7643437711
 40
0.8161881557
 40
0.8654171491
 40
0.9122586948
 40
0.95700246
 40
1.0
 40
1.0
 40
1.0
 40
1.0
 10
16.4362539559
 20
11.4872082209
 30
0.0
 10
16.4299535892
 20
11.4668202269
 30
0.0
 10
16.4169982666
 20
11.4268503982
 30
0.0
 10
16.3961495753
 20
11.3684746095
 30
0.0
 10
16.3742308141
 20
11.3127393799
 30
0.0
 10
16.3512954155
 20
11.2597766862
 30
0.0
 10
16.32739483
 20
11.209706059
 30
0.0
 10
16.3025840101
 20
11.1626415679
 30
0.0
 10
16.276918979
 20
11.1186917399
 30
0.0
 10
16.2504579702
 20
11.0779569562
 30
0.0
 10
16.223260407
 20
11.0405297741
 30
0.0
 10
16.1953855681
 20
11.0064961005
 30
0.0
 10
16.1668951592
 20
10.9759332433
 30
0.0
 10
16.1378486162
 20
10.9489132899
 30
0.0
 10
16.1083091502
 20
10.9254993165
 30
0.0
 10
16.0783353056
 20
10.9057515075
 30
0.0
 10
16.0479979078
 20
10.8897229614
 30
0.0
 10
16.0272126666
 20
10.8814075743
 30
0.0
 10
16.0168341234
 20
10.8779333801
 30
0.0
  0
SPLINE
  5
2CD
100
AcDbEntity
  8
02___PRT_ALL_AXES
100
AcDbSpline
 62
7
  6
CONTINUOUS
 70
0
 71
3
 72
41
 73
37
 74
0
 42
0.0000001
 43
0.0000001
 44
0.0000000001
 40
0.0
 40
0.0
 40
0.0
 40
0.0
 40
0.032027984
 40
0.06523626
 40
0.0995132372
 40
0.1347486352
 40
0.1708206164
 40
0.2076023662
 40
0.2449624806
 40
0.2827655305
 40
0.3208732439
 40
0.3591453853
 40
0.3974407022
 40
0.4356177718
 40
0.4735359112
 40
0.5110561355
 40
0.5480420174
 40
0.5843605871
 40
0.6198834288
 40
0.654487665
 40
0.688056953
 40
0.7204826993
 40
0.7516655555
 40
0.7815167724
 40
0.8099598848
 40
0.8369329594
 40
0.8623913221
 40
0.8863106089
 40
0.9086908683
 40
0.9295620004
 40
0.9489902115
 40
0.9581991841
 40
0.9670929312
 40
0.9840167973
 40
0.9921110624
 40
1.0
 40
1.0
 40
1.0
 40
1.0
 10
16.4362539559
 20
11.4872082209
 30
0.0
 10
16.4451958116
 20
11.5161440767
 30
0.0
 10
16.4622639355
 20
11.5754411193
 30
0.0
 10
16.4850896369
 20
11.666749072
 30
0.0
 10
16.5055268615
 20
11.7617256713
 30
0.0
 10
16.5234868291
 20
11.8599540753
 30
0.0
 10
16.5388907181
 20
11.961011256
 30
0.0
 10
16.5516715084
 20
12.0644574504
 30
0.0
 10
16.5617734681
 20
12.1698434427
 30
0.0
 10
16.5691521082
 20
12.2767114758
 30
0.0
 10
16.5737751643
 20
12.384597054
 30
0.0
 10
16.5756226827
 20
12.4930312378
 30
0.0
 10
16.5746865682
 20
12.6015426863
 30
0.0
 10
16.5709706269
 20
12.7096596973
 30
0.0
 10
16.56449122
 20
12.8169123157
 30
0.0
 10
16.5552768809
 20
12.9228344365
 30
0.0
 10
16.5433678452
 20
13.0269657944
 30
0.0
 10
16.5288158627
 20
13.1288539904
 30
0.0
 10
16.511684769
 20
13.228056661
 30
0.0
 10
16.49204953
 20
13.3241433877
 30
0.0
 10
16.4699957447
 20
13.4166974877
 30
0.0
 10
16.4456193027
 20
13.5053179916
 30
0.0
 10
16.4190266301
 20
13.5896217587
 30
0.0
 10
16.3903332547
 20
13.669245017
 30
0.0
 10
16.3596630126
 20
13.7438449264
 30
0.0
 10
16.3271475276
 20
13.8131014105
 30
0.0
 10
16.2929253593
 20
13.8767191107
 30
0.0
 10
16.2571403022
 20
13.9344275616
 30
0.0
 10
16.2199375466
 20
13.9859836839
 30
0.0
 10
16.1814685959
 20
14.031165395
 30
0.0
 10
16.1478936757
 20
14.0639144434
 30
0.0
 10
16.1205360042
 20
14.08655056
 30
0.0
 10
16.0938360702
 20
14.1061704151
 30
0.0
 10
16.0662808706
 20
14.1227902061
 30
0.0
 10
16.0380580184
 20
14.1359466727
 30
0.0
 10
16.0239081662
 20
14.1413086012
 30
0.0
 10
16.0168341227
 20
14.1436765928
 30
0.0
  0
SPLINE
  5
2CE
100
AcDbEntity
  8
02___PRT_ALL_AXES
100
AcDbSpline
 62
7
  6
CONTINUOUS
 70
0
 71
3
 72
44
 73
40
 74
0
 42
0.0000001
 43
0.0000001
 44
0.0000000001
 40
0.0
 40
0.0
 40
0.0
 40
0.0
 40
0.0085315394
 40
0.0169290523
 40
0.0252318543
 40
0.0334808999
 40
0.041718198
 40
0.0499859467
 40
0.0583258075
 40
0.0667780841
 40
0.0753810712
 40
0.0841706707
 40
0.1024289762
 40
0.1217893181
 40
0.1424264079
 40
0.1644677098
 40
0.1879993727
 40
0.213072153
 40
0.2397073729
 40
0.2679019876
 40
0.2976322336
 40
0.3288568489
 40
0.361519964
 40
0.3955529809
 40
0.4308761302
 40
0.4674002691
 40
0.5050280322
 40
0.5436546838
 40
0.583169372
 40
0.6234560212
 40
0.6643939686
 40
0.7058588999
 40
0.747723653
 40
0.7898588251
 40
0.8321335572
 40
0.8744162828
 40
0.9165753444
 40
0.9584797709
 40
1.0
 40
1.0
 40
1.0
 40
1.0
 10
15.9388853101
 20
10.8518404999
 30
0.0
 10
15.932422263
 20
10.8496769628
 30
0.0
 10
15.9194408462
 20
10.8458349336
 30
0.0
 10
15.8997255321
 20
10.8415530867
 30
0.0
 10
15.8799641721
 20
10.8388090525
 30
0.0
 10
15.8601774726
 20
10.8376079334
 30
0.0
 10
15.8403851962
 20
10.837950756
 30
0.0
 10
15.8206073101
 20
10.8398362288
 30
0.0
 10
15.8008637246
 20
10.8432634426
 30
0.0
 10
15.781174095
 20
10.8482272491
 30
0.0
 10
15.7615565514
 20
10.8547217221
 30
0.0
 10
15.735192831
 20
10.8655477939
 30
0.0
 10
15.7024022049
 20
10.883082637
 30
0.0
 10
15.6642017007
 20
10.9098280242
 30
0.0
 10
15.6267595915
 20
10.9424229281
 30
0.0
 10
15.5901991727
 20
10.98073658
 30
0.0
 10
15.55463619
 20
11.0246280565
 30
0.0
 10
15.5201888546
 20
11.073938573
 30
0.0
 10
15.4869745185
 20
11.1284915297
 30
0.0
 10
15.4551098809
 20
11.1880917887
 30
0.0
 10
15.4247082795
 20
11.2525250128
 30
0.0
 10
15.395878711
 20
11.3215583717
 30
0.0
 10
15.3687259893
 20
11.3949419129
 30
0.0
 10
15.343349382
 20
11.4724090929
 30
0.0
 10
15.3198412701
 20
11.5536776177
 30
0.0
 10
15.2982879434
 20
11.6384510639
 30
0.0
 10
15.2787689841
 20
11.7264198941
 30
0.0
 10
15.2613557892
 20
11.8172623626
 30
0.0
 10
15.2461123387
 20
11.9106460481
 30
0.0
 10
15.2330951455
 20
12.0062291441
 30
0.0
 10
15.2223519894
 20
12.1036615348
 30
0.0
 10
15.2139221837
 20
12.2025862078
 30
0.0
 10
15.207837071
 20
12.3026406761
 30
0.0
 10
15.2041191678
 20
12.4034582193
 30
0.0
 10
15.2027818046
 20
12.5046692794
 30
0.0
 10
15.2038300442
 20
12.6059027835
 30
0.0
 10
15.2072603464
 20
12.7067878442
 30
0.0
 10
15.2130596416
 20
12.8069538575
 30
0.0
 10
15.2185217228
 20
12.873382736
 30
0.0
 10
15.2216511643
 20
12.9064038976
 30
0.0
  0
SPLINE
  5
2CF
100
AcDbEntity
  8
02___PRT_ALL_AXES
100
AcDbSpline
 62
7
  6
CONTINUOUS
 70
0
 71
3
 72
11
 73
7
 74
0
 42
0.0000001
 43
0.0000001
 44
0.0000000001
 40
0.0
 40
0.0
 40
0.0
 40
0.0
 40
0.2631485788
 40
0.518395475
 40
0.7644213308
 40
1.0
 40
1.0
 40
1.0
 40
1.0
 10
15.2413706012
 20
13.0752199433
 30
0.0
 10
15.2472756299
 20
13.1175314708
 30
0.0
 10
15.2603543096
 20
13.2006909357
 30
0.0
 10
15.2841703139
 20
13.322516626
 30
0.0
 10
15.311761602
 20
13.4389501172
 30
0.0
 10
15.3330452874
 20
13.5142177489
 30
0.0
 10
15.3443372243
 20
13.5507584698
 30
0.0
  0
SPLINE
  5
2D0
100
AcDbEntity
  8
02___PRT_ALL_AXES
100
AcDbSpline
 62
7
  6
CONTINUOUS
 70
0
 71
3
 72
42
 73
38
 74
0
 42
0.0000001
 43
0.0000001
 44
0.0000000001
 40
0.0
 40
0.0
 40
0.0
 40
0.0
 40
0.0076948283
 40
0.0154421525
 40
0.0232931042
 40
0.0312964561
 40
0.0394974252
 40
0.047937093
 40
0.0656647145
 40
0.0847293059
 40
0.1052990337
 40
0.1274817474
 40
0.1513348245
 40
0.1768750017
 40
0.2040861688
 40
0.2329248097
 40
0.263324973
 40
0.2952022383
 40
0.3284561855
 40
0.3629728208
 40
0.39862698
 40
0.435283777
 40
0.4728000304
 40
0.5110260483
 40
0.5498067804
 40
0.5889829482
 40
0.6283925136
 40
0.6678717444
 40
0.7072563481
 40
0.7463828201
 40
0.7850894123
 40
0.8232173457
 40
0.8606126629
 40
0.8971260794
 40
0.9326147944
 40
0.9669503637
 40
1.0
 40
1.0
 40
1.0
 40
1.0
 10
15.9017084832
 20
11.2368050548
 30
0.0
 10
15.895911645
 20
11.2368049513
 30
0.0
 10
15.8842717014
 20
11.2373303602
 30
0.0
 10
15.8668612892
 20
11.2396898784
 30
0.0
 10
15.8494971611
 20
11.2436165573
 30
0.0
 10
15.8322048187
 20
11.24910537
 30
0.0
 10
15.8150050953
 20
11.2561465008
 30
0.0
 10
15.7918491478
 20
11.2677772639
 30
0.0
 10
15.7631705379
 20
11.2863947473
 30
0.0
 10
15.7300922574
 20
11.3143453025
 30
0.0
 10
15.6979114163
 20
11.3481153315
 30
0.0
 10
15.6667670902
 20
11.3875344148
 30
0.0
 10
15.6367904523
 20
11.4324146064
 30
0.0
 10
15.6081169921
 20
11.4825428713
 30
0.0
 10
15.5808805652
 20
11.5376812672
 30
0.0
 10
15.5552102825
 20
11.597565614
 30
0.0
 10
15.5312293654
 20
11.6619074372
 30
0.0
 10
15.5090548494
 20
11.7303957733
 30
0.0
 10
15.4887950988
 20
11.802698196
 30
0.0
 10
15.4705488603
 20
11.8784626903
 30
0.0
 10
15.454406073
 20
11.9573200045
 30
0.0
 10
15.4404465034
 20
12.0388852627
 30
0.0
 10
15.4287382706
 20
12.1227597848
 30
0.0
 10
15.4193391319
 20
12.208533469
 30
0.0
 10
15.4122959348
 20
12.2957867672
 30
0.0
 10
15.4076428813
 20
12.3840926316
 30
0.0
 10
15.4054027822
 20
12.4730188062
 30
0.0
 10
15.4055872319
 20
12.5621299678
 30
0.0
 10
15.4081950429
 20
12.6509898701
 30
0.0
 10
15.4132130529
 20
12.7391635159
 30
0.0
 10
15.4206169879
 20
12.8262192285
 30
0.0
 10
15.4303703098
 20
12.9117311663
 30
0.0
 10
15.4424247188
 20
12.9952809596
 30
0.0
 10
15.4567208151
 20
13.0764592601
 30
0.0
 10
15.4731886546
 20
13.1548727925
 30
0.0
 10
15.4917473579
 20
13.2301331991
 30
0.0
 10
15.5057341697
 20
13.2789483274
 30
0.0
 10
15.5130851451
 20
13.3027360925
 30
0.0
  0
SPLINE
  5
2D1
100
AcDbEntity
  8
02___PRT_ALL_AXES
100
AcDbSpline
 62
7
  6
CONTINUOUS
 70
0
 71
3
 72
26
 73
22
 74
0
 42
0.0000001
 43
0.0000001
 44
0.0000000001
 40
0.0
 40
0.0
 40
0.0
 40
0.0
 40
0.0500208888
 40
0.0989648537
 40
0.1232734283
 40
0.1475886212
 40
0.1720041043
 40
0.1966120536
 40
0.2215021509
 40
0.2467602331
 40
0.2986763442
 40
0.3529683755
 40
0.4101212002
 40
0.4705224286
 40
0.5344674046
 40
0.6021687992
 40
0.6737687529
 40
0.7493460369
 40
0.8289286996
 40
0.9124993462
 40
1.0
 40
1.0
 40
1.0
 40
1.0
 10
16.0168341227
 20
14.1436765928
 30
0.0
 10
16.0058629413
 20
14.1473491268
 30
0.0
 10
15.9836862972
 20
14.1532999307
 30
0.0
 10
15.9553279596
 20
14.1570233981
 30
0.0
 10
15.9327558021
 20
14.157678918
 30
0.0
 10
15.9158615158
 20
14.1570267551
 30
0.0
 10
15.8989812734
 20
14.1552320609
 30
0.0
 10
15.8821268127
 20
14.1522970994
 30
0.0
 10
15.865310255
 20
14.1482230845
 30
0.0
 10
15.8427533821
 20
14.1412156012
 30
0.0
 10
15.8146072778
 20
14.1295019987
 30
0.0
 10
15.7815328828
 20
14.1110864408
 30
0.0
 10
15.7489226317
 20
14.0882511147
 30
0.0
 10
15.7168617857
 20
14.0610694681
 30
0.0
 10
15.6854276662
 20
14.0296217209
 30
0.0
 10
15.6546979505
 20
13.9939968677
 30
0.0
 10
15.6247519256
 20
13.9542916587
 30
0.0
 10
15.5956657636
 20
13.910615102
 30
0.0
 10
15.5675172637
 20
13.863084514
 30
0.0
 10
15.5403818061
 20
13.8118304794
 30
0.0
 10
15.5233987071
 20
13.7760780012
 30
0.0
 10
15.5150720965
 20
13.7576318565
 30
0.0
  0
SPLINE
  5
2D2
100
AcDbEntity
  8
02___PRT_ALL_AXES
100
AcDbSpline
 62
7
  6
CONTINUOUS
 70
0
 71
3
 72
11
 73
7
 74
0
 42
0.0000001
 43
0.0000001
 44
0.0000000001
 40
0.0
 40
0.0
 40
0.0
 40
0.0
 40
0.2373400336
 40
0.4833267945
 40
0.7376840857
 40
1.0
 40
1.0
 40
1.0
 40
1.0
 10
15.5144873002
 20
13.7563347635
 30
0.0
 10
15.5067876484
 20
13.7392359246
 30
0.0
 10
15.4917333593
 20
13.7041307657
 30
0.0
 10
15.4705262404
 20
13.6498307813
 30
0.0
 10
15.4503302927
 20
13.5930483142
 30
0.0
 10
15.4377565278
 20
13.5542036578
 30
0.0
 10
15.43163728
 20
13.5344017649
 30
0.0
  0
SPLINE
  5
2D3
100
AcDbEntity
  8
02___PRT_ALL_AXES
100
AcDbSpline
 62
7
  6
CONTINUOUS
 70
0
 71
3
 72
52
 73
48
 74
0
 42
0.0000001
 43
0.0000001
 44
0.0000000001
 40
0.0
 40
0.0
 40
0.0
 40
0.0
 40
0.0350422461
 40
0.0715984717
 40
0.1094956603
 40
0.1485517311
 40
0.1885695661
 40
0.2293438585
 40
0.2706616827
 40
0.3123051331
 40
0.3540532826
 40
0.3956842568
 40
0.4369772629
 40
0.47771462
 40
0.5176838328
 40
0.5566797292
 40
0.5945067163
 40
0.6309812275
 40
0.6659343732
 40
0.6992149593
 40
0.7306930536
 40
0.7457240785
 40
0.7602678446
 40
0.77431617
 40
0.7878635148
 40
0.8009066182
 40
0.8134456414
 40
0.8254836989
 40
0.83702795
 40
0.8480896937
 40
0.8586849199
 40
0.8688351927
 40
0.8785676476
 40
0.887916232
 40
0.8969214584
 40
0.9056311123
 40
0.9140998378
 40
0.9223885906
 40
0.9305635851
 40
0.9386944614
 40
0.9468523059
 40
0.955107344
 40
0.9635267564
 40
0.9721728914
 40
0.9811020738
 40
0.9903636093
 40
1.0
 40
1.0
 40
1.0
 40
1.0
 10
16.3690956765
 20
11.5583700317
 30
0.0
 10
16.3791148685
 20
11.5907921487
 30
0.0
 10
16.3980383403
 20
11.6575232641
 30
0.0
 10
16.4226944854
 20
11.7606795911
 30
0.0
 10
16.4441083388
 20
11.8685226941
 30
0.0
 10
16.4621454962
 20
11.9803756377
 30
0.0
 10
16.4766919151
 20
12.0955433097
 30
0.0
 10
16.4876562695
 20
12.2133057326
 30
0.0
 10
16.4949692452
 20
12.3329276227
 30
0.0
 10
16.4985847516
 20
12.4536613413
 30
0.0
 10
16.4984800301
 20
12.5747522502
 30
0.0
 10
16.4946557797
 20
12.6954434206
 30
0.0
 10
16.4871361295
 20
12.8149805011
 30
0.0
 10
16.4759684823
 20
12.932616519
 30
0.0
 10
16.4612232064
 20
13.0476166563
 30
0.0
 10
16.4429931715
 20
13.1592629456
 30
0.0
 10
16.4213930974
 20
13.266859065
 30
0.0
 10
16.396558916
 20
13.3697345778
 30
0.0
 10
16.3686464509
 20
13.4672507679
 30
0.0
 10
16.3378306885
 20
13.5588001943
 30
0.0
 10
16.3094703751
 20
13.6307211221
 30
0.0
 10
16.2853958642
 20
13.6847297658
 30
0.0
 10
16.2670175476
 20
13.7227752532
 30
0.0
 10
16.2480671291
 20
13.7589248957
 30
0.0
 10
16.2285749037
 20
13.7931232354
 30
0.0
 10
16.2085694187
 20
13.8253164186
 30
0.0
 10
16.1880829169
 20
13.8554553078
 30
0.0
 10
16.1671454123
 20
13.8834925496
 30
0.0
 10
16.1457892248
 20
13.9093849586
 30
0.0
 10
16.1240464879
 20
13.9330924124
 30
0.0
 10
16.1019487381
 20
13.9545770177
 30
0.0
 10
16.0795298833
 20
13.973805967
 30
0.0
 10
16.0568211896
 20
13.9907463468
 30
0.0
 10
16.0338574465
 20
14.0053714493
 30
0.0
 10
16.010671518
 20
14.0176539457
 30
0.0
 10
15.9872991474
 20
14.0275713224
 30
0.0
 10
15.9637770571
 20
14.0351034753
 30
0.0
 10
15.9401438618
 20
14.0402322507
 30
0.0
 10
15.9164410275
 20
14.042947559
 30
0.0
 10
15.8927110564
 20
14.0432396776
 30
0.0
 10
15.8689976035
 20
14.0411106354
 30
0.0
 10
15.8453438338
 20
14.0365637247
 30
0.0
 10
15.8217912243
 20
14.0296112266
 30
0.0
 10
15.7983790918
 20
14.0202690227
 30
0.0
 10
15.7751449934
 20
14.0085553894
 30
0.0
 10
15.7521246863
 20
13.9944956817
 30
0.0
 10
15.7372540362
 20
13.9837968331
 30
0.0
 10
15.7298682988
 20
13.9780928996
 30
0.0
  0
SPLINE
  5
2D4
100
AcDbEntity
  8
02___PRT_ALL_AXES
100
AcDbSpline
 62
7
  6
CONTINUOUS
 70
0
 71
3
 72
11
 73
7
 74
0
 42
0.0000001
 43
0.0000001
 44
0.0000000001
 40
0.0
 40
0.0
 40
0.0
 40
0.0
 40
0.2329182298
 40
0.4768539199
 40
0.7324006286
 40
1.0
 40
1.0
 40
1.0
 40
1.0
 10
15.7298682988
 20
13.9780928996
 30
0.0
 10
15.7215437541
 20
13.9716639343
 30
0.0
 10
15.7049997886
 20
13.9578457412
 30
0.0
 10
15.6811070142
 20
13.9349447911
 30
0.0
 10
15.657623784
 20
13.9094530073
 30
0.0
 10
15.6426195473
 20
13.8911881611
 30
0.0
 10
15.6351874807
 20
13.8816596825
 30
0.0
  0
SPLINE
  5
2D5
100
AcDbEntity
  8
02___PRT_ALL_AXES
100
AcDbSpline
 62
7
  6
CONTINUOUS
 70
0
 71
3
 72
11
 73
7
 74
0
 42
0.0000001
 43
0.0000001
 44
0.0000000001
 40
0.0
 40
0.0
 40
0.0
 40
0.0
 40
0.231405834
 40
0.4751960148
 40
0.7314191458
 40
1.0
 40
1.0
 40
1.0
 40
1.0
 10
15.6351874807
 20
13.8816596825
 30
0.0
 10
15.6258239017
 20
13.8696548569
 30
0.0
 10
15.6073766022
 20
13.8443862364
 30
0.0
 10
15.5812001978
 20
13.8039817284
 30
0.0
 10
15.5558644054
 20
13.7601969476
 30
0.0
 10
15.5399490334
 20
13.7295413212
 30
0.0
 10
15.5321281274
 20
13.7136957468
 30
0.0
  0
SPLINE
  5
2D6
100
AcDbEntity
  8
02___PRT_ALL_AXES
100
AcDbSpline
 62
7
  6
CONTINUOUS
 70
0
 71
3
 72
11
 73
7
 74
0
 42
0.0000001
 43
0.0000001
 44
0.0000000001
 40
0.0
 40
0.0
 40
0.0
 40
0.0
 40
0.2372354866
 40
0.4831227901
 40
0.7374584748
 40
1.0
 40
1.0
 40
1.0
 40
1.0
 10
15.5321281274
 20
13.7136957468
 30
0.0
 10
15.5251486119
 20
13.6995548746
 30
0.0
 10
15.5114581177
 20
13.6704967217
 30
0.0
 10
15.492046258
 20
13.6254750175
 30
0.0
 10
15.4734196824
 20
13.5783099088
 30
0.0
 10
15.4617307398
 20
13.5459958881
 30
0.0
 10
15.456015418
 20
13.5295066244
 30
0.0
  0
SPLINE
  5
2D7
100
AcDbEntity
  8
02___PRT_ALL_AXES
100
AcDbSpline
 62
7
  6
CONTINUOUS
 70
0
 71
3
 72
35
 73
31
 74
0
 42
0.0000001
 43
0.0000001
 44
0.0000000001
 40
0.0
 40
0.0
 40
0.0
 40
0.0
 40
0.0939361392
 40
0.1828493055
 40
0.2253267664
 40
0.2664441977
 40
0.3061779223
 40
0.3445096347
 40
0.3814303457
 40
0.4169383349
 40
0.4510415147
 40
0.4837577538
 40
0.5151161245
 40
0.5451595448
 40
0.573944382
 40
0.6015441921
 40
0.6535294712
 40
0.6781937135
 40
0.7021504609
 40
0.7255665147
 40
0.7486234105
 40
0.7715138275
 40
0.7944355016
 40
0.8175852608
 40
0.8411527185
 40
0.8653154204
 40
0.8902341869
 40
0.9160518814
 40
0.9428910977
 40
1.0
 40
1.0
 40
1.0
 40
1.0
 10
16.3690956765
 20
11.5583700317
 30
0.0
 10
16.3595968156
 20
11.5276317067
 30
0.0
 10
16.3397767882
 20
11.468198137
 30
0.0
 10
16.3116957755
 20
11.3962725972
 30
0.0
 10
16.287851465
 20
11.3422064074
 30
0.0
 10
16.2696415564
 20
11.3040862002
 30
0.0
 10
16.2508620807
 20
11.2678346629
 30
0.0
 10
16.2315400586
 20
11.2335086572
 30
0.0
 10
16.2117066781
 20
11.2011605017
 30
0.0
 10
16.1913910128
 20
11.1708402339
 30
0.0
 10
16.1706242001
 20
11.1425941314
 30
0.0
 10
16.1494377701
 20
11.1164654164
 30
0.0
 10
16.1278619665
 20
11.0924949395
 30
0.0
 10
16.1059312873
 20
11.0707193314
 30
0.0
 10
16.0836720305
 20
11.0511717655
 30
0.0
 10
16.0542039252
 20
11.0285783515
 30
0.0
 10
16.0235699205
 20
11.0098973469
 30
0.0
 10
15.9920586143
 20
10.9958637648
 30
0.0
 10
15.9686759481
 20
10.9878789711
 30
0.0
 10
15.9451769251
 20
10.9822698727
 30
0.0
 10
15.9215994224
 20
10.9790513831
 30
0.0
 10
15.8979861057
 20
10.9782293375
 30
0.0
 10
15.8743794617
 20
10.9798073353
 30
0.0
 10
15.8508223147
 20
10.9837809825
 30
0.0
 10
15.8273556704
 20
10.9901397141
 30
0.0
 10
15.8040194402
 20
10.9988708499
 30
0.0
 10
15.7808502532
 20
11.0099533509
 30
0.0
 10
15.7578830657
 20
11.023369024
 30
0.0
 10
15.7269417586
 20
11.0447700729
 30
0.0
 10
15.7051098254
 20
11.0636467694
 30
0.0
 10
15.6910628544
 20
11.0772575964
 30
0.0
  0
SPLINE
  5
2D8
100
AcDbEntity
  8
02___PRT_ALL_AXES
100
AcDbSpline
 62
7
  6
CONTINUOUS
 70
0
 71
3
 72
15
 73
11
 74
0
 42
0.0000001
 43
0.0000001
 44
0.0000000001
 40
0.0
 40
0.0
 40
0.0
 40
0.0
 40
0.1051994284
 40
0.2158812676
 40
0.332210279
 40
0.4542838547
 40
0.5821375222
 40
0.7157560682
 40
0.8550772407
 40
1.0
 40
1.0
 40
1.0
 40
1.0
 10
15.6902591449
 20
11.0780380493
 30
0.0
 10
15.6813050114
 20
11.0867520042
 30
0.0
 10
15.6635737405
 20
11.1053044723
 30
0.0
 10
15.638171548
 20
11.1355250774
 30
0.0
 10
15.6133537322
 20
11.1687634239
 30
0.0
 10
15.5891750702
 20
11.2049458596
 30
0.0
 10
15.565685595
 20
11.2439940383
 30
0.0
 10
15.5429363879
 20
11.2858235
 30
0.0
 10
15.5209762142
 20
11.3303424014
 30
0.0
 10
15.5071614374
 20
11.3611546479
 30
0.0
 10
15.5003829692
 20
11.3769759712
 30
0.0
  0
SPLINE
  5
2D9
100
AcDbEntity
  8
02___PRT_ALL_AXES
100
AcDbSpline
 62
7
  6
CONTINUOUS
 70
0
 71
3
 72
28
 73
24
 74
0
 42
0.0000001
 43
0.0000001
 44
0.0000000001
 40
0.0
 40
0.0
 40
0.0
 40
0.0
 40
0.0253254338
 40
0.0515386562
 40
0.0786065387
 40
0.1064917996
 40
0.1351534935
 40
0.1645472948
 40
0.2253356088
 40
0.288452568
 40
0.3534555089
 40
0.4198756265
 40
0.4872251731
 40
0.5550042697
 40
0.622707505
 40
0.6898304369
 40
0.7558761365
 40
0.8203617686
 40
0.8828256929
 40
0.9131637903
 40
0.9428384039
 40
0.9718017624
 40
1.0
 40
1.0
 40
1.0
 40
1.0
 10
15.4991652246
 20
11.3798261488
 30
0.0
 10
15.4921531567
 20
11.3962837285
 30
0.0
 10
15.4784607748
 20
11.4300244372
 30
0.0
 10
15.459212926
 20
11.4821154848
 30
0.0
 10
15.4409358412
 20
11.5364661495
 30
0.0
 10
15.4236697477
 20
11.5929564827
 30
0.0
 10
15.4074525073
 20
11.651463279
 30
0.0
 10
15.3870480654
 20
11.732900902
 30
0.0
 10
15.3645086576
 20
11.8388573221
 30
0.0
 10
15.3424373798
 20
11.9704966737
 30
0.0
 10
15.3252435289
 20
12.1068706854
 30
0.0
 10
15.3130793657
 20
12.2467835361
 30
0.0
 10
15.3060528017
 20
12.3890105017
 30
0.0
 10
15.3042261569
 20
12.532304992
 30
0.0
 10
15.3076156406
 20
12.6754110683
 30
0.0
 10
15.3161911828
 20
12.8170742233
 30
0.0
 10
15.3298767022
 20
12.9560537685
 30
0.0
 10
15.3485509403
 20
13.0911305761
 30
0.0
 10
15.3683189969
 20
13.2004997117
 30
0.0
 10
15.3865729679
 20
13.285072479
 30
0.0
 10
15.4012622156
 20
13.3461882708
 30
0.0
 10
15.4170500583
 20
13.4054663296
 30
0.0
 10
15.4284404362
 20
13.4442095049
 30
0.0
 10
15.4343212898
 20
13.4632399541
 30
0.0
  0
SPLINE
  5
2DA
100
AcDbEntity
  8
02___PRT_ALL_AXES
100
AcDbSpline
 62
7
  6
CONTINUOUS
 70
0
 71
3
 72
23
 73
19
 74
0
 42
0.0000001
 43
0.0000001
 44
0.0000000001
 40
0.0
 40
0.0
 40
0.0
 40
0.0
 40
0.0526062159
 40
0.1041347415
 40
0.1551830033
 40
0.2063692652
 40
0.258305592
 40
0.311572149
 40
0.3666957189
 40
0.4241371379
 40
0.4842848463
 40
0.5474556153
 40
0.6138986414
 40
0.6838014667
 40
0.7572977522
 40
0.8344726672
 40
0.9153709707
 40
1.0
 40
1.0
 40
1.0
 40
1.0
 10
16.0168341234
 20
10.8779333801
 30
0.0
 10
16.007082355
 20
10.8746689974
 30
0.0
 10
15.9874083726
 20
10.869246934
 30
0.0
 10
15.9573601963
 20
10.8646140985
 30
0.0
 10
15.9272456782
 20
10.8636054318
 30
0.0
 10
15.8971501936
 20
10.8662285467
 30
0.0
 10
15.8671525106
 20
10.8724705498
 30
0.0
 10
15.8373287896
 20
10.882309099
 30
0.0
 10
15.8077481143
 20
10.8957094095
 30
0.0
 10
15.7784746021
 20
10.9126316342
 30
0.0
 10
15.7495679013
 20
10.9330299014
 30
0.0
 10
15.7210854724
 20
10.9568541813
 30
0.0
 10
15.693083951
 20
10.9840497795
 30
0.0
 10
15.6656188213
 20
11.0145560254
 30
0.0
 10
15.6387464611
 20
11.0483070809
 30
0.0
 10
15.6125211658
 20
11.0852299602
 30
0.0
 10
15.5869991534
 20
11.1252451111
 30
0.0
 10
15.5708497038
 20
11.1532985539
 30
0.0
 10
15.5628895656
 20
11.1678011618
 30
0.0
  0
SPLINE
  5
2DB
100
AcDbEntity
  8
02___PRT_ALL_AXES
100
AcDbSpline
 62
7
  6
CONTINUOUS
 70
0
 71
3
 72
11
 73
7
 74
0
 42
0.0000001
 43
0.0000001
 44
0.0000000001
 40
0.0
 40
0.0
 40
0.0
 40
0.0
 40
0.2373126583
 40
0.4831846194
 40
0.7374743807
 40
1.0
 40
1.0
 40
1.0
 40
1.0
 10
15.5628895656
 20
11.1678011618
 30
0.0
 10
15.5557060961
 20
11.1808887537
 30
0.0
 10
15.5415692943
 20
11.2078069934
 30
0.0
 10
15.5213845957
 20
11.2495893114
 30
0.0
 10
15.5018741381
 20
11.2934321876
 30
0.0
 10
15.4895307333
 20
11.3235165448
 30
0.0
 10
15.4834696941
 20
11.3388797379
 30
0.0
  0
SPLINE
  5
2DC
100
AcDbEntity
  8
02___PRT_ALL_AXES
100
AcDbSpline
 62
7
  6
CONTINUOUS
 70
0
 71
3
 72
11
 73
7
 74
0
 42
0.0000001
 43
0.0000001
 44
0.0000000001
 40
0.0
 40
0.0
 40
0.0
 40
0.0
 40
0.2387270646
 40
0.4851885353
 40
0.7390636391
 40
1.0
 40
1.0
 40
1.0
 40
1.0
 10
15.4834696941
 20
11.3388797379
 30
0.0
 10
15.4763641837
 20
11.3568903999
 30
0.0
 10
15.4625051598
 20
11.393727283
 30
0.0
 10
15.4430488333
 20
11.4504305003
 30
0.0
 10
15.4246251925
 20
11.5093671449
 30
0.0
 10
15.413208141
 20
11.5495343488
 30
0.0
 10
15.4076705994
 20
11.5699598896
 30
0.0
  0
SPLINE
  5
2DD
100
AcDbEntity
  8
02___PRT_ALL_AXES
100
AcDbSpline
 62
7
  6
CONTINUOUS
 70
0
 71
3
 72
9
 73
5
 74
0
 42
0.0000001
 43
0.0000001
 44
0.0000000001
 40
0.0
 40
0.0
 40
0.0
 40
0.0
 40
0.4901782202
 40
1.0
 40
1.0
 40
1.0
 40
1.0
 10
15.4076705994
 20
11.5699598896
 30
0.0
 10
15.3971605033
 20
11.6087269844
 30
0.0
 10
15.3775440663
 20
11.6883174329
 30
0.0
 10
15.361243887
 20
11.7686468764
 30
0.0
 10
15.3537146161
 20
11.809738951
 30
0.0
  0
SPLINE
  5
2DE
100
AcDbEntity
  8
02___PRT_ALL_AXES
100
AcDbSpline
 62
7
  6
CONTINUOUS
 70
0
 71
3
 72
23
 73
19
 74
0
 42
0.0000001
 43
0.0000001
 44
0.0000000001
 40
0.0
 40
0.0
 40
0.0
 40
0.0
 40
0.0600291192
 40
0.1212486123
 40
0.1834839464
 40
0.2465548816
 40
0.3102769435
 40
0.3744621795
 40
0.4389201859
 40
0.5034592636
 40
0.5678872023
 40
0.6320124241
 40
0.695644907
 40
0.758597107
 40
0.8206850914
 40
0.8817296213
 40
0.9415573154
 40
1.0
 40
1.0
 40
1.0
 40
1.0
 10
15.3537146161
 20
11.809738951
 30
0.0
 10
15.3482630648
 20
11.8394915728
 30
0.0
 10
15.3380788808
 20
11.8997412094
 30
0.0
 10
15.3250512731
 20
11.9912837172
 30
0.0
 10
15.3141542556
 20
12.0846477763
 30
0.0
 10
15.3054256706
 20
12.1795052979
 30
0.0
 10
15.2988964608
 20
12.2755241436
 30
0.0
 10
15.2945899897
 20
12.3723677405
 30
0.0
 10
15.2925208324
 20
12.4696966243
 30
0.0
 10
15.2926965456
 20
12.5671696078
 30
0.0
 10
15.2951168126
 20
12.6644450017
 30
0.0
 10
15.2997725225
 20
12.76118183
 30
0.0
 10
15.3066475933
 20
12.8570410001
 30
0.0
 10
15.3157180758
 20
12.9516865162
 30
0.0
 10
15.3269513847
 20
13.0447867225
 30
0.0
 10
15.3403084043
 20
13.1360158789
 30
0.0
 10
15.3557423205
 20
13.2250528844
 30
0.0
 10
15.3675279993
 20
13.2834804214
 30
0.0
 10
15.3737720341
 20
13.3122593974
 30
0.0
  0
SPLINE
  5
2DF
100
AcDbEntity
  8
02___PRT_ALL_AXES
100
AcDbSpline
 62
7
  6
CONTINUOUS
 70
0
 71
3
 72
9
 73
5
 74
0
 42
0.0000001
 43
0.0000001
 44
0.0000000001
 40
0.0
 40
0.0
 40
0.0
 40
0.0
 40
0.5107681506
 40
1.0
 40
1.0
 40
1.0
 40
1.0
 10
15.3739534908
 20
13.3130951663
 30
0.0
 10
15.3822221948
 20
13.3511538756
 30
0.0
 10
15.3998511943
 20
13.4253628136
 30
0.0
 10
15.4206232467
 20
13.4987603401
 30
0.0
 10
15.43163728
 20
13.5344017649
 30
0.0
  0
SPLINE
  5
2E0
100
AcDbEntity
  8
0
100
AcDbSpline
 62
7
  6
CONTINUOUS
 70
0
 71
3
 72
15
 73
11
 74
0
 42
0.0000001
 43
0.0000001
 44
0.0000000001
 40
0.0
 40
0.0
 40
0.0
 40
0.0
 40
0.07972711
 40
0.166841027
 40
0.2665612319
 40
0.3817764268
 40
0.5135845376
 40
0.6618702393
 40
0.8248389231
 40
1.0
 40
1.0
 40
1.0
 40
1.0
 10
14.624391192
 20
11.7953605968
 30
0.0
 10
14.6240384912
 20
11.7953616073
 30
0.0
 10
14.6232963142
 20
11.7954970354
 30
0.0
 10
14.6222470424
 20
11.7960672266
 30
0.0
 10
14.621258475
 20
11.7969813289
 30
0.0
 10
14.6203352336
 20
11.7982138591
 30
0.0
 10
14.6194855544
 20
11.7997472405
 30
0.0
 10
14.6187247493
 20
11.8015568432
 30
0.0
 10
14.6180621791
 20
11.8036063142
 30
0.0
 10
14.6177061441
 20
11.8050605877
 30
0.0
 10
14.6175459194
 20
11.8058187314
 30
0.0
  0
SPLINE
  5
2E1
100
AcDbEntity
  8
0
100
AcDbSpline
 62
7
  6
CONTINUOUS
 70
0
 71
3
 72
14
 73
10
 74
0
 42
0.0000001
 43
0.0000001
 44
0.0000000001
 40
0.0
 40
0.0
 40
0.0
 40
0.0
 40
0.0874048429
 40
0.1800976116
 40
0.2824708654
 40
0.397480243
 40
0.5268894153
 40
0.6710147346
 40
1.0
 40
1.0
 40
1.0
 40
1.0
 10
14.691602564
 20
11.5441285615
 30
0.0
 10
14.6913197429
 20
11.544127645
 30
0.0
 10
14.6907338264
 20
11.5442098719
 30
0.0
 10
14.6898870478
 20
11.5445765832
 30
0.0
 10
14.6890705894
 20
11.5451708716
 30
0.0
 10
14.6882895169
 20
11.5459827913
 30
0.0
 10
14.6875505052
 20
11.5470039303
 30
0.0
 10
14.6865861933
 20
11.5487014439
 30
0.0
 10
14.686015095
 20
11.5501307358
 30
0.0
 10
14.6856792547
 20
11.5511408946
 30
0.0
  0
SPLINE
  5
2E2
100
AcDbEntity
  8
0
100
AcDbSpline
 62
7
  6
CONTINUOUS
 70
0
 71
3
 72
13
 73
9
 74
0
 42
0.0000001
 43
0.0000001
 44
0.0000000001
 40
0.0
 40
0.0
 40
0.0
 40
0.0
 40
0.0970515723
 40
0.1976376771
 40
0.4207955257
 40
0.5481479191
 40
0.6870335047
 40
1.0
 40
1.0
 40
1.0
 40
1.0
 10
14.7776860881
 20
11.3342686458
 30
0.0
 10
14.7774727836
 20
11.3342686209
 30
0.0
 10
14.7770371099
 20
11.3343152635
 30
0.0
 10
14.7761516706
 20
11.3346006598
 30
0.0
 10
14.7753157978
 20
11.3351708697
 30
0.0
 10
14.7745572299
 20
11.3359341727
 30
0.0
 10
14.7737613553
 20
11.3369308352
 30
0.0
 10
14.7732548004
 20
11.33779155
 30
0.0
 10
14.772943609
 20
11.3384049838
 30
0.0
  0
SPLINE
  5
2E3
100
AcDbEntity
  8
0
100
AcDbSpline
 62
7
  6
CONTINUOUS
 70
0
 71
3
 72
11
 73
7
 74
0
 42
0.0000001
 43
0.0000001
 44
0.0000000001
 40
0.0
 40
0.0
 40
0.0
 40
0.0
 40
0.2187111328
 40
0.4520122974
 40
0.7102584389
 40
1.0
 40
1.0
 40
1.0
 40
1.0
 10
14.8788794626
 20
11.1749579407
 30
0.0
 10
14.878587708
 20
11.1749582789
 30
0.0
 10
14.8779819432
 20
11.1750501731
 30
0.0
 10
14.877109668
 20
11.1754428645
 30
0.0
 10
14.8762706249
 20
11.1760721881
 30
0.0
 10
14.8757694746
 20
11.176609122
 30
0.0
 10
14.8755251112
 20
11.1769085792
 30
0.0
  0
SPLINE
  5
2E4
100
AcDbEntity
  8
0
100
AcDbSpline
 62
7
  6
CONTINUOUS
 70
0
 71
3
 72
15
 73
11
 74
0
 42
0.0000001
 43
0.0000001
 44
0.0000000001
 40
0.0
 40
0.0
 40
0.0
 40
0.0
 40
0.1754788462
 40
0.3400227785
 40
0.4902236397
 40
0.6237479586
 40
0.7399077752
 40
0.8391767288
 40
0.9241272683
 40
1.0
 40
1.0
 40
1.0
 40
1.0
 10
14.5873734284
 20
13.0490449893
 30
0.0
 10
14.5875100533
 20
13.0499422464
 30
0.0
 10
14.5878311566
 20
13.0516729692
 30
0.0
 10
14.5884715346
 20
13.0541287088
 30
0.0
 10
14.5892438964
 20
13.0563184238
 30
0.0
 10
14.5901350687
 20
13.0581899785
 30
0.0
 10
14.5911237176
 20
13.0597083493
 30
0.0
 10
14.5922019063
 20
13.0608431976
 30
0.0
 10
14.5933559095
 20
13.0615690252
 30
0.0
 10
14.5941899405
 20
13.0617555249
 30
0.0
 10
14.5945823216
 20
13.0617613045
 30
0.0
  0
SPLINE
  5
2E5
100
AcDbEntity
  8
0
100
AcDbSpline
 62
7
  6
CONTINUOUS
 70
0
 71
3
 72
13
 73
9
 74
0
 42
0.0000001
 43
0.0000001
 44
0.0000000001
 40
0.0
 40
0.0
 40
0.0
 40
0.0
 40
0.1027400754
 40
0.2163235113
 40
0.467174768
 40
0.735131634
 40
0.8694620516
 40
1.0
 40
1.0
 40
1.0
 40
1.0
 10
14.5831139487
 20
12.9827153754
 30
0.0
 10
14.5828066756
 20
12.9834060506
 30
0.0
 10
14.5822456113
 20
12.98489898
 30
0.0
 10
14.5813195986
 20
12.9882124133
 30
0.0
 10
14.5805822876
 20
12.9928224311
 30
0.0
 10
14.5803903522
 20
12.9976349877
 30
0.0
 10
14.5805688429
 20
13.0015530738
 30
0.0
 10
14.5807712624
 20
13.0034929091
 30
0.0
 10
14.5809025505
 20
13.004444368
 30
0.0
  0
SPLINE
  5
2E6
100
AcDbEntity
  8
0
100
AcDbSpline
 62
7
  6
CONTINUOUS
 70
0
 71
3
 72
9
 73
5
 74
0
 42
0.0000001
 43
0.0000001
 44
0.0000000001
 40
0.0
 40
0.0
 40
0.0
 40
0.0
 40
0.5153593724
 40
1.0
 40
1.0
 40
1.0
 40
1.0
 10
14.5831139487
 20
12.9827153754
 30
0.0
 10
14.5864766994
 20
12.9751567289
 30
0.0
 10
14.5933725256
 20
12.960651025
 30
0.0
 10
14.6011032388
 20
12.9465686173
 30
0.0
 10
14.6050780606
 20
12.9398808591
 30
0.0
  0
SPLINE
  5
2E7
100
AcDbEntity
  8
0
100
AcDbSpline
 62
7
  6
CONTINUOUS
 70
0
 71
3
 72
9
 73
5
 74
0
 42
0.0000001
 43
0.0000001
 44
0.0000000001
 40
0.0
 40
0.0
 40
0.0
 40
0.0
 40
0.5322054682
 40
1.0
 40
1.0
 40
1.0
 40
1.0
 10
14.6079033769
 20
12.9331849742
 30
0.0
 10
14.607529599
 20
12.9344212753
 30
0.0
 10
14.6067246941
 20
12.9367151608
 30
0.0
 10
14.60565808
 20
12.9389049588
 30
0.0
 10
14.6050780606
 20
12.9398808591
 30
0.0
  0
SPLINE
  5
2E8
100
AcDbEntity
  8
0
100
AcDbSpline
 62
7
  6
CONTINUOUS
 70
0
 71
3
 72
11
 73
7
 74
0
 42
0.0000001
 43
0.0000001
 44
0.0000000001
 40
0.0
 40
0.0
 40
0.0
 40
0.0
 40
0.223140894
 40
0.4607780533
 40
0.7184487585
 40
1.0
 40
1.0
 40
1.0
 40
1.0
 10
14.588818501
 20
12.777659237
 30
0.0
 10
14.5891461532
 20
12.7777234694
 30
0.0
 10
14.5898100885
 20
12.7779283496
 30
0.0
 10
14.5907646958
 20
12.7784337373
 30
0.0
 10
14.591695116
 20
12.7791374601
 30
0.0
 10
14.5922691052
 20
12.7797078123
 30
0.0
 10
14.5925516048
 20
12.7800203478
 30
0.0
  0
SPLINE
  5
2E9
100
AcDbEntity
  8
0
100
AcDbSpline
 62
7
  6
CONTINUOUS
 70
0
 71
3
 72
9
 73
5
 74
0
 42
0.0000001
 43
0.0000001
 44
0.0000000001
 40
0.0
 40
0.0
 40
0.0
 40
0.0
 40
0.4875869962
 40
1.0
 40
1.0
 40
1.0
 40
1.0
 10
14.588818501
 20
12.777659237
 30
0.0
 10
14.5841527723
 20
12.7767445748
 30
0.0
 10
14.5747359612
 20
12.7740174506
 30
0.0
 10
14.5658878133
 20
12.769823264
 30
0.0
 10
14.5615305459
 20
12.7673777712
 30
0.0
  0
SPLINE
  5
2EA
100
AcDbEntity
  8
0
100
AcDbSpline
 62
7
  6
CONTINUOUS
 70
0
 71
3
 72
15
 73
11
 74
0
 42
0.0000001
 43
0.0000001
 44
0.0000000001
 40
0.0
 40
0.0
 40
0.0
 40
0.0
 40
0.1620800832
 40
0.3185063995
 40
0.4657717718
 40
0.6011066452
 40
0.7228545857
 40
0.8298622741
 40
0.9218986655
 40
1.0
 40
1.0
 40
1.0
 40
1.0
 10
14.5555087561
 20
12.751090487
 30
0.0
 10
14.5555706139
 20
12.752054557
 30
0.0
 10
14.555748726
 20
12.7539459681
 30
0.0
 10
14.5561789865
 20
12.7566904171
 30
0.0
 10
14.5567602859
 20
12.7592442474
 30
0.0
 10
14.5574828563
 20
12.7615465857
 30
0.0
 10
14.5583271474
 20
12.7635499955
 30
0.0
 10
14.5592814657
 20
12.7652142982
 30
0.0
 10
14.5603226836
 20
12.76650637
 30
0.0
 10
14.5611246008
 20
12.7671499367
 30
0.0
 10
14.5615305459
 20
12.7673777712
 30
0.0
  0
SPLINE
  5
2EB
100
AcDbEntity
  8
0
100
AcDbSpline
 62
7
  6
CONTINUOUS
 70
0
 71
3
 72
13
 73
9
 74
0
 42
0.0000001
 43
0.0000001
 44
0.0000000001
 40
0.0
 40
0.0
 40
0.0
 40
0.0
 40
0.091670681
 40
0.1964586568
 40
0.3129397369
 40
0.4393734741
 40
0.7139155865
 40
1.0
 40
1.0
 40
1.0
 40
1.0
 10
14.5567127086
 20
12.6839361845
 30
0.0
 10
14.55635028
 20
12.6844562506
 30
0.0
 10
14.5556714285
 20
12.6856393456
 30
0.0
 10
14.5548226971
 20
12.687633501
 30
0.0
 10
14.5540951864
 20
12.689928582
 30
0.0
 10
14.553291875
 20
12.6934185248
 30
0.0
 10
14.5527172327
 20
12.6981481484
 30
0.0
 10
14.5526889144
 20
12.7020340263
 30
0.0
 10
14.552790355
 20
12.704009674
 30
0.0
  0
SPLINE
  5
2EC
100
AcDbEntity
  8
0
100
AcDbSpline
 62
7
  6
CONTINUOUS
 70
0
 71
3
 72
9
 73
5
 74
0
 42
0.0000001
 43
0.0000001
 44
0.0000000001
 40
0.0
 40
0.0
 40
0.0
 40
0.0
 40
0.518558205
 40
1.0
 40
1.0
 40
1.0
 40
1.0
 10
14.5567127086
 20
12.6839361845
 30
0.0
 10
14.5605859205
 20
12.6783783283
 30
0.0
 10
14.5684522327
 20
12.6679290322
 30
0.0
 10
14.5772126029
 20
12.6582067027
 30
0.0
 10
14.5816649325
 20
12.6537644143
 30
0.0
  0
SPLINE
  5
2ED
100
AcDbEntity
  8
0
100
AcDbSpline
 62
7
  6
CONTINUOUS
 70
0
 71
3
 72
9
 73
5
 74
0
 42
0.0000001
 43
0.0000001
 44
0.0000000001
 40
0.0
 40
0.0
 40
0.0
 40
0.0
 40
0.5410687559
 40
1.0
 40
1.0
 40
1.0
 40
1.0
 10
14.5849706387
 20
12.6487232959
 30
0.0
 10
14.5845135649
 20
12.6497143025
 30
0.0
 10
14.5835624451
 20
12.6515001003
 30
0.0
 10
14.5823202137
 20
12.6531106109
 30
0.0
 10
14.5816649325
 20
12.6537644143
 30
0.0
  0
SPLINE
  5
2EE
100
AcDbEntity
  8
0
100
AcDbSpline
 62
7
  6
CONTINUOUS
 70
0
 71
3
 72
9
 73
5
 74
0
 42
0.0000001
 43
0.0000001
 44
0.0000000001
 40
0.0
 40
0.0
 40
0.0
 40
0.0
 40
0.4563999343
 40
1.0
 40
1.0
 40
1.0
 40
1.0
 10
14.5788948963
 20
12.4864066934
 30
0.0
 10
14.5795691582
 20
12.4869151584
 30
0.0
 10
14.5808708974
 20
12.4882615106
 30
0.0
 10
14.5818706286
 20
12.4898279326
 30
0.0
 10
14.5823552564
 20
12.4907093243
 30
0.0
  0
SPLINE
  5
2EF
100
AcDbEntity
  8
0
100
AcDbSpline
 62
7
  6
CONTINUOUS
 70
0
 71
3
 72
9
 73
5
 74
0
 42
0.0000001
 43
0.0000001
 44
0.0000000001
 40
0.0
 40
0.0
 40
0.0
 40
0.0
 40
0.4811450092
 40
1.0
 40
1.0
 40
1.0
 40
1.0
 10
14.5788948963
 20
12.4864066934
 30
0.0
 10
14.5743157785
 20
12.4829535529
 30
0.0
 10
14.5652525086
 20
12.4751643998
 30
0.0
 10
14.5570718978
 20
12.4664668679
 30
0.0
 10
14.5530356835
 20
12.4617807763
 30
0.0
  0
SPLINE
  5
2F0
100
AcDbEntity
  8
0
100
AcDbSpline
 62
7
  6
CONTINUOUS
 70
0
 71
3
 72
13
 73
9
 74
0
 42
0.0000001
 43
0.0000001
 44
0.0000000001
 40
0.0
 40
0.0
 40
0.0
 40
0.0
 40
0.2951876802
 40
0.5722967093
 40
0.6976196965
 40
0.8115641747
 40
0.9126782021
 40
1.0
 40
1.0
 40
1.0
 40
1.0
 10
14.5484641781
 20
12.4426343556
 30
0.0
 10
14.5484287694
 20
12.4446036391
 30
0.0
 10
14.5485791759
 20
12.4484282907
 30
0.0
 10
14.5493049482
 20
12.4530412203
 30
0.0
 10
14.5502247161
 20
12.4563652612
 30
0.0
 10
14.551024477
 20
12.458495122
 30
0.0
 10
14.5519354252
 20
12.4602998365
 30
0.0
 10
14.5526554428
 20
12.4613393124
 30
0.0
 10
14.5530356835
 20
12.4617807763
 30
0.0
  0
SPLINE
  5
2F1
100
AcDbEntity
  8
0
100
AcDbSpline
 62
7
  6
CONTINUOUS
 70
0
 71
3
 72
15
 73
11
 74
0
 42
0.0000001
 43
0.0000001
 44
0.0000000001
 40
0.0
 40
0.0
 40
0.0
 40
0.0
 40
0.0814140544
 40
0.1770702027
 40
0.2869983172
 40
0.4103544608
 40
0.5456460336
 40
0.6910115135
 40
0.8436205253
 40
1.0
 40
1.0
 40
1.0
 40
1.0
 10
14.5550789443
 20
12.3775903298
 30
0.0
 10
14.5546795547
 20
12.377907734
 30
0.0
 10
14.5539070921
 20
12.3787191638
 30
0.0
 10
14.5529151302
 20
12.3802259589
 30
0.0
 10
14.5520194615
 20
12.3820881595
 30
0.0
 10
14.5512432778
 20
12.3842668637
 30
0.0
 10
14.5505982624
 20
12.3867176329
 30
0.0
 10
14.5501022563
 20
12.3893890569
 30
0.0
 10
14.5497632347
 20
12.3922175533
 30
0.0
 10
14.5496470037
 20
12.3941515655
 30
0.0
 10
14.549617061
 20
12.3951310083
 30
0.0
  0
SPLINE
  5
2F2
100
AcDbEntity
  8
0
100
AcDbSpline
 62
7
  6
CONTINUOUS
 70
0
 71
3
 72
9
 73
5
 74
0
 42
0.0000001
 43
0.0000001
 44
0.0000000001
 40
0.0
 40
0.0
 40
0.0
 40
0.0
 40
0.5166633956
 40
1.0
 40
1.0
 40
1.0
 40
1.0
 10
14.5550789443
 20
12.3775903298
 30
0.0
 10
14.5593163675
 20
12.3742227519
 30
0.0
 10
14.5679040304
 20
12.3681686719
 30
0.0
 10
14.5772560539
 20
12.3633505214
 30
0.0
 10
14.5819287484
 20
12.3613999569
 30
0.0
  0
SPLINE
  5
2F3
100
AcDbEntity
  8
0
100
AcDbSpline
 62
7
  6
CONTINUOUS
 70
0
 71
3
 72
10
 73
6
 74
0
 42
0.0000001
 43
0.0000001
 44
0.0000000001
 40
0.0
 40
0.0
 40
0.0
 40
0.0
 40
0.2842637552
 40
0.5442661128
 40
1.0
 40
1.0
 40
1.0
 40
1.0
 10
14.5855703693
 20
12.3582339261
 30
0.0
 10
14.585298803
 20
12.3586074582
 30
0.0
 10
14.5847456122
 20
12.3593004026
 30
0.0
 10
14.5835975251
 20
12.3604502629
 30
0.0
 10
14.5826119959
 20
12.3611147428
 30
0.0
 10
14.5819287484
 20
12.3613999569
 30
0.0
  0
SPLINE
  5
2F4
100
AcDbEntity
  8
0
100
AcDbSpline
 62
7
  6
CONTINUOUS
 70
0
 71
3
 72
9
 73
5
 74
0
 42
0.0000001
 43
0.0000001
 44
0.0000000001
 40
0.0
 40
0.0
 40
0.0
 40
0.0
 40
0.4640164537
 40
1.0
 40
1.0
 40
1.0
 40
1.0
 10
14.5927692994
 20
12.1962204725
 30
0.0
 10
14.593383708
 20
12.1970723383
 30
0.0
 10
14.5945262366
 20
12.1990395861
 30
0.0
 10
14.5953954967
 20
12.2011348012
 30
0.0
 10
14.5958056814
 20
12.2022765778
 30
0.0
  0
SPLINE
  5
2F5
100
AcDbEntity
  8
0
100
AcDbSpline
 62
7
  6
CONTINUOUS
 70
0
 71
3
 72
9
 73
5
 74
0
 42
0.0000001
 43
0.0000001
 44
0.0000000001
 40
0.0
 40
0.0
 40
0.0
 40
0.0
 40
0.4831262756
 40
1.0
 40
1.0
 40
1.0
 40
1.0
 10
14.5927692994
 20
12.1962204725
 30
0.0
 10
14.5885761645
 20
12.1904067705
 30
0.0
 10
14.5803840909
 20
12.1780178821
 30
0.0
 10
14.5730579943
 20
12.1651035107
 30
0.0
 10
14.5694690006
 20
12.1583263749
 30
0.0
  0
SPLINE
  5
2F6
100
AcDbEntity
  8
0
100
AcDbSpline
 62
7
  6
CONTINUOUS
 70
0
 71
3
 72
14
 73
10
 74
0
 42
0.0000001
 43
0.0000001
 44
0.0000000001
 40
0.0
 40
0.0
 40
0.0
 40
0.0
 40
0.1354359459
 40
0.2733090222
 40
0.543927112
 40
0.6717698867
 40
0.7917401462
 40
0.9017878789
 40
1.0
 40
1.0
 40
1.0
 40
1.0
 10
14.5665475764
 20
12.1371576082
 30
0.0
 10
14.5664487587
 20
12.1381287643
 30
0.0
 10
14.5663112278
 20
12.140095385
 30
0.0
 10
14.5662620542
 20
12.1440166966
 30
0.0
 10
14.5665413167
 20
12.1478836577
 30
0.0
 10
14.567166405
 20
12.1515699513
 30
0.0
 10
14.5677789774
 20
12.1540782687
 30
0.0
 10
14.5685262798
 20
12.1563256358
 30
0.0
 10
14.5691377152
 20
12.157700805
 30
0.0
 10
14.5694690006
 20
12.1583263749
 30
0.0
  0
SPLINE
  5
2F7
100
AcDbEntity
  8
0
100
AcDbSpline
 62
7
  6
CONTINUOUS
 70
0
 71
3
 72
15
 73
11
 74
0
 42
0.0000001
 43
0.0000001
 44
0.0000000001
 40
0.0
 40
0.0
 40
0.0
 40
0.0
 40
0.0753528026
 40
0.162646269
 40
0.2651019228
 40
0.3838678276
 40
0.5185748418
 40
0.6680358994
 40
0.8296746802
 40
1.0
 40
1.0
 40
1.0
 40
1.0
 10
14.5782840593
 20
12.0770665952
 30
0.0
 10
14.577881102
 20
12.0771606978
 30
0.0
 10
14.5770502868
 20
12.0775392189
 30
0.0
 10
14.5759417733
 20
12.0785021904
 30
0.0
 10
14.5749108576
 20
12.0798580447
 30
0.0
 10
14.5739768563
 20
12.0815812531
 30
0.0
 10
14.5731500024
 20
12.0836377883
 30
0.0
 10
14.5724515386
 20
12.0859872331
 30
0.0
 10
14.5718934757
 20
12.0885735433
 30
0.0
 10
14.5716284624
 20
12.0903786632
 30
0.0
 10
14.5715213568
 20
12.0913078508
 30
0.0
  0
SPLINE
  5
2F8
100
AcDbEntity
  8
0
100
AcDbSpline
 62
7
  6
CONTINUOUS
 70
0
 71
3
 72
9
 73
5
 74
0
 42
0.0000001
 43
0.0000001
 44
0.0000000001
 40
0.0
 40
0.0
 40
0.0
 40
0.0
 40
0.5028302571
 40
1.0
 40
1.0
 40
1.0
 40
1.0
 10
14.5782840593
 20
12.0770665952
 30
0.0
 10
14.5812446194
 20
12.0763752152
 30
0.0
 10
14.5872136944
 20
12.0753248492
 30
0.0
 10
14.5932650105
 20
12.0749706615
 30
0.0
 10
14.5962710033
 20
12.0749706717
 30
0.0
  0
SPLINE
  5
2F9
100
AcDbEntity
  8
0
100
AcDbSpline
 62
7
  6
CONTINUOUS
 70
0
 71
3
 72
9
 73
5
 74
0
 42
0.0000001
 43
0.0000001
 44
0.0000000001
 40
0.0
 40
0.0
 40
0.0
 40
0.0
 40
0.4733011959
 40
1.0
 40
1.0
 40
1.0
 40
1.0
 10
14.6298353324
 20
11.9197831047
 30
0.0
 10
14.6303578427
 20
11.9209236512
 30
0.0
 10
14.6313026016
 20
11.9234071158
 30
0.0
 10
14.6320006181
 20
11.9259677961
 30
0.0
 10
14.6323150319
 20
11.9273280037
 30
0.0
  0
SPLINE
  5
2FA
100
AcDbEntity
  8
0
100
AcDbSpline
 62
7
  6
CONTINUOUS
 70
0
 71
3
 72
9
 73
5
 74
0
 42
0.0000001
 43
0.0000001
 44
0.0000000001
 40
0.0
 40
0.0
 40
0.0
 40
0.0
 40
0.486989491
 40
1.0
 40
1.0
 40
1.0
 40
1.0
 10
14.6298353324
 20
11.9197831047
 30
0.0
 10
14.6262313553
 20
11.9119162692
 30
0.0
 10
14.619271024
 20
11.8955582993
 30
0.0
 10
14.6130975453
 20
11.8788897217
 30
0.0
 10
14.6101122825
 20
11.8702769805
 30
0.0
  0
SPLINE
  5
2FB
100
AcDbEntity
  8
0
100
AcDbSpline
 62
7
  6
CONTINUOUS
 70
0
 71
3
 72
13
 73
9
 74
0
 42
0.0000001
 43
0.0000001
 44
0.0000000001
 40
0.0
 40
0.0
 40
0.0
 40
0.0
 40
0.1235568601
 40
0.252779389
 40
0.5167327315
 40
0.7719772714
 40
0.8906274116
 40
1.0
 40
1.0
 40
1.0
 40
1.0
 10
14.6089686196
 20
11.8480110444
 30
0.0
 10
14.6087908334
 20
11.8489210085
 30
0.0
 10
14.6084948469
 20
11.8507963427
 30
0.0
 10
14.6081271644
 20
11.8546582875
 30
0.0
 10
14.6080931874
 20
11.8595350765
 30
0.0
 10
14.6086080176
 20
11.8643072662
 30
0.0
 10
14.6093621118
 20
11.8678569553
 30
0.0
 10
14.609843497
 20
11.8695015111
 30
0.0
 10
14.6101122825
 20
11.8702769805
 30
0.0
  0
SPLINE
  5
2FC
100
AcDbEntity
  8
0
100
AcDbSpline
 62
7
  6
CONTINUOUS
 70
0
 71
3
 72
9
 73
5
 74
0
 42
0.0000001
 43
0.0000001
 44
0.0000000001
 40
0.0
 40
0.0
 40
0.0
 40
0.0
 40
0.4819995763
 40
1.0
 40
1.0
 40
1.0
 40
1.0
 10
14.6884730316
 20
11.6691762295
 30
0.0
 10
14.6888841673
 20
11.6705454689
 30
0.0
 10
14.6895993683
 20
11.6734283667
 30
0.0
 10
14.6900869791
 20
11.6763569255
 30
0.0
 10
14.6902876738
 20
11.6778801737
 30
0.0
  0
SPLINE
  5
2FD
100
AcDbEntity
  8
0
100
AcDbSpline
 62
7
  6
CONTINUOUS
 70
0
 71
3
 72
9
 73
5
 74
0
 42
0.0000001
 43
0.0000001
 44
0.0000000001
 40
0.0
 40
0.0
 40
0.0
 40
0.0
 40
0.4908055646
 40
1.0
 40
1.0
 40
1.0
 40
1.0
 10
14.6884730316
 20
11.6691762295
 30
0.0
 10
14.6856071159
 20
11.6596316301
 30
0.0
 10
14.6801590924
 20
11.640065804
 30
0.0
 10
14.6754285969
 20
11.6203152623
 30
0.0
 10
14.6731892226
 20
11.6102217338
 30
0.0
  0
SPLINE
  5
2FE
100
AcDbEntity
  8
0
100
AcDbSpline
 62
7
  6
CONTINUOUS
 70
0
 71
3
 72
13
 73
9
 74
0
 42
0.0000001
 43
0.0000001
 44
0.0000000001
 40
0.0
 40
0.0
 40
0.0
 40
0.0
 40
0.1121982669
 40
0.2329789644
 40
0.4900248528
 40
0.7522610641
 40
0.879344007
 40
1.0
 40
1.0
 40
1.0
 40
1.0
 10
14.6738733046
 20
11.5878317566
 30
0.0
 10
14.6736218848
 20
11.5886392608
 30
0.0
 10
14.6731761491
 20
11.5903402619
 30
0.0
 10
14.6724977021
 20
11.5939735202
 30
0.0
 10
14.6720790631
 20
11.5987929185
 30
0.0
 10
14.6722100409
 20
11.6036748619
 30
0.0
 10
14.6726573799
 20
11.6074948358
 30
0.0
 10
14.6729922304
 20
11.6093338312
 30
0.0
 10
14.6731892226
 20
11.6102217338
 30
0.0
  0
SPLINE
  5
2FF
100
AcDbEntity
  8
0
100
AcDbSpline
 62
7
  6
CONTINUOUS
 70
0
 71
3
 72
9
 73
5
 74
0
 42
0.0000001
 43
0.0000001
 44
0.0000000001
 40
0.0
 40
0.0
 40
0.0
 40
0.0
 40
0.489955519
 40
1.0
 40
1.0
 40
1.0
 40
1.0
 10
14.7661196484
 20
11.4553525698
 30
0.0
 10
14.7664060972
 20
11.4568854798
 30
0.0
 10
14.7668688198
 20
11.4600376923
 30
0.0
 10
14.7671158218
 20
11.4632134636
 30
0.0
 10
14.7671899248
 20
11.4648351552
 30
0.0
  0
SPLINE
  5
300
100
AcDbEntity
  8
0
100
AcDbSpline
 62
7
  6
CONTINUOUS
 70
0
 71
3
 72
13
 73
9
 74
0
 42
0.0000001
 43
0.0000001
 44
0.0000000001
 40
0.0
 40
0.0
 40
0.0
 40
0.0
 40
0.1010328336
 40
0.2132933283
 40
0.4629683387
 40
0.7319502674
 40
0.8676193502
 40
1.0
 40
1.0
 40
1.0
 40
1.0
 10
14.7584249853
 20
11.3679908282
 30
0.0
 10
14.7581084018
 20
11.3686575693
 30
0.0
 10
14.7575278654
 20
11.3701073007
 30
0.0
 10
14.7565591503
 20
11.3733510981
 30
0.0
 10
14.7557657084
 20
11.3779079261
 30
0.0
 10
14.7555164375
 20
11.3826921815
 30
0.0
 10
14.755646034
 20
11.3866149683
 30
0.0
 10
14.7558239867
 20
11.3885665624
 30
0.0
 10
14.7559430559
 20
11.3895262971
 30
0.0
  0
SPLINE
  5
301
100
AcDbEntity
  8
0
100
AcDbSpline
 62
7
  6
CONTINUOUS
 70
0
 71
3
 72
13
 73
9
 74
0
 42
0.0000001
 43
0.0000001
 44
0.0000000001
 40
0.0
 40
0.0
 40
0.0
 40
0.0
 40
0.0900085429
 40
0.1934140664
 40
0.308951835
 40
0.4349813756
 40
0.7105061252
 40
1.0
 40
1.0
 40
1.0
 40
1.0
 10
14.8589283475
 20
11.1980963626
 30
0.0
 10
14.8585588122
 20
11.1985873309
 30
0.0
 10
14.8578639184
 20
11.1997173027
 30
0.0
 10
14.8569909923
 20
11.2016413206
 30
0.0
 10
14.856235551
 20
11.203875737
 30
0.0
 10
14.8553876836
 20
11.2073059276
 30
0.0
 10
14.8547555192
 20
11.2119953023
 30
0.0
 10
14.8546806677
 20
11.2158611944
 30
0.0
 10
14.854757043
 20
11.2178361198
 30
0.0
  0
SPLINE
  5
302
100
AcDbEntity
  8
0
100
AcDbSpline
 62
7
  6
CONTINUOUS
 70
0
 71
3
 72
15
 73
11
 74
0
 42
0.0000001
 43
0.0000001
 44
0.0000000001
 40
0.0
 40
0.0
 40
0.0
 40
0.0
 40
0.0800689806
 40
0.1743395265
 40
0.2831834177
 40
0.4059646855
 40
0.5413050382
 40
0.6874121448
 40
0.8414735104
 40
1.0
 40
1.0
 40
1.0
 40
1.0
 10
14.9709909119
 20
11.0855735632
 30
0.0
 10
14.9705883184
 20
11.0858574816
 30
0.0
 10
14.969804032
 20
11.0866066654
 30
0.0
 10
14.968792963
 20
11.0880332733
 30
0.0
 10
14.9678744803
 20
11.0898220082
 30
0.0
 10
14.9670719009
 20
11.0919361066
 30
0.0
 10
14.9663969983
 20
11.0943327221
 30
0.0
 10
14.9658682908
 20
11.0969618701
 30
0.0
 10
14.9654944527
 20
11.0997609353
 30
0.0
 10
14.9653546242
 20
11.101680436
 30
0.0
 10
14.9653125384
 20
11.1026548867
 30
0.0
  0
SPLINE
  5
303
100
AcDbEntity
  8
0
100
AcDbSpline
 62
7
  6
CONTINUOUS
 70
0
 71
3
 72
15
 73
11
 74
0
 42
0.0000001
 43
0.0000001
 44
0.0000000001
 40
0.0
 40
0.0
 40
0.0
 40
0.0
 40
0.0752655292
 40
0.161552509
 40
0.2628010501
 40
0.3806433476
 40
0.5149923314
 40
0.6648283749
 40
0.8276537502
 40
1.0
 40
1.0
 40
1.0
 40
1.0
 10
15.0897150068
 20
11.0353402163
 30
0.0
 10
15.0893153458
 20
11.0354004058
 30
0.0
 10
15.0884813029
 20
11.0357070983
 30
0.0
 10
15.0873556185
 20
11.0365819586
 30
0.0
 10
15.0863064739
 20
11.0378551983
 30
0.0
 10
15.0853512234
 20
11.0395021657
 30
0.0
 10
15.0844993922
 20
11.0414903089
 30
0.0
 10
15.0837723853
 20
11.0437812176
 30
0.0
 10
15.0831826984
 20
11.0463202633
 30
0.0
 10
15.0828961457
 20
11.0480986954
 30
0.0
 10
15.0827777364
 20
11.0490165702
 30
0.0
  0
SPLINE
  5
304
100
AcDbEntity
  8
0
100
AcDbSpline
 62
7
  6
CONTINUOUS
 70
0
 71
3
 72
11
 73
7
 74
0
 42
0.0000001
 43
0.0000001
 44
0.0000000001
 40
0.0
 40
0.0
 40
0.0
 40
0.0
 40
0.230538066
 40
0.4778333162
 40
0.7365288894
 40
1.0
 40
1.0
 40
1.0
 40
1.0
 10
14.7953343271
 20
13.5676666235
 30
0.0
 10
14.7966974726
 20
13.572362517
 30
0.0
 10
14.7990539383
 20
13.5822349227
 30
0.0
 10
14.8014826343
 20
13.5976800609
 30
0.0
 10
14.8028820329
 20
13.6139525352
 30
0.0
 10
14.8031064799
 20
13.6250346812
 30
0.0
 10
14.8030371472
 20
13.6306225077
 30
0.0
  0
SPLINE
  5
305
100
AcDbEntity
  8
0
100
AcDbSpline
 62
7
  6
CONTINUOUS
 70
0
 71
3
 72
15
 73
11
 74
0
 42
0.0000001
 43
0.0000001
 44
0.0000000001
 40
0.0
 40
0.0
 40
0.0
 40
0.0
 40
0.0994901373
 40
0.209969547
 40
0.3299602474
 40
0.4576129073
 40
0.5907642517
 40
0.7271717088
 40
0.8645016581
 40
1.0
 40
1.0
 40
1.0
 40
1.0
 10
14.7052351936
 20
13.3318150288
 30
0.0
 10
14.7068200276
 20
13.3349312801
 30
0.0
 10
14.7097504988
 20
13.3417213858
 30
0.0
 10
14.7133231172
 20
13.3527652416
 30
0.0
 10
14.7162488046
 20
13.3650168019
 30
0.0
 10
14.7184632869
 20
13.3782227662
 30
0.0
 10
14.7199213167
 20
13.3921127134
 30
0.0
 10
14.7205913842
 20
13.4064029826
 30
0.0
 10
14.7204547597
 20
13.4207900313
 30
0.0
 10
14.7198267076
 20
13.4303629647
 30
0.0
 10
14.7193724989
 20
13.4351026863
 30
0.0
  0
SPLINE
  5
306
100
AcDbEntity
  8
AXIS
100
AcDbSpline
 62
7
  6
CONTINUOUS
 70
0
 71
3
 72
15
 73
11
 74
0
 42
0.0000001
 43
0.0000001
 44
0.0000000001
 40
0.0
 40
0.0
 40
0.0
 40
0.0
 40
0.1057147561
 40
0.2136210536
 40
0.3257667395
 40
0.443932444
 40
0.5695888028
 40
0.703761993
 40
0.8470966907
 40
1.0
 40
1.0
 40
1.0
 40
1.0
 10
16.1659078858
 20
13.3012024343
 30
0.0
 10
16.1646675679
 20
13.3012028498
 30
0.0
 10
16.1621567862
 20
13.3010031184
 30
0.0
 10
16.1584267922
 20
13.3001072537
 30
0.0
 10
16.1547322966
 20
13.29862349
 30
0.0
 10
16.1510881648
 20
13.2965606609
 30
0.0
 10
16.1475082441
 20
13.2939274146
 30
0.0
 10
16.1440041104
 20
13.2907389676
 30
0.0
 10
16.140587906
 20
13.2870120875
 30
0.0
 10
16.1384480092
 20
13.2842684858
 30
0.0
 10
16.1373935363
 20
13.2828171408
 30
0.0
  0
SPLINE
  5
307
100
AcDbEntity
  8
AXIS
100
AcDbSpline
 62
7
  6
CONTINUOUS
 70
0
 71
3
 72
15
 73
11
 74
0
 42
0.0000001
 43
0.0000001
 44
0.0000000001
 40
0.0
 40
0.0
 40
0.0
 40
0.0
 40
0.1139834755
 40
0.2291241392
 40
0.3465369442
 40
0.4672566322
 40
0.5922158409
 40
0.7222220318
 40
0.8579627685
 40
1.0
 40
1.0
 40
1.0
 40
1.0
 10
15.9316429654
 20
11.2385553646
 30
0.0
 10
15.9387189118
 20
11.2385554441
 30
0.0
 10
15.9529548244
 20
11.2393411146
 30
0.0
 10
15.97421635
 20
11.2428690133
 30
0.0
 10
15.9953887584
 20
11.2487368053
 30
0.0
 10
16.0164270403
 20
11.2569265771
 30
0.0
 10
16.0372913825
 20
11.2674197512
 30
0.0
 10
16.0579462211
 20
11.2801892566
 30
0.0
 10
16.0783536976
 20
11.2952091252
 30
0.0
 10
16.0914627656
 20
11.3064379566
 30
0.0
 10
16.0979674286
 20
11.3123908919
 30
0.0
  0
SPLINE
  5
308
100
AcDbEntity
  8
AXIS
100
AcDbSpline
 62
7
  6
CONTINUOUS
 70
0
 71
3
 72
11
 73
7
 74
0
 42
0.0000001
 43
0.0000001
 44
0.0000000001
 40
0.0
 40
0.0
 40
0.0
 40
0.0
 40
0.2256820534
 40
0.4672263583
 40
0.7252443722
 40
1.0
 40
1.0
 40
1.0
 40
1.0
 10
16.0988800961
 20
11.3132287304
 30
0.0
 10
16.1089731615
 20
11.3225228678
 30
0.0
 10
16.128899971
 20
11.3428331902
 30
0.0
 10
16.157006204
 20
11.3768616456
 30
0.0
 10
16.1842137369
 20
11.4153245549
 30
0.0
 10
16.2011561062
 20
11.4429582886
 30
0.0
 10
16.2094816912
 20
11.457439493
 30
0.0
  0
SPLINE
  5
309
100
AcDbEntity
  8
AXIS
100
AcDbSpline
 62
7
  6
CONTINUOUS
 70
0
 71
3
 72
11
 73
7
 74
0
 42
0.0000001
 43
0.0000001
 44
0.0000000001
 40
0.0
 40
0.0
 40
0.0
 40
0.0
 40
0.2275234986
 40
0.4704515527
 40
0.728237553
 40
1.0
 40
1.0
 40
1.0
 40
1.0
 10
16.2094816912
 20
11.457439493
 30
0.0
 10
16.2202650934
 20
11.4761957308
 30
0.0
 10
16.2411515312
 20
11.5157996436
 30
0.0
 10
16.2696497191
 20
11.5789504552
 30
0.0
 10
16.2962004415
 20
11.6474725955
 30
0.0
 10
16.312102763
 20
11.6952719367
 30
0.0
 10
16.3197324803
 20
11.7199617108
 30
0.0
  0
SPLINE
  5
30A
100
AcDbEntity
  8
AXIS
100
AcDbSpline
 62
7
  6
CONTINUOUS
 70
0
 71
3
 72
11
 73
7
 74
0
 42
0.0000001
 43
0.0000001
 44
0.0000000001
 40
0.0
 40
0.0
 40
0.0
 40
0.0
 40
0.2442391352
 40
0.4908314269
 40
0.7420455557
 40
1.0
 40
1.0
 40
1.0
 40
1.0
 10
15.9316429655
 20
13.7830546212
 30
0.0
 10
15.9385330095
 20
13.7830546985
 30
0.0
 10
15.9523907009
 20
13.7823103333
 30
0.0
 10
15.9730925574
 20
13.778965627
 30
0.0
 10
15.9937113468
 20
13.7734044851
 30
0.0
 10
16.0071673564
 20
13.7683062299
 30
0.0
 10
16.01384739
 20
13.765419841
 30
0.0
  0
SPLINE
  5
30B
100
AcDbEntity
  8
AXIS
100
AcDbSpline
 62
7
  6
CONTINUOUS
 70
0
 71
3
 72
9
 73
5
 74
0
 42
0.0000001
 43
0.0000001
 44
0.0000000001
 40
0.0
 40
0.0
 40
0.0
 40
0.0
 40
0.4843694838
 40
1.0
 40
1.0
 40
1.0
 40
1.0
 10
16.01384739
 20
13.765419841
 30
0.0
 10
16.024725599
 20
13.7607194544
 30
0.0
 10
16.046480714
 20
13.7493339444
 30
0.0
 10
16.0665683469
 20
13.7352564498
 30
0.0
 10
16.076490871
 20
13.7274664561
 30
0.0
  0
SPLINE
  5
30C
100
AcDbEntity
  8
AXIS
100
AcDbSpline
 62
7
  6
CONTINUOUS
 70
0
 71
3
 72
15
 73
11
 74
0
 42
0.0000001
 43
0.0000001
 44
0.0000000001
 40
0.0
 40
0.0
 40
0.0
 40
0.0
 40
0.1035206902
 40
0.212807981
 40
0.3281572266
 40
0.4497694324
 40
0.5777532339
 40
0.7121480506
 40
0.8529240887
 40
1.0
 40
1.0
 40
1.0
 40
1.0
 10
16.081143457
 20
13.7237494841
 30
0.0
 10
16.0892050591
 20
13.7171972609
 30
0.0
 10
16.1051975665
 20
13.7030027515
 30
0.0
 10
16.1281128529
 20
13.6793153727
 30
0.0
 10
16.1505331331
 20
13.6527375634
 30
0.0
 10
16.1724013891
 20
13.6233349085
 30
0.0
 10
16.1936694431
 20
13.5911803427
 30
0.0
 10
16.2142841557
 20
13.5563511316
 30
0.0
 10
16.2341974836
 20
13.5189340849
 30
0.0
 10
16.2467031286
 20
13.4928850122
 30
0.0
 10
16.2528414785
 20
13.4794626677
 30
0.0
  0
SPLINE
  5
30D
100
AcDbEntity
  8
AXIS
100
AcDbSpline
 62
7
  6
CONTINUOUS
 70
0
 71
3
 72
26
 73
22
 74
0
 42
0.0000001
 43
0.0000001
 44
0.0000000001
 40
0.0
 40
0.0
 40
0.0
 40
0.0
 40
0.0258619463
 40
0.0525639073
 40
0.0800719405
 40
0.1083479901
 40
0.1670332632
 40
0.228263274
 40
0.291639721
 40
0.3567349179
 40
0.4230986968
 40
0.490264813
 40
0.5577570494
 40
0.625095173
 40
0.6918009122
 40
0.7574035908
 40
0.8214471621
 40
0.8834933923
 40
0.9431365429
 40
0.971941916
 40
1.0
 40
1.0
 40
1.0
 40
1.0
 10
16.2784911603
 20
13.4192676092
 30
0.0
 10
16.2839851081
 20
13.4054356372
 30
0.0
 10
16.2947030092
 20
13.3771424701
 30
0.0
 10
16.3097569686
 20
13.333584673
 30
0.0
 10
16.3240191113
 20
13.2883023008
 30
0.0
 10
16.3421646405
 20
13.2249691386
 30
0.0
 10
16.3625724027
 20
13.1421290951
 30
0.0
 10
16.3831855486
 20
13.0386495324
 30
0.0
 10
16.4000423978
 20
12.9307584379
 30
0.0
 10
16.4130006778
 20
12.8193578993
 30
0.0
 10
16.4219508016
 20
12.7053775745
 30
0.0
 10
16.4268170505
 20
12.5897702473
 30
0.0
 10
16.4275581987
 20
12.4735025335
 30
0.0
 10
16.4241680622
 20
12.357546789
 30
0.0
 10
16.4166752549
 20
12.2428727023
 30
0.0
 10
16.4051434139
 20
12.1304387253
 30
0.0
 10
16.389669573
 20
12.0211842928
 30
0.0
 10
16.3703851156
 20
11.916021528
 30
0.0
 10
16.3510555563
 20
11.8315644542
 30
0.0
 10
16.3337413047
 20
11.7667853962
 30
0.0
 10
16.3244998243
 20
11.7353888415
 30
0.0
 10
16.3197324803
 20
11.7199617108
 30
0.0
  0
SPLINE
  5
30E
100
AcDbEntity
  8
0
100
AcDbSpline
 62
7
  6
CONTINUOUS
 70
0
 71
3
 72
15
 73
11
 74
0
 42
0.0000001
 43
0.0000001
 44
0.0000000001
 40
0.0
 40
0.0
 40
0.0
 40
0.0
 40
0.1757529657
 40
0.3401321146
 40
0.4899432977
 40
0.6229867073
 40
0.7387508365
 40
0.8379054789
 40
0.9232028902
 40
1.0
 40
1.0
 40
1.0
 40
1.0
 10
15.1312268684
 20
13.9761755012
 30
0.0
 10
15.1313711257
 20
13.977039966
 30
0.0
 10
15.1317044222
 20
13.9787046149
 30
0.0
 10
15.1323559641
 20
13.9810617075
 30
0.0
 10
15.1331309859
 20
13.9831564929
 30
0.0
 10
15.1340173128
 20
13.9849408746
 30
0.0
 10
15.1349948231
 20
13.9863828329
 30
0.0
 10
15.1360559607
 20
13.9874553055
 30
0.0
 10
15.137189654
 20
13.9881322455
 30
0.0
 10
15.1380026982
 20
13.988297083
 30
0.0
 10
15.138385658
 20
13.9882976943
 30
0.0
  0
SPLINE
  5
30F
100
AcDbEntity
  8
0
100
AcDbSpline
 62
7
  6
CONTINUOUS
 70
0
 71
3
 72
15
 73
11
 74
0
 42
0.0000001
 43
0.0000001
 44
0.0000000001
 40
0.0
 40
0.0
 40
0.0
 40
0.0
 40
0.1642389766
 40
0.3220733353
 40
0.469991083
 40
0.605258539
 40
0.7263177461
 40
0.8321789709
 40
0.9229027461
 40
1.0
 40
1.0
 40
1.0
 40
1.0
 10
15.0124129184
 20
13.9483260532
 30
0.0
 10
15.0124866427
 20
13.9492825131
 30
0.0
 10
15.0126876442
 20
13.9511543343
 30
0.0
 10
15.0131516031
 20
13.9538618972
 30
0.0
 10
15.0137640672
 20
13.9563665529
 30
0.0
 10
15.0145146419
 20
13.9586085762
 30
0.0
 10
15.0153832191
 20
13.9605422068
 30
0.0
 10
15.0163583047
 20
13.9621288909
 30
0.0
 10
15.01741722
 20
13.9633377273
 30
0.0
 10
15.0182285461
 20
13.9639151172
 30
0.0
 10
15.018635239
 20
13.9641084663
 30
0.0
  0
SPLINE
  5
310
100
AcDbEntity
  8
0
100
AcDbSpline
 62
7
  6
CONTINUOUS
 70
0
 71
3
 72
21
 73
17
 74
0
 42
0.0000001
 43
0.0000001
 44
0.0000000001
 40
0.0
 40
0.0
 40
0.0
 40
0.0
 40
0.0380589465
 40
0.0806713707
 40
0.127988026
 40
0.1799616819
 40
0.2363801759
 40
0.2968687166
 40
0.3609841016
 40
0.4281895894
 40
0.5694454983
 40
0.7154605439
 40
0.7885707033
 40
0.8608538325
 40
0.9315908265
 40
1.0
 40
1.0
 40
1.0
 40
1.0
 10
14.6308723429
 20
13.060970195
 30
0.0
 10
14.6322496865
 20
13.062175444
 30
0.0
 10
14.6349424764
 20
13.0649933953
 30
0.0
 10
14.6385616455
 20
13.0699880821
 30
0.0
 10
14.6419522608
 20
13.0759229562
 30
0.0
 10
14.6450794957
 20
13.0827353889
 30
0.0
 10
14.6479103282
 20
13.0903541975
 30
0.0
 10
14.6504174498
 20
13.0986959442
 30
0.0
 10
14.652567711
 20
13.1076703976
 30
0.0
 10
14.6549708634
 20
13.1205609157
 30
0.0
 10
14.6568995028
 20
13.1375221568
 30
0.0
 10
14.6574218715
 20
13.1548648874
 30
0.0
 10
14.6569854179
 20
13.1688749907
 30
0.0
 10
14.6562275384
 20
13.1792441381
 30
0.0
 10
14.655049622
 20
13.1893461513
 30
0.0
 10
14.6539755758
 20
13.1959537984
 30
0.0
 10
14.6533663131
 20
13.1991866204
 30
0.0
  0
SPLINE
  5
311
100
AcDbEntity
  8
0
100
AcDbSpline
 62
7
  6
CONTINUOUS
 70
0
 71
3
 72
13
 73
9
 74
0
 42
0.0000001
 43
0.0000001
 44
0.0000000001
 40
0.0
 40
0.0
 40
0.0
 40
0.0
 40
0.298695732
 40
0.5767404363
 40
0.7016053079
 40
0.8145548944
 40
0.9142691825
 40
1.0
 40
1.0
 40
1.0
 40
1.0
 10
14.8984501584
 20
13.8576500368
 30
0.0
 10
14.8984394332
 20
13.8596132037
 30
0.0
 10
14.8986350467
 20
13.8634077871
 30
0.0
 10
14.8994169665
 20
13.8679681472
 30
0.0
 10
14.9003794997
 20
13.8712230261
 30
0.0
 10
14.9012051673
 20
13.8732866059
 30
0.0
 10
14.9021381364
 20
13.8750166151
 30
0.0
 10
14.9028726184
 20
13.8759992577
 30
0.0
 10
14.9032586892
 20
13.8764096831
 30
0.0
  0
SPLINE
  5
312
100
AcDbEntity
  8
0
100
AcDbSpline
 62
7
  6
CONTINUOUS
 70
0
 71
3
 72
11
 73
7
 74
0
 42
0.0000001
 43
0.0000001
 44
0.0000000001
 40
0.0
 40
0.0
 40
0.0
 40
0.0
 40
0.3045498513
 40
0.5674701431
 40
0.7946377188
 40
1.0
 40
1.0
 40
1.0
 40
1.0
 10
14.8129477738
 20
13.7553429859
 30
0.0
 10
14.8132363888
 20
13.7558177626
 30
0.0
 10
14.8138330883
 20
13.7566698148
 30
0.0
 10
14.8148717286
 20
13.7576956927
 30
0.0
 10
14.8159795132
 20
13.758349323
 30
0.0
 10
14.8167742452
 20
13.7585031716
 30
0.0
 10
14.8171489063
 20
13.7585031833
 30
0.0
  0
SPLINE
  5
313
100
AcDbEntity
  8
0
100
AcDbSpline
 62
7
  6
CONTINUOUS
 70
0
 71
3
 72
14
 73
10
 74
0
 42
0.0000001
 43
0.0000001
 44
0.0000000001
 40
0.0
 40
0.0
 40
0.0
 40
0.0
 40
0.1373338096
 40
0.2765735942
 40
0.5482046722
 40
0.6756991384
 40
0.7947870485
 40
0.9034883836
 40
1.0
 40
1.0
 40
1.0
 40
1.0
 10
14.7943193079
 20
13.7081104292
 30
0.0
 10
14.7942328647
 20
13.7090871829
 30
0.0
 10
14.7941199731
 20
13.7110602096
 30
0.0
 10
14.7941194387
 20
13.7149755755
 30
0.0
 10
14.7944449281
 20
13.7188173152
 30
0.0
 10
14.7951166844
 20
13.7224583158
 30
0.0
 10
14.7957598846
 20
13.7249151072
 30
0.0
 10
14.7965344844
 20
13.7271001499
 30
0.0
 10
14.7971640779
 20
13.7284279368
 30
0.0
 10
14.797503893
 20
13.729027422
 30
0.0
  0
SPLINE
  5
314
100
AcDbEntity
  8
0
100
AcDbSpline
 62
7
  6
CONTINUOUS
 70
0
 71
3
 72
9
 73
5
 74
0
 42
0.0000001
 43
0.0000001
 44
0.0000000001
 40
0.0
 40
0.0
 40
0.0
 40
0.0
 40
0.2545620957
 40
1.0
 40
1.0
 40
1.0
 40
1.0
 10
14.8030371472
 20
13.6306225077
 30
0.0
 10
14.8030269197
 20
13.6314467873
 30
0.0
 10
14.8029345351
 20
13.6346838226
 30
0.0
 10
14.8026367066
 20
13.637916065
 30
0.0
 10
14.8022840686
 20
13.6403041046
 30
0.0
  0
SPLINE
  5
315
100
AcDbEntity
  8
0
100
AcDbSpline
 62
7
  6
CONTINUOUS
 70
0
 71
3
 72
14
 73
10
 74
0
 42
0.0000001
 43
0.0000001
 44
0.0000000001
 40
0.0
 40
0.0
 40
0.0
 40
0.0
 40
0.323327649
 40
0.4654230487
 40
0.5939451914
 40
0.7093390487
 40
0.813390724
 40
0.9089743613
 40
1.0
 40
1.0
 40
1.0
 40
1.0
 10
14.7189686077
 20
13.5623890379
 30
0.0
 10
14.7193001642
 20
13.5632299265
 30
0.0
 10
14.7198525119
 20
13.5644160768
 30
0.0
 10
14.7207565756
 20
13.5658115734
 30
0.0
 10
14.7214408121
 20
13.566649629
 30
0.0
 10
14.7221567614
 20
13.5673137556
 30
0.0
 10
14.7228993245
 20
13.567797038
 30
0.0
 10
14.7236630886
 20
13.5680929883
 30
0.0
 10
14.7241869839
 20
13.5681599877
 30
0.0
 10
14.7244414543
 20
13.5681594852
 30
0.0
  0
SPLINE
  5
316
100
AcDbEntity
  8
0
100
AcDbSpline
 62
7
  6
CONTINUOUS
 70
0
 71
3
 72
13
 73
9
 74
0
 42
0.0000001
 43
0.0000001
 44
0.0000000001
 40
0.0
 40
0.0
 40
0.0
 40
0.0
 40
0.1253359001
 40
0.255865558
 40
0.5208565933
 40
0.7749899583
 40
0.8923408084
 40
1.0
 40
1.0
 40
1.0
 40
1.0
 10
14.7045713848
 20
13.5062428287
 30
0.0
 10
14.7044054391
 20
13.5071649151
 30
0.0
 10
14.7041333485
 20
13.5090597433
 30
0.0
 10
14.703814324
 20
13.5129419283
 30
0.0
 10
14.703839055
 20
13.5178091232
 30
0.0
 10
14.7044119075
 20
13.5225462749
 30
0.0
 10
14.7052112464
 20
13.5260402497
 30
0.0
 10
14.7057137885
 20
13.5276481608
 30
0.0
 10
14.7059928425
 20
13.5284029951
 30
0.0
  0
SPLINE
  5
317
100
AcDbEntity
  8
0
100
AcDbSpline
 62
7
  6
CONTINUOUS
 70
0
 71
3
 72
9
 73
5
 74
0
 42
0.0000001
 43
0.0000001
 44
0.0000000001
 40
0.0
 40
0.0
 40
0.0
 40
0.0
 40
0.514696179
 40
1.0
 40
1.0
 40
1.0
 40
1.0
 10
14.7193724989
 20
13.4351026863
 30
0.0
 10
14.7192219151
 20
13.4366740461
 30
0.0
 10
14.7188288657
 20
13.4397184233
 30
0.0
 10
14.7182138786
 20
13.4427268923
 30
0.0
 10
14.71785201
 20
13.444170646
 30
0.0
  0
SPLINE
  5
318
100
AcDbEntity
  8
0
100
AcDbSpline
 62
7
  6
CONTINUOUS
 70
0
 71
3
 72
15
 73
11
 74
0
 42
0.0000001
 43
0.0000001
 44
0.0000000001
 40
0.0
 40
0.0
 40
0.0
 40
0.0
 40
0.1739856833
 40
0.3352784168
 40
0.4819961679
 40
0.6127618098
 40
0.7276989487
 40
0.8282476
 40
0.9173546931
 40
1.0
 40
1.0
 40
1.0
 40
1.0
 10
14.6426655561
 20
13.323475821
 30
0.0
 10
14.6428351792
 20
13.3241375095
 30
0.0
 10
14.6432026678
 20
13.3254027847
 30
0.0
 10
14.643863042
 20
13.3271781861
 30
0.0
 10
14.6446018046
 20
13.3287373554
 30
0.0
 10
14.645410984
 20
13.3300529609
 30
0.0
 10
14.6462797807
 20
13.3311055372
 30
0.0
 10
14.6471999702
 20
13.3318827349
 30
0.0
 10
14.6481681644
 20
13.3323648063
 30
0.0
 10
14.6488464292
 20
13.3324754572
 30
0.0
 10
14.6491709023
 20
13.3324755965
 30
0.0
  0
SPLINE
  5
319
100
AcDbEntity
  8
0
100
AcDbSpline
 62
7
  6
CONTINUOUS
 70
0
 71
3
 72
13
 73
9
 74
0
 42
0.0000001
 43
0.0000001
 44
0.0000000001
 40
0.0
 40
0.0
 40
0.0
 40
0.0
 40
0.1139204314
 40
0.2359929284
 40
0.4941191083
 40
0.7553049738
 40
0.8810928951
 40
1.0
 40
1.0
 40
1.0
 40
1.0
 10
14.6331288038
 20
13.2608698181
 30
0.0
 10
14.6328882022
 20
13.2616956002
 30
0.0
 10
14.6324646027
 20
13.2634285109
 30
0.0
 10
14.6318327782
 20
13.2671075482
 30
0.0
 10
14.6314729195
 20
13.2719492327
 30
0.0
 10
14.6316629717
 20
13.2768278313
 30
0.0
 10
14.6321583849
 20
13.2806170687
 30
0.0
 10
14.6325165344
 20
13.2824314239
 30
0.0
 10
14.6327250097
 20
13.2833046525
 30
0.0
  0
SPLINE
  5
31A
100
AcDbEntity
  8
0
100
AcDbSpline
 62
7
  6
CONTINUOUS
 70
0
 71
3
 72
9
 73
5
 74
0
 42
0.0000001
 43
0.0000001
 44
0.0000000001
 40
0.0
 40
0.0
 40
0.0
 40
0.0
 40
0.5114250057
 40
1.0
 40
1.0
 40
1.0
 40
1.0
 10
14.6331288038
 20
13.2608698181
 30
0.0
 10
14.6358270989
 20
13.2516088478
 30
0.0
 10
14.6414476475
 20
13.2335987726
 30
0.0
 10
14.6478245197
 20
13.2158407303
 30
0.0
 10
14.6511448666
 20
13.2072446295
 30
0.0
  0
SPLINE
  5
31B
100
AcDbEntity
  8
0
100
AcDbSpline
 62
7
  6
CONTINUOUS
 70
0
 71
3
 72
9
 73
5
 74
0
 42
0.0000001
 43
0.0000001
 44
0.0000000001
 40
0.0
 40
0.0
 40
0.0
 40
0.0
 40
0.5230721782
 40
1.0
 40
1.0
 40
1.0
 40
1.0
 10
14.6533663131
 20
13.1991866204
 30
0.0
 10
14.6530961297
 20
13.2006202466
 30
0.0
 10
14.6524791667
 20
13.2033434331
 30
0.0
 10
14.6516241476
 20
13.2060038111
 30
0.0
 10
14.6511448666
 20
13.2072446295
 30
0.0
  0
SPLINE
  5
31C
100
AcDbEntity
  8
0
100
AcDbSpline
 62
7
  6
CONTINUOUS
 70
0
 71
3
 72
21
 73
17
 74
0
 42
0.0000001
 43
0.0000001
 44
0.0000000001
 40
0.0
 40
0.0
 40
0.0
 40
0.0
 40
0.0407115417
 40
0.0864642198
 40
0.1371503769
 40
0.1925002972
 40
0.2521302854
 40
0.3155304256
 40
0.382069788
 40
0.4510698945
 40
0.5934320543
 40
0.7364412061
 40
0.8062462935
 40
0.8739355125
 40
0.9387763721
 40
1.0
 40
1.0
 40
1.0
 40
1.0
 10
14.5925516048
 20
12.7800203478
 30
0.0
 10
14.5939942841
 20
12.7816164153
 30
0.0
 10
14.5967802263
 20
12.7852602563
 30
0.0
 10
14.6004682571
 20
12.7915137967
 30
0.0
 10
14.6038548756
 20
12.7987973788
 30
0.0
 10
14.6068981814
 20
12.8070145185
 30
0.0
 10
14.6095607653
 20
12.8160641439
 30
0.0
 10
14.6118085643
 20
12.8258321602
 30
0.0
 10
14.6136146541
 20
12.8361939323
 30
0.0
 10
14.6154141028
 20
12.8507743605
 30
0.0
 10
14.6164025671
 20
12.8695023023
 30
0.0
 10
14.6157581554
 20
12.8882872765
 30
0.0
 10
14.6142330017
 20
12.9030368817
 30
0.0
 10
14.612621009
 20
12.9136121011
 30
0.0
 10
14.6105531267
 20
12.9236449288
 30
0.0
 10
14.6088397085
 20
12.9300879808
 30
0.0
 10
14.6079033769
 20
12.9331849742
 30
0.0
  0
SPLINE
  5
31D
100
AcDbEntity
  8
AXIS
100
AcDbSpline
 62
7
  6
CONTINUOUS
 70
0
 71
3
 72
26
 73
22
 74
0
 42
0.0000001
 43
0.0000001
 44
0.0000000001
 40
0.0
 40
0.0
 40
0.0
 40
0.0
 40
0.0800453425
 40
0.1613637473
 40
0.2429083647
 40
0.323785527
 40
0.4031371686
 40
0.4800987245
 40
0.5538389757
 40
0.623619312
 40
0.6887789977
 40
0.7487929314
 40
0.8032738566
 40
0.8520682898
 40
0.8952928987
 40
0.9149914161
 40
0.9335429741
 40
0.9511018434
 40
0.967868014
 40
0.9840780485
 40
1.0
 40
1.0
 40
1.0
 40
1.0
 10
15.6856165709
 20
11.8208663447
 30
0.0
 10
15.6850113344
 20
11.8150894396
 30
0.0
 10
15.6840705311
 20
11.8034129255
 30
0.0
 10
15.6834458712
 20
11.7857917074
 30
0.0
 10
15.6836090205
 20
11.7680994105
 30
0.0
 10
15.6845529959
 20
11.7505744813
 30
0.0
 10
15.6862684845
 20
11.7334420442
 30
0.0
 10
15.6887278483
 20
11.7169232857
 30
0.0
 10
15.6919045753
 20
11.7012344811
 30
0.0
 10
15.6957508229
 20
11.6865786074
 30
0.0
 10
15.7002218787
 20
11.6731449462
 30
0.0
 10
15.705253567
 20
11.6611030804
 30
0.0
 10
15.7107903743
 20
11.6506049197
 30
0.0
 10
15.7167581462
 20
11.6417780371
 30
0.0
 10
15.7222093973
 20
11.6357253945
 30
0.0
 10
15.7267369101
 20
11.6319101291
 30
0.0
 10
15.7300892368
 20
11.629623775
 30
0.0
 10
15.7334937288
 20
11.6278340691
 30
0.0
 10
15.736939306
 20
11.6265475123
 30
0.0
 10
15.7404131988
 20
11.6257709401
 30
0.0
 10
15.7427484246
 20
11.6255972625
 30
0.0
 10
15.7439038075
 20
11.6255975127
 30
0.0
  0
SPLINE
  5
31E
100
AcDbEntity
  8
AXIS
100
AcDbSpline
 62
7
  6
CONTINUOUS
 70
0
 71
3
 72
15
 73
11
 74
0
 42
0.0000001
 43
0.0000001
 44
0.0000000001
 40
0.0
 40
0.0
 40
0.0
 40
0.0
 40
0.1471994578
 40
0.2867309463
 40
0.4190043236
 40
0.544649316
 40
0.6644902357
 40
0.7795253652
 40
0.8909212425
 40
1.0
 40
1.0
 40
1.0
 40
1.0
 10
15.781223048
 20
11.6587738099
 30
0.0
 10
15.7865519562
 20
11.6525700456
 30
0.0
 10
15.7973189136
 20
11.6408092692
 30
0.0
 10
15.8142513615
 20
11.624801862
 30
0.0
 10
15.8314872871
 20
11.610955772
 30
0.0
 10
15.8489849052
 20
11.5993098059
 30
0.0
 10
15.8667060438
 20
11.5898969874
 30
0.0
 10
15.8846109097
 20
11.582746639
 30
0.0
 10
15.9026506464
 20
11.5778851948
 30
0.0
 10
15.9148184282
 20
11.576174585
 30
0.0
 10
15.9208612936
 20
11.5757150716
 30
0.0
  0
SPLINE
  5
31F
100
AcDbEntity
  8
AXIS
100
AcDbSpline
 62
7
  6
CONTINUOUS
 70
0
 71
3
 72
23
 73
19
 74
0
 42
0.0000001
 43
0.0000001
 44
0.0000000001
 40
0.0
 40
0.0
 40
0.0
 40
0.0
 40
0.083278557
 40
0.1635919673
 40
0.2408790258
 40
0.3151115101
 40
0.3863016056
 40
0.4544813082
 40
0.5197063898
 40
0.5820580557
 40
0.6416506073
 40
0.6986399633
 40
0.7532202757
 40
0.8056319886
 40
0.8561619107
 40
0.9051422116
 40
0.9529506257
 40
1.0
 40
1.0
 40
1.0
 40
1.0
 10
15.6984212978
 20
13.2294718468
 30
0.0
 10
15.7022306038
 20
13.237623662
 30
0.0
 10
15.7099693319
 20
13.2535193472
 30
0.0
 10
15.7221694706
 20
13.276514883
 30
0.0
 10
15.7347323618
 20
13.298192768
 30
0.0
 10
15.7476358251
 20
13.3185119384
 30
0.0
 10
15.7608567776
 20
13.3374385568
 30
0.0
 10
15.7743749074
 20
13.354940842
 30
0.0
 10
15.7881671169
 20
13.3709899392
 30
0.0
 10
15.8022107592
 20
13.3855581076
 30
0.0
 10
15.8164839293
 20
13.3986187178
 30
0.0
 10
15.8309621867
 20
13.4101500641
 30
0.0
 10
15.8456234871
 20
13.4201299617
 30
0.0
 10
15.8604438411
 20
13.4285395201
 30
0.0
 10
15.8753982671
 20
13.4353623518
 30
0.0
 10
15.8904626868
 20
13.4405810028
 30
0.0
 10
15.9056066875
 20
13.4441844843
 30
0.0
 10
15.9157924021
 20
13.4455098286
 30
0.0
 10
15.9208612913
 20
13.4458951046
 30
0.0
  0
SPLINE
  5
320
100
AcDbEntity
  8
AXIS
100
AcDbSpline
 62
7
  6
CONTINUOUS
 70
0
 71
3
 72
23
 73
19
 74
0
 42
0.0000001
 43
0.0000001
 44
0.0000000001
 40
0.0
 40
0.0
 40
0.0
 40
0.0
 40
0.0621445825
 40
0.1260063004
 40
0.1912294408
 40
0.2574697818
 40
0.3243604783
 40
0.3915314313
 40
0.4586100788
 40
0.5252242503
 40
0.591006337
 40
0.6555969213
 40
0.7186483082
 40
0.7798288006
 40
0.8388263947
 40
0.895351416
 40
0.9491540641
 40
1.0
 40
1.0
 40
1.0
 40
1.0
 10
15.6061115149
 20
12.9307572798
 30
0.0
 10
15.6016307364
 20
12.9078531565
 30
0.0
 10
15.5934395347
 20
12.8612330932
 30
0.0
 10
15.5835398067
 20
12.7900890408
 30
0.0
 10
15.5759057478
 20
12.7171193785
 30
0.0
 10
15.5705863547
 20
12.6428049976
 30
0.0
 10
15.5676176554
 20
12.5676278527
 30
0.0
 10
15.5670187395
 20
12.4920798506
 30
0.0
 10
15.5687934003
 20
12.4166541391
 30
0.0
 10
15.5729301257
 20
12.3418431615
 30
0.0
 10
15.579401895
 20
12.2681353785
 30
0.0
 10
15.5881658506
 20
12.1960117951
 30
0.0
 10
15.5991641011
 20
12.1259427044
 30
0.0
 10
15.6123244334
 20
12.0583845581
 30
0.0
 10
15.6275607261
 20
11.9937781282
 30
0.0
 10
15.6447724056
 20
11.9325397823
 30
0.0
 10
15.6638472751
 20
11.8750720114
 30
0.0
 10
15.6781437247
 20
11.8384384769
 30
0.0
 10
15.6856165709
 20
11.8208663447
 30
0.0
  0
SPLINE
  5
321
100
AcDbEntity
  8
AXIS
100
AcDbSpline
 62
7
  6
CONTINUOUS
 70
0
 71
3
 72
30
 73
26
 74
0
 42
0.0000001
 43
0.0000001
 44
0.0000000001
 40
0.0
 40
0.0
 40
0.0
 40
0.0
 40
0.0326690355
 40
0.066702181
 40
0.1382355166
 40
0.2134079591
 40
0.2910429467
 40
0.3698509406
 40
0.4484938858
 40
0.5256477918
 40
0.6000367285
 40
0.6704600992
 40
0.7358575198
 40
0.7663941784
 40
0.7953661938
 40
0.8227002049
 40
0.8483513269
 40
0.8723050014
 40
0.8945721218
 40
0.9152074573
 40
0.9343226827
 40
0.9520839798
 40
0.9687288776
 40
0.9845748807
 40
1.0
 40
1.0
 40
1.0
 40
1.0
 10
15.6061115149
 20
12.9307572798
 30
0.0
 10
15.6049518417
 20
12.9343736941
 30
0.0
 10
15.6027422077
 20
12.941809033
 30
0.0
 10
15.598755397
 20
12.9573797118
 30
0.0
 10
15.5946452599
 20
12.9780027872
 30
0.0
 10
15.5911629789
 20
13.0038641366
 30
0.0
 10
15.5891208624
 20
13.0307265586
 30
0.0
 10
15.588555568
 20
13.0580632283
 30
0.0
 10
15.5894839892
 20
13.0853342719
 30
0.0
 10
15.5918849883
 20
13.1120000581
 30
0.0
 10
15.5957081374
 20
13.1375357371
 30
0.0
 10
15.6008808405
 20
13.1614371881
 30
0.0
 10
15.6063424708
 20
13.1800133198
 30
0.0
 10
15.6113576777
 20
13.1936450859
 30
0.0
 10
15.615296167
 20
13.2029454565
 30
0.0
 10
15.6194805494
 20
13.2115107499
 30
0.0
 10
15.6238908168
 20
13.2192991668
 30
0.0
 10
15.6285036327
 20
13.2262746737
 30
0.0
 10
15.6332995146
 20
13.2324027695
 30
0.0
 10
15.6382588679
 20
13.2376521562
 30
0.0
 10
15.6433584005
 20
13.2419991272
 30
0.0
 10
15.64857887
 20
13.24541909
 30
0.0
 10
15.6539014088
 20
13.2478842292
 30
0.0
 10
15.6592948564
 20
13.2493767363
 30
0.0
 10
15.6629381499
 20
13.2497132142
 30
0.0
 10
15.6647313322
 20
13.2497136173
 30
0.0
  0
SPLINE
  5
322
100
AcDbEntity
  8
0
100
AcDbSpline
 62
7
  6
CONTINUOUS
 70
0
 71
3
 72
21
 73
17
 74
0
 42
0.0000001
 43
0.0000001
 44
0.0000000001
 40
0.0
 40
0.0
 40
0.0
 40
0.0
 40
0.0487080898
 40
0.1021326992
 40
0.159809211
 40
0.2212191126
 40
0.2858002267
 40
0.3529098761
 40
0.4917546292
 40
0.6317483951
 40
0.7002718801
 40
0.76679283
 40
0.8306289034
 40
0.8911652296
 40
0.9478111828
 40
1.0
 40
1.0
 40
1.0
 40
1.0
 10
14.5823552564
 20
12.4907093243
 30
0.0
 10
14.5836239146
 20
12.4930166307
 30
0.0
 10
14.5860263931
 20
12.4979980989
 30
0.0
 10
14.5891306361
 20
12.5060680532
 30
0.0
 10
14.5918593437
 20
12.5149928635
 30
0.0
 10
14.5941775184
 20
12.5246527647
 30
0.0
 10
14.5960557476
 20
12.5349261203
 30
0.0
 10
14.5979620847
 20
12.5494311607
 30
0.0
 10
14.5990847856
 20
12.568126114
 30
0.0
 10
14.5985721675
 20
12.586923053
 30
0.0
 10
14.5971549841
 20
12.6017281713
 30
0.0
 10
14.5956206076
 20
12.61237386
 30
0.0
 10
14.593627402
 20
12.6225038406
 30
0.0
 10
14.5912007466
 20
12.6319899628
 30
0.0
 10
14.5883718581
 20
12.6407045222
 30
0.0
 10
14.5861522386
 20
12.6461614053
 30
0.0
 10
14.5849706387
 20
12.6487232959
 30
0.0
  0
LINE
  5
323
100
AcDbEntity
  8
AXIS
100
AcDbLine
 62
7
  6
CONTINUOUS
 10
15.7047664579
 20
11.662996386
 11
15.781223048
 21
11.6587738099
  0
SPLINE
  5
324
100
AcDbEntity
  8
0
100
AcDbSpline
 62
7
  6
CONTINUOUS
 70
0
 71
3
 72
21
 73
17
 74
0
 42
0.0000001
 43
0.0000001
 44
0.0000000001
 40
0.0
 40
0.0
 40
0.0
 40
0.0
 40
0.0574826464
 40
0.1189540631
 40
0.1837211484
 40
0.2511042397
 40
0.3204234424
 40
0.3909478466
 40
0.5324342882
 40
0.6693899241
 40
0.7343407044
 40
0.7960152758
 40
0.8538423139
 40
0.9073549316
 40
0.9561663693
 40
1.0
 40
1.0
 40
1.0
 40
1.0
 10
14.5958056814
 20
12.2022765778
 30
0.0
 10
14.5968462303
 20
12.2051730152
 30
0.0
 10
14.5987736324
 20
12.2112493504
 30
0.0
 10
14.6011631148
 20
12.220796606
 30
0.0
 10
14.6031161497
 20
12.2309827858
 30
0.0
 10
14.6046076787
 20
12.2416702883
 30
0.0
 10
14.6056187421
 20
12.2527233877
 30
0.0
 10
14.6063091096
 20
12.2677744884
 30
0.0
 10
14.6059308976
 20
12.2864798668
 30
0.0
 10
14.6039219997
 20
12.304785403
 30
0.0
 10
14.6013170792
 20
12.3186612334
 30
0.0
 10
14.5989603397
 20
12.3282575771
 30
0.0
 10
14.5961969225
 20
12.337106008
 30
0.0
 10
14.5930613539
 20
12.345096397
 30
0.0
 10
14.5895932927
 20
12.3521222247
 30
0.0
 10
14.5869504358
 20
12.3563356817
 30
0.0
 10
14.5855703693
 20
12.3582339261
 30
0.0
  0
SPLINE
  5
325
100
AcDbEntity
  8
0
100
AcDbSpline
 62
7
  6
CONTINUOUS
 70
0
 71
3
 72
21
 73
17
 74
0
 42
0.0000001
 43
0.0000001
 44
0.0000000001
 40
0.0
 40
0.0
 40
0.0
 40
0.0
 40
0.0668916791
 40
0.13678359
 40
0.2088056819
 40
0.282156422
 40
0.4297151445
 40
0.573088395
 40
0.6412778233
 40
0.7061680854
 40
0.7671425788
 40
0.8236554131
 40
0.8753153468
 40
0.9219031923
 40
0.9633858588
 40
1.0
 40
1.0
 40
1.0
 40
1.0
 10
14.6323150319
 20
11.9273280037
 30
0.0
 10
14.6330888785
 20
11.9306757963
 30
0.0
 10
14.6344709024
 20
11.9375689572
 30
0.0
 10
14.6360411721
 20
11.9481832833
 30
0.0
 10
14.6371327182
 20
11.9591912123
 30
0.0
 10
14.6379322761
 20
11.9742214336
 30
0.0
 10
14.6376846761
 20
11.9929574205
 30
0.0
 10
14.6358079608
 20
12.01133834
 30
0.0
 10
14.6333062429
 20
12.0253228292
 30
0.0
 10
14.6310166912
 20
12.0350301366
 30
0.0
 10
14.6283178646
 20
12.0440079846
 30
0.0
 10
14.6252419747
 20
12.0521428051
 30
0.0
 10
14.6218276365
 20
12.0593333329
 30
0.0
 10
14.6181141767
 20
12.0654935397
 30
0.0
 10
14.6141445722
 20
12.0705424196
 30
0.0
 10
14.6111847101
 20
12.0732891622
 30
0.0
 10
14.6096763575
 20
12.074412644
 30
0.0
  0
SPLINE
  5
326
100
AcDbEntity
  8
0
100
AcDbSpline
 62
7
  6
CONTINUOUS
 70
0
 71
3
 72
18
 73
14
 74
0
 42
0.0000001
 43
0.0000001
 44
0.0000000001
 40
0.0
 40
0.0
 40
0.0
 40
0.0
 40
0.1366426716
 40
0.2765758009
 40
0.4161183317
 40
0.551995314
 40
0.6809678645
 40
0.7419388714
 40
0.8001239831
 40
0.8552275726
 40
0.9070190047
 40
0.9553193852
 40
1.0
 40
1.0
 40
1.0
 40
1.0
 10
14.6902876738
 20
11.6778801737
 30
0.0
 10
14.6910085954
 20
11.6833518778
 30
0.0
 10
14.6920599147
 20
11.6944839036
 30
0.0
 10
14.6925237693
 20
11.7112958098
 30
0.0
 10
14.6918837761
 20
11.7280724017
 30
0.0
 10
14.6901607918
 20
11.7443271119
 30
0.0
 10
14.6878267277
 20
11.7572935536
 30
0.0
 10
14.6854262274
 20
11.7670266498
 30
0.0
 10
14.683431297
 20
11.7737792237
 30
0.0
 10
14.6812200173
 20
11.7800727587
 30
0.0
 10
14.6788093791
 20
11.7858632201
 30
0.0
 10
14.6762186617
 20
11.7911100453
 30
0.0
 10
14.6743063425
 20
11.7943480384
 30
0.0
 10
14.6733183104
 20
11.7958581867
 30
0.0
  0
SPLINE
  5
327
100
AcDbEntity
  8
0
100
AcDbSpline
 62
7
  6
CONTINUOUS
 70
0
 71
3
 72
14
 73
10
 74
0
 42
0.0000001
 43
0.0000001
 44
0.0000000001
 40
0.0
 40
0.0
 40
0.0
 40
0.0
 40
0.1334347211
 40
0.2672289781
 40
0.5296434902
 40
0.6557569439
 40
0.7769026955
 40
0.8919887504
 40
1.0
 40
1.0
 40
1.0
 40
1.0
 10
14.7671899248
 20
11.4648351552
 30
0.0
 10
14.7673541985
 20
11.4684301685
 30
0.0
 10
14.7675281273
 20
11.4756380724
 30
0.0
 10
14.767276472
 20
11.4899230008
 30
0.0
 10
14.7661435834
 20
11.5039864931
 30
0.0
 10
14.7640984177
 20
11.5175836679
 30
0.0
 10
14.7621702959
 20
11.5271687297
 30
0.0
 10
14.7598557361
 20
11.5361645401
 30
0.0
 10
14.7580064914
 20
11.5418956425
 30
0.0
 10
14.7570133124
 20
11.5446341961
 30
0.0
  0
SPLINE
  5
328
100
AcDbEntity
  8
0
100
AcDbSpline
 62
7
  6
CONTINUOUS
 70
0
 71
3
 72
9
 73
5
 74
0
 42
0.0000001
 43
0.0000001
 44
0.0000000001
 40
0.0
 40
0.0
 40
0.0
 40
0.0
 40
0.5118878988
 40
1.0
 40
1.0
 40
1.0
 40
1.0
 10
14.8596607872
 20
11.2975040377
 30
0.0
 10
14.8594298563
 20
11.3038875341
 30
0.0
 10
14.8585101664
 20
11.3163457872
 30
0.0
 10
14.8565978203
 20
11.3286950373
 30
0.0
 10
14.8553801084
 20
11.3346630555
 30
0.0
  0
SPLINE
  5
329
100
AcDbEntity
  8
AXIS
100
AcDbSpline
 62
7
  6
CONTINUOUS
 70
0
 71
3
 72
23
 73
19
 74
0
 42
0.0000001
 43
0.0000001
 44
0.0000000001
 40
0.0
 40
0.0
 40
0.0
 40
0.0
 40
0.0860467518
 40
0.1691538892
 40
0.2491518114
 40
0.3259306941
 40
0.399407107
 40
0.469516653
 40
0.5362199543
 40
0.5995179805
 40
0.6594493949
 40
0.716102423
 40
0.7696173031
 40
0.8202011764
 40
0.8681312334
 40
0.9137670356
 40
0.9575493669
 40
1.0
 40
1.0
 40
1.0
 40
1.0
 10
15.5435534507
 20
13.301648275
 30
0.0
 10
15.5488394399
 20
13.3187537426
 30
0.0
 10
15.5597331698
 20
13.3522280171
 30
0.0
 10
15.5773639067
 20
13.4009883376
 30
0.0
 10
15.5959648456
 20
13.4473168589
 30
0.0
 10
15.615481303
 20
13.4910832518
 30
0.0
 10
15.6358628786
 20
13.5321707656
 30
0.0
 10
15.6570527007
 20
13.5704703924
 30
0.0
 10
15.6789969625
 20
13.6058769543
 30
0.0
 10
15.7016347955
 20
13.6382962458
 30
0.0
 10
15.7249100133
 20
13.6676397029
 30
0.0
 10
15.7487605149
 20
13.6938300359
 30
0.0
 10
15.7731294722
 20
13.7167932312
 30
0.0
 10
15.7979546367
 20
13.7364669528
 30
0.0
 10
15.8231777955
 20
13.7527889812
 30
0.0
 10
15.8487360597
 20
13.7657085509
 30
0.0
 10
15.874558191
 20
13.7751713578
 30
0.0
 10
15.8921042313
 20
13.7791955909
 30
0.0
 10
15.9008258726
 20
13.7805914011
 30
0.0
  0
SPLINE
  5
32A
100
AcDbEntity
  8
AXIS
100
AcDbSpline
 62
7
  6
CONTINUOUS
 70
0
 71
3
 72
15
 73
11
 74
0
 42
0.0000001
 43
0.0000001
 44
0.0000000001
 40
0.0
 40
0.0
 40
0.0
 40
0.0
 40
0.0964011226
 40
0.1964113315
 40
0.3031802339
 40
0.4191702917
 40
0.5460942916
 40
0.6850535162
 40
0.8364063883
 40
1.0
 40
1.0
 40
1.0
 40
1.0
 10
15.7439038075
 20
11.6255975127
 30
0.0
 10
15.7455879126
 20
11.6255978773
 30
0.0
 10
15.749029368
 20
11.6259748069
 30
0.0
 10
15.7540926494
 20
11.6276377273
 30
0.0
 10
15.7590559236
 20
11.6303734525
 30
0.0
 10
15.7638864062
 20
11.6341478023
 30
0.0
 10
15.7685645538
 20
11.6389267316
 30
0.0
 10
15.7730609248
 20
11.6446795585
 30
0.0
 10
15.7773509095
 20
11.6513593751
 30
0.0
 10
15.7799551317
 20
11.6562125169
 30
0.0
 10
15.781223048
 20
11.6587738099
 30
0.0
  0
SPLINE
  5
32B
100
AcDbEntity
  8
AXIS
100
AcDbSpline
 62
7
  6
CONTINUOUS
 70
0
 71
3
 72
15
 73
11
 74
0
 42
0.0000001
 43
0.0000001
 44
0.0000000001
 40
0.0
 40
0.0
 40
0.0
 40
0.0
 40
0.1075133666
 40
0.2169823674
 40
0.3302469722
 40
0.4489412071
 40
0.5744327784
 40
0.7076927049
 40
0.8493938415
 40
1.0
 40
1.0
 40
1.0
 40
1.0
 10
15.6647313322
 20
13.2497136173
 30
0.0
 10
15.6661886516
 20
13.2497139448
 30
0.0
 10
15.6691342977
 20
13.2494945597
 30
0.0
 10
15.6735165379
 20
13.248513186
 30
0.0
 10
15.6778636461
 20
13.2468857443
 30
0.0
 10
15.6821596317
 20
13.2446198017
 30
0.0
 10
15.6863895072
 20
13.2417240222
 30
0.0
 10
15.6905414287
 20
13.2382148506
 30
0.0
 10
15.6946018415
 20
13.2341083166
 30
0.0
 10
15.6971591502
 20
13.2310763498
 30
0.0
 10
15.6984212978
 20
13.2294718468
 30
0.0
  0
SPLINE
  5
32C
100
AcDbEntity
  8
AXIS
100
AcDbSpline
 62
7
  6
CONTINUOUS
 70
0
 71
3
 72
26
 73
22
 74
0
 42
0.0000001
 43
0.0000001
 44
0.0000000001
 40
0.0
 40
0.0
 40
0.0
 40
0.0
 40
0.0215000251
 40
0.042998114
 40
0.0645954715
 40
0.0863913504
 40
0.108481691
 40
0.1309580341
 40
0.1773797191
 40
0.2262836364
 40
0.2781541818
 40
0.3333606805
 40
0.3921688809
 40
0.4547544772
 40
0.5212167376
 40
0.5915920999
 40
0.6658582597
 40
0.7439491566
 40
0.8257691404
 40
0.9111887081
 40
1.0
 40
1.0
 40
1.0
 40
1.0
 10
15.9208612936
 20
11.5757150716
 30
0.0
 10
15.9243808872
 20
11.5754474336
 30
0.0
 10
15.9314424859
 20
11.5751731293
 30
0.0
 10
15.942049943
 20
11.575554744
 30
0.0
 10
15.9526483819
 20
11.5767295988
 30
0.0
 10
15.9632273356
 20
11.5786954676
 30
0.0
 10
15.9737779561
 20
11.5814504686
 30
0.0
 10
15.9879438191
 20
11.586222886
 30
0.0
 10
16.0056050748
 20
11.5942473118
 30
0.0
 10
16.0262723022
 20
11.6068702408
 30
0.0
 10
16.0465866418
 20
11.6225357259
 30
0.0
 10
16.0664859946
 20
11.6411825917
 30
0.0
 10
16.0859130895
 20
11.662745487
 30
0.0
 10
16.1048087863
 20
11.6871520356
 30
0.0
 10
16.1231153177
 20
11.7143212503
 30
0.0
 10
16.140773072
 20
11.7441641014
 30
0.0
 10
16.1577262602
 20
11.7765806672
 30
0.0
 10
16.1739181423
 20
11.8114648145
 30
0.0
 10
16.1892968165
 20
11.8487025565
 30
0.0
 10
16.2038073117
 20
11.8881659169
 30
0.0
 10
16.212704764
 20
11.9153583106
 30
0.0
 10
16.2170096317
 20
11.9292888676
 30
0.0
  0
SPLINE
  5
32D
100
AcDbEntity
  8
AXIS
100
AcDbSpline
 62
7
  6
CONTINUOUS
 70
0
 71
3
 72
20
 73
16
 74
0
 42
0.0000001
 43
0.0000001
 44
0.0000000001
 40
0.0
 40
0.0
 40
0.0
 40
0.0
 40
0.0502069551
 40
0.1005215724
 40
0.1513740368
 40
0.2031776125
 40
0.2563172346
 40
0.31114331
 40
0.4269602878
 40
0.488524752
 40
0.5527530199
 40
0.6197902394
 40
0.6897503921
 40
0.8387179708
 40
1.0
 40
1.0
 40
1.0
 40
1.0
 10
15.9208612913
 20
13.4458951046
 30
0.0
 10
15.9256282404
 20
13.4462574308
 30
0.0
 10
15.9352160445
 20
13.4465025859
 30
0.0
 10
15.9496117344
 20
13.4454096207
 30
0.0
 10
15.9639765259
 20
13.4428565546
 30
0.0
 10
15.9782832214
 20
13.4388506755
 30
0.0
 10
15.9925097549
 20
13.4334012344
 30
0.0
 10
16.0116845044
 20
13.4240560634
 30
0.0
 10
16.0302845313
 20
13.4119128103
 30
0.0
 10
16.048162133
 20
13.397417762
 30
0.0
 10
16.0616624627
 20
13.3849533228
 30
0.0
 10
16.0749554011
 20
13.3711399599
 30
0.0
 10
16.0927525884
 20
13.3505162801
 30
0.0
 10
16.1142893501
 20
13.3213463553
 30
0.0
 10
16.1297986073
 20
13.2961648835
 30
0.0
 10
16.1373935363
 20
13.2828171408
 30
0.0
  0
SPLINE
  5
32E
100
AcDbEntity
  8
AXIS
100
AcDbSpline
 62
7
  6
CONTINUOUS
 70
0
 71
3
 72
23
 73
19
 74
0
 42
0.0000001
 43
0.0000001
 44
0.0000000001
 40
0.0
 40
0.0
 40
0.0
 40
0.0
 40
0.0563645549
 40
0.1151891892
 40
0.1761558981
 40
0.2389455213
 40
0.303206896
 40
0.3685759339
 40
0.4346773384
 40
0.5011279962
 40
0.5675413877
 40
0.6335313705
 40
0.6987159589
 40
0.76272174
 40
0.8251872962
 40
0.8857650093
 40
0.9441400642
 40
1.0
 40
1.0
 40
1.0
 40
1.0
 10
16.2205865496
 20
13.0805546223
 30
0.0
 10
16.2268600583
 20
13.0595745636
 30
0.0
 10
16.2386522481
 20
13.016385922
 30
0.0
 10
16.2538458036
 20
12.9496378556
 30
0.0
 10
16.2668444705
 20
12.8798873841
 30
0.0
 10
16.2775596993
 20
12.807615772
 30
0.0
 10
16.2859166557
 20
12.7333132024
 30
0.0
 10
16.2918581226
 20
12.6574887044
 30
0.0
 10
16.2953432394
 20
12.5806606831
 30
0.0
 10
16.2963477382
 20
12.5033546543
 30
0.0
 10
16.2948644276
 20
12.4260996038
 30
0.0
 10
16.2909038045
 20
12.3494241574
 30
0.0
 10
16.2844934218
 20
12.2738527585
 30
0.0
 10
16.2756773758
 20
12.1999020375
 30
0.0
 10
16.2645160503
 20
12.1280785516
 30
0.0
 10
16.2510873286
 20
12.0588693105
 30
0.0
 10
16.2354827369
 20
11.9927517914
 30
0.0
 10
16.2234170585
 20
11.9500233082
 30
0.0
 10
16.2170096317
 20
11.9292888676
 30
0.0
  0
SPLINE
  5
32F
100
AcDbEntity
  8
AXIS
100
AcDbSpline
 62
7
  6
CONTINUOUS
 70
0
 71
3
 72
28
 73
24
 74
0
 42
0.0000001
 43
0.0000001
 44
0.0000000001
 40
0.0
 40
0.0
 40
0.0
 40
0.0
 40
0.0751784267
 40
0.1530317121
 40
0.2324109191
 40
0.3122911028
 40
0.3916360833
 40
0.4693787624
 40
0.5445029706
 40
0.6160555168
 40
0.6831849859
 40
0.7451499208
 40
0.801397392
 40
0.8272682074
 40
0.8516110104
 40
0.8744357105
 40
0.8957763767
 40
0.9157083189
 40
0.9343490599
 40
0.9518586762
 40
0.9684501702
 40
0.984393808
 40
1.0
 40
1.0
 40
1.0
 40
1.0
 10
16.2205865496
 20
13.0805546223
 30
0.0
 10
16.221678852
 20
13.0865539623
 30
0.0
 10
16.2235430996
 20
13.0988336205
 30
0.0
 10
16.2253920021
 20
13.1176020624
 30
0.0
 10
16.2263145067
 20
13.1368208945
 30
0.0
 10
16.226299678
 20
13.1561824283
 30
0.0
 10
16.2253479061
 20
13.1753879001
 30
0.0
 10
16.2234736542
 20
13.1941381545
 30
0.0
 10
16.2207077316
 20
13.2121394869
 30
0.0
 10
16.2170918462
 20
13.2291114705
 30
0.0
 10
16.2126874628
 20
13.2447929
 30
0.0
 10
16.2075582402
 20
13.2589401984
 30
0.0
 10
16.2026214074
 20
13.2695569945
 30
0.0
 10
16.1983332362
 20
13.2770576813
 30
0.0
 10
16.1950793667
 20
13.2820135905
 30
0.0
 10
16.1917105456
 20
13.2864393415
 30
0.0
 10
16.1882370263
 20
13.2903163967
 30
0.0
 10
16.184671322
 20
13.2936297239
 30
0.0
 10
16.1810262998
 20
13.2963671355
 30
0.0
 10
16.1773134932
 20
13.2985155862
 30
0.0
 10
16.1735444255
 20
13.3000600852
 30
0.0
 10
16.1697373485
 20
13.3009924322
 30
0.0
 10
16.1671737548
 20
13.3012020101
 30
0.0
 10
16.1659078858
 20
13.3012024343
 30
0.0
  0
SPLINE
  5
330
100
AcDbEntity
  8
AXIS
100
AcDbSpline
 62
7
  6
CONTINUOUS
 70
0
 71
3
 72
42
 73
38
 74
0
 42
0.0000001
 43
0.0000001
 44
0.0000000001
 40
0.0
 40
0.0
 40
0.0
 40
0.0
 40
0.0325921239
 40
0.0664244479
 40
0.1013708479
 40
0.1373120956
 40
0.1741157455
 40
0.211642371
 40
0.2497484905
 40
0.2882860969
 40
0.3271042732
 40
0.3660501521
 40
0.4049700342
 40
0.4437103908
 40
0.482118854
 40
0.5200454757
 40
0.5573434895
 40
0.5938706686
 40
0.6294905385
 40
0.664073163
 40
0.6974970493
 40
0.7296503747
 40
0.7604322513
 40
0.7897554911
 40
0.8175483391
 40
0.8437571433
 40
0.8683508393
 40
0.8913246604
 40
0.9127061024
 40
0.9325629583
 40
0.9419574912
 40
0.9510191891
 40
0.9682322085
 40
0.9764533697
 40
0.9844609999
 40
0.9922952989
 40
1.0
 40
1.0
 40
1.0
 40
1.0
 10
15.5435534507
 20
13.301648275
 30
0.0
 10
15.5364067606
 20
13.2785215777
 30
0.0
 10
15.5227889316
 20
13.2310910395
 30
0.0
 10
15.5046552446
 20
13.1580057196
 30
0.0
 10
15.4884989628
 20
13.0819134266
 30
0.0
 10
15.4743957187
 20
13.0031726297
 30
0.0
 10
15.4624098391
 20
12.9221449613
 30
0.0
 10
15.4525983117
 20
12.8392067997
 30
0.0
 10
15.445007186
 20
12.7547434626
 30
0.0
 10
15.4396710571
 20
12.6691469963
 30
0.0
 10
15.436615501
 20
12.5828149557
 30
0.0
 10
15.4358549917
 20
12.4961483905
 30
0.0
 10
15.4373922771
 20
12.4095499085
 30
0.0
 10
15.4412208953
 20
12.3234218209
 30
0.0
 10
15.4473229148
 20
12.2381641872
 30
0.0
 10
15.4556691128
 20
12.1541729312
 30
0.0
 10
15.4662213316
 20
12.0718380971
 30
0.0
 10
15.4789299757
 20
11.9915417719
 30
0.0
 10
15.4937351178
 20
11.9136563409
 30
0.0
 10
15.5105686192
 20
11.8385429573
 30
0.0
 10
15.529351425
 20
11.7665492881
 30
0.0
 10
15.5499956878
 20
11.6980080694
 30
0.0
 10
15.5724065982
 20
11.6332358398
 30
0.0
 10
15.5964796601
 20
11.5725303838
 30
0.0
 10
15.6221040136
 20
11.5161699094
 30
0.0
 10
15.649164181
 20
11.4644119681
 30
0.0
 10
15.6775374322
 20
11.4174911944
 30
0.0
 10
15.7071005136
 20
11.3756181991
 30
0.0
 10
15.737726017
 20
11.3389861241
 30
0.0
 10
15.7645099808
 20
11.3124875335
 30
0.0
 10
15.7863561432
 20
11.2942306736
 30
0.0
 10
15.8076600565
 20
11.2784680907
 30
0.0
 10
15.8296735984
 20
11.2651771708
 30
0.0
 10
15.8522377202
 20
11.2547510384
 30
0.0
 10
15.8690061513
 20
11.2485141821
 30
0.0
 10
15.8858523782
 20
11.2437523012
 30
0.0
 10
15.897197811
 20
11.241550292
 30
0.0
 10
15.9028571238
 20
11.2407043595
 30
0.0
  0
ENDSEC
  0
SECTION
  2
OBJECTS
  0
DICTIONARY
  5
C
100
AcDbDictionary
280
0
281
1
  3
ACAD_GROUP
350
D
  3
ACAD_MLINESTYLE
350
17
  3
ACAD_LAYOUT
350
1A
  3
ACAD_PLOTSETTINGS
350
19
  3
ACAD_PLOTSTYLENAME
350
E
  0
DICTIONARY
  5
D
102
{ACAD_REACTORS
330
C
102
}
100
AcDbDictionary
280
0
281
1
  0
ACDBDICTIONARYWDFLT
  5
E
102
{ACAD_REACTORS
330
C
102
}
100
AcDbDictionary
281
1
  3
Normal
350
F
100
AcDbDictionaryWithDefault
340
F
  0
DICTIONARY
  5
17
102
{ACAD_REACTORS
330
C
102
}
100
AcDbDictionary
280
0
281
1
  3
Standard
350
18
  0
DICTIONARY
  5
19
102
{ACAD_REACTORS
330
C
102
}
100
AcDbDictionary
281
1
  0
DICTIONARY
  5
1A
102
{ACAD_REACTORS
330
C
102
}
100
AcDbDictionary
281
1
  3
Model
350
331
  3
Layout1
350
332
  0
ACDBPLACEHOLDER
  5
F
102
{ACAD_REACTORS
330
E
102
}
  0
MLINESTYLE
  5
18
102
{ACAD_REACTORS
330
17
102
}
100
AcDbMlineStyle
  2
STANDARD
 70
0
  3

 62
256
 51
90.0
 52
90.0
 71
2
 49
0.5
 62
256
  6
BYLAYER
 49
-0.5
 62
256
  6
BYLAYER
  0
LAYOUT
  5
331
102
{ACAD_REACTORS
330
1A
102
}
100
AcDbPlotSettings
  1

  2
none_device
  4
ANSI_C_(22.00_x_17.00_Inches)
  6

 40
0.0
 41
0.0
 42
0.0
 43
0.0
 44
558.8
 45
431.8
 46
0.0
 47
0.0
 48
0.0
 49
0.0
140
0.0
141
0.0
142
1.0
143
1.0
 70
1024
 72
0
 73
0
 74
0
  7

 75
0
147
1.0
148
0.0
149
0.0
100
AcDbLayout
  1
Model
 70
0
 71
0
 10
0.0
 20
0.0
 11
22.0
 21
17.0
 12
0.0
 22
0.0
 32
0.0
 14
0.0
 24
0.0
 34
0.0
 15
0.0
 25
0.0
 35
0.0
146
0.0
 13
0.0
 23
0.0
 33
0.0
 16
1.0
 26
0.0
 36
0.0
 17
0.0
 27
1.0
 37
0.0
 76
0
330
224
345
0
346
0
  0
LAYOUT
  5
332
102
{ACAD_REACTORS
330
1A
102
}
100
AcDbPlotSettings
  1

  2
none_device
  4
ANSI_C_(22.00_x_17.00_Inches)
  6

 40
0.0
 41
0.0
 42
0.0
 43
0.0
 44
558.8
 45
431.8
 46
0.0
 47
0.0
 48
0.0
 49
0.0
140
0.0
141
0.0
142
1.0
143
1.0
 70
0
 72
0
 73
0
 74
0
  7

 75
0
147
1.0
148
0.0
149
0.0
100
AcDbLayout
  1
Layout1
 70
0
 71
1
 10
0.0
 20
0.0
 11
22.0
 21
17.0
 12
0.0
 22
0.0
 32
0.0
 14
0.0
 24
0.0
 34
0.0
 15
0.0
 25
0.0
 35
0.0
146
0.0
 13
0.0
 23
0.0
 33
0.0
 16
1.0
 26
0.0
 36
0.0
 17
0.0
 27
1.0
 37
0.0
 76
0
330
225
345
0
346
0
  0
ENDSEC
  0
EOF