999
DXF file: _cgs_temp_output.dxf
999
Pro/ENGINEER 2016360 by Parametric Technology Corporation
  0
SECTION
  2
HEADER
  9
$ACADVER
  1
AC1021
  9
$DWGCODEPAGE
  3
ANSI_1252
  9
$EXTMAX
 10
22.0
 20
17.0
 30
0.0
  9
$EXTMIN
 10
0.0
 20
0.0
 30
0.0
  9
$LIMMIN
 10
0.0
 20
0.0
  9
$LIMMAX
 10
22.0
 20
17.0
  9
$VIEWCTR
 10
11.0
 20
8.5
  9
$VIEWSIZE
 40
17.0
  9
$CLAYER
  8
0
  9
$LTSCALE
 40
1.21
  9
$CELTYPE
  6
BYLAYER
  9
$DIMSCALE
 40
1.0
  9
$DIMASZ
 40
0.1875
  9
$DIMEXO
 40
0.0625
  9
$DIMDLI
 40
0.836
  9
$DIMEXE
 40
0.125
  9
$DIMCEN
 40
0.198
  9
$DIMLFAC
 40
1.0
  9
$DIMBLK
  1
_CLOSED
  9
$DIMALT
 70
0
  9
$DIMALTF
 40
25.4
  9
$DIMTXT
 40
0.15625
  9
$DIMTOL
 70
0
  9
$DIMLIM
 70
0
  9
$DIMTFAC
 40
1.0
  9
$DIMGAP
 40
0.09
  9
$DIMDSEP
 70
46
  9
$AUNITS
 70
0
  9
$PDMODE
 70
3
  9
$PDSIZE
 40
0.3125
  9
$HANDSEED
  5
31B
  9
$TILEMODE
 70
1
  9
$MEASUREMENT
 70
0
  9
$INSUNITS
 70
1
  0
ENDSEC
  0
SECTION
  2
CLASSES
  0
CLASS
  1
ACDBDICTIONARYWDFLT
  2
AcDbDictionaryWithDefault
  3
AutoCAD 2000
 90
0
 91
1
280
0
281
0
  0
CLASS
  1
ACDBPLACEHOLDER
  2
AcDbPlaceHolder
  3
AutoCAD 2000
 90
0
 91
1
280
0
281
0
  0
CLASS
  1
LAYOUT
  2
AcDbLayout
  3
AutoCAD 2000
 90
0
 91
0
280
0
281
0
  0
ENDSEC
  0
SECTION
  2
TABLES
  0
TABLE
  2
VPORT
  5
8
100
AcDbSymbolTable
 70
2
  0
VPORT
  5
1F4
100
AcDbSymbolTableRecord
100
AcDbViewportTableRecord
  2
*ACTIVE
 70
0
 10
0.0
 20
0.0
 11
1.0
 21
1.0
 12
11.0
 22
8.5
 13
0.0
 23
0.0
 14
1.0
 24
1.0
 15
0.0
 25
0.0
 16
0.0
 26
0.0
 36
1.0
 17
0.0
 27
0.0
 37
0.0
 40
17.0
 41
1.2941176471
 42
50.0
 43
0.0
 44
0.0
 50
0.0
 51
0.0
 71
0
 72
100
 73
1
 74
1
 75
0
 76
0
 77
0
 78
0
  0
ENDTAB
  0
TABLE
  2
LTYPE
  5
5
100
AcDbSymbolTable
 70
6
  0
LTYPE
  5
14
100
AcDbSymbolTableRecord
100
AcDbLinetypeTableRecord
  2
BYBLOCK
 70
0
  3

 72
65
 73
0
 40
0.0
  0
LTYPE
  5
15
100
AcDbSymbolTableRecord
100
AcDbLinetypeTableRecord
  2
BYLAYER
 70
0
  3

 72
65
 73
0
 40
0.0
  0
LTYPE
  5
16
100
AcDbSymbolTableRecord
100
AcDbLinetypeTableRecord
  2
CONTINUOUS
 70
64
  3
Solid line
 72
65
 73
0
 40
0.0
  0
LTYPE
  5
1F5
100
AcDbSymbolTableRecord
100
AcDbLinetypeTableRecord
  2
CENTER
 70
64
  3
____ _ ____ _ ____ _ ____ _ ____ _ ____ _ ____
 72
65
 73
4
 40
0.6
 49
0.375
 74
0
 49
-0.075
 74
0
 49
0.075
 74
0
 49
-0.075
 74
0
  0
LTYPE
  5
1F6
100
AcDbSymbolTableRecord
100
AcDbLinetypeTableRecord
  2
HIDDEN
 70
64
  3
- - - - - - - - - - - - - - - - - - - -
 72
65
 73
2
 40
0.2
 49
0.1
 74
0
 49
-0.1
 74
0
  0
LTYPE
  5
1F7
100
AcDbSymbolTableRecord
100
AcDbLinetypeTableRecord
  2
PHANTOM
 70
64
  3
_____ _ _ _____ _ _ _____ _ _ _____
 72
65
 73
6
 40
0.8
 49
0.45
 74
0
 49
-0.05
 74
0
 49
0.1
 74
0
 49
-0.05
 74
0
 49
0.1
 74
0
 49
-0.05
 74
0
  0
LTYPE
  5
1F8
100
AcDbSymbolTableRecord
100
AcDbLinetypeTableRecord
  2
DOT
 70
64
  3
. . . . . . . . . . . . . . . . . . . .
 72
65
 73
2
 40
0.2
 49
0.1
 74
0
 49
-0.1
 74
0
  0
LTYPE
  5
1F9
100
AcDbSymbolTableRecord
100
AcDbLinetypeTableRecord
  2
DASHED
 70
64
  3
- - - - - - - - - - - - - - - - - - - -
 72
65
 73
2
 40
0.2
 49
0.1
 74
0
 49
-0.1
 74
0
  0
ENDTAB
  0
TABLE
  2
LAYER
  5
2
100
AcDbSymbolTable
 70
36
  0
LAYER
  5
10
100
AcDbSymbolTableRecord
100
AcDbLayerTableRecord
  2
0
 70
0
 62
7
  6
CONTINUOUS
370
-3
390
F
  0
LAYER
  5
1FA
100
AcDbSymbolTableRecord
100
AcDbLayerTableRecord
  2
DEFAULT_1
 70
0
 62
7
  6
CENTER
370
-3
390
F
  0
LAYER
  5
1FB
100
AcDbSymbolTableRecord
100
AcDbLayerTableRecord
  2
DEFAULT_2
 70
0
 62
8
  6
HIDDEN
370
-3
390
F
  0
LAYER
  5
1FC
100
AcDbSymbolTableRecord
100
AcDbLayerTableRecord
  2
DEFAULT_3
 70
0
 62
7
  6
PHANTOM
370
-3
390
F
  0
LAYER
  5
1FD
100
AcDbSymbolTableRecord
100
AcDbLayerTableRecord
  2
01_ALL_DTM_PLN
 70
0
 62
7
  6
CONTINUOUS
370
-3
390
F
  0
LAYER
  5
1FE
100
AcDbSymbolTableRecord
100
AcDbLayerTableRecord
  2
01__ASM_ALL_DTM_PLN
 70
0
 62
7
  6
CONTINUOUS
370
-3
390
F
  0
LAYER
  5
1FF
100
AcDbSymbolTableRecord
100
AcDbLayerTableRecord
  2
01__ASM_DEF_DTM_PLN
 70
0
 62
7
  6
CONTINUOUS
370
-3
390
F
  0
LAYER
  5
200
100
AcDbSymbolTableRecord
100
AcDbLayerTableRecord
  2
01___PRT_ALL_DTM_PLN
 70
0
 62
7
  6
CONTINUOUS
370
-3
390
F
  0
LAYER
  5
201
100
AcDbSymbolTableRecord
100
AcDbLayerTableRecord
  2
01___PRT_DEF_DTM_PLN
 70
0
 62
7
  6
CONTINUOUS
370
-3
390
F
  0
LAYER
  5
202
100
AcDbSymbolTableRecord
100
AcDbLayerTableRecord
  2
02_ALL_AXES
 70
0
 62
7
  6
CONTINUOUS
370
-3
390
F
  0
LAYER
  5
203
100
AcDbSymbolTableRecord
100
AcDbLayerTableRecord
  2
02__ASM_ALL_AXES
 70
0
 62
7
  6
CONTINUOUS
370
-3
390
F
  0
LAYER
  5
204
100
AcDbSymbolTableRecord
100
AcDbLayerTableRecord
  2
02___PRT_ALL_AXES
 70
0
 62
7
  6
CONTINUOUS
370
-3
390
F
  0
LAYER
  5
205
100
AcDbSymbolTableRecord
100
AcDbLayerTableRecord
  2
03_ALL_CURVES
 70
0
 62
7
  6
CONTINUOUS
370
-3
390
F
  0
LAYER
  5
206
100
AcDbSymbolTableRecord
100
AcDbLayerTableRecord
  2
03__ASM_ALL_CURVES
 70
0
 62
7
  6
CONTINUOUS
370
-3
390
F
  0
LAYER
  5
207
100
AcDbSymbolTableRecord
100
AcDbLayerTableRecord
  2
03___PRT_ALL_CURVES
 70
0
 62
7
  6
CONTINUOUS
370
-3
390
F
  0
LAYER
  5
208
100
AcDbSymbolTableRecord
100
AcDbLayerTableRecord
  2
04_ALL_DTM_PNT
 70
0
 62
7
  6
CONTINUOUS
370
-3
390
F
  0
LAYER
  5
209
100
AcDbSymbolTableRecord
100
AcDbLayerTableRecord
  2
04__ASM_ALL_DTM_PNT
 70
0
 62
7
  6
CONTINUOUS
370
-3
390
F
  0
LAYER
  5
20A
100
AcDbSymbolTableRecord
100
AcDbLayerTableRecord
  2
04___PRT_ALL_DTM_PNT
 70
0
 62
7
  6
CONTINUOUS
370
-3
390
F
  0
LAYER
  5
20B
100
AcDbSymbolTableRecord
100
AcDbLayerTableRecord
  2
05_ALL_DTM_CSYS
 70
0
 62
7
  6
CONTINUOUS
370
-3
390
F
  0
LAYER
  5
20C
100
AcDbSymbolTableRecord
100
AcDbLayerTableRecord
  2
05__ASM_ALL_DTM_CSYS
 70
0
 62
7
  6
CONTINUOUS
370
-3
390
F
  0
LAYER
  5
20D
100
AcDbSymbolTableRecord
100
AcDbLayerTableRecord
  2
05__ASM_DEF_DTM_CSYS
 70
0
 62
7
  6
CONTINUOUS
370
-3
390
F
  0
LAYER
  5
20E
100
AcDbSymbolTableRecord
100
AcDbLayerTableRecord
  2
05___PRT_ALL_DTM_CSYS
 70
0
 62
7
  6
CONTINUOUS
370
-3
390
F
  0
LAYER
  5
20F
100
AcDbSymbolTableRecord
100
AcDbLayerTableRecord
  2
05___PRT_DEF_DTM_CSYS
 70
0
 62
7
  6
CONTINUOUS
370
-3
390
F
  0
LAYER
  5
210
100
AcDbSymbolTableRecord
100
AcDbLayerTableRecord
  2
06_ALL_SURFS
 70
0
 62
7
  6
CONTINUOUS
370
-3
390
F
  0
LAYER
  5
211
100
AcDbSymbolTableRecord
100
AcDbLayerTableRecord
  2
06__ASM_ALL_SURFS
 70
0
 62
7
  6
CONTINUOUS
370
-3
390
F
  0
LAYER
  5
212
100
AcDbSymbolTableRecord
100
AcDbLayerTableRecord
  2
06___PRT_ALL_SURFS
 70
0
 62
7
  6
CONTINUOUS
370
-3
390
F
  0
LAYER
  5
213
100
AcDbSymbolTableRecord
100
AcDbLayerTableRecord
  2
07__ASM_ALL_SKELETONS
 70
0
 62
7
  6
CONTINUOUS
370
-3
390
F
  0
LAYER
  5
214
100
AcDbSymbolTableRecord
100
AcDbLayerTableRecord
  2
LAYER_AXIS
 70
0
 62
7
  6
CONTINUOUS
370
-3
390
F
  0
LAYER
  5
215
100
AcDbSymbolTableRecord
100
AcDbLayerTableRecord
  2
LAYER_CHAMFER_FEAT
 70
0
 62
7
  6
CONTINUOUS
370
-3
390
F
  0
LAYER
  5
216
100
AcDbSymbolTableRecord
100
AcDbLayerTableRecord
  2
LAYER_CUT_FEAT
 70
0
 62
7
  6
CONTINUOUS
370
-3
390
F
  0
LAYER
  5
217
100
AcDbSymbolTableRecord
100
AcDbLayerTableRecord
  2
LAYER_DATUM
 70
0
 62
7
  6
CONTINUOUS
370
-3
390
F
  0
LAYER
  5
218
100
AcDbSymbolTableRecord
100
AcDbLayerTableRecord
  2
LAYER_DIM
 70
0
 62
7
  6
CONTINUOUS
370
-3
390
F
  0
LAYER
  5
219
100
AcDbSymbolTableRecord
100
AcDbLayerTableRecord
  2
LAYER_FEATURE
 70
0
 62
7
  6
CONTINUOUS
370
-3
390
F
  0
LAYER
  5
21A
100
AcDbSymbolTableRecord
100
AcDbLayerTableRecord
  2
LAYER_GEOM_FEAT
 70
0
 62
7
  6
CONTINUOUS
370
-3
390
F
  0
LAYER
  5
21B
100
AcDbSymbolTableRecord
100
AcDbLayerTableRecord
  2
LAYER_NOGEOM_FEAT
 70
0
 62
7
  6
CONTINUOUS
370
-3
390
F
  0
LAYER
  5
21C
100
AcDbSymbolTableRecord
100
AcDbLayerTableRecord
  2
LAYER_PARAMETER_DIM
 70
0
 62
7
  6
CONTINUOUS
370
-3
390
F
  0
LAYER
  5
21D
100
AcDbSymbolTableRecord
100
AcDbLayerTableRecord
  2
LAYER_PROTRUSION_FEAT
 70
0
 62
7
  6
CONTINUOUS
370
-3
390
F
  0
LAYER
  5
21E
100
AcDbSymbolTableRecord
100
AcDbLayerTableRecord
  2
LAYER_QUILT
 70
0
 62
7
  6
CONTINUOUS
370
-3
390
F
  0
LAYER
  5
21F
100
AcDbSymbolTableRecord
100
AcDbLayerTableRecord
  2
LAYER_ROUND_FEAT
 70
0
 62
7
  6
CONTINUOUS
370
-3
390
F
  0
ENDTAB
  0
TABLE
  2
STYLE
  5
3
100
AcDbSymbolTable
 70
1
  0
STYLE
  5
11
100
AcDbSymbolTableRecord
100
AcDbTextStyleTableRecord
  2
STANDARD
 70
0
 40
0.0
 41
0.8
 50
0.0
 71
0
 42
0.2
  3
txt
  4

  0
STYLE
  5
220
100
AcDbSymbolTableRecord
100
AcDbTextStyleTableRecord
  2
TEXTSTYLE_1
 70
0
 40
0.0
 41
0.8
 50
0.0
 71
0
 42
0.2
  3
gdt
  4

  0
ENDTAB
  0
TABLE
  2
VIEW
  5
6
100
AcDbSymbolTable
 70
0
  0
ENDTAB
  0
TABLE
  2
UCS
  5
7
100
AcDbSymbolTable
 70
0
  0
ENDTAB
  0
TABLE
  2
APPID
  5
9
100
AcDbSymbolTable
 70
1
  0
APPID
  5
221
100
AcDbSymbolTableRecord
100
AcDbRegAppTableRecord
  2
ACAD
 70
0
  0
ENDTAB
  0
TABLE
  2
BLOCK_RECORD
  5
1
100
AcDbSymbolTable
 70
0
  0
BLOCK_RECORD
  5
222
100
AcDbSymbolTableRecord
100
AcDbBlockTableRecord
  2
*Model_Space
  0
BLOCK_RECORD
  5
223
100
AcDbSymbolTableRecord
100
AcDbBlockTableRecord
  2
*Paper_Space
  0
ENDTAB
  0
TABLE
  2
DIMSTYLE
  5
A
100
AcDbSymbolTable
 70
1
100
AcDbDimStyleTable
 71
0
  0
DIMSTYLE
105
224
100
AcDbSymbolTableRecord
100
AcDbDimStyleTableRecord
  2
STANDARD
 70
0
  3

  4

 40
1.0
 41
0.1875
 42
0.0625
 43
0.38
 44
0.125
 45
0.0
 46
0.0
 47
0.0001
 48
0.0001
140
0.15625
141
0.09
142
0.0
143
25.4
144
1.0
145
0.0
146
1.0
147
0.09
 71
0.0
 72
0.0
 73
1
 74
1
 75
0
 76
0
 77
0
 78
4
 79
1
170
0
171
3
172
0
173
0
174
0
175
0
176
0
177
0
178
0
270
2
179
4
271
4
272
4
273
2
274
2
275
0
280
0
281
0
282
0
283
1
284
4
285
0
286
0
287
3
288
0
340
11
278
46
  0
ENDTAB
  0
ENDSEC
  0
SECTION
  2
BLOCKS
  0
BLOCK
  5
20
100
AcDbEntity
  8
0
100
AcDbBlockBegin
  2
*Model_Space
 70
0
 10
0.0
 20
0.0
 30
0.0
  3
*Model_Space
  1

  0
ENDBLK
  5
21
100
AcDbEntity
  8
0
100
AcDbBlockEnd
  0
BLOCK
  5
1C
100
AcDbEntity
  8
0
100
AcDbBlockBegin
  2
*Paper_Space
 70
0
 10
0.0
 20
0.0
 30
0.0
  3
*Paper_Space
  1

  0
ENDBLK
  5
1D
100
AcDbEntity
  8
0
100
AcDbBlockEnd
  0
ENDSEC
  0
SECTION
  2
ENTITIES
  0
MTEXT
  5
225
100
AcDbEntity
  8
0
100
AcDbMText
 62
7
  6
CONTINUOUS
  7
STANDARD
 71
1
 72
1
 10
15.9560215477
 20
0.9479130325
 30
0.0
 11
1.0
 21
0.0
 31
0.0
 44
0.9
  1
SCALE: 1:2.000
 40
0.3
 41
3.36
  0
LINE
  5
226
100
AcDbEntity
  8
0
100
AcDbLine
 62
7
  6
CONTINUOUS
 10
0.0
 20
0.0
 11
0.0
 21
17.0
  0
LINE
  5
227
100
AcDbEntity
  8
0
100
AcDbLine
 62
7
  6
CONTINUOUS
 10
0.0
 20
0.0
 11
22.0
 21
0.0
  0
LINE
  5
228
100
AcDbEntity
  8
0
100
AcDbLine
 62
7
  6
CONTINUOUS
 10
0.0
 20
17.0
 11
22.0
 21
17.0
  0
LINE
  5
229
100
AcDbEntity
  8
0
100
AcDbLine
 62
7
  6
CONTINUOUS
 10
22.0
 20
0.0
 11
22.0
 21
17.0
  0
LINE
  5
22A
100
AcDbEntity
  8
LAYER_FEATURE
100
AcDbLine
 62
7
  6
CONTINUOUS
 10
5.9991672762
 20
6.4571198968
 11
5.9882328809
 21
6.4461855015
  0
LINE
  5
22B
100
AcDbEntity
  8
LAYER_FEATURE
100
AcDbLine
 62
7
  6
CONTINUOUS
 10
7.0673672762
 20
5.3889198968
 11
7.0565297353
 21
5.3780823559
  0
LINE
  5
22C
100
AcDbEntity
  8
LAYER_FEATURE
100
AcDbLine
 62
7
  6
CONTINUOUS
 10
6.2615672762
 20
6.4571198968
 11
6.2725016714
 21
6.4461855015
  0
LINE
  5
22D
100
AcDbEntity
  8
LAYER_FEATURE
100
AcDbLine
 62
7
  6
CONTINUOUS
 10
7.0673672762
 20
5.6513198968
 11
7.0565297353
 21
5.6621574376
  0
LINE
  5
22E
100
AcDbEntity
  8
LAYER_FEATURE
100
AcDbLine
 62
7
  6
CONTINUOUS
 10
7.0673672762
 20
5.6513198968
 11
7.0673672762
 21
5.3889198968
  0
LINE
  5
22F
100
AcDbEntity
  8
LAYER_FEATURE
100
AcDbLine
 62
7
  6
CONTINUOUS
 10
5.9991672762
 20
6.4571198968
 11
6.2615672762
 21
6.4571198968
  0
LINE
  5
230
100
AcDbEntity
  8
LAYER_FEATURE
100
AcDbLine
 62
7
  6
CONTINUOUS
 10
4.5708720839
 20
12.3100477814
 11
4.5708720839
 21
12.3900477814
  0
LINE
  5
231
100
AcDbEntity
  8
LAYER_FEATURE
100
AcDbLine
 62
7
  6
CONTINUOUS
 10
4.5708720839
 20
13.3100477814
 11
4.5708720839
 21
13.3900477814
  0
LINE
  5
232
100
AcDbEntity
  8
02___PRT_ALL_AXES
100
AcDbLine
 62
7
  6
CONTINUOUS
 10
4.7368720839
 20
12.4300477814
 11
4.7368720839
 21
13.2700477814
  0
LINE
  5
233
100
AcDbEntity
  8
LAYER_CUT_FEAT
100
AcDbLine
 62
7
  6
CONTINUOUS
 10
4.7815058242
 20
13.2700477814
 11
4.7815058242
 21
12.4300477814
  0
LINE
  5
234
100
AcDbEntity
  8
LAYER_CUT_FEAT
100
AcDbLine
 62
7
  6
CONTINUOUS
 10
4.9275040127
 20
13.2700477814
 11
4.9275040127
 21
12.4300477814
  0
LINE
  5
235
100
AcDbEntity
  8
02___PRT_ALL_AXES
100
AcDbLine
 62
7
  6
CONTINUOUS
 10
5.1338720839
 20
11.8100477814
 11
5.1338720839
 21
12.3100477814
  0
LINE
  5
236
100
AcDbEntity
  8
LAYER_CUT_FEAT
100
AcDbLine
 62
7
  6
CONTINUOUS
 10
5.1633766047
 20
13.2700477814
 11
5.1633766047
 21
12.4300477814
  0
LINE
  5
237
100
AcDbEntity
  8
02___PRT_ALL_AXES
100
AcDbLine
 62
7
  6
CONTINUOUS
 10
5.133872097
 20
11.8100477814
 11
7.0078720707
 21
11.8100477814
  0
LINE
  5
238
100
AcDbEntity
  8
LAYER_CUT_FEAT
100
AcDbLine
 62
7
  6
CONTINUOUS
 10
5.4700146055
 20
13.2700477814
 11
5.4700146055
 21
12.4300477814
  0
LINE
  5
239
100
AcDbEntity
  8
LAYER_CUT_FEAT
100
AcDbLine
 62
7
  6
CONTINUOUS
 10
6.0235293618
 20
11.9780477814
 11
6.1182148059
 21
11.9780477814
  0
LINE
  5
23A
100
AcDbEntity
  8
LAYER_CUT_FEAT
100
AcDbLine
 62
7
  6
CONTINUOUS
 10
6.1182148059
 20
12.1420477814
 11
6.0235293618
 21
12.1420477814
  0
LINE
  5
23B
100
AcDbEntity
  8
LAYER_CUT_FEAT
100
AcDbLine
 62
7
  6
CONTINUOUS
 10
5.9761866397
 20
12.0600477814
 11
6.0235293618
 21
11.9780477814
  0
LINE
  5
23C
100
AcDbEntity
  8
LAYER_CUT_FEAT
100
AcDbLine
 62
7
  6
CONTINUOUS
 10
5.822576028
 20
13.2700477814
 11
5.822576028
 21
12.4300477814
  0
LINE
  5
23D
100
AcDbEntity
  8
LAYER_FEATURE
100
AcDbLine
 62
7
  6
CONTINUOUS
 10
4.5708720839
 20
12.3900477814
 11
4.6908720839
 21
12.4300477814
  0
LINE
  5
23E
100
AcDbEntity
  8
LAYER_FEATURE
100
AcDbLine
 62
7
  6
CONTINUOUS
 10
4.5708720839
 20
12.3100477814
 11
7.5708720839
 21
12.3100477814
  0
LINE
  5
23F
100
AcDbEntity
  8
LAYER_CUT_FEAT
100
AcDbLine
 62
7
  6
CONTINUOUS
 10
5.9573152558
 20
13.2700477814
 11
5.9573152558
 21
12.4300477814
  0
LINE
  5
240
100
AcDbEntity
  8
LAYER_FEATURE
100
AcDbLine
 62
7
  6
CONTINUOUS
 10
7.4508720839
 20
13.2700477814
 11
7.5708720839
 21
13.3100477814
  0
LINE
  5
241
100
AcDbEntity
  8
LAYER_FEATURE
100
AcDbLine
 62
7
  6
CONTINUOUS
 10
4.5708720839
 20
12.3900477814
 11
7.5708720839
 21
12.3900477814
  0
LINE
  5
242
100
AcDbEntity
  8
LAYER_FEATURE
100
AcDbLine
 62
7
  6
CONTINUOUS
 10
4.6908721735
 20
12.4300477814
 11
7.4508719942
 21
12.4300477814
  0
LINE
  5
243
100
AcDbEntity
  8
LAYER_CUT_FEAT
100
AcDbLine
 62
7
  6
CONTINUOUS
 10
6.165557528
 20
12.0600477814
 11
6.1182148059
 21
12.1420477814
  0
LINE
  5
244
100
AcDbEntity
  8
LAYER_CUT_FEAT
100
AcDbLine
 62
7
  6
CONTINUOUS
 10
6.1924984425
 20
13.2700477814
 11
6.1924984425
 21
12.4300477814
  0
LINE
  5
245
100
AcDbEntity
  8
LAYER_CUT_FEAT
100
AcDbLine
 62
7
  6
CONTINUOUS
 10
6.0235293618
 20
12.1420477814
 11
5.9761866397
 21
12.0600477814
  0
LINE
  5
246
100
AcDbEntity
  8
LAYER_FEATURE
100
AcDbLine
 62
7
  6
CONTINUOUS
 10
4.6908720839
 20
13.2700477814
 11
4.5708720839
 21
13.3100477814
  0
LINE
  5
247
100
AcDbEntity
  8
LAYER_CUT_FEAT
100
AcDbLine
 62
7
  6
CONTINUOUS
 10
6.3271777244
 20
13.2700477814
 11
6.3271777244
 21
12.4300477814
  0
LINE
  5
248
100
AcDbEntity
  8
LAYER_CUT_FEAT
100
AcDbLine
 62
7
  6
CONTINUOUS
 10
6.1182148059
 20
11.9780477814
 11
6.165557528
 21
12.0600477814
  0
LINE
  5
249
100
AcDbEntity
  8
LAYER_FEATURE
100
AcDbLine
 62
7
  6
CONTINUOUS
 10
7.5708720839
 20
12.3900477814
 11
7.4508720839
 21
12.4300477814
  0
LINE
  5
24A
100
AcDbEntity
  8
LAYER_FEATURE
100
AcDbLine
 62
7
  6
CONTINUOUS
 10
7.0033445914
 20
12.1957752738
 11
7.0078720839
 21
12.1912477814
  0
LINE
  5
24B
100
AcDbEntity
  8
LAYER_CUT_FEAT
100
AcDbLine
 62
7
  6
CONTINUOUS
 10
6.6790303121
 20
13.2700477814
 11
6.6790303121
 21
12.4300477814
  0
LINE
  5
24C
100
AcDbEntity
  8
LAYER_FEATURE
100
AcDbLine
 62
7
  6
CONTINUOUS
 10
4.6908721735
 20
13.2700477814
 11
7.4508719942
 21
13.2700477814
  0
LINE
  5
24D
100
AcDbEntity
  8
LAYER_FEATURE
100
AcDbLine
 62
7
  6
CONTINUOUS
 10
4.5708720839
 20
13.3100477814
 11
7.5708720839
 21
13.3100477814
  0
LINE
  5
24E
100
AcDbEntity
  8
LAYER_FEATURE
100
AcDbLine
 62
7
  6
CONTINUOUS
 10
4.5708720839
 20
13.3900477814
 11
7.5708720839
 21
13.3900477814
  0
LINE
  5
24F
100
AcDbEntity
  8
LAYER_CUT_FEAT
100
AcDbLine
 62
7
  6
CONTINUOUS
 10
6.9843680147
 20
13.2700477814
 11
6.9843680147
 21
12.4300477814
  0
LINE
  5
250
100
AcDbEntity
  8
02___PRT_ALL_AXES
100
AcDbLine
 62
7
  6
CONTINUOUS
 10
7.0078720839
 20
11.8100477814
 11
7.0078720839
 21
11.8960477814
  0
LINE
  5
251
100
AcDbEntity
  8
LAYER_FEATURE
100
AcDbLine
 62
7
  6
CONTINUOUS
 10
7.0078720839
 20
11.9288477814
 11
7.0078720839
 21
12.1912477814
  0
LINE
  5
252
100
AcDbEntity
  8
02___PRT_ALL_AXES
100
AcDbLine
 62
7
  6
CONTINUOUS
 10
7.0078720839
 20
12.2240477814
 11
7.0078720839
 21
12.3100477814
  0
LINE
  5
253
100
AcDbEntity
  8
LAYER_FEATURE
100
AcDbLine
 62
7
  6
CONTINUOUS
 10
7.0033445915
 20
11.9243202891
 11
7.0078720839
 21
11.9288477814
  0
LINE
  5
254
100
AcDbEntity
  8
LAYER_CUT_FEAT
100
AcDbLine
 62
7
  6
CONTINUOUS
 10
7.2184541877
 20
13.2700477814
 11
7.2184541877
 21
12.4300477814
  0
LINE
  5
255
100
AcDbEntity
  8
LAYER_CUT_FEAT
100
AcDbLine
 62
7
  6
CONTINUOUS
 10
7.3623245613
 20
13.2700477814
 11
7.3623245613
 21
12.4300477814
  0
LINE
  5
256
100
AcDbEntity
  8
02___PRT_ALL_AXES
100
AcDbLine
 62
7
  6
CONTINUOUS
 10
7.4048720839
 20
12.4300477814
 11
7.4048720839
 21
13.2700477814
  0
LINE
  5
257
100
AcDbEntity
  8
LAYER_FEATURE
100
AcDbLine
 62
7
  6
CONTINUOUS
 10
7.5708720839
 20
12.3100477814
 11
7.5708720839
 21
12.3900477814
  0
LINE
  5
258
100
AcDbEntity
  8
LAYER_FEATURE
100
AcDbLine
 62
7
  6
CONTINUOUS
 10
7.5708720839
 20
13.3100477814
 11
7.5708720839
 21
13.3900477814
  0
LINE
  5
259
100
AcDbEntity
  8
LAYER_FEATURE
100
AcDbLine
 62
7
  6
CONTINUOUS
 10
16.3503552569
 20
3.9606247044
 11
16.2703552569
 21
3.9606247044
  0
LINE
  5
25A
100
AcDbEntity
  8
LAYER_FEATURE
100
AcDbLine
 62
7
  6
CONTINUOUS
 10
15.3503552569
 20
3.9606247044
 11
15.2703552569
 21
3.9606247044
  0
LINE
  5
25B
100
AcDbEntity
  8
LAYER_CUT_FEAT
100
AcDbLine
 62
7
  6
CONTINUOUS
 10
16.2303552569
 20
4.1350260894
 11
15.3903552569
 21
4.1350260894
  0
LINE
  5
25C
100
AcDbEntity
  8
LAYER_CUT_FEAT
100
AcDbLine
 62
7
  6
CONTINUOUS
 10
16.2303552569
 20
4.228916471
 11
15.3903552569
 21
4.228916471
  0
LINE
  5
25D
100
AcDbEntity
  8
LAYER_FEATURE
100
AcDbLine
 62
7
  6
CONTINUOUS
 10
14.8846241428
 20
6.3930935903
 11
14.8891552569
 21
6.3976247044
  0
LINE
  5
25E
100
AcDbEntity
  8
LAYER_CUT_FEAT
100
AcDbLine
 62
7
  6
CONTINUOUS
 10
16.2303552569
 20
4.4198380506
 11
15.3903552569
 21
4.4198380506
  0
LINE
  5
25F
100
AcDbEntity
  8
02___PRT_ALL_AXES
100
AcDbLine
 62
7
  6
CONTINUOUS
 10
15.2703552569
 20
4.5236247044
 11
14.7703552569
 21
4.5236247044
  0
LINE
  5
260
100
AcDbEntity
  8
02___PRT_ALL_AXES
100
AcDbLine
 62
7
  6
CONTINUOUS
 10
14.7703552569
 20
6.3976247044
 11
14.7703552569
 21
4.5236247044
  0
LINE
  5
261
100
AcDbEntity
  8
LAYER_CUT_FEAT
100
AcDbLine
 62
7
  6
CONTINUOUS
 10
16.2303552569
 20
4.6923234974
 11
15.3903552569
 21
4.6923234974
  0
LINE
  5
262
100
AcDbEntity
  8
LAYER_CUT_FEAT
100
AcDbLine
 62
7
  6
CONTINUOUS
 10
14.9383552569
 20
5.5079674265
 11
14.9383552569
 21
5.4132819824
  0
LINE
  5
263
100
AcDbEntity
  8
LAYER_CUT_FEAT
100
AcDbLine
 62
7
  6
CONTINUOUS
 10
15.1023552569
 20
5.4132819824
 11
15.1023552569
 21
5.5079674265
  0
LINE
  5
264
100
AcDbEntity
  8
LAYER_CUT_FEAT
100
AcDbLine
 62
7
  6
CONTINUOUS
 10
15.0203552569
 20
5.5553101486
 11
14.9383552569
 21
5.5079674265
  0
LINE
  5
265
100
AcDbEntity
  8
LAYER_CUT_FEAT
100
AcDbLine
 62
7
  6
CONTINUOUS
 10
16.2303552569
 20
5.0242976609
 11
15.3903552569
 21
5.0242976609
  0
LINE
  5
266
100
AcDbEntity
  8
LAYER_CUT_FEAT
100
AcDbLine
 62
7
  6
CONTINUOUS
 10
14.9383552569
 20
5.4132819824
 11
15.0203552569
 21
5.3659392603
  0
LINE
  5
267
100
AcDbEntity
  8
LAYER_FEATURE
100
AcDbLine
 62
7
  6
CONTINUOUS
 10
15.2703552569
 20
6.9606247044
 11
15.2703552569
 21
3.9606247044
  0
LINE
  5
268
100
AcDbEntity
  8
LAYER_FEATURE
100
AcDbLine
 62
7
  6
CONTINUOUS
 10
15.3503552569
 20
6.9606247044
 11
15.3503552569
 21
3.9606247044
  0
LINE
  5
269
100
AcDbEntity
  8
LAYER_FEATURE
100
AcDbLine
 62
7
  6
CONTINUOUS
 10
15.3903552569
 20
6.8406247044
 11
15.3903552569
 21
4.0806247044
  0
LINE
  5
26A
100
AcDbEntity
  8
LAYER_CUT_FEAT
100
AcDbLine
 62
7
  6
CONTINUOUS
 10
15.0203552569
 20
5.3659392603
 11
15.1023552569
 21
5.4132819824
  0
LINE
  5
26B
100
AcDbEntity
  8
LAYER_CUT_FEAT
100
AcDbLine
 62
7
  6
CONTINUOUS
 10
15.1023552569
 20
5.5079674265
 11
15.0203552569
 21
5.5553101486
  0
LINE
  5
26C
100
AcDbEntity
  8
LAYER_CUT_FEAT
100
AcDbLine
 62
7
  6
CONTINUOUS
 10
16.2303552569
 20
5.3888659687
 11
15.3903552569
 21
5.3888659687
  0
LINE
  5
26D
100
AcDbEntity
  8
LAYER_CUT_FEAT
100
AcDbLine
 62
7
  6
CONTINUOUS
 10
16.2303552569
 20
5.52426121
 11
15.3903552569
 21
5.52426121
  0
LINE
  5
26E
100
AcDbEntity
  8
LAYER_FEATURE
100
AcDbLine
 62
7
  6
CONTINUOUS
 10
16.2703552569
 20
6.9606247044
 11
16.2303552569
 21
6.8406247044
  0
LINE
  5
26F
100
AcDbEntity
  8
LAYER_FEATURE
100
AcDbLine
 62
7
  6
CONTINUOUS
 10
16.2703552569
 20
3.9606247044
 11
16.2303552569
 21
4.0806247044
  0
LINE
  5
270
100
AcDbEntity
  8
LAYER_FEATURE
100
AcDbLine
 62
7
  6
CONTINUOUS
 10
15.3903552569
 20
4.0806247044
 11
15.3503552569
 21
3.9606247044
  0
LINE
  5
271
100
AcDbEntity
  8
LAYER_FEATURE
100
AcDbLine
 62
7
  6
CONTINUOUS
 10
15.3903552569
 20
6.8406247044
 11
15.3503552569
 21
6.9606247044
  0
LINE
  5
272
100
AcDbEntity
  8
LAYER_CUT_FEAT
100
AcDbLine
 62
7
  6
CONTINUOUS
 10
16.2303552569
 20
5.8892178609
 11
15.3903552569
 21
5.8892178609
  0
LINE
  5
273
100
AcDbEntity
  8
LAYER_FEATURE
100
AcDbLine
 62
7
  6
CONTINUOUS
 10
15.1560863703
 20
6.3930935911
 11
15.1515552569
 21
6.3976247044
  0
LINE
  5
274
100
AcDbEntity
  8
LAYER_FEATURE
100
AcDbLine
 62
7
  6
CONTINUOUS
 10
16.2303552569
 20
6.8406247044
 11
16.2303552569
 21
4.0806247044
  0
LINE
  5
275
100
AcDbEntity
  8
LAYER_FEATURE
100
AcDbLine
 62
7
  6
CONTINUOUS
 10
16.2703552569
 20
6.9606247044
 11
16.2703552569
 21
3.9606247044
  0
LINE
  5
276
100
AcDbEntity
  8
LAYER_FEATURE
100
AcDbLine
 62
7
  6
CONTINUOUS
 10
16.3503552569
 20
6.9606247044
 11
16.3503552569
 21
3.9606247044
  0
LINE
  5
277
100
AcDbEntity
  8
LAYER_CUT_FEAT
100
AcDbLine
 62
7
  6
CONTINUOUS
 10
16.2303552569
 20
6.2222069211
 11
15.3903552569
 21
6.2222069211
  0
LINE
  5
278
100
AcDbEntity
  8
02___PRT_ALL_AXES
100
AcDbLine
 62
7
  6
CONTINUOUS
 10
15.2703552569
 20
6.3976247044
 11
15.1843552569
 21
6.3976247044
  0
LINE
  5
279
100
AcDbEntity
  8
02___PRT_ALL_AXES
100
AcDbLine
 62
7
  6
CONTINUOUS
 10
14.8563552569
 20
6.3976247044
 11
14.7703552569
 21
6.3976247044
  0
LINE
  5
27A
100
AcDbEntity
  8
LAYER_FEATURE
100
AcDbLine
 62
7
  6
CONTINUOUS
 10
14.8891553445
 20
6.3976247044
 11
15.1515551694
 21
6.3976247044
  0
LINE
  5
27B
100
AcDbEntity
  8
LAYER_CUT_FEAT
100
AcDbLine
 62
7
  6
CONTINUOUS
 10
16.2303552569
 20
6.4962515971
 11
15.3903552569
 21
6.4962515971
  0
LINE
  5
27C
100
AcDbEntity
  8
LAYER_CUT_FEAT
100
AcDbLine
 62
7
  6
CONTINUOUS
 10
16.2303552569
 20
6.6891504192
 11
15.3903552569
 21
6.6891504192
  0
LINE
  5
27D
100
AcDbEntity
  8
LAYER_CUT_FEAT
100
AcDbLine
 62
7
  6
CONTINUOUS
 10
16.2303552569
 20
6.7852758721
 11
15.3903552569
 21
6.7852758721
  0
LINE
  5
27E
100
AcDbEntity
  8
LAYER_CUT_FEAT
100
AcDbLine
 62
7
  6
CONTINUOUS
 10
16.2303552569
 20
6.7862233195
 11
15.3903552569
 21
6.7862233195
  0
LINE
  5
27F
100
AcDbEntity
  8
LAYER_FEATURE
100
AcDbLine
 62
7
  6
CONTINUOUS
 10
16.3503552569
 20
6.9606247044
 11
16.2703552569
 21
6.9606247044
  0
LINE
  5
280
100
AcDbEntity
  8
LAYER_FEATURE
100
AcDbLine
 62
7
  6
CONTINUOUS
 10
15.3503552569
 20
6.9606247044
 11
15.2703552569
 21
6.9606247044
  0
LINE
  5
281
100
AcDbEntity
  8
LAYER_FEATURE
100
AcDbLine
 62
7
  6
CONTINUOUS
 10
13.9072653875
 20
12.5515280403
 11
13.9266306933
 21
12.614194193
  0
LINE
  5
282
100
AcDbEntity
  8
LAYER_FEATURE
100
AcDbLine
 62
7
  6
CONTINUOUS
 10
14.1493317109
 20
13.3348549499
 11
14.1686970167
 21
13.3975211027
  0
LINE
  5
283
100
AcDbEntity
  8
LAYER_CUT_FEAT
100
AcDbLine
 62
7
  6
CONTINUOUS
 10
14.3117678146
 20
13.2919658561
 11
14.2035387226
 21
12.9417363862
  0
LINE
  5
284
100
AcDbEntity
  8
LAYER_CUT_FEAT
100
AcDbLine
 62
7
  6
CONTINUOUS
 10
14.4420556375
 20
13.4691823442
 11
14.2934435037
 21
12.9882733029
  0
LINE
  5
285
100
AcDbEntity
  8
LAYER_FEATURE
100
AcDbLine
 62
7
  6
CONTINUOUS
 10
14.3121213857
 20
13.2929454496
 11
14.3117678753
 21
13.2919658373
  0
LINE
  5
286
100
AcDbEntity
  8
LAYER_CUT_FEAT
100
AcDbLine
 62
7
  6
CONTINUOUS
 10
14.6613163643
 20
13.5979124794
 11
14.4942341176
 21
13.0572341307
  0
LINE
  5
287
100
AcDbEntity
  8
LAYER_CUT_FEAT
100
AcDbLine
 62
7
  6
CONTINUOUS
 10
14.3257397172
 20
12.4222096916
 11
14.3354223702
 21
12.4535427679
  0
LINE
  5
288
100
AcDbEntity
  8
02___PRT_ALL_AXES
100
AcDbLine
 62
7
  6
CONTINUOUS
 10
14.3241341611
 20
11.9936403153
 11
14.4451673228
 21
12.3853037701
  0
LINE
  5
289
100
AcDbEntity
  8
LAYER_CUT_FEAT
100
AcDbLine
 62
7
  6
CONTINUOUS
 10
14.9517867951
 20
13.6677273115
 11
14.7762099975
 21
13.0995605864
  0
LINE
  5
28A
100
AcDbEntity
  8
LAYER_CUT_FEAT
100
AcDbLine
 62
7
  6
CONTINUOUS
 10
16.171797249
 20
11.8539678397
 11
16.1204269272
 21
11.8539678397
  0
LINE
  5
28B
100
AcDbEntity
  8
LAYER_CUT_FEAT
100
AcDbLine
 62
7
  6
CONTINUOUS
 10
16.1772051752
 20
11.9476293543
 11
16.1126423842
 21
11.9476293543
  0
LINE
  5
28C
100
AcDbEntity
  8
LAYER_CUT_FEAT
100
AcDbLine
 62
7
  6
CONTINUOUS
 10
15.2899347428
 20
13.6729708583
 11
15.1108370494
 21
13.0934105101
  0
LINE
  5
28D
100
AcDbEntity
  8
LAYER_CUT_FEAT
100
AcDbLine
 62
7
  6
CONTINUOUS
 10
14.9068447746
 20
12.4952737959
 11
14.9383656579
 21
12.4310409893
  0
LINE
  5
28E
100
AcDbEntity
  8
LAYER_CUT_FEAT
100
AcDbLine
 62
7
  6
CONTINUOUS
 10
14.9702997478
 20
12.5595066025
 11
15.0203266139
 21
12.4575625677
  0
LINE
  5
28F
100
AcDbEntity
  8
LAYER_CUT_FEAT
100
AcDbLine
 62
7
  6
CONTINUOUS
 10
14.9068447746
 20
12.4952737959
 11
14.9306008708
 21
12.4310409893
  0
LINE
  5
290
100
AcDbEntity
  8
LAYER_CUT_FEAT
100
AcDbLine
 62
7
  6
CONTINUOUS
 10
14.9702997478
 20
12.5595066025
 11
14.9068447746
 21
12.4952737959
  0
LINE
  5
291
100
AcDbEntity
  8
LAYER_CUT_FEAT
100
AcDbLine
 62
7
  6
CONTINUOUS
 10
15.0203266139
 20
12.4575625677
 11
14.9941262012
 21
12.4310409893
  0
LINE
  5
292
100
AcDbEntity
  8
LAYER_CUT_FEAT
100
AcDbLine
 62
7
  6
CONTINUOUS
 10
15.0178119401
 20
12.4310409893
 11
15.0812669133
 21
12.4952737959
  0
LINE
  5
293
100
AcDbEntity
  8
LAYER_CUT_FEAT
100
AcDbLine
 62
7
  6
CONTINUOUS
 10
15.0812669133
 20
12.4952737959
 11
15.0575108171
 21
12.5595066025
  0
LINE
  5
294
100
AcDbEntity
  8
LAYER_CUT_FEAT
100
AcDbLine
 62
7
  6
CONTINUOUS
 10
15.6483654719
 20
13.6132183186
 11
15.468747377
 21
13.0319739502
  0
LINE
  5
295
100
AcDbEntity
  8
LAYER_CUT_FEAT
100
AcDbLine
 62
7
  6
CONTINUOUS
 10
15.7783177224
 20
13.5756191995
 11
15.5992177784
 21
12.9960515681
  0
LINE
  5
296
100
AcDbEntity
  8
LAYER_CUT_FEAT
100
AcDbLine
 62
7
  6
CONTINUOUS
 10
14.9306008708
 20
12.4310409893
 11
15.0178119401
 21
12.4310409893
  0
LINE
  5
297
100
AcDbEntity
  8
LAYER_CUT_FEAT
100
AcDbLine
 62
7
  6
CONTINUOUS
 10
15.0440123528
 20
12.4575625677
 11
15.0203266139
 21
12.4575625677
  0
LINE
  5
298
100
AcDbEntity
  8
LAYER_CUT_FEAT
100
AcDbLine
 62
7
  6
CONTINUOUS
 10
15.0575108171
 20
12.5595066025
 11
14.9702997478
 21
12.5595066025
  0
LINE
  5
299
100
AcDbEntity
  8
LAYER_FEATURE
100
AcDbLine
 62
7
  6
CONTINUOUS
 10
16.139704947
 20
12.0614463496
 11
16.164515443
 21
12.0317221308
  0
LINE
  5
29A
100
AcDbEntity
  8
LAYER_CUT_FEAT
100
AcDbLine
 62
7
  6
CONTINUOUS
 10
16.1086232735
 20
11.878021157
 11
16.1375062982
 21
11.8191637411
  0
LINE
  5
29B
100
AcDbEntity
  8
LAYER_CUT_FEAT
100
AcDbLine
 62
7
  6
CONTINUOUS
 10
16.1233073148
 20
13.4457002825
 11
15.9436446611
 21
12.8643117221
  0
LINE
  5
29C
100
AcDbEntity
  8
LAYER_CUT_FEAT
100
AcDbLine
 62
7
  6
CONTINUOUS
 10
16.1772051752
 20
11.9476293543
 11
16.1483221506
 21
12.0064867702
  0
LINE
  5
29D
100
AcDbEntity
  8
LAYER_CUT_FEAT
100
AcDbLine
 62
7
  6
CONTINUOUS
 10
16.1140311997
 20
11.9716826716
 11
16.1086232735
 21
11.878021157
  0
LINE
  5
29E
100
AcDbEntity
  8
LAYER_CUT_FEAT
100
AcDbLine
 62
7
  6
CONTINUOUS
 10
16.4263281699
 20
13.2675708849
 11
16.2487343827
 21
12.6928771789
  0
LINE
  5
29F
100
AcDbEntity
  8
LAYER_CUT_FEAT
100
AcDbLine
 62
7
  6
CONTINUOUS
 10
16.171797249
 20
11.8539678397
 11
16.1772051752
 21
11.9476293543
  0
LINE
  5
2A0
100
AcDbEntity
  8
LAYER_CUT_FEAT
100
AcDbLine
 62
7
  6
CONTINUOUS
 10
16.1483221506
 20
12.0064867702
 11
16.1140311997
 21
11.9716826716
  0
LINE
  5
2A1
100
AcDbEntity
  8
02___PRT_ALL_AXES
100
AcDbLine
 62
7
  6
CONTINUOUS
 10
16.1145928232
 20
11.4403467412
 11
16.2356259849
 21
11.832010196
  0
LINE
  5
2A2
100
AcDbEntity
  8
LAYER_CUT_FEAT
100
AcDbLine
 62
7
  6
CONTINUOUS
 10
16.6628313404
 20
13.055661991
 11
16.4911128066
 21
12.4999806121
  0
LINE
  5
2A3
100
AcDbEntity
  8
LAYER_FEATURE
100
AcDbLine
 62
7
  6
CONTINUOUS
 10
16.139704947
 20
11.7642041617
 11
16.164515443
 21
11.7939283805
  0
LINE
  5
2A4
100
AcDbEntity
  8
LAYER_CUT_FEAT
100
AcDbLine
 62
7
  6
CONTINUOUS
 10
16.1375062982
 20
11.8191637411
 11
16.171797249
 21
11.8539678397
  0
LINE
  5
2A5
100
AcDbEntity
  8
LAYER_CUT_FEAT
100
AcDbLine
 62
7
  6
CONTINUOUS
 10
16.3550535904
 20
11.7951042745
 11
16.3647362434
 21
11.8264373509
  0
LINE
  5
2A6
100
AcDbEntity
  8
LAYER_CUT_FEAT
100
AcDbLine
 62
7
  6
CONTINUOUS
 10
16.8136567458
 20
12.8271411991
 11
16.6550028838
 21
12.3137371136
  0
LINE
  5
2A7
100
AcDbEntity
  8
LAYER_CUT_FEAT
100
AcDbLine
 62
7
  6
CONTINUOUS
 10
16.8665854088
 20
12.6005219049
 11
16.7367069751
 21
12.1802351393
  0
LINE
  5
2A8
100
AcDbEntity
  8
LAYER_CUT_FEAT
100
AcDbLine
 62
7
  6
CONTINUOUS
 10
16.8337928341
 20
12.4293357765
 11
16.7490452281
 21
12.1550924232
  0
LINE
  5
2A9
100
AcDbEntity
  8
LAYER_FEATURE
100
AcDbLine
 62
7
  6
CONTINUOUS
 10
16.7735279202
 20
11.6657859258
 11
16.7928932261
 21
11.7284520786
  0
LINE
  5
2AA
100
AcDbEntity
  8
LAYER_FEATURE
100
AcDbLine
 62
7
  6
CONTINUOUS
 10
17.0155942436
 20
12.4491128355
 11
17.0349595495
 21
12.5117789882
  0
CIRCLE
  5
2AB
100
AcDbEntity
  8
LAYER_FEATURE
100
AcDbCircle
 62
7
  6
CONTINUOUS
 10
6.1303672762
 20
5.5201198968
 40
1.5
  0
CIRCLE
  5
2AC
100
AcDbEntity
  8
LAYER_FEATURE
100
AcDbCircle
 62
7
  6
CONTINUOUS
 10
6.1303672762
 20
5.5201198968
 40
1.38
  0
CIRCLE
  5
2AD
100
AcDbEntity
  8
LAYER_CUT_FEAT
100
AcDbCircle
 62
7
  6
CONTINUOUS
 10
6.1303672762
 20
5.5201198968
 40
1.062
  0
CIRCLE
  5
2AE
100
AcDbEntity
  8
02___PRT_ALL_AXES
100
AcDbCircle
 62
7
  6
CONTINUOUS
 10
6.1303672762
 20
5.5201198968
 40
0.937
  0
CIRCLE
  5
2AF
100
AcDbEntity
  8
LAYER_CHAMFER_FEAT
100
AcDbCircle
 62
7
  6
CONTINUOUS
 10
6.1303672762
 20
5.5201198968
 40
0.2875
  0
CIRCLE
  5
2B0
100
AcDbEntity
  8
LAYER_CHAMFER_FEAT
100
AcDbCircle
 62
7
  6
CONTINUOUS
 10
6.1303672762
 20
5.5201198968
 40
0.25
  0
CIRCLE
  5
2B1
100
AcDbEntity
  8
02___PRT_ALL_AXES
100
AcDbCircle
 62
7
  6
CONTINUOUS
 10
6.0708720839
 20
12.0600477814
 40
0.164
  0
CIRCLE
  5
2B2
100
AcDbEntity
  8
LAYER_FEATURE
100
AcDbCircle
 62
7
  6
CONTINUOUS
 10
6.0708720839
 20
12.0600477814
 40
0.1312
  0
CIRCLE
  5
2B3
100
AcDbEntity
  8
02___PRT_ALL_AXES
100
AcDbCircle
 62
7
  6
CONTINUOUS
 10
15.0203552569
 20
5.4606247044
 40
0.164
  0
CIRCLE
  5
2B4
100
AcDbEntity
  8
LAYER_FEATURE
100
AcDbCircle
 62
7
  6
CONTINUOUS
 10
15.0203552569
 20
5.4606247044
 40
0.1312
  0
ARC
  5
2B5
100
AcDbEntity
  8
LAYER_FEATURE
100
AcDbCircle
 62
7
  6
CONTINUOUS
 10
15.1133624875
 20
11.3748783246
 40
2.3189458863
100
AcDbArc
 50
74.0563128831
 51
75.7628078924
  0
ARC
  5
2B6
100
AcDbEntity
  8
LAYER_FEATURE
100
AcDbCircle
 62
7
  6
CONTINUOUS
 10
15.1510837503
 20
11.4654969152
 40
2.2208138819
100
AcDbArc
 50
64.5799214774
 51
66.3348710779
  0
ARC
  5
2B7
100
AcDbEntity
  8
LAYER_FEATURE
100
AcDbCircle
 62
7
  6
CONTINUOUS
 10
15.1555124197
 20
11.6360007781
 40
2.0541831445
100
AcDbArc
 50
83.6709882437
 51
85.5226798634
  0
ARC
  5
2B8
100
AcDbEntity
  8
LAYER_FEATURE
100
AcDbCircle
 62
7
  6
CONTINUOUS
 10
15.3582340966
 20
11.8255691598
 40
1.8048918776
100
AcDbArc
 50
54.149165739
 51
56.1626727617
  0
ARC
  5
2B9
100
AcDbEntity
  8
LAYER_FEATURE
100
AcDbCircle
 62
7
  6
CONTINUOUS
 10
15.1520632823
 20
12.1429441639
 40
1.54647796
100
AcDbArc
 50
94.5634458946
 51
96.8027920696
  0
ARC
  5
2BA
100
AcDbEntity
  8
LAYER_FEATURE
100
AcDbCircle
 62
7
  6
CONTINUOUS
 10
15.7233400746
 20
12.2485855203
 40
1.2450184186
100
AcDbArc
 50
41.3467853463
 51
43.9297304007
  0
ARC
  5
2BB
100
AcDbEntity
  8
LAYER_FEATURE
100
AcDbCircle
 62
7
  6
CONTINUOUS
 10
15.0360496
 20
12.6686737076
 40
1.0068045382
100
AcDbArc
 50
108.2872476146
 51
111.2703566472
  0
ARC
  5
2BC
100
AcDbEntity
  8
LAYER_FEATURE
100
AcDbCircle
 62
7
  6
CONTINUOUS
 10
16.1055113468
 20
12.5193389496
 40
0.7751495937
100
AcDbArc
 50
24.1574726036
 51
27.6911432849
  0
ARC
  5
2BD
100
AcDbEntity
  8
LAYER_FEATURE
100
AcDbCircle
 62
7
  6
CONTINUOUS
 10
14.853576368
 20
13.0084513886
 40
0.6194723468
100
AcDbArc
 50
127.0517217384
 51
131.1655561364
  0
ARC
  5
2BE
100
AcDbEntity
  8
LAYER_FEATURE
100
AcDbCircle
 62
7
  6
CONTINUOUS
 10
16.3721164713
 20
12.5996227781
 40
0.4949925453
100
AcDbArc
 50
0.5089292398
 51
5.2865123618
  0
ARC
  5
2BF
100
AcDbEntity
  8
LAYER_FEATURE
100
AcDbCircle
 62
7
  6
CONTINUOUS
 10
14.7240331957
 20
13.1221376431
 40
0.4459222421
100
AcDbArc
 50
152.3556231384
 51
157.4776416051
  0
ARC
  5
2C0
100
AcDbEntity
  8
LAYER_FEATURE
100
AcDbCircle
 62
7
  6
CONTINUOUS
 10
14.4655418161
 20
13.5083016843
 40
0.1979135689
100
AcDbArc
 50
242.9938562768
 51
249.6717791208
  0
SPLINE
  5
2C1
100
AcDbEntity
  8
02___PRT_ALL_AXES
100
AcDbSpline
 62
7
  6
CONTINUOUS
 70
0
 71
3
 72
21
 73
17
 74
0
 42
0.0000001
 43
0.0000001
 44
0.0000000001
 40
0.0
 40
0.0
 40
0.0
 40
0.0
 40
0.0384949836
 40
0.0850114923
 40
0.1473476298
 40
0.2230554272
 40
0.3092728691
 40
0.4027691936
 40
0.5000000006
 40
0.5972308076
 40
0.690727132
 40
0.7769445738
 40
0.8526523709
 40
0.9149885079
 40
0.9615050166
 40
1.0
 40
1.0
 40
1.0
 40
1.0
 10
7.0078720839
 20
11.8960477814
 30
0.0
 10
7.0071427392
 20
11.9002147594
 30
0.0
 10
7.0055898477
 20
11.909427156
 30
0.0
 10
7.0031226565
 20
11.9254311007
 30
0.0
 10
7.0003985053
 20
11.9455306208
 30
0.0
 10
6.9976642071
 20
11.9700258807
 30
0.0
 10
6.995335454
 20
11.9980022695
 30
0.0
 10
6.9937726978
 20
12.0284018084
 30
0.0
 10
6.9932224874
 20
12.0600477816
 30
0.0
 10
6.9937726978
 20
12.0916937547
 30
0.0
 10
6.995335454
 20
12.1220932936
 30
0.0
 10
6.9976642072
 20
12.1500696824
 30
0.0
 10
7.0003985053
 20
12.1745649421
 30
0.0
 10
7.0031226565
 20
12.1946644622
 30
0.0
 10
7.0055898477
 20
12.2106684068
 30
0.0
 10
7.0071427392
 20
12.2198808034
 30
0.0
 10
7.0078720839
 20
12.2240477814
 30
0.0
  0
SPLINE
  5
2C2
100
AcDbEntity
  8
02___PRT_ALL_AXES
100
AcDbSpline
 62
7
  6
CONTINUOUS
 70
0
 71
3
 72
21
 73
17
 74
0
 42
0.0000001
 43
0.0000001
 44
0.0000000001
 40
0.0
 40
0.0
 40
0.0
 40
0.0
 40
0.0384949566
 40
0.0850114709
 40
0.1473476272
 40
0.2230554503
 40
0.3092728909
 40
0.4027692031
 40
0.5000000003
 40
0.5972307975
 40
0.6907271096
 40
0.7769445502
 40
0.8526523733
 40
0.9149885294
 40
0.9615050436
 40
1.0
 40
1.0
 40
1.0
 40
1.0
 10
15.1843552569
 20
6.3976247044
 30
0.0
 10
15.1801882815
 20
6.3968953622
 30
0.0
 10
15.170975887
 20
6.3953424724
 30
0.0
 10
15.1549719431
 20
6.3928752784
 30
0.0
 10
15.1348724178
 20
6.3901511244
 30
0.0
 10
15.1103771528
 20
6.3874168294
 30
0.0
 10
15.0824007626
 20
6.3850880778
 30
0.0
 10
15.0520012265
 20
6.3835253183
 30
0.0
 10
15.0203552568
 20
6.3829751063
 30
0.0
 10
14.9887092872
 20
6.3835253183
 30
0.0
 10
14.9583097511
 20
6.3850880778
 30
0.0
 10
14.9303333609
 20
6.3874168294
 30
0.0
 10
14.905838096
 20
6.3901511244
 30
0.0
 10
14.8857385707
 20
6.3928752784
 30
0.0
 10
14.8697346268
 20
6.3953424724
 30
0.0
 10
14.8605222323
 20
6.3968953622
 30
0.0
 10
14.8563552569
 20
6.3976247044
 30
0.0
  0
SPLINE
  5
2C3
100
AcDbEntity
  8
02___PRT_ALL_AXES
100
AcDbSpline
 62
7
  6
CONTINUOUS
 70
0
 71
3
 72
59
 73
55
 74
0
 42
0.0000001
 43
0.0000001
 44
0.0000000001
 40
0.0
 40
0.0
 40
0.0
 40
0.0
 40
0.0136908325
 40
0.0278701654
 40
0.0425196925
 40
0.0576224589
 40
0.0731601592
 40
0.0891126325
 40
0.1054588393
 40
0.1221770563
 40
0.1392447006
 40
0.1566386517
 40
0.1923093335
 40
0.228996477
 40
0.2665028178
 40
0.3046297894
 40
0.3431794378
 40
0.3819558859
 40
0.4207666383
 40
0.4594236113
 40
0.4977442635
 40
0.5355526992
 40
0.572681033
 40
0.6089709069
 40
0.6267561816
 40
0.6442777889
 40
0.6615194336
 40
0.6784658499
 40
0.6951027551
 40
0.7114170361
 40
0.7273967139
 40
0.7430311331
 40
0.7583109548
 40
0.7732282453
 40
0.7877766207
 40
0.8019512249
 40
0.8157489573
 40
0.8291683885
 40
0.8422100603
 40
0.8548764167
 40
0.8671720596
 40
0.8791037912
 40
0.8906807796
 40
0.9019147414
 40
0.912820012
 40
0.923413794
 40
0.9337161602
 40
0.9437503031
 40
0.9535424569
 40
0.9631219805
 40
0.9725211999
 40
0.9817752336
 40
0.990921654
 40
1.0
 40
1.0
 40
1.0
 40
1.0
 10
16.1032153473
 20
11.7843596425
 30
0.0
 10
16.1025583841
 20
11.7856983928
 30
0.0
 10
16.1012533058
 20
11.7884396088
 30
0.0
 10
16.0993533904
 20
11.792663734
 30
0.0
 10
16.0974794493
 20
11.7970670901
 30
0.0
 10
16.0956348412
 20
11.8016427119
 30
0.0
 10
16.0938229245
 20
11.8063836131
 30
0.0
 10
16.0920472179
 20
11.8112824943
 30
0.0
 10
16.0903113329
 20
11.8163317866
 30
0.0
 10
16.0886189511
 20
11.8215237258
 30
0.0
 10
16.0869738021
 20
11.8268503906
 30
0.0
 10
16.0848304048
 20
11.8341828601
 30
0.0
 10
16.0822983249
 20
11.8436269566
 30
0.0
 10
16.0795339882
 20
11.8552717723
 30
0.0
 10
16.0770498873
 20
11.8672530389
 30
0.0
 10
16.0748766288
 20
11.8795007205
 30
0.0
 10
16.0730440008
 20
11.8919439526
 30
0.0
 10
16.0715805092
 20
11.9045111143
 30
0.0
 10
16.0705128874
 20
11.917129997
 30
0.0
 10
16.0698655689
 20
11.9297279251
 30
0.0
 10
16.0696601172
 20
11.9422318667
 30
0.0
 10
16.0699146324
 20
11.9545687228
 30
0.0
 10
16.0706431416
 20
11.966665302
 30
0.0
 10
16.071659735
 20
11.9765509493
 30
0.0
 10
16.0727237974
 20
11.9842772238
 30
0.0
 10
16.0736387287
 20
11.9899279985
 30
0.0
 10
16.0746755307
 20
11.9954647642
 30
0.0
 10
16.0758333576
 20
12.000879032
 30
0.0
 10
16.0771111878
 20
12.0061624107
 30
0.0
 10
16.0785073842
 20
12.0113067631
 30
0.0
 10
16.0800201429
 20
12.0163041215
 30
0.0
 10
16.0816471076
 20
12.0211468044
 30
0.0
 10
16.08338565
 20
12.0258273665
 30
0.0
 10
16.0852327526
 20
12.030338648
 30
0.0
 10
16.0871849864
 20
12.0346738121
 30
0.0
 10
16.0892387132
 20
12.0388262821
 30
0.0
 10
16.0913897864
 20
12.0427898878
 30
0.0
 10
16.0936339703
 20
12.0465586891
 30
0.0
 10
16.0959665284
 20
12.0501271986
 30
0.0
 10
16.0983826527
 20
12.0534901647
 30
0.0
 10
16.1008771492
 20
12.0566427675
 30
0.0
 10
16.1034446937
 20
12.0595804706
 30
0.0
 10
16.1060797356
 20
12.0622990914
 30
0.0
 10
16.1087765241
 20
12.0647948058
 30
0.0
 10
16.1115292222
 20
12.0670640386
 30
0.0
 10
16.1143317517
 20
12.0691036424
 30
0.0
 10
16.1171780268
 20
12.0709106295
 30
0.0
 10
16.1200617341
 20
12.0724824722
 30
0.0
 10
16.1229765572
 20
12.0738167763
 30
0.0
 10
16.1259160091
 20
12.0749115869
 30
0.0
 10
16.1288735437
 20
12.0757651368
 30
0.0
 10
16.1318425973
 20
12.0763760435
 30
0.0
 10
16.1348162113
 20
12.0767432384
 30
0.0
 10
16.1368022675
 20
12.0768252504
 30
0.0
 10
16.1377911164
 20
12.0768252474
 30
0.0
  0
SPLINE
  5
2C4
100
AcDbEntity
  8
02___PRT_ALL_AXES
100
AcDbSpline
 62
7
  6
CONTINUOUS
 70
0
 71
3
 72
30
 73
26
 74
0
 42
0.0000001
 43
0.0000001
 44
0.0000000001
 40
0.0
 40
0.0
 40
0.0
 40
0.0
 40
0.0746776818
 40
0.1477527034
 40
0.2191157109
 40
0.2886858007
 40
0.3564086152
 40
0.4222625216
 40
0.4862604294
 40
0.5175819575
 40
0.548461581
 40
0.6089380699
 40
0.667829074
 40
0.6967374765
 40
0.7253169476
 40
0.7535948142
 40
0.7816008112
 40
0.8093665874
 40
0.8369258063
 40
0.8643137249
 40
0.891567026
 40
0.9187235035
 40
0.945821751
 40
0.9729008376
 40
1.0
 40
1.0
 40
1.0
 40
1.0
 10
14.9543569669
 20
12.3668081827
 30
0.0
 10
14.9513176182
 20
12.3668081827
 30
0.0
 10
14.9453031697
 20
12.3669410062
 30
0.0
 10
14.9364030146
 20
12.3675524399
 30
0.0
 10
14.9277492457
 20
12.3685727316
 30
0.0
 10
14.9193737843
 20
12.3699995712
 30
0.0
 10
14.9113064633
 20
12.371829882
 30
0.0
 10
14.9035757935
 20
12.3740595735
 30
0.0
 10
14.8973918723
 20
12.3762622924
 30
0.0
 10
14.892643578
 20
12.3782227957
 30
0.0
 10
14.8880947139
 20
12.3802831939
 30
0.0
 10
14.8826577694
 20
12.383093798
 30
0.0
 10
14.8775108421
 20
12.386256676
 30
0.0
 10
14.8736276783
 20
12.3889707622
 30
0.0
 10
14.8708482794
 20
12.3910841364
 30
0.0
 10
14.8681863819
 20
12.3932865308
 30
0.0
 10
14.8656439129
 20
12.3955766531
 30
0.0
 10
14.8632228487
 20
12.397953234
 30
0.0
 10
14.8609249534
 20
12.4004148404
 30
0.0
 10
14.8587519738
 20
12.4029600533
 30
0.0
 10
14.8567054941
 20
12.4055873265
 30
0.0
 10
14.8547870279
 20
12.408295059
 30
0.0
 10
14.8529979829
 20
12.4110816024
 30
0.0
 10
14.8513396629
 20
12.4139450963
 30
0.0
 10
14.8503228653
 20
12.4159027244
 30
0.0
 10
14.8498369794
 20
12.4168928538
 30
0.0
  0
SPLINE
  5
2C5
100
AcDbEntity
  8
LAYER_CUT_FEAT
100
AcDbSpline
 62
7
  6
CONTINUOUS
 70
0
 71
3
 72
22
 73
18
 74
0
 42
0.0000001
 43
0.0000001
 44
0.0000000001
 40
0.0
 40
0.0
 40
0.0
 40
0.0
 40
0.1379171013
 40
0.2050868941
 40
0.2711153405
 40
0.3360541906
 40
0.3999626242
 40
0.4629067253
 40
0.52495922
 40
0.5861994909
 40
0.6467132198
 40
0.7065919538
 40
0.7659325974
 40
0.8248367681
 40
0.883409997
 40
0.9417608549
 40
1.0
 40
1.0
 40
1.0
 40
1.0
 10
14.3606106305
 20
12.1119819526
 30
0.0
 10
14.3542148954
 20
12.1252164067
 30
0.0
 10
14.3454091076
 20
12.1452526129
 30
0.0
 10
14.3353811692
 20
12.1723575607
 30
0.0
 10
14.3288673656
 20
12.1924515783
 30
0.0
 10
14.3233021278
 20
12.2124679639
 30
0.0
 10
14.3186905889
 20
12.2323885257
 30
0.0
 10
14.3150373268
 20
12.2521944503
 30
0.0
 10
14.3123460009
 20
12.2718671972
 30
0.0
 10
14.3106193499
 20
12.2913882427
 30
0.0
 10
14.3098591915
 20
12.310739184
 30
0.0
 10
14.3100664626
 20
12.3299017258
 30
0.0
 10
14.3112411808
 20
12.3488577183
 30
0.0
 10
14.3133823505
 20
12.3675891067
 30
0.0
 10
14.3164881276
 20
12.386078245
 30
0.0
 10
14.3205554818
 20
12.4043068315
 30
0.0
 10
14.3239071322
 20
12.4162794121
 30
0.0
 10
14.3257397263
 20
12.4222096888
 30
0.0
  0
SPLINE
  5
2C6
100
AcDbEntity
  8
LAYER_CHAMFER_FEAT
100
AcDbSpline
 62
7
  6
CONTINUOUS
 70
0
 71
3
 72
23
 73
19
 74
0
 42
0.0000001
 43
0.0000001
 44
0.0000000001
 40
0.0
 40
0.0
 40
0.0
 40
0.0
 40
0.0738889147
 40
0.1459880551
 40
0.2163025821
 40
0.2848520831
 40
0.351671785
 40
0.4168132419
 40
0.4803452424
 40
0.5423547688
 40
0.6029472454
 40
0.6622466861
 40
0.7203956243
 40
0.7775541256
 40
0.8338983197
 40
0.8896184269
 40
0.9449158925
 40
1.0
 40
1.0
 40
1.0
 40
1.0
 10
15.0724085147
 20
11.8907464928
 30
0.0
 10
15.0697443826
 20
11.8899218347
 30
0.0
 10
15.0645130873
 20
11.8881850606
 30
0.0
 10
15.0568809351
 20
11.8852791787
 30
0.0
 10
15.0495732592
 20
11.8821095803
 30
0.0
 10
15.0426040724
 20
11.8786821723
 30
0.0
 10
15.0359865222
 20
11.87500332
 30
0.0
 10
15.0297331898
 20
11.8710798234
 30
0.0
 10
15.0238560125
 20
11.8669189003
 30
0.0
 10
15.0183662196
 20
11.862528279
 30
0.0
 10
15.0132743764
 20
11.8579160951
 30
0.0
 10
15.0085903907
 20
11.853090892
 30
0.0
 10
15.0043233982
 20
11.8480617237
 30
0.0
 10
15.0004818031
 20
11.8428380594
 30
0.0
 10
14.9970733
 20
11.8374298315
 30
0.0
 10
14.9941046576
 20
11.8318473113
 30
0.0
 10
14.9915819506
 20
11.8261017709
 30
0.0
 10
14.9901996238
 20
11.8221665243
 30
0.0
 10
14.9895857731
 20
11.8201801287
 30
0.0
  0
SPLINE
  5
2C7
100
AcDbEntity
  8
LAYER_CHAMFER_FEAT
100
AcDbSpline
 62
7
  6
CONTINUOUS
 70
0
 71
3
 72
23
 73
19
 74
0
 42
0.0000001
 43
0.0000001
 44
0.0000000001
 40
0.0
 40
0.0
 40
0.0
 40
0.0
 40
0.0739091665
 40
0.1460262935
 40
0.2163563599
 40
0.2849187977
 40
0.3517484307
 40
0.4168967266
 40
0.4804325034
 40
0.5424425511
 40
0.6030323665
 40
0.6623262134
 40
0.7204667235
 40
0.7776142524
 40
0.8339453999
 40
0.8896507872
 40
0.9449323608
 40
1.0
 40
1.0
 40
1.0
 40
1.0
 10
15.4385953887
 20
11.7777086143
 30
0.0
 10
15.4403356541
 20
11.7755218547
 30
0.0
 10
15.4436864942
 20
11.7711307237
 30
0.0
 10
15.4483649178
 20
11.7644162629
 30
0.0
 10
15.4526255703
 20
11.7576667511
 30
0.0
 10
15.4564601873
 20
11.7508950384
 30
0.0
 10
15.4598613871
 20
11.7441138174
 30
0.0
 10
15.4628225989
 20
11.7373358765
 30
0.0
 10
15.4653380539
 20
11.7305739859
 30
0.0
 10
15.4674027274
 20
11.7238408901
 30
0.0
 10
15.469012467
 20
11.7171493363
 30
0.0
 10
15.4701639596
 20
11.7105120388
 30
0.0
 10
15.4708546717
 20
11.703941669
 30
0.0
 10
15.4710829836
 20
11.697450853
 30
0.0
 10
15.4708482207
 20
11.6910521914
 30
0.0
 10
15.4701505213
 20
11.684758036
 30
0.0
 10
15.4689911831
 20
11.6785811999
 30
0.0
 10
15.4679109759
 20
11.6745458828
 30
0.0
 10
15.4672961854
 20
11.672556446
 30
0.0
  0
SPLINE
  5
2C8
100
AcDbEntity
  8
LAYER_FEATURE
100
AcDbSpline
 62
7
  6
CONTINUOUS
 70
0
 71
3
 72
39
 73
35
 74
0
 42
0.0000001
 43
0.0000001
 44
0.0000000001
 40
0.0
 40
0.0
 40
0.0
 40
0.0
 40
0.0202790618
 40
0.0417769734
 40
0.0645047683
 40
0.088457389
 40
0.1136160365
 40
0.139950159
 40
0.1674191595
 40
0.1959737238
 40
0.225556867
 40
0.2561048794
 40
0.2875482221
 40
0.3198122362
 40
0.3528177379
 40
0.386481608
 40
0.4207174009
 40
0.4554358481
 40
0.4905453185
 40
0.5259523001
 40
0.5615618996
 40
0.5972782806
 40
0.6330050961
 40
0.6686459545
 40
0.7041048759
 40
0.7392867167
 40
0.7740976211
 40
0.8084455377
 40
0.8422406052
 40
0.8753957699
 40
0.9078272053
 40
0.939454174
 40
0.9702031791
 40
1.0
 40
1.0
 40
1.0
 40
1.0
 10
16.1645154426
 20
12.0317221288
 30
0.0
 10
16.1654124284
 20
12.0306475031
 30
0.0
 10
16.1671783919
 20
12.0283643905
 30
0.0
 10
16.1696729264
 20
12.0246732455
 30
0.0
 10
16.172082267
 20
12.020627942
 30
0.0
 10
16.174398824
 20
12.0162413369
 30
0.0
 10
16.1766154768
 20
12.0115270658
 30
0.0
 10
16.1787252851
 20
12.0064999405
 30
0.0
 10
16.1807216132
 20
12.0011757624
 30
0.0
 10
16.1825981414
 20
11.9955713099
 30
0.0
 10
16.1843489186
 20
11.9897042814
 30
0.0
 10
16.1859683921
 20
11.9835932381
 30
0.0
 10
16.1874514094
 20
11.9772575293
 30
0.0
 10
16.1887932406
 20
11.9707172297
 30
0.0
 10
16.1899896059
 20
11.9639930794
 30
0.0
 10
16.1910367007
 20
11.9571064167
 30
0.0
 10
16.1919311859
 20
11.9500791011
 30
0.0
 10
16.1926702022
 20
11.9429334429
 30
0.0
 10
16.1932513869
 20
11.935692135
 30
0.0
 10
16.1936728954
 20
11.9283781804
 30
0.0
 10
16.1939333837
 20
11.9210148135
 30
0.0
 10
16.1940320154
 20
11.913625427
 30
0.0
 10
16.1939684697
 20
11.9062334984
 30
0.0
 10
16.193742959
 20
11.8988625127
 30
0.0
 10
16.1933562046
 20
11.8915358873
 30
0.0
 10
16.1928094363
 20
11.8842768982
 30
0.0
 10
16.1921043915
 20
11.8771086038
 30
0.0
 10
16.1912433283
 20
11.8700537712
 30
0.0
 10
16.1902289982
 20
11.8631347978
 30
0.0
 10
16.1890646303
 20
11.856373641
 30
0.0
 10
16.1877539278
 20
11.8497918049
 30
0.0
 10
16.186301084
 20
11.843410022
 30
0.0
 10
16.1847107164
 20
11.8372487558
 30
0.0
 10
16.1835429709
 20
11.8332351011
 30
0.0
 10
16.1829357173
 20
11.8312700278
 30
0.0
  0
SPLINE
  5
2C9
100
AcDbEntity
  8
LAYER_FEATURE
100
AcDbSpline
 62
7
  6
CONTINUOUS
 70
0
 71
3
 72
15
 73
11
 74
0
 42
0.0000001
 43
0.0000001
 44
0.0000000001
 40
0.0
 40
0.0
 40
0.0
 40
0.0
 40
0.103041611
 40
0.2124414656
 40
0.3282548063
 40
0.450449333
 40
0.5789186776
 40
0.713488756
 40
0.8539451102
 40
1.0
 40
1.0
 40
1.0
 40
1.0
 10
16.1645154422
 20
11.7939283844
 30
0.0
 10
16.1654374291
 20
11.7950329612
 30
0.0
 10
16.1672516967
 20
11.7973835112
 30
0.0
 10
16.1698100283
 20
11.80118986
 30
0.0
 10
16.1722780476
 20
11.8053689861
 30
0.0
 10
16.1746475691
 20
11.8099068989
 30
0.0
 10
16.1769108808
 20
11.8147886948
 30
0.0
 10
16.1790605946
 20
11.8199983005
 30
0.0
 10
16.18108943
 20
11.8255182763
 30
0.0
 10
16.1823335871
 20
11.8293215339
 30
0.0
 10
16.1829357173
 20
11.8312700278
 30
0.0
  0
SPLINE
  5
2CA
100
AcDbEntity
  8
02___PRT_ALL_AXES
100
AcDbSpline
 62
7
  6
CONTINUOUS
 70
0
 71
3
 72
26
 73
22
 74
0
 42
0.0000001
 43
0.0000001
 44
0.0000000001
 40
0.0
 40
0.0
 40
0.0
 40
0.0
 40
0.0206107574
 40
0.0413664973
 40
0.0623560532
 40
0.0836647205
 40
0.1053735573
 40
0.1275588558
 40
0.1736182192
 40
0.2223551515
 40
0.2741688344
 40
0.3293722392
 40
0.3882004618
 40
0.4508240016
 40
0.5173572565
 40
0.5878680508
 40
0.6623855602
 40
0.7409023095
 40
0.8233862985
 40
0.9097843389
 40
1.0
 40
1.0
 40
1.0
 40
1.0
 10
16.1377911163
 20
11.7488252638
 30
0.0
 10
16.1374354226
 20
11.7488252655
 30
0.0
 10
16.1367213052
 20
11.7488494066
 30
0.0
 10
16.1356498859
 20
11.7489576102
 30
0.0
 10
16.1345759684
 20
11.7491378544
 30
0.0
 10
16.1334997827
 20
11.7493900072
 30
0.0
 10
16.1324214331
 20
11.7497139404
 30
0.0
 10
16.1309629661
 20
11.7502479444
 30
0.0
 10
16.1291296654
 20
11.7511035484
 30
0.0
 10
16.1269535056
 20
11.7524014048
 30
0.0
 10
16.1247742363
 20
11.753980293
 30
0.0
 10
16.1225930099
 20
11.7558372817
 30
0.0
 10
16.1204108744
 20
11.7579692503
 30
0.0
 10
16.1182293763
 20
11.7603727552
 30
0.0
 10
16.116050336
 20
11.7630438926
 30
0.0
 10
16.1138759126
 20
11.7659782806
 30
0.0
 10
16.1117086044
 20
11.7691710004
 30
0.0
 10
16.109551122
 20
11.772616595
 30
0.0
 10
16.1074064451
 20
11.7763092
 30
0.0
 10
16.105277932
 20
11.7802421809
 30
0.0
 10
16.1039012336
 20
11.7829619531
 30
0.0
 10
16.1032153473
 20
11.7843596425
 30
0.0
  0
SPLINE
  5
2CB
100
AcDbEntity
  8
LAYER_FEATURE
100
AcDbSpline
 62
7
  6
CONTINUOUS
 70
0
 71
3
 72
46
 73
42
 74
0
 42
0.0000001
 43
0.0000001
 44
0.0000000001
 40
0.0
 40
0.0
 40
0.0
 40
0.0
 40
0.012416287
 40
0.0248396929
 40
0.0372773173
 40
0.0497362186
 40
0.0622233955
 40
0.0747457695
 40
0.0873101605
 40
0.0999232803
 40
0.1125917008
 40
0.1253218542
 40
0.1381200069
 40
0.1509922498
 40
0.1769801293
 40
0.2033327224
 40
0.2300914304
 40
0.2572940263
 40
0.2849745308
 40
0.3131631531
 40
0.3274572758
 40
0.341888
 40
0.3711682745
 40
0.4010246227
 40
0.4314724013
 40
0.4625235206
 40
0.4941865889
 40
0.5264670657
 40
0.5593674189
 40
0.5928872798
 40
0.6270236023
 40
0.6617708173
 40
0.6971209822
 40
0.7330639238
 40
0.7695873757
 40
0.8066771082
 40
0.8443170542
 40
0.8824894321
 40
0.9211748605
 40
0.9603524686
 40
1.0
 40
1.0
 40
1.0
 40
1.0
 10
13.9072653878
 20
12.5515280401
 30
0.0
 10
13.9058515194
 20
12.5469527534
 30
0.0
 10
13.9031565623
 20
12.5377576574
 30
0.0
 10
13.8995169711
 20
12.5238466865
 30
0.0
 10
13.8962807602
 20
12.5098193893
 30
0.0
 10
13.8934488285
 20
12.4956798794
 30
0.0
 10
13.8910219686
 20
12.4814320872
 30
0.0
 10
13.8890008892
 20
12.4670800279
 30
0.0
 10
13.8873860816
 20
12.4526277402
 30
0.0
 10
13.8861780798
 20
12.4380792809
 30
0.0
 10
13.885377124
 20
12.4234387356
 30
0.0
 10
13.8849834897
 20
12.4087102464
 30
0.0
 10
13.8849972618
 20
12.3938978228
 30
0.0
 10
13.8855604714
 20
12.3739799558
 30
0.0
 10
13.8872937231
 20
12.3488751077
 30
0.0
 10
13.8909953085
 20
12.3185797874
 30
0.0
 10
13.8963204751
 20
12.2880517981
 30
0.0
 10
13.903262814
 20
12.2573259027
 30
0.0
 10
13.9118139836
 20
12.2264366512
 30
0.0
 10
13.9202330796
 20
12.2007082617
 30
0.0
 10
13.9277493419
 20
12.180083029
 30
0.0
 10
13.9358668022
 20
12.1592343377
 30
0.0
 10
13.9470129444
 20
12.1331316042
 30
0.0
 10
13.9618826893
 20
12.101933635
 30
0.0
 10
13.9782943474
 20
12.0707448417
 30
0.0
 10
13.9962292288
 20
12.039600301
 30
0.0
 10
14.0156671914
 20
12.0085345376
 30
0.0
 10
14.0365863904
 20
11.9775821348
 30
0.0
 10
14.0589633716
 20
11.9467775241
 30
0.0
 10
14.0827730623
 20
11.9161549916
 30
0.0
 10
14.1079888073
 20
11.8857486307
 30
0.0
 10
14.1345823962
 20
11.8555923099
 30
0.0
 10
14.1625240916
 20
11.8257196322
 30
0.0
 10
14.1917826588
 20
11.7961638981
 30
0.0
 10
14.2223253988
 20
11.7669580686
 30
0.0
 10
14.2541181754
 20
11.7381347245
 30
0.0
 10
14.287125459
 20
11.7097260229
 30
0.0
 10
14.3213103437
 20
11.6817636841
 30
0.0
 10
14.3566346918
 20
11.654278882
 30
0.0
 10
14.3930587761
 20
11.62730248
 30
0.0
 10
14.417904977
 20
11.6097777885
 30
0.0
 10
14.4304993027
 20
11.6011053816
 30
0.0
  0
SPLINE
  5
2CC
100
AcDbEntity
  8
LAYER_FEATURE
100
AcDbSpline
 62
7
  6
CONTINUOUS
 70
0
 71
3
 72
23
 73
19
 74
0
 42
0.0000001
 43
0.0000001
 44
0.0000000001
 40
0.0
 40
0.0
 40
0.0
 40
0.0
 40
0.0587434199
 40
0.117583953
 40
0.1766179198
 40
0.2359400816
 40
0.2956429047
 40
0.3558158757
 40
0.4165449109
 40
0.4779118308
 40
0.5399938926
 40
0.6028634487
 40
0.666587691
 40
0.7312284403
 40
0.7968420109
 40
0.8634791955
 40
0.9311852688
 40
1.0
 40
1.0
 40
1.0
 40
1.0
 10
14.1493317113
 20
13.3348549498
 30
0.0
 10
14.1469291705
 20
13.3270803136
 30
0.0
 10
14.1425058913
 20
13.3113959523
 30
0.0
 10
14.1370384966
 20
13.2875390519
 30
0.0
 10
14.1327403236
 20
13.2633620737
 30
0.0
 10
14.1296150565
 20
13.2388855835
 30
0.0
 10
14.127665076
 20
13.214129417
 30
0.0
 10
14.1268918069
 20
13.1891138702
 30
0.0
 10
14.1272957013
 20
13.1638593385
 30
0.0
 10
14.1288762709
 20
13.1383863935
 30
0.0
 10
14.1316320073
 20
13.1127157376
 30
0.0
 10
14.1355604526
 20
13.0868681899
 30
0.0
 10
14.1406582363
 20
13.0608646801
 30
0.0
 10
14.1469210483
 20
13.034726222
 30
0.0
 10
14.154343593
 20
13.0084739359
 30
0.0
 10
14.1629197463
 20
12.982128873
 30
0.0
 10
14.1726422668
 20
12.9557126842
 30
0.0
 10
14.1798237878
 20
12.9382126162
 30
0.0
 10
14.1835977243
 20
12.9294589744
 30
0.0
  0
SPLINE
  5
2CD
100
AcDbEntity
  8
LAYER_FEATURE
100
AcDbSpline
 62
7
  6
CONTINUOUS
 70
0
 71
3
 72
46
 73
42
 74
0
 42
0.0000001
 43
0.0000001
 44
0.0000000001
 40
0.0
 40
0.0
 40
0.0
 40
0.0
 40
0.0124168888
 40
0.0248408945
 40
0.037279114
 40
0.0497386045
 40
0.0622263614
 40
0.0747493053
 40
0.0873142537
 40
0.0999279156
 40
0.1125968633
 40
0.125327524
 40
0.1381261662
 40
0.150998876
 40
0.1769876226
 40
0.2033409819
 40
0.2301003472
 40
0.2573034861
 40
0.2849844158
 40
0.3131733436
 40
0.3274675743
 40
0.3418983762
 40
0.3711787164
 40
0.4010350129
 40
0.4314826274
 40
0.4625334763
 40
0.4941961754
 40
0.5264761925
 40
0.5593760025
 40
0.5928952455
 40
0.6270308864
 40
0.6617773678
 40
0.6971267594
 40
0.7330689003
 40
0.7695915354
 40
0.8066804507
 40
0.8443195736
 40
0.8824911995
 40
0.9211758038
 40
0.9603527813
 40
1.0
 40
1.0
 40
1.0
 40
1.0
 10
16.7735279198
 20
11.665785926
 30
0.0
 10
16.7721143016
 20
11.661211449
 30
0.0
 10
16.769152355
 20
11.6521006349
 30
0.0
 10
16.7643102009
 20
11.6385639457
 30
0.0
 10
16.7590695289
 20
11.6251587289
 30
0.0
 10
16.7534318643
 20
11.6118889074
 30
0.0
 10
16.7473988247
 20
11.598758148
 30
0.0
 10
16.7409720442
 20
11.5857701836
 30
0.0
 10
16.7341534175
 20
11.5729286142
 30
0.0
 10
16.7269447966
 20
11.5602370843
 30
0.0
 10
16.7193482571
 20
11.5476991195
 30
0.0
 10
16.7113659528
 20
11.5353182641
 30
0.0
 10
16.7030000235
 20
11.5230979085
 30
0.0
 10
16.6913010499
 20
11.5069727223
 30
0.0
 10
16.6757107722
 20
11.4872254217
 30
0.0
 10
16.6555683335
 20
11.4643032919
 30
0.0
 10
16.6339545934
 20
11.4421047424
 30
0.0
 10
16.6108944417
 20
11.420654846
 30
0.0
 10
16.5864142387
 20
11.3999774141
 30
0.0
 10
16.564953843
 20
11.3834859127
 30
0.0
 10
16.5471169123
 20
11.3706980528
 30
0.0
 10
16.5286577554
 20
11.3580647928
 30
0.0
 10
16.5047353489
 20
11.3428022124
 30
0.0
 10
16.4748656276
 20
11.3254332823
 30
0.0
 10
16.4437283481
 20
11.30894147
 30
0.0
 10
16.4113587076
 20
11.2933451863
 30
0.0
 10
16.3777927905
 20
11.2786615676
 30
0.0
 10
16.3430681193
 20
11.2649068411
 30
0.0
 10
16.3072234627
 20
11.2520961939
 30
0.0
 10
16.2702988408
 20
11.2402437837
 30
0.0
 10
16.2323354695
 20
11.2293627209
 30
0.0
 10
16.1933757204
 20
11.2194650521
 30
0.0
 10
16.1534630761
 20
11.2105617447
 30
0.0
 10
16.1126420849
 20
11.2026626728
 30
0.0
 10
16.0709583119
 20
11.1957766011
 30
0.0
 10
16.0284583011
 20
11.189911172
 30
0.0
 10
15.9851894828
 20
11.1850728838
 30
0.0
 10
15.9412002356
 20
11.1812671343
 30
0.0
 10
15.8965395476
 20
11.1784981117
 30
0.0
 10
15.8512575196
 20
11.1767689233
 30
0.0
 10
15.8208634091
 20
11.1763132704
 30
0.0
 10
15.8055756586
 20
11.1762562271
 30
0.0
  0
SPLINE
  5
2CE
100
AcDbEntity
  8
LAYER_FEATURE
100
AcDbSpline
 62
7
  6
CONTINUOUS
 70
0
 71
3
 72
23
 73
19
 74
0
 42
0.0000001
 43
0.0000001
 44
0.0000000001
 40
0.0
 40
0.0
 40
0.0
 40
0.0
 40
0.0587430997
 40
0.1175833212
 40
0.176616995
 40
0.2359388922
 40
0.2956414832
 40
0.3558142639
 40
0.4165431618
 40
0.4779100002
 40
0.5399920378
 40
0.6028616374
 40
0.6665859984
 40
0.7312269335
 40
0.7968407632
 40
0.863478289
 40
0.9311847804
 40
1.0
 40
1.0
 40
1.0
 40
1.0
 10
17.0155942432
 20
12.4491128356
 30
0.0
 10
17.013191583
 20
12.4413378126
 30
0.0
 10
17.0079947441
 20
12.4258916494
 30
0.0
 10
16.9990490503
 20
12.4031083539
 30
0.0
 10
16.9889572783
 20
12.380720468
 30
0.0
 10
16.9777279884
 20
12.358747057
 30
0.0
 10
16.9653704302
 20
12.3372058324
 30
0.0
 10
16.9518948695
 20
12.3161143622
 30
0.0
 10
16.9373124301
 20
12.295489751
 30
0.0
 10
16.9216351326
 20
12.2753487058
 30
0.0
 10
16.9048759128
 20
12.2557074635
 30
0.0
 10
16.8870485367
 20
12.2365818373
 30
0.0
 10
16.8681675912
 20
12.217987216
 30
0.0
 10
16.8482485117
 20
12.1999385024
 30
0.0
 10
16.8273075809
 20
12.182450156
 30
0.0
 10
16.8053617272
 20
12.1655361127
 30
0.0
 10
16.782429152
 20
12.1492101621
 30
0.0
 10
16.7666253793
 20
12.1388124862
 30
0.0
 10
16.7585701999
 20
12.1337140305
 30
0.0
  0
SPLINE
  5
2CF
100
AcDbEntity
  8
LAYER_CUT_FEAT
100
AcDbSpline
 62
7
  6
CONTINUOUS
 70
0
 71
3
 72
22
 73
18
 74
0
 42
0.0000001
 43
0.0000001
 44
0.0000000001
 40
0.0
 40
0.0
 40
0.0
 40
0.0
 40
0.0582391603
 40
0.1165900343
 40
0.175163281
 40
0.234067472
 40
0.2934081394
 40
0.353286901
 40
0.4138006618
 40
0.4750409713
 40
0.5370935096
 40
0.6000376529
 40
0.6639461648
 40
0.7288850558
 40
0.7949134941
 40
0.8620837529
 40
1.0
 40
1.0
 40
1.0
 40
1.0
 10
16.3550535814
 20
11.7951042773
 30
0.0
 10
16.3532209804
 20
11.7891739784
 30
0.0
 10
16.3492336984
 20
11.7773977739
 30
0.0
 10
16.342307871
 20
11.7600524493
 30
0.0
 10
16.3344411069
 20
11.7430344946
 30
0.0
 10
16.3256412295
 20
11.7263607304
 30
0.0
 10
16.3159166719
 20
11.710046767
 30
0.0
 10
16.3052767981
 20
11.6941080732
 30
0.0
 10
16.2937318622
 20
11.6785596245
 30
0.0
 10
16.2812929596
 20
11.6634159987
 30
0.0
 10
16.2679719742
 20
11.6486913652
 30
0.0
 10
16.2537816171
 20
11.6343994696
 30
0.0
 10
16.2387353686
 20
11.6205535638
 30
0.0
 10
16.2228476325
 20
11.607166596
 30
0.0
 10
16.2061328775
 20
11.5942506554
 30
0.0
 10
16.1825613041
 20
11.5775287521
 30
0.0
 10
16.1639868541
 20
11.5659536594
 30
0.0
 10
16.1512396854
 20
11.5586348666
 30
0.0
  0
SPLINE
  5
2D0
100
AcDbEntity
  8
02___PRT_ALL_AXES
100
AcDbSpline
 62
7
  6
CONTINUOUS
 70
0
 71
3
 72
50
 73
46
 74
0
 42
0.0000001
 43
0.0000001
 44
0.0000000001
 40
0.0
 40
0.0
 40
0.0
 40
0.0
 40
0.0134697701
 40
0.0269231122
 40
0.0403672908
 40
0.0538097507
 40
0.0672581221
 40
0.080720167
 40
0.0942037621
 40
0.1077168578
 40
0.1212674611
 40
0.1348635735
 40
0.1485131548
 40
0.1622240704
 40
0.1760040498
 40
0.1898606323
 40
0.2038011185
 40
0.2178325145
 40
0.2319614738
 40
0.2461942671
 40
0.2749887205
 40
0.304262298
 40
0.3190915645
 40
0.3340517329
 40
0.3643693243
 40
0.3952317254
 40
0.4108700313
 40
0.4266440586
 40
0.4585887923
 40
0.4910498188
 40
0.5239967931
 40
0.5573895705
 40
0.5911786912
 40
0.6253059244
 40
0.6597049404
 40
0.6943019353
 40
0.7290164954
 40
0.7637624397
 40
0.7984489317
 40
0.8329817062
 40
0.8672645036
 40
0.9012007551
 40
0.9346954462
 40
0.9676570378
 40
1.0
 40
1.0
 40
1.0
 40
1.0
 10
15.144292948
 20
12.5613908554
 30
0.0
 10
15.1449264895
 20
12.560099836
 30
0.0
 10
15.1461369507
 20
12.5574915231
 30
0.0
 10
15.1477794498
 20
12.5535055848
 30
0.0
 10
15.1492451593
 20
12.5494543073
 30
0.0
 10
15.1505317158
 20
12.5453432006
 30
0.0
 10
15.1516371928
 20
12.5411777644
 30
0.0
 10
15.1525596851
 20
12.5369635251
 30
0.0
 10
15.1532976935
 20
12.5327060832
 30
0.0
 10
15.153849766
 20
12.5284110337
 30
0.0
 10
15.1542148739
 20
12.5240840178
 30
0.0
 10
15.1543920536
 20
12.5197306659
 30
0.0
 10
15.1543807772
 20
12.5153566194
 30
0.0
 10
15.1541806018
 20
12.5109675032
 30
0.0
 10
15.1537915251
 20
12.506568914
 30
0.0
 10
15.1532136538
 20
12.5021664231
 30
0.0
 10
15.152447524
 20
12.4977655305
 30
0.0
 10
15.1514938181
 20
12.4933717206
 30
0.0
 10
15.1503535896
 20
12.4889902916
 30
0.0
 10
15.1485796741
 20
12.4831501252
 30
0.0
 10
15.1458960479
 20
12.4759034498
 30
0.0
 10
15.1426376862
 20
12.468826999
 30
0.0
 10
15.1396874166
 20
12.4632525612
 30
0.0
 10
15.1364812423
 20
12.4576921605
 30
0.0
 10
15.1320457369
 20
12.4508714072
 30
0.0
 10
15.1271133448
 20
12.4443109525
 30
0.0
 10
15.1228637543
 20
12.4391963321
 30
0.0
 10
15.1183769492
 20
12.4341329803
 30
0.0
 10
15.1124018764
 20
12.427994825
 30
0.0
 10
15.1047185642
 20
12.4209865726
 30
0.0
 10
15.0965304324
 20
12.4143278631
 30
0.0
 10
15.0878786661
 20
12.408040214
 30
0.0
 10
15.0788059943
 20
12.4021428787
 30
0.0
 10
15.0693568076
 20
12.3966533559
 30
0.0
 10
15.0595769338
 20
12.3915874716
 30
0.0
 10
15.0495135313
 20
12.3869595445
 30
0.0
 10
15.0392149691
 20
12.382782501
 30
0.0
 10
15.0287306958
 20
12.379067953
 30
0.0
 10
15.0181110881
 20
12.3758262458
 30
0.0
 10
15.0074072622
 20
12.3730664679
 30
0.0
 10
14.9966708243
 20
12.3707964379
 30
0.0
 10
14.9859536246
 20
12.3690226627
 30
0.0
 10
14.9753072737
 20
12.3677503046
 30
0.0
 10
14.964783317
 20
12.3669831122
 30
0.0
 10
14.9578100417
 20
12.3668081827
 30
0.0
 10
14.9543569669
 20
12.3668081827
 30
0.0
  0
SPLINE
  5
2D1
100
AcDbEntity
  8
LAYER_FEATURE
100
AcDbSpline
 62
7
  6
CONTINUOUS
 70
0
 71
3
 72
78
 73
74
 74
0
 42
0.0000001
 43
0.0000001
 44
0.0000000001
 40
0.0
 40
0.0
 40
0.0
 40
0.0
 40
0.0171786494
 40
0.034530259
 40
0.052044083
 40
0.0697096926
 40
0.0875159169
 40
0.1054514052
 40
0.1235044838
 40
0.1416632229
 40
0.1599154662
 40
0.1782488551
 40
0.1966508594
 40
0.2151088034
 40
0.2336098939
 40
0.2521412485
 40
0.2706899221
 40
0.2892429336
 40
0.3077872924
 40
0.3263100264
 40
0.3447982082
 40
0.3632389822
 40
0.3816195916
 40
0.3999274055
 40
0.4181499471
 40
0.4362749223
 40
0.4542902467
 40
0.472184075
 40
0.4899448297
 40
0.5075612324
 40
0.5250223351
 40
0.5423175506
 40
0.5594366852
 40
0.5763699716
 40
0.5931081049
 40
0.60964228
 40
0.6259642276
 40
0.6420662527
 40
0.6579412756
 40
0.6735828743
 40
0.6889853316
 40
0.7041436801
 40
0.71905375
 40
0.7337122195
 40
0.748116668
 40
0.7622656323
 40
0.7761586636
 40
0.7897963834
 40
0.8031805416
 40
0.8163140755
 40
0.8292011685
 40
0.8418473065
 40
0.8542593269
 40
0.8603804056
 40
0.8664461623
 40
0.8784160809
 40
0.8901809052
 40
0.8959906881
 40
0.901754044
 40
0.9131479177
 40
0.9243788243
 40
0.9354636208
 40
0.9464204585
 40
0.9518573841
 40
0.9572696635
 40
0.9626598748
 40
0.9680306504
 40
0.9733846742
 40
0.9787246697
 40
0.9840533993
 40
0.9893736532
 40
0.9946882442
 40
1.0
 40
1.0
 40
1.0
 40
1.0
 10
15.1442654832
 20
13.8870649979
 30
0.0
 10
15.1592076937
 20
13.8870649979
 30
0.0
 10
15.1892435171
 20
13.8867362124
 30
0.0
 10
15.2344917438
 20
13.8852753393
 30
0.0
 10
15.2801226019
 20
13.8828456426
 30
0.0
 10
15.3260881139
 20
13.8794497499
 30
0.0
 10
15.3723406956
 20
13.8750911328
 30
0.0
 10
15.4188321177
 20
13.8697743528
 30
0.0
 10
15.4655140188
 20
13.8635049382
 30
0.0
 10
15.512337806
 20
13.8562894222
 30
0.0
 10
15.5592547425
 20
13.8481353174
 30
0.0
 10
15.6062159932
 20
13.8390511098
 30
0.0
 10
15.6531726743
 20
13.8290462506
 30
0.0
 10
15.7000759056
 20
13.8181311527
 30
0.0
 10
15.7468768633
 20
13.8063171847
 30
0.0
 10
15.793526829
 20
13.7936166464
 30
0.0
 10
15.8399772407
 20
13.7800427581
 30
0.0
 10
15.8861797429
 20
13.7656096469
 30
0.0
 10
15.9320862369
 20
13.7503323326
 30
0.0
 10
15.9776489362
 20
13.7342267249
 30
0.0
 10
16.0228204117
 20
13.717309592
 30
0.0
 10
16.0675536415
 20
13.6995985444
 30
0.0
 10
16.1118020589
 20
13.6811120167
 30
0.0
 10
16.155519601
 20
13.6618692462
 30
0.0
 10
16.1986607623
 20
13.6418902664
 30
0.0
 10
16.2411806401
 20
13.6211958765
 30
0.0
 10
16.283034978
 20
13.5998076161
 30
0.0
 10
16.3241802119
 20
13.5777477444
 30
0.0
 10
16.3645735148
 20
13.5550392142
 30
0.0
 10
16.4041728467
 20
13.5317056558
 30
0.0
 10
16.4429370002
 20
13.5077713538
 30
0.0
 10
16.4808256371
 20
13.4832612106
 30
0.0
 10
16.5177993297
 20
13.4582007238
 30
0.0
 10
16.5538196017
 20
13.4326159578
 30
0.0
 10
16.5888489699
 20
13.4065335173
 30
0.0
 10
16.6228509923
 20
13.3799805294
 30
0.0
 10
16.6557902954
 20
13.3529846014
 30
0.0
 10
16.6876326098
 20
13.3255737935
 30
0.0
 10
16.7183448048
 20
13.2977765898
 30
0.0
 10
16.7478949214
 20
13.2696218649
 30
0.0
 10
16.7762522183
 20
13.2411388652
 30
0.0
 10
16.8033871935
 20
13.212357168
 30
0.0
 10
16.8292716094
 20
13.1833066483
 30
0.0
 10
16.8538785205
 20
13.1540174498
 30
0.0
 10
16.8771822969
 20
13.1245199496
 30
0.0
 10
16.8991586607
 20
13.0948447345
 30
0.0
 10
16.9197847082
 20
13.0650225664
 30
0.0
 10
16.9390389181
 20
13.0350843487
 30
0.0
 10
16.9569011754
 20
13.0050610861
 30
0.0
 10
16.9733527697
 20
12.9749838993
 30
0.0
 10
16.9883764773
 20
12.9448838311
 30
0.0
 10
17.0019563663
 20
12.9147924279
 30
0.0
 10
17.0121045486
 20
12.88963349
 30
0.0
 10
17.0194762981
 20
12.8695455683
 30
0.0
 10
17.0262914317
 20
12.8496681843
 30
0.0
 10
17.0338981179
 20
12.8248792156
 30
0.0
 10
17.0403218887
 20
12.7999868001
 30
0.0
 10
17.0446998176
 20
12.7801631018
 30
0.0
 10
17.048543669
 20
12.7605577734
 30
0.0
 10
17.0524194965
 20
12.7361606939
 30
0.0
 10
17.0555755663
 20
12.7069976686
 30
0.0
 10
17.0572154369
 20
12.6780906038
 30
0.0
 10
17.057316794
 20
12.6541773575
 30
0.0
 10
17.0566333912
 20
12.6352205891
 30
0.0
 10
17.0557430927
 20
12.6211216059
 30
0.0
 10
17.0544739513
 20
12.6071095121
 30
0.0
 10
17.0528262486
 20
12.5931878548
 30
0.0
 10
17.0508004847
 20
12.5793602996
 30
0.0
 10
17.0483971001
 20
12.5656304638
 30
0.0
 10
17.0456167791
 20
12.5520019443
 30
0.0
 10
17.0424602196
 20
12.5384782707
 30
0.0
 10
17.0389282532
 20
12.5250631309
 30
0.0
 10
17.0363236591
 20
12.5161932565
 30
0.0
 10
17.0349595491
 20
12.5117789884
 30
0.0
  0
SPLINE
  5
2D2
100
AcDbEntity
  8
02___PRT_ALL_AXES
100
AcDbSpline
 62
7
  6
CONTINUOUS
 70
0
 71
3
 72
72
 73
68
 74
0
 42
0.0000001
 43
0.0000001
 44
0.0000000001
 40
0.0
 40
0.0
 40
0.0
 40
0.0
 40
0.0106253559
 40
0.0212733553
 40
0.031966404
 40
0.0427264401
 40
0.0535747197
 40
0.0645316226
 40
0.0756164846
 40
0.0868474577
 40
0.0982413996
 40
0.1098137921
 40
0.1215786869
 40
0.1335486762
 40
0.1396144689
 40
0.1457355833
 40
0.1581476776
 40
0.1707938917
 40
0.1836810623
 40
0.1968146742
 40
0.2101989112
 40
0.2238367118
 40
0.2377298263
 40
0.2518788758
 40
0.2662834102
 40
0.2809419663
 40
0.2958521245
 40
0.3110105636
 40
0.3264131133
 40
0.3420548055
 40
0.3579299224
 40
0.374032043
 40
0.3903540879
 40
0.4068883621
 40
0.4236265955
 40
0.4405599823
 40
0.4576792183
 40
0.474974537
 40
0.4924357441
 40
0.5100522522
 40
0.5278131125
 40
0.5457070469
 40
0.5637224785
 40
0.5818475619
 40
0.6000702125
 40
0.6183781355
 40
0.6367588541
 40
0.6551997378
 40
0.6736880298
 40
0.6922108743
 40
0.7107553437
 40
0.7293084655
 40
0.7478572497
 40
0.7663887149
 40
0.7848899156
 40
0.8033479693
 40
0.8217500831
 40
0.8400835815
 40
0.8583359337
 40
0.8764947813
 40
0.8945479665
 40
0.9124835613
 40
0.9302898967
 40
0.9479555895
 40
0.9654695891
 40
0.9828211475
 40
1.0
 40
1.0
 40
1.0
 40
1.0
 10
14.3241341621
 20
11.993640315
 30
0.0
 10
14.3224296445
 20
11.9881244993
 30
0.0
 10
14.3193278885
 20
11.9769822699
 30
0.0
 10
14.3156171718
 20
11.9600057793
 30
0.0
 10
14.3128497935
 20
11.9427756706
 30
0.0
 10
14.3110287748
 20
11.92531092
 30
0.0
 10
14.3101558196
 20
11.9076298383
 30
0.0
 10
14.3102316666
 20
11.8897511568
 30
0.0
 10
14.3112560086
 20
11.8716936989
 30
0.0
 10
14.3132275348
 20
11.8534764328
 30
0.0
 10
14.3161439308
 20
11.8351184519
 30
0.0
 10
14.3200019213
 20
11.8166388801
 30
0.0
 10
14.3247971767
 20
11.7980571762
 30
0.0
 10
14.3295488471
 20
11.78257218
 30
0.0
 10
14.3338060303
 20
11.7701554622
 30
0.0
 10
14.3384109124
 20
11.7576072007
 30
0.0
 10
14.344750144
 20
11.7418912536
 30
0.0
 10
14.3532330508
 20
11.7230941564
 30
0.0
 10
14.3626178641
 20
11.7042916486
 30
0.0
 10
14.3728946254
 20
11.685503432
 30
0.0
 10
14.3840525788
 20
11.6667488996
 30
0.0
 10
14.3960800405
 20
11.6480474925
 30
0.0
 10
14.4089644461
 20
11.6294185783
 30
0.0
 10
14.4226923511
 20
11.6108814619
 30
0.0
 10
14.4372494441
 20
11.5924553571
 30
0.0
 10
14.4526205587
 20
11.5741593698
 30
0.0
 10
14.468789689
 20
11.5560124777
 30
0.0
 10
14.4857400041
 20
11.538033511
 30
0.0
 10
14.5034538643
 20
11.5202411316
 30
0.0
 10
14.5219128383
 20
11.5026538143
 30
0.0
 10
14.541097721
 20
11.4852898264
 30
0.0
 10
14.560988552
 20
11.4681672074
 30
0.0
 10
14.5815646369
 20
11.451303751
 30
0.0
 10
14.6028045686
 20
11.4347169857
 30
0.0
 10
14.6246862487
 20
11.4184241559
 30
0.0
 10
14.6471869105
 20
11.4024422039
 30
0.0
 10
14.6702831423
 20
11.3867877517
 30
0.0
 10
14.6939509108
 20
11.3714770821
 30
0.0
 10
14.7181655868
 20
11.3565261226
 30
0.0
 10
14.742901971
 20
11.3419504284
 30
0.0
 10
14.7681343205
 20
11.3277651659
 30
0.0
 10
14.7938363748
 20
11.3139850969
 30
0.0
 10
14.819981384
 20
11.3006245628
 30
0.0
 10
14.8465421352
 20
11.2876974683
 30
0.0
 10
14.8734909822
 20
11.2752172678
 30
0.0
 10
14.900799874
 20
11.2631969514
 30
0.0
 10
14.9284403842
 20
11.2516490312
 30
0.0
 10
14.9563837408
 20
11.2405855281
 30
0.0
 10
14.9846008561
 20
11.2300179593
 30
0.0
 10
15.0130623566
 20
11.2199573253
 30
0.0
 10
15.041738614
 20
11.2104140986
 30
0.0
 10
15.0705997766
 20
11.2013982135
 30
0.0
 10
15.0996157998
 20
11.1929190555
 30
0.0
 10
15.1287564783
 20
11.1849854515
 30
0.0
 10
15.1579914769
 20
11.177605661
 30
0.0
 10
15.1872903626
 20
11.1707873661
 30
0.0
 10
15.2166226361
 20
11.1645376639
 30
0.0
 10
15.2459577638
 20
11.1588630598
 30
0.0
 10
15.2752652103
 20
11.1537694608
 30
0.0
 10
15.3045144694
 20
11.1492621691
 30
0.0
 10
15.3336750968
 20
11.1453458771
 30
0.0
 10
15.3627167406
 20
11.142024662
 30
0.0
 10
15.3916091773
 20
11.1393019814
 30
0.0
 10
15.4203223294
 20
11.1371806682
 30
0.0
 10
15.448826349
 20
11.1356629362
 30
0.0
 10
15.4770914169
 20
11.1347503603
 30
0.0
 10
15.4958537655
 20
11.134544988
 30
0.0
 10
15.5051877212
 20
11.134544988
 30
0.0
  0
SPLINE
  5
2D3
100
AcDbEntity
  8
02___PRT_ALL_AXES
100
AcDbSpline
 62
7
  6
CONTINUOUS
 70
0
 71
3
 72
44
 73
40
 74
0
 42
0.0000001
 43
0.0000001
 44
0.0000000001
 40
0.0
 40
0.0
 40
0.0
 40
0.0
 40
0.0123993417
 40
0.0248058637
 40
0.0372267258
 40
0.0496690472
 40
0.0621398854
 40
0.0746462181
 40
0.0871949242
 40
0.0997927642
 40
0.1251597127
 40
0.1508007739
 40
0.176764259
 40
0.2030952768
 40
0.2298354527
 40
0.2570227269
 40
0.2846912312
 40
0.3128712328
 40
0.3271623188
 40
0.3415908542
 40
0.3708692407
 40
0.4007269647
 40
0.4311792604
 40
0.4622378788
 40
0.4939112359
 40
0.5262045681
 40
0.5591200922
 40
0.5926571683
 40
0.6268124593
 40
0.6615800866
 40
0.6969517799
 40
0.7329170226
 40
0.7694631929
 40
0.8065756976
 40
0.8442380989
 40
0.8824322319
 40
0.9211383496
 40
0.9603351025
 40
1.0
 40
1.0
 40
1.0
 40
1.0
 10
16.1145928222
 20
11.4403467415
 30
0.0
 10
16.1137052272
 20
11.4374744856
 30
0.0
 10
16.1118450309
 20
11.4317540292
 30
0.0
 10
16.1088027453
 20
11.423255124
 30
0.0
 10
16.1055089667
 20
11.4148392143
 30
0.0
 10
16.1019646532
 20
11.4065087929
 30
0.0
 10
16.0981708085
 20
11.3982661906
 30
0.0
 10
16.0941285319
 20
11.3901137712
 30
0.0
 10
16.0898389131
 20
11.3820537771
 30
0.0
 10
16.0837779557
 20
11.3714098772
 30
0.0
 10
16.0755785255
 20
11.3583383007
 30
0.0
 10
16.0647936814
 20
11.3430968717
 30
0.0
 10
16.0530526244
 20
11.3282798694
 30
0.0
 10
16.0403691596
 20
11.3139043737
 30
0.0
 10
16.0267579033
 20
11.2999864539
 30
0.0
 10
16.0122344845
 20
11.2865416938
 30
0.0
 10
15.9968157351
 20
11.2735852465
 30
0.0
 10
15.9832988082
 20
11.2632556958
 30
0.0
 10
15.9720638885
 20
11.2552482264
 30
0.0
 10
15.9604361682
 20
11.2473387396
 30
0.0
 10
15.9453668918
 20
11.2377863561
 30
0.0
 10
15.9265517434
 20
11.2269214328
 30
0.0
 10
15.9069382912
 20
11.2166109966
 30
0.0
 10
15.8865489306
 20
11.2068666771
 30
0.0
 10
15.8654066255
 20
11.1976992906
 30
0.0
 10
15.8435352545
 20
11.1891190699
 30
0.0
 10
15.8209594878
 20
11.1811355845
 30
0.0
 10
15.7977047892
 20
11.1737577507
 30
0.0
 10
15.7737973818
 20
11.1669938146
 30
0.0
 10
15.7492642239
 20
11.1608513434
 30
0.0
 10
15.7241329801
 20
11.1553372128
 30
0.0
 10
15.6984319915
 20
11.1504575981
 30
0.0
 10
15.6721902438
 20
11.1462179681
 30
0.0
 10
15.645437336
 20
11.1426230771
 30
0.0
 10
15.6182034435
 20
11.1396769594
 30
0.0
 10
15.5905193003
 20
11.137382918
 30
0.0
 10
15.5624161091
 20
11.1357435302
 30
0.0
 10
15.5339257506
 20
11.1347606253
 30
0.0
 10
15.5148046447
 20
11.134544988
 30
0.0
 10
15.5051877212
 20
11.134544988
 30
0.0
  0
SPLINE
  5
2D4
100
AcDbEntity
  8
LAYER_CHAMFER_FEAT
100
AcDbSpline
 62
7
  6
CONTINUOUS
 70
0
 71
3
 72
15
 73
11
 74
0
 42
0.0000001
 43
0.0000001
 44
0.0000000001
 40
0.0
 40
0.0
 40
0.0
 40
0.0
 40
0.1317621271
 40
0.2617726774
 40
0.389919274
 40
0.5161208126
 40
0.6402988927
 40
0.7623789888
 40
0.8822975184
 40
1.0
 40
1.0
 40
1.0
 40
1.0
 10
15.1316639555
 20
11.8957063941
 30
0.0
 10
15.128344492
 20
11.8957063941
 30
0.0
 10
15.1217493566
 20
11.8956226994
 30
0.0
 10
15.1119325025
 20
11.8952407731
 30
0.0
 10
15.1022691709
 20
11.8946036725
 30
0.0
 10
15.0927734965
 20
11.8937123553
 30
0.0
 10
15.0834588692
 20
11.892568141
 30
0.0
 10
15.0743385765
 20
11.8911725487
 30
0.0
 10
15.0654258036
 20
11.8895276664
 30
0.0
 10
15.0595751754
 20
11.8882542957
 30
0.0
 10
15.0566886636
 20
11.8875754568
 30
0.0
  0
SPLINE
  5
2D5
100
AcDbEntity
  8
LAYER_CHAMFER_FEAT
100
AcDbSpline
 62
7
  6
CONTINUOUS
 70
0
 71
3
 72
34
 73
30
 74
0
 42
0.0000001
 43
0.0000001
 44
0.0000000001
 40
0.0
 40
0.0
 40
0.0
 40
0.0
 40
0.030540153
 40
0.0614606621
 40
0.0927286168
 40
0.1243153571
 40
0.1561893701
 40
0.1883177853
 40
0.2206672927
 40
0.2532037295
 40
0.3186931772
 40
0.384506992
 40
0.4503572026
 40
0.5159553632
 40
0.5810163142
 40
0.6132604025
 40
0.6452667249
 40
0.6770022651
 40
0.7084349754
 40
0.7395338401
 40
0.7702690666
 40
0.8006122282
 40
0.8305363413
 40
0.8600161123
 40
0.8890280485
 40
0.9175505837
 40
0.9455643673
 40
0.9730523524
 40
1.0
 40
1.0
 40
1.0
 40
1.0
 10
15.1316639555
 20
11.8957063941
 30
0.0
 10
15.1352527443
 20
11.8957063941
 30
0.0
 10
15.1424753722
 20
11.8956073103
 30
0.0
 10
15.1533643085
 20
11.8951686074
 30
0.0
 10
15.1643609605
 20
11.8944394532
 30
0.0
 10
15.175447071
 20
11.893421093
 30
0.0
 10
15.18660479
 20
11.892115216
 30
0.0
 10
15.1978158834
 20
11.8905239056
 30
0.0
 10
15.2090621399
 20
11.8886497555
 30
0.0
 10
15.2241110914
 20
11.8857718242
 30
0.0
 10
15.2428888564
 20
11.8814863508
 30
0.0
 10
15.2652198764
 20
11.8752867188
 30
0.0
 10
15.2872533913
 20
11.8680588279
 30
0.0
 10
15.3088455881
 20
11.8598498388
 30
0.0
 10
15.3264076242
 20
11.8522128206
 30
0.0
 10
15.3401162781
 20
11.8456544967
 30
0.0
 10
15.3501709456
 20
11.8405403875
 30
0.0
 10
15.3600123694
 20
11.8352249306
 30
0.0
 10
15.3696245997
 20
11.8297167785
 30
0.0
 10
15.3789919404
 20
11.8240248807
 30
0.0
 10
15.3880991402
 20
11.8181585118
 30
0.0
 10
15.3969313784
 20
11.8121272475
 30
0.0
 10
15.4054742447
 20
11.8059408671
 30
0.0
 10
15.4137138414
 20
11.799609462
 30
0.0
 10
15.4216367607
 20
11.7931433382
 30
0.0
 10
15.4292300645
 20
11.7865529839
 30
0.0
 10
15.4364814456
 20
11.7798491114
 30
0.0
 10
15.4433789844
 20
11.7730427259
 30
0.0
 10
15.4477785044
 20
11.7683970697
 30
0.0
 10
15.4499146317
 20
11.7660594391
 30
0.0
  0
SPLINE
  5
2D6
100
AcDbEntity
  8
LAYER_FEATURE
100
AcDbSpline
 62
7
  6
CONTINUOUS
 70
0
 71
3
 72
46
 73
42
 74
0
 42
0.0000001
 43
0.0000001
 44
0.0000000001
 40
0.0
 40
0.0
 40
0.0
 40
0.0
 40
0.0396645078
 40
0.0788613625
 40
0.1175671524
 40
0.1557611441
 40
0.1934233488
 40
0.2305356756
 40
0.2670816668
 40
0.3030467311
 40
0.3384182489
 40
0.373185705
 40
0.4073408296
 40
0.4408777429
 40
0.4737931061
 40
0.5060862783
 40
0.5377594784
 40
0.5688179438
 40
0.5992700904
 40
0.6291276687
 40
0.6584059125
 40
0.6728343747
 40
0.6871253929
 40
0.7153052552
 40
0.7429736226
 40
0.7701607626
 40
0.7969008076
 40
0.8232316975
 40
0.8491950558
 40
0.8620540739
 40
0.8748384068
 40
0.8875541856
 40
0.9002077255
 40
0.9128055046
 40
0.9253541479
 40
0.9378604202
 40
0.9503311966
 40
0.9627734571
 40
0.9751942581
 40
0.9876007192
 40
1.0
 40
1.0
 40
1.0
 40
1.0
 10
14.9021991598
 20
13.1037380882
 30
0.0
 10
14.8868039469
 20
13.1037380882
 30
0.0
 10
14.856193814
 20
13.1033928718
 30
0.0
 10
14.8105849297
 20
13.101819411
 30
0.0
 10
14.7655957524
 20
13.0991949608
 30
0.0
 10
14.7212775259
 20
13.0955225524
 30
0.0
 10
14.6776800315
 20
13.0908062431
 30
0.0
 10
14.6348525395
 20
13.0850513555
 30
0.0
 10
14.5928433371
 20
13.0782643276
 30
0.0
 10
14.5516998143
 20
13.0704527743
 30
0.0
 10
14.5114683699
 20
13.0616254537
 30
0.0
 10
14.4721943718
 20
13.0517922548
 30
0.0
 10
14.4339221063
 20
13.0409641852
 30
0.0
 10
14.3966947312
 20
13.0291533557
 30
0.0
 10
14.3605542286
 20
13.0163729645
 30
0.0
 10
14.3255413639
 20
13.0026372819
 30
0.0
 10
14.2916956273
 20
12.9879616338
 30
0.0
 10
14.2590552433
 20
12.9723624026
 30
0.0
 10
14.2276569726
 20
12.9558569035
 30
0.0
 10
14.1975366707
 20
12.9384637493
 30
0.0
 10
14.1734129565
 20
12.9231717892
 30
0.0
 10
14.1547986855
 20
12.9105098436
 30
0.0
 10
14.1368132121
 20
12.8976910695
 30
0.0
 10
14.1151745957
 20
12.8811549617
 30
0.0
 10
14.0904914298
 20
12.860413578
 30
0.0
 10
14.0672415775
 20
12.8388905032
 30
0.0
 10
14.0454518886
 20
12.8166098697
 30
0.0
 10
14.025147715
 20
12.7935970985
 30
0.0
 10
14.0094340007
 20
12.7737665765
 30
0.0
 10
13.9976440501
 20
12.7575709726
 30
0.0
 10
13.9892141583
 20
12.7452964221
 30
0.0
 10
13.9811717333
 20
12.7328595342
 30
0.0
 10
13.9735189638
 20
12.7202637439
 30
0.0
 10
13.9662580332
 20
12.7075126541
 30
0.0
 10
13.9593910599
 20
12.6946098398
 30
0.0
 10
13.9529199263
 20
12.6815590024
 30
0.0
 10
13.9468465587
 20
12.6683637971
 30
0.0
 10
13.9411726227
 20
12.6550280127
 30
0.0
 10
13.9358997596
 20
12.641555374
 30
0.0
 10
13.9310295228
 20
12.6279498633
 30
0.0
 10
13.9280516005
 20
12.6187922556
 30
0.0
 10
13.9266306937
 20
12.6141941929
 30
0.0
  0
SPLINE
  5
2D7
100
AcDbEntity
  8
LAYER_FEATURE
100
AcDbSpline
 62
7
  6
CONTINUOUS
 70
0
 71
3
 72
46
 73
42
 74
0
 42
0.0000001
 43
0.0000001
 44
0.0000000001
 40
0.0
 40
0.0
 40
0.0
 40
0.0
 40
0.0396645078
 40
0.0788613625
 40
0.1175671524
 40
0.1557611441
 40
0.1934233488
 40
0.2305356756
 40
0.2670816668
 40
0.3030467311
 40
0.3384182489
 40
0.373185705
 40
0.4073408296
 40
0.4408777429
 40
0.4737931061
 40
0.5060862783
 40
0.5377594784
 40
0.5688179438
 40
0.5992700904
 40
0.6291276687
 40
0.6584059125
 40
0.6728343747
 40
0.6871253929
 40
0.7153052552
 40
0.7429736226
 40
0.7701607626
 40
0.7969008076
 40
0.8232316975
 40
0.8491950558
 40
0.8620540739
 40
0.8748384068
 40
0.8875541856
 40
0.9002077255
 40
0.9128055046
 40
0.9253541479
 40
0.9378604202
 40
0.9503311966
 40
0.9627734571
 40
0.9751942581
 40
0.9876007192
 40
1.0
 40
1.0
 40
1.0
 40
1.0
 10
15.1442654832
 20
13.8870649979
 30
0.0
 10
15.1288702703
 20
13.8870649979
 30
0.0
 10
15.0982601374
 20
13.8867197815
 30
0.0
 10
15.0526512531
 20
13.8851463206
 30
0.0
 10
15.0076620758
 20
13.8825218704
 30
0.0
 10
14.9633438493
 20
13.878849462
 30
0.0
 10
14.9197463549
 20
13.8741331527
 30
0.0
 10
14.8769188629
 20
13.8683782651
 30
0.0
 10
14.8349096605
 20
13.8615912372
 30
0.0
 10
14.7937661377
 20
13.8537796839
 30
0.0
 10
14.7535346933
 20
13.8449523633
 30
0.0
 10
14.7142606952
 20
13.8351191644
 30
0.0
 10
14.6759884297
 20
13.8242910948
 30
0.0
 10
14.6387610546
 20
13.8124802654
 30
0.0
 10
14.602620552
 20
13.7996998742
 30
0.0
 10
14.5676076873
 20
13.7859641915
 30
0.0
 10
14.5337619507
 20
13.7712885434
 30
0.0
 10
14.5011215667
 20
13.7556893123
 30
0.0
 10
14.469723296
 20
13.7391838132
 30
0.0
 10
14.4396029941
 20
13.721790659
 30
0.0
 10
14.4154792799
 20
13.7064986988
 30
0.0
 10
14.3968650089
 20
13.6938367532
 30
0.0
 10
14.3788795355
 20
13.6810179792
 30
0.0
 10
14.3572409191
 20
13.6644818713
 30
0.0
 10
14.3325577532
 20
13.6437404876
 30
0.0
 10
14.3093079009
 20
13.6222174128
 30
0.0
 10
14.287518212
 20
13.5999367793
 30
0.0
 10
14.2672140384
 20
13.5769240081
 30
0.0
 10
14.2515003241
 20
13.5570934861
 30
0.0
 10
14.2397103735
 20
13.5408978823
 30
0.0
 10
14.2312804817
 20
13.5286233317
 30
0.0
 10
14.2232380568
 20
13.5161864438
 30
0.0
 10
14.2155852872
 20
13.5035906535
 30
0.0
 10
14.2083243566
 20
13.4908395637
 30
0.0
 10
14.2014573834
 20
13.4779367494
 30
0.0
 10
14.1949862497
 20
13.4648859121
 30
0.0
 10
14.1889128821
 20
13.4516907068
 30
0.0
 10
14.1832389461
 20
13.4383549224
 30
0.0
 10
14.177966083
 20
13.4248822836
 30
0.0
 10
14.1730958462
 20
13.4112767729
 30
0.0
 10
14.1701179239
 20
13.4021191653
 30
0.0
 10
14.1686970171
 20
13.3975211025
 30
0.0
  0
SPLINE
  5
2D8
100
AcDbEntity
  8
LAYER_FEATURE
100
AcDbSpline
 62
7
  6
CONTINUOUS
 70
0
 71
3
 72
78
 73
74
 74
0
 42
0.0000001
 43
0.0000001
 44
0.0000000001
 40
0.0
 40
0.0
 40
0.0
 40
0.0
 40
0.0171786494
 40
0.034530259
 40
0.052044083
 40
0.0697096926
 40
0.0875159169
 40
0.1054514052
 40
0.1235044838
 40
0.1416632229
 40
0.1599154662
 40
0.1782488551
 40
0.1966508594
 40
0.2151088034
 40
0.2336098939
 40
0.2521412485
 40
0.2706899221
 40
0.2892429336
 40
0.3077872924
 40
0.3263100264
 40
0.3447982082
 40
0.3632389822
 40
0.3816195916
 40
0.3999274055
 40
0.4181499471
 40
0.4362749223
 40
0.4542902467
 40
0.472184075
 40
0.4899448297
 40
0.5075612324
 40
0.5250223351
 40
0.5423175506
 40
0.5594366852
 40
0.5763699716
 40
0.5931081049
 40
0.60964228
 40
0.6259642276
 40
0.6420662527
 40
0.6579412756
 40
0.6735828743
 40
0.6889853316
 40
0.7041436801
 40
0.71905375
 40
0.7337122195
 40
0.748116668
 40
0.7622656323
 40
0.7761586636
 40
0.7897963834
 40
0.8031805416
 40
0.8163140755
 40
0.8292011685
 40
0.8418473065
 40
0.8542593269
 40
0.8603804056
 40
0.8664461623
 40
0.8784160809
 40
0.8901809052
 40
0.8959906881
 40
0.901754044
 40
0.9131479177
 40
0.9243788243
 40
0.9354636208
 40
0.9464204585
 40
0.9518573841
 40
0.9572696635
 40
0.9626598748
 40
0.9680306504
 40
0.9733846742
 40
0.9787246697
 40
0.9840533993
 40
0.9893736532
 40
0.9946882442
 40
1.0
 40
1.0
 40
1.0
 40
1.0
 10
14.9021991598
 20
13.1037380882
 30
0.0
 10
14.9171413703
 20
13.1037380882
 30
0.0
 10
14.9471771937
 20
13.1034093028
 30
0.0
 10
14.9924254204
 20
13.1019484297
 30
0.0
 10
15.0380562785
 20
13.0995187329
 30
0.0
 10
15.0840217905
 20
13.0961228403
 30
0.0
 10
15.1302743722
 20
13.0917642232
 30
0.0
 10
15.1767657943
 20
13.0864474431
 30
0.0
 10
15.2234476954
 20
13.0801780286
 30
0.0
 10
15.2702714826
 20
13.0729625126
 30
0.0
 10
15.3171884191
 20
13.0648084078
 30
0.0
 10
15.3641496698
 20
13.0557242002
 30
0.0
 10
15.4111063509
 20
13.045719341
 30
0.0
 10
15.4580095822
 20
13.0348042431
 30
0.0
 10
15.5048105399
 20
13.0229902751
 30
0.0
 10
15.5514605055
 20
13.0102897367
 30
0.0
 10
15.5979109173
 20
12.9967158485
 30
0.0
 10
15.6441134194
 20
12.9822827373
 30
0.0
 10
15.6900199135
 20
12.967005423
 30
0.0
 10
15.7355826128
 20
12.9508998153
 30
0.0
 10
15.7807540883
 20
12.9339826824
 30
0.0
 10
15.8254873181
 20
12.9162716348
 30
0.0
 10
15.8697357355
 20
12.897785107
 30
0.0
 10
15.9134532776
 20
12.8785423366
 30
0.0
 10
15.9565944389
 20
12.8585633567
 30
0.0
 10
15.9991143167
 20
12.8378689668
 30
0.0
 10
16.0409686546
 20
12.8164807065
 30
0.0
 10
16.0821138885
 20
12.7944208348
 30
0.0
 10
16.1225071914
 20
12.7717123045
 30
0.0
 10
16.1621065233
 20
12.7483787462
 30
0.0
 10
16.2008706768
 20
12.7244444441
 30
0.0
 10
16.2387593137
 20
12.699934301
 30
0.0
 10
16.2757330063
 20
12.6748738142
 30
0.0
 10
16.3117532783
 20
12.6492890481
 30
0.0
 10
16.3467826465
 20
12.6232066077
 30
0.0
 10
16.3807846689
 20
12.5966536198
 30
0.0
 10
16.413723972
 20
12.5696576917
 30
0.0
 10
16.4455662864
 20
12.5422468838
 30
0.0
 10
16.4762784813
 20
12.5144496802
 30
0.0
 10
16.505828598
 20
12.4862949553
 30
0.0
 10
16.5341858949
 20
12.4578119556
 30
0.0
 10
16.5613208701
 20
12.4290302583
 30
0.0
 10
16.587205286
 20
12.3999797386
 30
0.0
 10
16.6118121971
 20
12.3706905401
 30
0.0
 10
16.6351159735
 20
12.34119304
 30
0.0
 10
16.6570923373
 20
12.3115178248
 30
0.0
 10
16.6777183848
 20
12.2816956568
 30
0.0
 10
16.6969725947
 20
12.251757439
 30
0.0
 10
16.714834852
 20
12.2217341764
 30
0.0
 10
16.7312864463
 20
12.1916569896
 30
0.0
 10
16.7463101538
 20
12.1615569215
 30
0.0
 10
16.7598900429
 20
12.1314655183
 30
0.0
 10
16.7700382252
 20
12.1063065803
 30
0.0
 10
16.7774099747
 20
12.0862186587
 30
0.0
 10
16.7842251083
 20
12.0663412747
 30
0.0
 10
16.7918317945
 20
12.041552306
 30
0.0
 10
16.7982555653
 20
12.0166598905
 30
0.0
 10
16.8026334942
 20
11.9968361922
 30
0.0
 10
16.8064773456
 20
11.9772308638
 30
0.0
 10
16.8103531731
 20
11.9528337842
 30
0.0
 10
16.8135092429
 20
11.923670759
 30
0.0
 10
16.8151491135
 20
11.8947636942
 30
0.0
 10
16.8152504706
 20
11.8708504479
 30
0.0
 10
16.8145670678
 20
11.8518936795
 30
0.0
 10
16.8136767693
 20
11.8377946963
 30
0.0
 10
16.8124076279
 20
11.8237826025
 30
0.0
 10
16.8107599252
 20
11.8098609452
 30
0.0
 10
16.8087341613
 20
11.79603339
 30
0.0
 10
16.8063307767
 20
11.7823035541
 30
0.0
 10
16.8035504557
 20
11.7686750346
 30
0.0
 10
16.8003938962
 20
11.7551513611
 30
0.0
 10
16.7968619298
 20
11.7417362213
 30
0.0
 10
16.7942573357
 20
11.7328663469
 30
0.0
 10
16.7928932257
 20
11.7284520787
 30
0.0
  0
SPLINE
  5
2D9
100
AcDbEntity
  8
LAYER_FEATURE
100
AcDbSpline
 62
7
  6
CONTINUOUS
 70
0
 71
3
 72
18
 73
14
 74
0
 42
0.0000001
 43
0.0000001
 44
0.0000000001
 40
0.0
 40
0.0
 40
0.0
 40
0.0
 40
0.0594352582
 40
0.1190541583
 40
0.1789129638
 40
0.2390661965
 40
0.2995663728
 40
0.3604635694
 40
0.4836083516
 40
0.6088725264
 40
0.7365460923
 40
0.8668638406
 40
1.0
 40
1.0
 40
1.0
 40
1.0
 10
14.8535217248
 20
12.410312234
 30
0.0
 10
14.8530646918
 20
12.411532149
 30
0.0
 10
14.8522046458
 20
12.4139969244
 30
0.0
 10
14.8510809677
 20
12.4177552585
 30
0.0
 10
14.8501231631
 20
12.4215755482
 30
0.0
 10
14.8493322987
 20
12.4254535112
 30
0.0
 10
14.8487092297
 20
12.4293850405
 30
0.0
 10
14.8481008219
 20
12.4347117404
 30
0.0
 10
14.8477671746
 20
12.4414918467
 30
0.0
 10
14.8480471548
 20
12.4497390421
 30
0.0
 10
14.8490039898
 20
12.4580935149
 30
0.0
 10
14.8506329188
 20
12.4665180618
 30
0.0
 10
14.8521456492
 20
12.4720969637
 30
0.0
 10
14.8530072142
 20
12.4748849889
 30
0.0
  0
SPLINE
  5
2DA
100
AcDbEntity
  8
02___PRT_ALL_AXES
100
AcDbSpline
 62
7
  6
CONTINUOUS
 70
0
 71
3
 72
45
 73
41
 74
0
 42
0.0000001
 43
0.0000001
 44
0.0000000001
 40
0.0
 40
0.0
 40
0.0
 40
0.0
 40
0.0116418771
 40
0.0233323245
 40
0.0350911438
 40
0.0469374604
 40
0.0588893872
 40
0.0709640306
 40
0.0831771519
 40
0.0955432763
 40
0.108075387
 40
0.1207850927
 40
0.1467703558
 40
0.1735666041
 40
0.2012114614
 40
0.2297198335
 40
0.2590859981
 40
0.2892860119
 40
0.3202804045
 40
0.3520168896
 40
0.3844330018
 40
0.4174586418
 40
0.4510182889
 40
0.4850330862
 40
0.5194225103
 40
0.5541058718
 40
0.5890034975
 40
0.6240376795
 40
0.6591335065
 40
0.6942194219
 40
0.7292278226
 40
0.7640954344
 40
0.7814595671
 40
0.7987669921
 40
0.8331826367
 40
0.8672976613
 40
0.9010699012
 40
0.9344632446
 40
0.9674477232
 40
1.0
 40
1.0
 40
1.0
 40
1.0
 10
14.8498369794
 20
12.4168928538
 30
0.0
 10
14.8492949234
 20
12.4179974453
 30
0.0
 10
14.8482648065
 20
12.4202393485
 30
0.0
 10
14.8468883272
 20
12.42368483
 30
0.0
 10
14.8456791303
 20
12.4272154422
 30
0.0
 10
14.8446383742
 20
12.4308280284
 30
0.0
 10
14.8437668163
 20
12.434519394
 30
0.0
 10
14.8430652252
 20
12.4382861927
 30
0.0
 10
14.8425340378
 20
12.4421249257
 30
0.0
 10
14.8421736734
 20
12.4460319346
 30
0.0
 10
14.8419842406
 20
12.4500034981
 30
0.0
 10
14.8419594448
 20
12.4554190083
 30
0.0
 10
14.8423653101
 20
12.4623372463
 30
0.0
 10
14.8435287691
 20
12.4707654807
 30
0.0
 10
14.8453650973
 20
12.4793455804
 30
0.0
 10
14.8478646075
 20
12.4880386288
 30
0.0
 10
14.8510149482
 20
12.4968044769
 30
0.0
 10
14.8548011815
 20
12.5056012759
 30
0.0
 10
14.8592058744
 20
12.5143859996
 30
0.0
 10
14.8642092345
 20
12.5231147431
 30
0.0
 10
14.8697892755
 20
12.531743105
 30
0.0
 10
14.8759219932
 20
12.5402265338
 30
0.0
 10
14.8825815411
 20
12.5485206636
 30
0.0
 10
14.8897403826
 20
12.5565816032
 30
0.0
 10
14.8973694147
 20
12.5643662035
 30
0.0
 10
14.905438051
 20
12.5718322851
 30
0.0
 10
14.9139142613
 20
12.5789388502
 30
0.0
 10
14.9227645814
 20
12.5856462879
 30
0.0
 10
14.9319540606
 20
12.5919165639
 30
0.0
 10
14.9414462982
 20
12.5977134821
 30
0.0
 10
14.9512030809
 20
12.603002778
 30
0.0
 10
14.9595331912
 20
12.6069666742
 30
0.0
 10
14.9662928872
 20
12.6098536071
 30
0.0
 10
14.9730844769
 20
12.6125372429
 30
0.0
 10
14.9816576531
 20
12.6155203506
 30
0.0
 10
14.9920607431
 20
12.6184885477
 30
0.0
 10
15.0025146887
 20
12.6208192857
 30
0.0
 10
15.0129725006
 20
12.6224969201
 30
0.0
 10
15.0233857613
 20
12.6235100851
 30
0.0
 10
15.0303142833
 20
12.6237394091
 30
0.0
 10
15.033754721
 20
12.6237394091
 30
0.0
  0
SPLINE
  5
2DB
100
AcDbEntity
  8
LAYER_FEATURE
100
AcDbSpline
 62
7
  6
CONTINUOUS
 70
0
 71
3
 72
53
 73
49
 74
0
 42
0.0000001
 43
0.0000001
 44
0.0000000001
 40
0.0
 40
0.0
 40
0.0
 40
0.0
 40
0.0146678477
 40
0.0291030727
 40
0.0433127358
 40
0.0573100314
 40
0.0711095372
 40
0.0847283665
 40
0.0981863145
 40
0.1115053971
 40
0.1247096766
 40
0.1378249683
 40
0.1508784846
 40
0.1638984229
 40
0.1769135192
 40
0.1899525879
 40
0.2030440572
 40
0.2162155204
 40
0.2294932997
 40
0.2429020841
 40
0.2564646199
 40
0.2702014173
 40
0.2841305744
 40
0.298267659
 40
0.3126255821
 40
0.3272145916
 40
0.3571037938
 40
0.3879761571
 40
0.4198228628
 40
0.4526000642
 40
0.4862331954
 40
0.5206215353
 40
0.5556426868
 40
0.591157028
 40
0.6270120745
 40
0.6630466924
 40
0.6990952764
 40
0.7349918745
 40
0.7705743174
 40
0.8056883732
 40
0.8401919562
 40
0.8739594821
 40
0.8905372151
 40
0.9068937071
 40
0.9389005212
 40
0.9545465164
 40
0.9699466081
 40
1.0
 40
1.0
 40
1.0
 40
1.0
 10
14.8732126415
 20
12.4952737959
 30
0.0
 10
14.8726972604
 20
12.4936060218
 30
0.0
 10
14.8717609539
 20
12.490269459
 30
0.0
 10
14.8706396544
 20
12.4852357646
 30
0.0
 10
14.8698157232
 20
12.4802255143
 30
0.0
 10
14.8692912619
 20
12.4752511064
 30
0.0
 10
14.8690675867
 20
12.4703243794
 30
0.0
 10
14.8691453615
 20
12.4654572652
 30
0.0
 10
14.8695245262
 20
12.4606615541
 30
0.0
 10
14.8702042282
 20
12.4559488733
 30
0.0
 10
14.8711828969
 20
12.4513306764
 30
0.0
 10
14.8724582712
 20
12.4468182236
 30
0.0
 10
14.8740272686
 20
12.4424225147
 30
0.0
 10
14.8758860884
 20
12.4381542713
 30
0.0
 10
14.8780302544
 20
12.4340239324
 30
0.0
 10
14.8804544988
 20
12.4300415595
 30
0.0
 10
14.8831528697
 20
12.4262168355
 30
0.0
 10
14.8861187879
 20
12.4225590766
 30
0.0
 10
14.8893449565
 20
12.4190771244
 30
0.0
 10
14.8928234612
 20
12.4157793645
 30
0.0
 10
14.8965458299
 20
12.4126737602
 30
0.0
 10
14.9005029637
 20
12.4097677395
 30
0.0
 10
14.9046852322
 20
12.4070682226
 30
0.0
 10
14.9090824699
 20
12.4045816898
 30
0.0
 10
14.9136841547
 20
12.4023139925
 30
0.0
 10
14.9201282424
 20
12.3995676174
 30
0.0
 10
14.9286502964
 20
12.396721036
 30
0.0
 10
14.9394154956
 20
12.3942837234
 30
0.0
 10
14.950701246
 20
12.3928178823
 30
0.0
 10
14.9623989529
 20
12.3923365558
 30
0.0
 10
14.9743973278
 20
12.3928432295
 30
0.0
 10
14.9865819076
 20
12.3943324544
 30
0.0
 10
14.998836484
 20
12.3967895321
 30
0.0
 10
15.0110440928
 20
12.4001906585
 30
0.0
 10
15.023088135
 20
12.404503173
 30
0.0
 10
15.034853525
 20
12.4096857327
 30
0.0
 10
15.0462278017
 20
12.4156887286
 30
0.0
 10
15.0571021925
 20
12.4224548349
 30
0.0
 10
15.0673726734
 20
12.4299194085
 30
0.0
 10
15.076941103
 20
12.4380113773
 30
0.0
 10
15.0857155099
 20
12.4466532794
 30
0.0
 10
15.0923372638
 20
12.4542925389
 30
0.0
 10
15.0971538329
 20
12.4606050264
 30
0.0
 10
15.1015779634
 20
12.4669440844
 30
0.0
 10
15.1055292087
 20
12.473471058
 30
0.0
 10
15.1089581022
 20
12.4801484467
 30
0.0
 10
15.1119677037
 20
12.486769706
 30
0.0
 10
15.1138430665
 20
12.4918566437
 30
0.0
 10
15.1148990464
 20
12.4952737959
 30
0.0
  0
SPLINE
  5
2DC
100
AcDbEntity
  8
LAYER_FEATURE
100
AcDbSpline
 62
7
  6
CONTINUOUS
 70
0
 71
3
 72
27
 73
23
 74
0
 42
0.0000001
 43
0.0000001
 44
0.0000000001
 40
0.0
 40
0.0
 40
0.0
 40
0.0
 40
0.0272346456
 40
0.0549182117
 40
0.0830505651
 40
0.1116321851
 40
0.1701010284
 40
0.1999804637
 40
0.2302640619
 40
0.2919493463
 40
0.354979243
 40
0.4191243064
 40
0.48412502
 40
0.5496996155
 40
0.615551852
 40
0.6813785768
 40
0.7468772643
 40
0.811753579
 40
0.8757289529
 40
0.9073038537
 40
0.9385598401
 40
1.0
 40
1.0
 40
1.0
 40
1.0
 10
14.8530072142
 20
12.4748849889
 30
0.0
 10
14.8536620185
 20
12.4770039367
 30
0.0
 10
14.8550961776
 20
12.4812424529
 30
0.0
 10
14.8575884294
 20
12.4875324557
 30
0.0
 10
14.8604334833
 20
12.4937918941
 30
0.0
 10
14.8647194405
 20
12.5021382836
 30
0.0
 10
14.8696585947
 20
12.5102971422
 30
0.0
 10
14.8751887185
 20
12.5182209537
 30
0.0
 10
14.8812094439
 20
12.526111561
 30
0.0
 10
14.889486627
 20
12.5356606402
 30
0.0
 10
14.9004546535
 20
12.5464630009
 30
0.0
 10
14.9124151692
 20
12.556577987
 30
0.0
 10
14.925253286
 20
12.5659086839
 30
0.0
 10
14.9388462673
 20
12.5743663247
 30
0.0
 10
14.9530641204
 20
12.5818700714
 30
0.0
 10
14.9677708312
 20
12.5883482665
 30
0.0
 10
14.9828259853
 20
12.5937389208
 30
0.0
 10
14.998085136
 20
12.5979902704
 30
0.0
 10
15.0109074204
 20
12.6005611646
 30
0.0
 10
15.0211344988
 20
12.6020064634
 30
0.0
 10
15.031203985
 20
12.6030317139
 30
0.0
 10
15.0387567988
 20
12.6033506021
 30
0.0
 10
15.0437600942
 20
12.6033506021
 30
0.0
  0
SPLINE
  5
2DD
100
AcDbEntity
  8
LAYER_FEATURE
100
AcDbSpline
 62
7
  6
CONTINUOUS
 70
0
 71
3
 72
22
 73
18
 74
0
 42
0.0000001
 43
0.0000001
 44
0.0000000001
 40
0.0
 40
0.0
 40
0.0
 40
0.0
 40
0.1404713596
 40
0.2089988624
 40
0.2763263739
 40
0.342433791
 40
0.4073177053
 40
0.4709902414
 40
0.5334803806
 40
0.5948344351
 40
0.6551163448
 40
0.714407678
 40
0.7728072036
 40
0.8304300064
 40
0.8874060731
 40
0.9438783037
 40
1.0
 40
1.0
 40
1.0
 40
1.0
 10
15.0437600942
 20
12.6033506021
 30
0.0
 10
15.0493854732
 20
12.6033506021
 30
0.0
 10
15.0577641488
 20
12.6029529668
 30
0.0
 10
15.0687471641
 20
12.6015714251
 30
0.0
 10
15.0767108997
 20
12.6001357949
 30
0.0
 10
15.0844412409
 20
12.5982967684
 30
0.0
 10
15.091913722
 20
12.5960601083
 30
0.0
 10
15.099104188
 20
12.5934328249
 30
0.0
 10
15.1059894878
 20
12.5904231877
 30
0.0
 10
15.1125473751
 20
12.5870406831
 30
0.0
 10
15.1187566144
 20
12.5832959952
 30
0.0
 10
15.1245970301
 20
12.5792009914
 30
0.0
 10
15.1300495825
 20
12.5747686857
 30
0.0
 10
15.1350964012
 20
12.5700132747
 30
0.0
 10
15.1397209956
 20
12.5649499147
 30
0.0
 10
15.1439078458
 20
12.5595954261
 30
0.0
 10
15.1464041567
 20
12.5558339936
 30
0.0
 10
15.1475724062
 20
12.5539140105
 30
0.0
  0
SPLINE
  5
2DE
100
AcDbEntity
  8
LAYER_FEATURE
100
AcDbSpline
 62
7
  6
CONTINUOUS
 70
0
 71
3
 72
53
 73
49
 74
0
 42
0.0000001
 43
0.0000001
 44
0.0000000001
 40
0.0
 40
0.0
 40
0.0
 40
0.0
 40
0.0300533919
 40
0.0454534836
 40
0.0610994788
 40
0.0931062929
 40
0.1094627849
 40
0.1260405179
 40
0.1598080438
 40
0.1943116268
 40
0.2294256826
 40
0.2650081255
 40
0.3009047236
 40
0.3369533076
 40
0.3729879255
 40
0.408842972
 40
0.4443573132
 40
0.4793784647
 40
0.5137668046
 40
0.5473999358
 40
0.5801771372
 40
0.6120238429
 40
0.6428962062
 40
0.6727854084
 40
0.6873744179
 40
0.701732341
 40
0.7158694256
 40
0.7297985827
 40
0.7435353801
 40
0.7570979159
 40
0.7705067003
 40
0.7837844796
 40
0.7969559428
 40
0.8100474121
 40
0.8230864808
 40
0.8361015771
 40
0.8491215154
 40
0.8621750317
 40
0.8752903234
 40
0.8884946029
 40
0.9018136855
 40
0.9152716335
 40
0.9288904628
 40
0.9426899686
 40
0.9566872642
 40
0.9708969273
 40
0.9853321523
 40
1.0
 40
1.0
 40
1.0
 40
1.0
 10
14.8732126415
 20
12.4952737959
 30
0.0
 10
14.8742686214
 20
12.4986909481
 30
0.0
 10
14.8761439842
 20
12.5037778858
 30
0.0
 10
14.8791535857
 20
12.5103991451
 30
0.0
 10
14.8825824792
 20
12.5170765339
 30
0.0
 10
14.8865337245
 20
12.5236035075
 30
0.0
 10
14.890957855
 20
12.5299425655
 30
0.0
 10
14.8957744241
 20
12.5362550529
 30
0.0
 10
14.902396178
 20
12.5438943124
 30
0.0
 10
14.9111705849
 20
12.5525362145
 30
0.0
 10
14.9207390145
 20
12.5606281833
 30
0.0
 10
14.9310094954
 20
12.568092757
 30
0.0
 10
14.9418838862
 20
12.5748588632
 30
0.0
 10
14.9532581629
 20
12.5808618591
 30
0.0
 10
14.9650235528
 20
12.5860444189
 30
0.0
 10
14.9770675951
 20
12.5903569334
 30
0.0
 10
14.9892752039
 20
12.5937580597
 30
0.0
 10
15.0015297803
 20
12.5962151374
 30
0.0
 10
15.0137143601
 20
12.5977043623
 30
0.0
 10
15.025712735
 20
12.598211036
 30
0.0
 10
15.0374104419
 20
12.5977297095
 30
0.0
 10
15.0486961923
 20
12.5962638684
 30
0.0
 10
15.0594613915
 20
12.5938265558
 30
0.0
 10
15.0679834455
 20
12.5909799744
 30
0.0
 10
15.0744275332
 20
12.5882335993
 30
0.0
 10
15.079029218
 20
12.5859659021
 30
0.0
 10
15.0834264557
 20
12.5834793692
 30
0.0
 10
15.0876087242
 20
12.5807798523
 30
0.0
 10
15.091565858
 20
12.5778738317
 30
0.0
 10
15.0952882267
 20
12.5747682273
 30
0.0
 10
15.0987667314
 20
12.5714704674
 30
0.0
 10
15.1019929
 20
12.5679885152
 30
0.0
 10
15.1049588181
 20
12.5643307564
 30
0.0
 10
15.1076571891
 20
12.5605060323
 30
0.0
 10
15.1100814335
 20
12.5565236594
 30
0.0
 10
15.1122255995
 20
12.5523933205
 30
0.0
 10
15.1140844193
 20
12.5481250772
 30
0.0
 10
15.1156534167
 20
12.5437293682
 30
0.0
 10
15.116928791
 20
12.5392169154
 30
0.0
 10
15.1179074597
 20
12.5345987185
 30
0.0
 10
15.1185871617
 20
12.5298860377
 30
0.0
 10
15.1189663264
 20
12.5250903266
 30
0.0
 10
15.1190441012
 20
12.5202232124
 30
0.0
 10
15.118820426
 20
12.5152964854
 30
0.0
 10
15.1182959647
 20
12.5103220775
 30
0.0
 10
15.1174720335
 20
12.5053118272
 30
0.0
 10
15.116350734
 20
12.5002781328
 30
0.0
 10
15.1154144275
 20
12.49694157
 30
0.0
 10
15.1148990464
 20
12.4952737959
 30
0.0
  0
SPLINE
  5
2DF
100
AcDbEntity
  8
LAYER_FEATURE
100
AcDbSpline
 62
7
  6
CONTINUOUS
 70
0
 71
3
 72
11
 73
7
 74
0
 42
0.0000001
 43
0.0000001
 44
0.0000000001
 40
0.0
 40
0.0
 40
0.0
 40
0.0
 40
0.247458832
 40
0.4959650744
 40
0.7465187177
 40
1.0
 40
1.0
 40
1.0
 40
1.0
 10
16.8665854097
 20
12.6005219046
 30
0.0
 10
16.8666717912
 20
12.6008014366
 30
0.0
 10
16.8668228911
 20
12.6013687609
 30
0.0
 10
16.8669825833
 20
12.602237695
 30
0.0
 10
16.8670751841
 20
12.6031234574
 30
0.0
 10
16.8670920316
 20
12.6037198028
 30
0.0
 10
16.8670894896
 20
12.604019487
 30
0.0
  0
SPLINE
  5
2E0
100
AcDbEntity
  8
LAYER_FEATURE
100
AcDbSpline
 62
7
  6
CONTINUOUS
 70
0
 71
3
 72
22
 73
18
 74
0
 42
0.0000001
 43
0.0000001
 44
0.0000000001
 40
0.0
 40
0.0
 40
0.0
 40
0.0
 40
0.1381197804
 40
0.2053664349
 40
0.2714549095
 40
0.3364371394
 40
0.400372579
 40
0.4633278449
 40
0.5253764087
 40
0.5865986111
 40
0.6470813103
 40
0.7069174443
 40
0.7662055009
 40
0.8250488566
 40
0.8835549595
 40
0.9418344164
 40
1.0
 40
1.0
 40
1.0
 40
1.0
 10
16.3282460824
 20
12.1399900594
 30
0.0
 10
16.3348060607
 20
12.1266222292
 30
0.0
 10
16.3438451949
 20
12.1063792865
 30
0.0
 10
16.3541546108
 20
12.0789835099
 30
0.0
 10
16.3608582974
 20
12.0586740702
 30
0.0
 10
16.366594561
 20
12.0384414777
 30
0.0
 10
16.3713579844
 20
12.0183044955
 30
0.0
 10
16.3751437431
 20
11.9982825327
 30
0.0
 10
16.3779479757
 20
11.9783947171
 30
0.0
 10
16.3797677683
 20
11.9586601583
 30
0.0
 10
16.3806011651
 20
11.9390978436
 30
0.0
 10
16.3804471421
 20
11.9197266508
 30
0.0
 10
16.3793056189
 20
11.9005653073
 30
0.0
 10
16.3771775632
 20
11.881632445
 30
0.0
 10
16.3740648451
 20
11.8629462736
 30
0.0
 10
16.3699705864
 20
11.8445256707
 30
0.0
 10
16.3665876759
 20
11.8324286303
 30
0.0
 10
16.3647362364
 20
11.8264373531
 30
0.0
  0
SPLINE
  5
2E1
100
AcDbEntity
  8
LAYER_FEATURE
100
AcDbSpline
 62
7
  6
CONTINUOUS
 70
0
 71
3
 72
23
 73
19
 74
0
 42
0.0000001
 43
0.0000001
 44
0.0000000001
 40
0.0
 40
0.0
 40
0.0
 40
0.0
 40
0.0490999912
 40
0.0986821374
 40
0.1492183722
 40
0.2011294791
 40
0.2547777677
 40
0.3104607763
 40
0.3684064686
 40
0.4287754008
 40
0.4916652368
 40
0.5571159233
 40
0.6251151673
 40
0.6956049316
 40
0.768487016
 40
0.8436276306
 40
0.9208622077
 40
1.0
 40
1.0
 40
1.0
 40
1.0
 10
16.8337928164
 20
12.429335782
 30
0.0
 10
16.8339271736
 20
12.4297705593
 30
0.0
 10
16.8341437317
 20
12.4306619259
 30
0.0
 10
16.8343050255
 20
12.432038644
 30
0.0
 10
16.8343030885
 20
12.4334508436
 30
0.0
 10
16.8341382551
 20
12.4348910224
 30
0.0
 10
16.8338117855
 20
12.4363520089
 30
0.0
 10
16.8333256857
 20
12.4378266168
 30
0.0
 10
16.8326826671
 20
12.4393077433
 30
0.0
 10
16.831886128
 20
12.4407883127
 30
0.0
 10
16.8309401044
 20
12.4422612636
 30
0.0
 10
16.8298492879
 20
12.4437195505
 30
0.0
 10
16.8286190639
 20
12.4451561971
 30
0.0
 10
16.8272554524
 20
12.446564298
 30
0.0
 10
16.8257650994
 20
12.4479370453
 30
0.0
 10
16.8241552611
 20
12.4492678022
 30
0.0
 10
16.8224338455
 20
12.450550089
 30
0.0
 10
16.8212308644
 20
12.4513594407
 30
0.0
 10
16.8206131819
 20
12.4517549508
 30
0.0
  0
SPLINE
  5
2E2
100
AcDbEntity
  8
LAYER_FEATURE
100
AcDbSpline
 62
7
  6
CONTINUOUS
 70
0
 71
3
 72
78
 73
74
 74
0
 42
0.0000001
 43
0.0000001
 44
0.0000000001
 40
0.0
 40
0.0
 40
0.0
 40
0.0
 40
0.0171786494
 40
0.034530259
 40
0.052044083
 40
0.0697096926
 40
0.0875159169
 40
0.1054514052
 40
0.1235044838
 40
0.1416632229
 40
0.1599154662
 40
0.1782488551
 40
0.1966508594
 40
0.2151088034
 40
0.2336098939
 40
0.2521412485
 40
0.2706899221
 40
0.2892429336
 40
0.3077872924
 40
0.3263100264
 40
0.3447982082
 40
0.3632389822
 40
0.3816195916
 40
0.3999274055
 40
0.4181499471
 40
0.4362749223
 40
0.4542902467
 40
0.472184075
 40
0.4899448297
 40
0.5075612324
 40
0.5250223351
 40
0.5423175506
 40
0.5594366852
 40
0.5763699716
 40
0.5931081049
 40
0.60964228
 40
0.6259642276
 40
0.6420662527
 40
0.6579412756
 40
0.6735828743
 40
0.6889853316
 40
0.7041436801
 40
0.71905375
 40
0.7337122195
 40
0.748116668
 40
0.7622656323
 40
0.7761586636
 40
0.7897963834
 40
0.8031805416
 40
0.8163140755
 40
0.8292011685
 40
0.8418473065
 40
0.8542593269
 40
0.8603804056
 40
0.8664461623
 40
0.8784160809
 40
0.8901809052
 40
0.8959906881
 40
0.901754044
 40
0.9131479177
 40
0.9243788243
 40
0.9354636208
 40
0.9464204585
 40
0.9518573841
 40
0.9572696635
 40
0.9626598748
 40
0.9680306504
 40
0.9733846742
 40
0.9787246697
 40
0.9840533993
 40
0.9893736532
 40
0.9946882442
 40
1.0
 40
1.0
 40
1.0
 40
1.0
 10
15.1249001773
 20
13.8243988451
 30
0.0
 10
15.1398423879
 20
13.8243988451
 30
0.0
 10
15.1698782112
 20
13.8240700596
 30
0.0
 10
15.2151264379
 20
13.8226091866
 30
0.0
 10
15.260757296
 20
13.8201794898
 30
0.0
 10
15.3067228081
 20
13.8167835971
 30
0.0
 10
15.3529753897
 20
13.8124249801
 30
0.0
 10
15.3994668118
 20
13.8071082
 30
0.0
 10
15.4461487129
 20
13.8008387855
 30
0.0
 10
15.4929725002
 20
13.7936232695
 30
0.0
 10
15.5398894366
 20
13.7854691646
 30
0.0
 10
15.5868506874
 20
13.776384957
 30
0.0
 10
15.6338073685
 20
13.7663800978
 30
0.0
 10
15.6807105997
 20
13.7554649999
 30
0.0
 10
15.7275115574
 20
13.743651032
 30
0.0
 10
15.7741615231
 20
13.7309504936
 30
0.0
 10
15.8206119348
 20
13.7173766054
 30
0.0
 10
15.866814437
 20
13.7029434941
 30
0.0
 10
15.9127209311
 20
13.6876661799
 30
0.0
 10
15.9582836304
 20
13.6715605721
 30
0.0
 10
16.0034551059
 20
13.6546434392
 30
0.0
 10
16.0481883356
 20
13.6369323916
 30
0.0
 10
16.092436753
 20
13.6184458639
 30
0.0
 10
16.1361542951
 20
13.5992030935
 30
0.0
 10
16.1792954565
 20
13.5792241136
 30
0.0
 10
16.2218153343
 20
13.5585297237
 30
0.0
 10
16.2636696721
 20
13.5371414633
 30
0.0
 10
16.304814906
 20
13.5150815916
 30
0.0
 10
16.3452082089
 20
13.4923730614
 30
0.0
 10
16.3848075408
 20
13.4690395031
 30
0.0
 10
16.4235716944
 20
13.445105201
 30
0.0
 10
16.4614603312
 20
13.4205950578
 30
0.0
 10
16.4984340238
 20
13.395534571
 30
0.0
 10
16.5344542958
 20
13.369949805
 30
0.0
 10
16.569483664
 20
13.3438673645
 30
0.0
 10
16.6034856864
 20
13.3173143767
 30
0.0
 10
16.6364249896
 20
13.2903184486
 30
0.0
 10
16.668267304
 20
13.2629076407
 30
0.0
 10
16.6989794989
 20
13.235110437
 30
0.0
 10
16.7285296156
 20
13.2069557121
 30
0.0
 10
16.7568869124
 20
13.1784727125
 30
0.0
 10
16.7840218876
 20
13.1496910152
 30
0.0
 10
16.8099063036
 20
13.1206404955
 30
0.0
 10
16.8345132146
 20
13.091351297
 30
0.0
 10
16.8578169911
 20
13.0618537969
 30
0.0
 10
16.8797933548
 20
13.0321785817
 30
0.0
 10
16.9004194024
 20
13.0023564136
 30
0.0
 10
16.9196736123
 20
12.9724181959
 30
0.0
 10
16.9375358695
 20
12.9423949333
 30
0.0
 10
16.9539874638
 20
12.9123177465
 30
0.0
 10
16.9690111714
 20
12.8822176783
 30
0.0
 10
16.9825910605
 20
12.8521262752
 30
0.0
 10
16.9927392428
 20
12.8269673372
 30
0.0
 10
17.0001109922
 20
12.8068794156
 30
0.0
 10
17.0069261259
 20
12.7870020316
 30
0.0
 10
17.014532812
 20
12.7622130629
 30
0.0
 10
17.0209565829
 20
12.7373206474
 30
0.0
 10
17.0253345117
 20
12.7174969491
 30
0.0
 10
17.0291783632
 20
12.6978916206
 30
0.0
 10
17.0330541906
 20
12.6734945411
 30
0.0
 10
17.0362102605
 20
12.6443315159
 30
0.0
 10
17.037850131
 20
12.615424451
 30
0.0
 10
17.0379514881
 20
12.5915112047
 30
0.0
 10
17.0372680854
 20
12.5725544363
 30
0.0
 10
17.0363777868
 20
12.5584554532
 30
0.0
 10
17.0351086455
 20
12.5444433594
 30
0.0
 10
17.0334609428
 20
12.530521702
 30
0.0
 10
17.0314351789
 20
12.5166941468
 30
0.0
 10
17.0290317942
 20
12.502964311
 30
0.0
 10
17.0262514733
 20
12.4893357915
 30
0.0
 10
17.0230949137
 20
12.4758121179
 30
0.0
 10
17.0195629474
 20
12.4623969782
 30
0.0
 10
17.0169583532
 20
12.4535271037
 30
0.0
 10
17.0155942432
 20
12.4491128356
 30
0.0
  0
SPLINE
  5
2E3
100
AcDbEntity
  8
LAYER_FEATURE
100
AcDbSpline
 62
7
  6
CONTINUOUS
 70
0
 71
3
 72
58
 73
54
 74
0
 42
0.0000001
 43
0.0000001
 44
0.0000000001
 40
0.0
 40
0.0
 40
0.0
 40
0.0
 40
0.041132337
 40
0.0816521385
 40
0.1215238353
 40
0.1607145987
 40
0.1991948447
 40
0.2369384058
 40
0.2739228809
 40
0.310129944
 40
0.3455456914
 40
0.3801610006
 40
0.4139719091
 40
0.446980006
 40
0.4791928326
 40
0.4950062654
 40
0.5106266488
 40
0.5260567856
 40
0.5412999063
 40
0.5563597134
 40
0.5712403543
 40
0.5859464673
 40
0.6004831488
 40
0.6148559977
 40
0.6290710783
 40
0.6431349598
 40
0.6570546749
 40
0.6708377526
 40
0.6844921726
 40
0.6980263876
 40
0.7114492752
 40
0.7247701469
 40
0.7379986979
 40
0.7511450018
 40
0.7642194586
 40
0.7772327748
 40
0.7901959102
 40
0.8031200452
 40
0.8160165272
 40
0.8288968267
 40
0.8417724857
 40
0.854655066
 40
0.8675561
 40
0.8804870369
 40
0.8934591964
 40
0.906483717
 40
0.919571514
 40
0.9327332342
 40
0.9459792183
 40
0.9593194651
 40
0.9727635988
 40
0.9863208447
 40
1.0
 40
1.0
 40
1.0
 40
1.0
 10
15.1518225484
 20
13.7184725725
 30
0.0
 10
15.1342127198
 20
13.7184725725
 30
0.0
 10
15.0992531076
 20
13.7179824632
 30
0.0
 10
15.0472666426
 20
13.7157415475
 30
0.0
 10
14.9961989251
 20
13.7120040544
 30
0.0
 10
14.9461397168
 20
13.7067764411
 30
0.0
 10
14.8971763578
 20
13.7000677728
 30
0.0
 10
14.8493944064
 20
13.6918896604
 30
0.0
 10
14.8028773018
 20
13.6822562557
 30
0.0
 10
14.7577062727
 20
13.6711842105
 30
0.0
 10
14.7139601677
 20
13.6586926321
 30
0.0
 10
14.6717154087
 20
13.6448030786
 30
0.0
 10
14.6310455809
 20
13.6295393679
 30
0.0
 10
14.5920223594
 20
13.612928049
 30
0.0
 10
14.5607406851
 20
13.5978940289
 30
0.0
 10
14.5366212264
 20
13.5852104985
 30
0.0
 10
14.5190957548
 20
13.5754383378
 30
0.0
 10
14.502031693
 20
13.5653529484
 30
0.0
 10
14.485436443
 20
13.5549586029
 30
0.0
 10
14.4693172754
 20
13.5442599072
 30
0.0
 10
14.4536812955
 20
13.5332614479
 30
0.0
 10
14.4385353229
 20
13.5219680882
 30
0.0
 10
14.4238860611
 20
13.5103846716
 30
0.0
 10
14.4097398926
 20
13.4985163226
 30
0.0
 10
14.3961031011
 20
13.4863681345
 30
0.0
 10
14.3829816238
 20
13.4739454844
 30
0.0
 10
14.3703813132
 20
13.461253711
 30
0.0
 10
14.3583076517
 20
13.4482984343
 30
0.0
 10
14.3467660482
 20
13.4350852354
 30
0.0
 10
14.3357615219
 20
13.4216199668
 30
0.0
 10
14.325299025
 20
13.4079084482
 30
0.0
 10
14.3153831051
 20
13.393956754
 30
0.0
 10
14.3060182433
 20
13.3797709375
 30
0.0
 10
14.2972085078
 20
13.3653572845
 30
0.0
 10
14.2889578937
 20
13.3507220745
 30
0.0
 10
14.2812699817
 20
13.3358717934
 30
0.0
 10
14.274148266
 20
13.3208129369
 30
0.0
 10
14.2675958326
 20
13.3055521784
 30
0.0
 10
14.2616156607
 20
13.2900962171
 30
0.0
 10
14.2562103352
 20
13.2744519001
 30
0.0
 10
14.2513823079
 20
13.2586261142
 30
0.0
 10
14.2471336582
 20
13.2426258657
 30
0.0
 10
14.2434663012
 20
13.2264582105
 30
0.0
 10
14.2403818078
 20
13.2101302986
 30
0.0
 10
14.2378815507
 20
13.1936493357
 30
0.0
 10
14.2359665918
 20
13.1770226006
 30
0.0
 10
14.2346377594
 20
13.1602574281
 30
0.0
 10
14.233895607
 20
13.1433612126
 30
0.0
 10
14.2337404208
 20
13.1263413949
 30
0.0
 10
14.2341722459
 20
13.1092054858
 30
0.0
 10
14.2351908385
 20
13.0919609617
 30
0.0
 10
14.2367957067
 20
13.0746156368
 30
0.0
 10
14.2382492342
 20
13.0630435448
 30
0.0
 10
14.2390717925
 20
13.0572451946
 30
0.0
  0
SPLINE
  5
2E4
100
AcDbEntity
  8
LAYER_FEATURE
100
AcDbSpline
 62
7
  6
CONTINUOUS
 70
0
 71
3
 72
88
 73
84
 74
0
 42
0.0000001
 43
0.0000001
 44
0.0000000001
 40
0.0
 40
0.0
 40
0.0
 40
0.0
 40
0.0178039618
 40
0.0358082844
 40
0.0539990359
 40
0.0723621186
 40
0.0908826984
 40
0.1095455882
 40
0.1283351666
 40
0.1472354715
 40
0.1662302355
 40
0.185302936
 40
0.2044368418
 40
0.2236150585
 40
0.2428205748
 40
0.2620363077
 40
0.2812451471
 40
0.3004300011
 40
0.3195738409
 40
0.3386597461
 40
0.3576709501
 40
0.3765908861
 40
0.3954032336
 40
0.4140919659
 40
0.4326413978
 40
0.4510362345
 40
0.4692616221
 40
0.4873031992
 40
0.5051471499
 40
0.522780259
 40
0.5401899693
 40
0.5573644412
 40
0.5742926146
 40
0.5909642736
 40
0.6073701147
 40
0.6235018179
 40
0.6393521222
 40
0.6549149044
 40
0.6701852618
 40
0.6851595997
 40
0.699835722
 40
0.714212925
 40
0.7282920944
 40
0.7420758027
 40
0.7555684079
 40
0.7687761481
 40
0.7817072322
 40
0.7880725994
 40
0.79437283
 40
0.806783495
 40
0.8189546746
 40
0.8249561313
 40
0.83090417
 40
0.836801218
 40
0.8426498331
 40
0.8484527057
 40
0.8542126463
 40
0.8599325925
 40
0.8656155909
 40
0.8712648031
 40
0.8768834885
 40
0.8824750033
 40
0.8880427879
 40
0.8935903586
 40
0.8991212977
 40
0.904639241
 40
0.9101478686
 40
0.9156508903
 40
0.9211520358
 40
0.9266550404
 40
0.9321636335
 40
0.9376815255
 40
0.9432123964
 40
0.948759882
 40
0.9543275658
 40
0.9599189628
 40
0.9655375161
 40
0.9711865792
 40
0.9768694157
 40
0.9825891837
 40
0.988348934
 40
0.994151602
 40
1.0
 40
1.0
 40
1.0
 40
1.0
 10
15.1518225484
 20
13.7184725725
 30
0.0
 10
15.1673353528
 20
13.7184725725
 30
0.0
 10
15.1985367943
 20
13.7180871843
 30
0.0
 10
15.2455599129
 20
13.7163775692
 30
0.0
 10
15.2930163894
 20
13.7135352574
 30
0.0
 10
15.3408429421
 20
13.7095640798
 30
0.0
 10
15.3889764901
 20
13.7044692497
 30
0.0
 10
15.4373532681
 20
13.6982575378
 30
0.0
 10
15.4859092813
 20
13.6909371543
 30
0.0
 10
15.5345802632
 20
13.6825177923
 30
0.0
 10
15.583301801
 20
13.673010593
 30
0.0
 10
15.6320094098
 20
13.6624281386
 30
0.0
 10
15.6806386218
 20
13.6507844365
 30
0.0
 10
15.7291250718
 20
13.6380948993
 30
0.0
 10
15.7774045821
 20
13.6243763238
 30
0.0
 10
15.8254132489
 20
13.6096468685
 30
0.0
 10
15.8730875263
 20
13.5939260301
 30
0.0
 10
15.9203643112
 20
13.5772346169
 30
0.0
 10
15.967181027
 20
13.5595947216
 30
0.0
 10
16.0134757068
 20
13.5410296918
 30
0.0
 10
16.0591870753
 20
13.5215640985
 30
0.0
 10
16.1042546319
 20
13.5012237049
 30
0.0
 10
16.1486187304
 20
13.4800354319
 30
0.0
 10
16.1922206582
 20
13.4580273201
 30
0.0
 10
16.2350027141
 20
13.4352284929
 30
0.0
 10
16.2769082844
 20
13.411669117
 30
0.0
 10
16.3178819186
 20
13.3873803615
 30
0.0
 10
16.3578694019
 20
13.3623943569
 30
0.0
 10
16.3968178279
 20
13.3367441505
 30
0.0
 10
16.4346756678
 20
13.3104636624
 30
0.0
 10
16.4713928394
 20
13.2835876393
 30
0.0
 10
16.5069207742
 20
13.2561516092
 30
0.0
 10
16.5412124798
 20
13.2281918303
 30
0.0
 10
16.5742226005
 20
13.1997452419
 30
0.0
 10
16.6059074765
 20
13.1708494137
 30
0.0
 10
16.6362251993
 20
13.141542495
 30
0.0
 10
16.6651356656
 20
13.1118631616
 30
0.0
 10
16.692600627
 20
13.0818505637
 30
0.0
 10
16.7185837373
 20
13.051544272
 30
0.0
 10
16.7430505963
 20
13.0209842241
 30
0.0
 10
16.7659687931
 20
12.9902106717
 30
0.0
 10
16.7873079388
 20
12.9592641303
 30
0.0
 10
16.8070397056
 20
12.9281853103
 30
0.0
 10
16.8251378315
 20
12.8970151269
 30
0.0
 10
16.8415782329
 20
12.8657944331
 30
0.0
 10
16.8563387147
 20
12.8345647641
 30
0.0
 10
16.8672797481
 20
12.8084303024
 30
0.0
 10
16.8751589845
 20
12.7875637862
 30
0.0
 10
16.8823855303
 20
12.7669422995
 30
0.0
 10
16.8903543994
 20
12.7412291858
 30
0.0
 10
16.8969390626
 20
12.7153945816
 30
0.0
 10
16.9013140497
 20
12.6948361725
 30
0.0
 10
16.9041400389
 20
12.6795431945
 30
0.0
 10
16.9065249229
 20
12.6643100704
 30
0.0
 10
16.9084678822
 20
12.6491417346
 30
0.0
 10
16.9099683098
 20
12.6340432566
 30
0.0
 10
16.911025601
 20
12.6190196287
 30
0.0
 10
16.9116394846
 20
12.6040758505
 30
0.0
 10
16.9118096359
 20
12.589216879
 30
0.0
 10
16.9115360692
 20
12.5744476571
 30
0.0
 10
16.9108187899
 20
12.5597730948
 30
0.0
 10
16.909658058
 20
12.5451980753
 30
0.0
 10
16.9080542404
 20
12.5307274487
 30
0.0
 10
16.9060078272
 20
12.5163660387
 30
0.0
 10
16.9035195499
 20
12.50211862
 30
0.0
 10
16.9005901415
 20
12.4879899557
 30
0.0
 10
16.8972206718
 20
12.473984734
 30
0.0
 10
16.893412155
 20
12.4601076474
 30
0.0
 10
16.8891659524
 20
12.4463632967
 30
0.0
 10
16.8844834052
 20
12.4327562841
 30
0.0
 10
16.8793661225
 20
12.4192911293
 30
0.0
 10
16.8738158001
 20
12.4059723212
 30
0.0
 10
16.8678342757
 20
12.3928043045
 30
0.0
 10
16.8614235984
 20
12.3797914374
 30
0.0
 10
16.854585842
 20
12.3669380859
 30
0.0
 10
16.8473233813
 20
12.3542484748
 30
0.0
 10
16.8396385554
 20
12.3417268732
 30
0.0
 10
16.83153402
 20
12.3293773853
 30
0.0
 10
16.8230124152
 20
12.3172041511
 30
0.0
 10
16.8140766418
 20
12.3052111827
 30
0.0
 10
16.8047296378
 20
12.2934024356
 30
0.0
 10
16.7949746188
 20
12.2817819425
 30
0.0
 10
16.7882287123
 20
12.2741936555
 30
0.0
 10
16.7847904605
 20
12.2704326199
 30
0.0
  0
SPLINE
  5
2E5
100
AcDbEntity
  8
LAYER_FEATURE
100
AcDbSpline
 62
7
  6
CONTINUOUS
 70
0
 71
3
 72
15
 73
11
 74
0
 42
0.0000001
 43
0.0000001
 44
0.0000000001
 40
0.0
 40
0.0
 40
0.0
 40
0.0
 40
0.1172630861
 40
0.2353348866
 40
0.3549978486
 40
0.4769828817
 40
0.6019439372
 40
0.7304611303
 40
0.8630327922
 40
1.0
 40
1.0
 40
1.0
 40
1.0
 10
16.8136567415
 20
12.8271412005
 30
0.0
 10
16.813768385
 20
12.8275024966
 30
0.0
 10
16.8139555983
 20
12.8282395524
 30
0.0
 10
16.8141239882
 20
12.8293737541
 30
0.0
 10
16.8141799941
 20
12.8305343066
 30
0.0
 10
16.8141234299
 20
12.8317169373
 30
0.0
 10
16.813954765
 20
12.8329175624
 30
0.0
 10
16.8136746628
 20
12.8341321215
 30
0.0
 10
16.8132842543
 20
12.835356331
 30
0.0
 10
16.812957014
 20
12.8361626064
 30
0.0
 10
16.8127765385
 20
12.8365657475
 30
0.0
  0
SPLINE
  5
2E6
100
AcDbEntity
  8
LAYER_FEATURE
100
AcDbSpline
 62
7
  6
CONTINUOUS
 70
0
 71
3
 72
12
 73
8
 74
0
 42
0.0000001
 43
0.0000001
 44
0.0000000001
 40
0.0
 40
0.0
 40
0.0
 40
0.0
 40
0.2722656276
 40
0.5289321485
 40
0.6517520725
 40
0.7710866163
 40
1.0
 40
1.0
 40
1.0
 40
1.0
 10
16.1397049463
 20
11.7642041655
 30
0.0
 10
16.1386886737
 20
11.7629866118
 30
0.0
 10
16.1366337211
 20
11.760686794
 30
0.0
 10
16.1338876382
 20
11.7580585608
 30
0.0
 10
16.1316580084
 20
11.7561937492
 30
0.0
 10
16.129472863
 20
11.7545330909
 30
0.0
 10
16.1277684046
 20
11.7534242828
 30
0.0
 10
16.1266114421
 20
11.7527613643
 30
0.0
  0
SPLINE
  5
2E7
100
AcDbEntity
  8
LAYER_FEATURE
100
AcDbSpline
 62
7
  6
CONTINUOUS
 70
0
 71
3
 72
15
 73
11
 74
0
 42
0.0000001
 43
0.0000001
 44
0.0000000001
 40
0.0
 40
0.0
 40
0.0
 40
0.0
 40
0.127122659
 40
0.2542559504
 40
0.3810862211
 40
0.5073018808
 40
0.6325967593
 40
0.7566684183
 40
0.879232076
 40
1.0
 40
1.0
 40
1.0
 40
1.0
 10
16.7690211414
 20
12.6827157845
 30
0.0
 10
16.7712712099
 20
12.6819309157
 30
0.0
 10
16.7757992422
 20
12.6804392948
 30
0.0
 10
16.782659088
 20
12.6784403107
 30
0.0
 10
16.7895678587
 20
12.6766850212
 30
0.0
 10
16.7965001441
 20
12.675179885
 30
0.0
 10
16.803430534
 20
12.6739304311
 30
0.0
 10
16.8103337449
 20
12.6729411804
 30
0.0
 10
16.8171842702
 20
12.6722158459
 30
0.0
 10
16.8217366421
 20
12.6719074435
 30
0.0
 10
16.8239979453
 20
12.6717989622
 30
0.0
  0
SPLINE
  5
2E8
100
AcDbEntity
  8
LAYER_FEATURE
100
AcDbSpline
 62
7
  6
CONTINUOUS
 70
0
 71
3
 72
18
 73
14
 74
0
 42
0.0000001
 43
0.0000001
 44
0.0000000001
 40
0.0
 40
0.0
 40
0.0
 40
0.0
 40
0.0542590183
 40
0.1087621885
 40
0.1637483274
 40
0.219445774
 40
0.2760682684
 40
0.3338111709
 40
0.453266872
 40
0.5790187674
 40
0.7118290101
 40
0.8521195316
 40
1.0
 40
1.0
 40
1.0
 40
1.0
 10
16.6628313345
 20
13.0556619928
 30
0.0
 10
16.6629213546
 20
13.0559533089
 30
0.0
 10
16.6630778853
 20
13.0565449506
 30
0.0
 10
16.6632398883
 20
13.0574517391
 30
0.0
 10
16.6633290478
 20
13.058376719
 30
0.0
 10
16.6633451677
 20
13.0593176947
 30
0.0
 10
16.6632882546
 20
13.0602725958
 30
0.0
 10
16.6631133658
 20
13.0615758778
 30
0.0
 10
16.6627058189
 20
13.0632347516
 30
0.0
 10
16.6619367319
 20
13.0652203116
 30
0.0
 10
16.6608900504
 20
13.0672073641
 30
0.0
 10
16.6595757863
 20
13.0691787323
 30
0.0
 10
16.6585552589
 20
13.0704392098
 30
0.0
 10
16.6580064686
 20
13.0710632369
 30
0.0
  0
SPLINE
  5
2E9
100
AcDbEntity
  8
LAYER_FEATURE
100
AcDbSpline
 62
7
  6
CONTINUOUS
 70
0
 71
3
 72
23
 73
19
 74
0
 42
0.0000001
 43
0.0000001
 44
0.0000000001
 40
0.0
 40
0.0
 40
0.0
 40
0.0
 40
0.0621373353
 40
0.1252713321
 40
0.1892087332
 40
0.2537481058
 40
0.3186820292
 40
0.3837992191
 40
0.4488866126
 40
0.5137314349
 40
0.578123271
 40
0.6418561538
 40
0.704730722
 40
0.7665563716
 40
0.8271537382
 40
0.8863566548
 40
0.9440159374
 40
1.0
 40
1.0
 40
1.0
 40
1.0
 10
16.6227550141
 20
12.9260617172
 30
0.0
 10
16.6249973827
 20
12.9247082983
 30
0.0
 10
16.6295801922
 20
12.9220813464
 30
0.0
 10
16.6366659305
 20
12.9184160288
 30
0.0
 10
16.6439908714
 20
12.9150080305
 30
0.0
 10
16.6515192766
 20
12.9118739957
 30
0.0
 10
16.6592146487
 20
12.9090291101
 30
0.0
 10
16.667039609
 20
12.9064871947
 30
0.0
 10
16.6749561646
 20
12.9042605908
 30
0.0
 10
16.6829258731
 20
12.9023601108
 30
0.0
 10
16.6909100393
 20
12.9007949821
 30
0.0
 10
16.6988699056
 20
12.8995728025
 30
0.0
 10
16.7067668406
 20
12.8986995078
 30
0.0
 10
16.7145625463
 20
12.8981793378
 30
0.0
 10
16.7222191951
 20
12.898014833
 30
0.0
 10
16.7296997936
 20
12.8982068136
 30
0.0
 10
16.7369678008
 20
12.8987543656
 30
0.0
 10
16.7417218133
 20
12.8993642023
 30
0.0
 10
16.744052982
 20
12.8997305913
 30
0.0
  0
SPLINE
  5
2EA
100
AcDbEntity
  8
LAYER_FEATURE
100
AcDbSpline
 62
7
  6
CONTINUOUS
 70
0
 71
3
 72
23
 73
19
 74
0
 42
0.0000001
 43
0.0000001
 44
0.0000000001
 40
0.0
 40
0.0
 40
0.0
 40
0.0
 40
0.0501516772
 40
0.1007312062
 40
0.1521486207
 40
0.2047807807
 40
0.2589598836
 40
0.3149654871
 40
0.3730218247
 40
0.4332980614
 40
0.4959096733
 40
0.560922749
 40
0.6283586192
 40
0.6981980363
 40
0.7703832737
 40
0.8448256604
 40
0.9214194217
 40
1.0
 40
1.0
 40
1.0
 40
1.0
 10
16.4263281628
 20
13.2675708871
 30
0.0
 10
16.4264524495
 20
13.2679730884
 30
0.0
 10
16.4266563645
 20
13.2687958569
 30
0.0
 10
16.426822562
 20
13.2700646484
 30
0.0
 10
16.4268492209
 20
13.2713648573
 30
0.0
 10
16.4267364186
 20
13.2726905455
 30
0.0
 10
16.4264849064
 20
13.2740360438
 30
0.0
 10
16.4260960609
 20
13.2753956551
 30
0.0
 10
16.4255717711
 20
13.2767637362
 30
0.0
 10
16.4249143926
 20
13.2781346363
 30
0.0
 10
16.4241268396
 20
13.2795027416
 30
0.0
 10
16.4232124968
 20
13.280862446
 30
0.0
 10
16.4221752112
 20
13.2822081508
 30
0.0
 10
16.4210193637
 20
13.2835343163
 30
0.0
 10
16.4197498203
 20
13.284835465
 30
0.0
 10
16.418371808
 20
13.2861062524
 30
0.0
 10
16.4168911827
 20
13.2873412789
 30
0.0
 10
16.4158523712
 20
13.2881279278
 30
0.0
 10
16.4153178306
 20
13.2885143634
 30
0.0
  0
SPLINE
  5
2EB
100
AcDbEntity
  8
02___PRT_ALL_AXES
100
AcDbSpline
 62
7
  6
CONTINUOUS
 70
0
 71
3
 72
44
 73
40
 74
0
 42
0.0000001
 43
0.0000001
 44
0.0000000001
 40
0.0
 40
0.0
 40
0.0
 40
0.0
 40
0.0396648975
 40
0.0788616504
 40
0.1175677681
 40
0.1557619011
 40
0.1934243024
 40
0.2305368071
 40
0.2670829774
 40
0.3030482201
 40
0.3384199134
 40
0.3731875407
 40
0.4073428317
 40
0.4408799078
 40
0.4737954319
 40
0.5060887641
 40
0.5377621212
 40
0.5688207396
 40
0.5992730353
 40
0.6291307593
 40
0.6584091458
 40
0.6728376812
 40
0.6871287672
 40
0.7153087688
 40
0.7429772731
 40
0.7701645473
 40
0.7969047232
 40
0.823235741
 40
0.8491992261
 40
0.8748402873
 40
0.9002072358
 40
0.9128050758
 40
0.9253537819
 40
0.9378601146
 40
0.9503309528
 40
0.9627732742
 40
0.9751941363
 40
0.9876006583
 40
1.0
 40
1.0
 40
1.0
 40
1.0
 10
14.9335392631
 20
12.2994420685
 30
0.0
 10
14.9239223395
 20
12.2994420685
 30
0.0
 10
14.9048012337
 20
12.2992264311
 30
0.0
 10
14.8763108752
 20
12.2982435263
 30
0.0
 10
14.848207684
 20
12.2966041385
 30
0.0
 10
14.8205235407
 20
12.294310097
 30
0.0
 10
14.7932896483
 20
12.2913639793
 30
0.0
 10
14.7665367405
 20
12.2877690883
 30
0.0
 10
14.7402949927
 20
12.2835294583
 30
0.0
 10
14.7145940042
 20
12.2786498436
 30
0.0
 10
14.6894627604
 20
12.273135713
 30
0.0
 10
14.6649296024
 20
12.2669932419
 30
0.0
 10
14.6410221951
 20
12.2602293058
 30
0.0
 10
14.6177674964
 20
12.252851472
 30
0.0
 10
14.5951917298
 20
12.2448679866
 30
0.0
 10
14.5733203588
 20
12.2362877659
 30
0.0
 10
14.5521780536
 20
12.2271203793
 30
0.0
 10
14.5317886931
 20
12.2173760599
 30
0.0
 10
14.5121752408
 20
12.2070656237
 30
0.0
 10
14.4933600925
 20
12.1962007004
 30
0.0
 10
14.4782908161
 20
12.1866483169
 30
0.0
 10
14.4666630958
 20
12.1787388301
 30
0.0
 10
14.4554281761
 20
12.1707313607
 30
0.0
 10
14.4419112491
 20
12.1604018099
 30
0.0
 10
14.4264924998
 20
12.1474453627
 30
0.0
 10
14.411969081
 20
12.1340006026
 30
0.0
 10
14.3983578246
 20
12.1200826828
 30
0.0
 10
14.3856743598
 20
12.1057071871
 30
0.0
 10
14.3739333028
 20
12.0908901848
 30
0.0
 10
14.3631484587
 20
12.0756487557
 30
0.0
 10
14.3549490285
 20
12.0625771792
 30
0.0
 10
14.3488880711
 20
12.0519332793
 30
0.0
 10
14.3445984523
 20
12.0438732852
 30
0.0
 10
14.3405561758
 20
12.0357208659
 30
0.0
 10
14.3367623311
 20
12.0274782636
 30
0.0
 10
14.3332180176
 20
12.0191478422
 30
0.0
 10
14.329924239
 20
12.0107319325
 30
0.0
 10
14.3268819533
 20
12.0022330273
 30
0.0
 10
14.3250217571
 20
11.9965125709
 30
0.0
 10
14.3241341621
 20
11.993640315
 30
0.0
  0
SPLINE
  5
2EC
100
AcDbEntity
  8
LAYER_FEATURE
100
AcDbSpline
 62
7
  6
CONTINUOUS
 70
0
 71
3
 72
39
 73
35
 74
0
 42
0.0000001
 43
0.0000001
 44
0.0000000001
 40
0.0
 40
0.0
 40
0.0
 40
0.0
 40
0.0286694367
 40
0.0580533923
 40
0.088116344
 40
0.1188174051
 40
0.1501109147
 40
0.1819469505
 40
0.2142718351
 40
0.2470286773
 40
0.2801578254
 40
0.3135972807
 40
0.3472831367
 40
0.3811500225
 40
0.4151314919
 40
0.4491604109
 40
0.4831693742
 40
0.5170911007
 40
0.5508588098
 40
0.5844066307
 40
0.6176700239
 40
0.6505861731
 40
0.6830943918
 40
0.7151365989
 40
0.7466577787
 40
0.7776064208
 40
0.8079350207
 40
0.8376006853
 40
0.8665656338
 40
0.8947979174
 40
0.922271944
 40
0.9489687725
 40
0.9748797151
 40
1.0
 40
1.0
 40
1.0
 40
1.0
 10
16.3946021217
 20
13.1650293229
 30
0.0
 10
16.3958750109
 20
13.16375789
 30
0.0
 10
16.3985113795
 20
13.1612416415
 30
0.0
 10
16.4026718328
 20
13.1575969376
 30
0.0
 10
16.4070763356
 20
13.1540444284
 30
0.0
 10
16.4117118469
 20
13.1505946321
 30
0.0
 10
16.4165647838
 20
13.1472576412
 30
0.0
 10
16.4216208828
 20
13.1440432642
 30
0.0
 10
16.4268652778
 20
13.1409609276
 30
0.0
 10
16.4322825512
 20
13.1380196875
 30
0.0
 10
16.4378567805
 20
13.1352281968
 30
0.0
 10
16.4435715747
 20
13.1325946674
 30
0.0
 10
16.4494101197
 20
13.130126833
 30
0.0
 10
16.4553552418
 20
13.127831952
 30
0.0
 10
16.4613894562
 20
13.1257167852
 30
0.0
 10
16.4674950103
 20
13.1237875562
 30
0.0
 10
16.4736539385
 20
13.1220499301
 30
0.0
 10
16.479848122
 20
13.1205090188
 30
0.0
 10
16.4860593413
 20
13.1191693668
 30
0.0
 10
16.4922693243
 20
13.118034913
 30
0.0
 10
16.4984598046
 20
13.1171089844
 30
0.0
 10
16.5046125775
 20
13.1163943054
 30
0.0
 10
16.5107095528
 20
13.1158929924
 30
0.0
 10
16.5167328071
 20
13.1156065167
 30
0.0
 10
16.5226646408
 20
13.1155357162
 30
0.0
 10
16.528487628
 20
13.1156808082
 30
0.0
 10
16.534184668
 20
13.1160413922
 30
0.0
 10
16.5397390375
 20
13.1166164206
 30
0.0
 10
16.5451344452
 20
13.1174042184
 30
0.0
 10
16.5503550768
 20
13.1184025187
 30
0.0
 10
16.5553855788
 20
13.1196084555
 30
0.0
 10
16.560211366
 20
13.121018552
 30
0.0
 10
16.5648179648
 20
13.1226287268
 30
0.0
 10
16.5677799744
 20
13.123851452
 30
0.0
 10
16.5692184738
 20
13.1244962094
 30
0.0
  0
SPLINE
  5
2ED
100
AcDbEntity
  8
LAYER_FEATURE
100
AcDbSpline
 62
7
  6
CONTINUOUS
 70
0
 71
3
 72
27
 73
23
 74
0
 42
0.0000001
 43
0.0000001
 44
0.0000000001
 40
0.0
 40
0.0
 40
0.0
 40
0.0
 40
0.0234084126
 40
0.0468985055
 40
0.0705505444
 40
0.0944420787
 40
0.143206484
 40
0.1937472415
 40
0.2198325759
 40
0.2465133082
 40
0.2738260658
 40
0.301801068
 40
0.3598094015
 40
0.4206730295
 40
0.4844200237
 40
0.5510012877
 40
0.6203010732
 40
0.6921464023
 40
0.7663171266
 40
0.8425491205
 40
0.9205538464
 40
1.0
 40
1.0
 40
1.0
 40
1.0
 10
16.1233073066
 20
13.4457002851
 30
0.0
 10
16.1233865226
 20
13.4459566292
 30
0.0
 10
16.1235267256
 20
13.4464761427
 30
0.0
 10
16.1236807618
 20
13.4472706454
 30
0.0
 10
16.1237784949
 20
13.448079654
 30
0.0
 10
16.1238339017
 20
13.4491829013
 30
0.0
 10
16.1237583673
 20
13.4505974932
 30
0.0
 10
16.1234971294
 20
13.4520146462
 30
0.0
 10
16.1231806954
 20
13.4531562116
 30
0.0
 10
16.1228855549
 20
13.4540258473
 30
0.0
 10
16.1225356653
 20
13.4548982567
 30
0.0
 10
16.1219903927
 20
13.4560773569
 30
0.0
 10
16.1211705048
 20
13.4575504586
 30
0.0
 10
16.1199921487
 20
13.4592833596
 30
0.0
 10
16.1186156244
 20
13.4609913557
 30
0.0
 10
16.1170503971
 20
13.4626629766
 30
0.0
 10
16.1153070715
 20
13.464287115
 30
0.0
 10
16.1133974645
 20
13.4658528864
 30
0.0
 10
16.1113345212
 20
13.4673497217
 30
0.0
 10
16.1091321827
 20
13.4687675849
 30
0.0
 10
16.106805482
 20
13.4700967558
 30
0.0
 10
16.1051942227
 20
13.4709115773
 30
0.0
 10
16.1043718147
 20
13.4713025299
 30
0.0
  0
SPLINE
  5
2EE
100
AcDbEntity
  8
LAYER_FEATURE
100
AcDbSpline
 62
7
  6
CONTINUOUS
 70
0
 71
3
 72
39
 73
35
 74
0
 42
0.0000001
 43
0.0000001
 44
0.0000000001
 40
0.0
 40
0.0
 40
0.0
 40
0.0
 40
0.0255617124
 40
0.0522416599
 40
0.0800537665
 40
0.1089873351
 40
0.1390100134
 40
0.1700705619
 40
0.2021013793
 40
0.2350207885
 40
0.2687351096
 40
0.3031405529
 40
0.3381249667
 40
0.373569471
 40
0.4093500048
 40
0.4453388093
 40
0.4814058694
 40
0.5174203289
 40
0.5532518964
 40
0.5887722579
 40
0.6238565114
 40
0.6583846405
 40
0.6922430475
 40
0.7253261682
 40
0.7575381945
 40
0.7887949368
 40
0.8190258588
 40
0.8481763189
 40
0.8762100477
 40
0.9031118711
 40
0.9288906381
 40
0.9535822778
 40
0.9772526522
 40
1.0
 40
1.0
 40
1.0
 40
1.0
 10
16.1028385291
 20
13.379607153
 30
0.0
 10
16.1037472778
 20
13.3777712864
 30
0.0
 10
16.1057728402
 20
13.3741006753
 30
0.0
 10
16.1093152888
 20
13.3687449785
 30
0.0
 10
16.1134069457
 20
13.3634505367
 30
0.0
 10
16.1180253773
 20
13.3582458439
 30
0.0
 10
16.123145823
 20
13.3531582575
 30
0.0
 10
16.1287407729
 20
13.3482148447
 30
0.0
 10
16.1347802211
 20
13.3434419323
 30
0.0
 10
16.1412317633
 20
13.3388650254
 30
0.0
 10
16.1480607709
 20
13.3345086288
 30
0.0
 10
16.1552305678
 20
13.3303961059
 30
0.0
 10
16.1627026271
 20
13.3265495383
 30
0.0
 10
16.1704367789
 20
13.3229895976
 30
0.0
 10
16.1783914288
 20
13.3197354266
 30
0.0
 10
16.186523785
 20
13.3168045305
 30
0.0
 10
16.1947900926
 20
13.3142126789
 30
0.0
 10
16.203145873
 20
13.3119738178
 30
0.0
 10
16.211546168
 20
13.310099993
 30
0.0
 10
16.2199457867
 20
13.3086012855
 30
0.0
 10
16.2282995545
 20
13.3074857574
 30
0.0
 10
16.2365625611
 20
13.3067594115
 30
0.0
 10
16.2446904091
 20
13.3064261633
 30
0.0
 10
16.2526394591
 20
13.3064878272
 30
0.0
 10
16.2603670697
 20
13.3069441172
 30
0.0
 10
16.2678318325
 20
13.3077926637
 30
0.0
 10
16.274993795
 20
13.3090290473
 30
0.0
 10
16.2818146723
 20
13.3106468522
 30
0.0
 10
16.2882580294
 20
13.3126377294
 30
0.0
 10
16.2942894649
 20
13.3149915081
 30
0.0
 10
16.2998766452
 20
13.3176961955
 30
0.0
 10
16.3049896747
 20
13.3207383837
 30
0.0
 10
16.3096000535
 20
13.3241021649
 30
0.0
 10
16.3123728486
 20
13.3265942608
 30
0.0
 10
16.3136584728
 20
13.327886643
 30
0.0
  0
SPLINE
  5
2EF
100
AcDbEntity
  8
LAYER_FEATURE
100
AcDbSpline
 62
7
  6
CONTINUOUS
 70
0
 71
3
 72
27
 73
23
 74
0
 42
0.0000001
 43
0.0000001
 44
0.0000000001
 40
0.0
 40
0.0
 40
0.0
 40
0.0
 40
0.0222293196
 40
0.0445737683
 40
0.0671444761
 40
0.0900471475
 40
0.113380014
 40
0.1372320355
 40
0.1616810421
 40
0.1867938279
 40
0.2391933313
 40
0.2947671991
 40
0.3536547669
 40
0.4158504531
 40
0.4812262411
 40
0.5495524884
 40
0.6205162787
 40
0.6937375302
 40
0.7687830076
 40
0.8451795779
 40
0.9224246732
 40
1.0
 40
1.0
 40
1.0
 40
1.0
 10
15.7783177224
 20
13.5756191996
 30
0.0
 10
15.778414057
 20
13.5759309389
 30
0.0
 10
15.7785798131
 20
13.5765648811
 30
0.0
 10
15.7787449895
 20
13.5775376935
 30
0.0
 10
15.7788266993
 20
13.578530998
 30
0.0
 10
15.7788246685
 20
13.5795420901
 30
0.0
 10
15.7787390586
 20
13.5805683702
 30
0.0
 10
15.7785701114
 20
13.5816071841
 30
0.0
 10
15.7783183788
 20
13.5826559406
 30
0.0
 10
15.7778669483
 20
13.5840839347
 30
0.0
 10
15.7770901234
 20
13.5858825912
 30
0.0
 10
15.7758571478
 20
13.5880044468
 30
0.0
 10
15.7743232969
 20
13.5901004883
 30
0.0
 10
15.7725043057
 20
13.5921502338
 30
0.0
 10
15.770418383
 20
13.5941338873
 30
0.0
 10
15.7680863472
 20
13.5960319674
 30
0.0
 10
15.7655314511
 20
13.5978257261
 30
0.0
 10
15.7627791986
 20
13.5994973335
 30
0.0
 10
15.7598571134
 20
13.6010301155
 30
0.0
 10
15.7567944119
 20
13.6024087436
 30
0.0
 10
15.7536219187
 20
13.6036193789
 30
0.0
 10
15.7514542838
 20
13.6043065703
 30
0.0
 10
15.7503594176
 20
13.6046193263
 30
0.0
  0
SPLINE
  5
2F0
100
AcDbEntity
  8
LAYER_FEATURE
100
AcDbSpline
 62
7
  6
CONTINUOUS
 70
0
 71
3
 72
15
 73
11
 74
0
 42
0.0000001
 43
0.0000001
 44
0.0000000001
 40
0.0
 40
0.0
 40
0.0
 40
0.0
 40
0.1112018751
 40
0.2257455653
 40
0.3439879465
 40
0.4662391023
 40
0.5927634058
 40
0.7237832325
 40
0.859479959
 40
1.0
 40
1.0
 40
1.0
 40
1.0
 10
16.1240618039
 20
12.0742106719
 30
0.0
 10
16.1247460172
 20
12.0738931274
 30
0.0
 10
16.1261124196
 20
12.0731987619
 30
0.0
 10
16.1281191154
 20
12.0720051113
 30
0.0
 10
16.1301092833
 20
12.0706463082
 30
0.0
 10
16.1320807928
 20
12.069123916
 30
0.0
 10
16.1340317425
 20
12.0674395826
 30
0.0
 10
16.1359601637
 20
12.0655950624
 30
0.0
 10
16.137864139
 20
12.0635923695
 30
0.0
 10
16.1390941476
 20
12.0621781081
 30
0.0
 10
16.1397049458
 20
12.061446343
 30
0.0
  0
SPLINE
  5
2F1
100
AcDbEntity
  8
LAYER_FEATURE
100
AcDbSpline
 62
7
  6
CONTINUOUS
 70
0
 71
3
 72
61
 73
57
 74
0
 42
0.0000001
 43
0.0000001
 44
0.0000000001
 40
0.0
 40
0.0
 40
0.0
 40
0.0
 40
0.0113954564
 40
0.0229996886
 40
0.0348488783
 40
0.0469750027
 40
0.0721518101
 40
0.0852561314
 40
0.0987209679
 40
0.1125565355
 40
0.126769259
 40
0.1413619002
 40
0.1563338801
 40
0.1716815747
 40
0.1873984384
 40
0.20347536
 40
0.2199008459
 40
0.2366611652
 40
0.2537406615
 40
0.271121845
 40
0.2887855807
 40
0.3067113135
 40
0.3248771286
 40
0.3618319691
 40
0.3994581154
 40
0.4375473717
 40
0.475883408
 40
0.5142456494
 40
0.5524130762
 40
0.5901680047
 40
0.6272999561
 40
0.6636096344
 40
0.6814000336
 40
0.6989174509
 40
0.7161420259
 40
0.7330555009
 40
0.7496413224
 40
0.7658847997
 40
0.7817733965
 40
0.7972968154
 40
0.8124472684
 40
0.8272197514
 40
0.8416121665
 40
0.8556256905
 40
0.8692649918
 40
0.8825384206
 40
0.8954583805
 40
0.908041445
 40
0.9203085395
 40
0.9322851021
 40
0.9440010211
 40
0.9554905758
 40
0.9667919021
 40
0.9779469168
 40
0.989001265
 40
1.0
 40
1.0
 40
1.0
 40
1.0
 10
15.7709729004
 20
13.5521056293
 30
0.0
 10
15.7709630124
 20
13.5510236043
 30
0.0
 10
15.7710273166
 20
13.548838126
 30
0.0
 10
15.7713694458
 20
13.545543999
 30
0.0
 10
15.7719570626
 20
13.5422140668
 30
0.0
 10
15.7730796001
 20
13.5376808176
 30
0.0
 10
15.7746863498
 20
13.5331565832
 30
0.0
 10
15.7767253221
 20
13.5286841811
 30
0.0
 10
15.7785085249
 20
13.5252847446
 30
0.0
 10
15.780520959
 20
13.52189329
 30
0.0
 10
15.7827584136
 20
13.5185167088
 30
0.0
 10
15.7852160103
 20
13.5151622503
 30
0.0
 10
15.7878884597
 20
13.5118370057
 30
0.0
 10
15.7907700532
 20
13.5085480826
 30
0.0
 10
15.7938545838
 20
13.5053024575
 30
0.0
 10
15.7971354495
 20
13.5021070546
 30
0.0
 10
15.8006056387
 20
13.49896871
 30
0.0
 10
15.8042576946
 20
13.4958940955
 30
0.0
 10
15.808083813
 20
13.492889803
 30
0.0
 10
15.812075802
 20
13.4899622559
 30
0.0
 10
15.816225086
 20
13.4871177027
 30
0.0
 10
15.8205228337
 20
13.4843622313
 30
0.0
 10
15.8264723407
 20
13.480794834
 30
0.0
 10
15.8342222806
 20
13.4766004436
 30
0.0
 10
15.8439062896
 20
13.4720402471
 30
0.0
 10
15.8539451402
 20
13.4679632107
 30
0.0
 10
15.8642529298
 20
13.4644042297
 30
0.0
 10
15.8747417509
 20
13.461393639
 30
0.0
 10
15.8853220409
 20
13.458957148
 30
0.0
 10
15.8959036034
 20
13.4571155498
 30
0.0
 10
15.9063958989
 20
13.4558845852
 30
0.0
 10
15.9150494257
 20
13.4553728574
 30
0.0
 10
15.9218502861
 20
13.4552832143
 30
0.0
 10
15.9268386182
 20
13.4553737763
 30
0.0
 10
15.9317382491
 20
13.4556214942
 30
0.0
 10
15.9365387393
 20
13.4560258246
 30
0.0
 10
15.9412298029
 20
13.4565859081
 30
0.0
 10
15.9458014032
 20
13.4573005906
 30
0.0
 10
15.9502437659
 20
13.4581683206
 30
0.0
 10
15.9545473899
 20
13.4591872865
 30
0.0
 10
15.9587030709
 20
13.4603553498
 30
0.0
 10
15.9627019348
 20
13.4616700157
 30
0.0
 10
15.9665354209
 20
13.4631285606
 30
0.0
 10
15.9701953318
 20
13.464727912
 30
0.0
 10
15.9736738396
 20
13.4664647051
 30
0.0
 10
15.9769634602
 20
13.4683353565
 30
0.0
 10
15.9800571335
 20
13.4703359284
 30
0.0
 10
15.9829481747
 20
13.4724622571
 30
0.0
 10
15.9856302754
 20
13.4747099331
 30
0.0
 10
15.9880975972
 20
13.4770742076
 30
0.0
 10
15.9903446676
 20
13.4795501352
 30
0.0
 10
15.9923664434
 20
13.4821324719
 30
0.0
 10
15.9941584112
 20
13.4848156174
 30
0.0
 10
15.9957165004
 20
13.4875939266
 30
0.0
 10
15.9970369673
 20
13.4904609852
 30
0.0
 10
15.9977578995
 20
13.4924299295
 30
0.0
 10
15.9980769304
 20
13.4934244086
 30
0.0
  0
SPLINE
  5
2F2
100
AcDbEntity
  8
02___PRT_ALL_AXES
100
AcDbSpline
 62
7
  6
CONTINUOUS
 70
0
 71
3
 72
23
 73
19
 74
0
 42
0.0000001
 43
0.0000001
 44
0.0000000001
 40
0.0
 40
0.0
 40
0.0
 40
0.0
 40
0.0532415725
 40
0.1065994022
 40
0.1603625702
 40
0.2148140335
 40
0.2702251762
 40
0.3268512221
 40
0.3849275316
 40
0.4446668498
 40
0.5062579895
 40
0.5698648624
 40
0.6356269257
 40
0.7036595172
 40
0.7740528978
 40
0.8468780854
 40
0.9221886169
 40
1.0
 40
1.0
 40
1.0
 40
1.0
 10
16.1377911164
 20
12.0768252474
 30
0.0
 10
16.138861264
 20
12.0768252442
 30
0.0
 10
16.1410051471
 20
12.0767294198
 30
0.0
 10
16.1442033968
 20
12.0762969476
 30
0.0
 10
16.1473744652
 20
12.0755765988
 30
0.0
 10
16.1505096199
 20
12.0745695407
 30
0.0
 10
16.1536007892
 20
12.0732775623
 30
0.0
 10
16.1566400766
 20
12.0717029947
 30
0.0
 10
16.1596198474
 20
12.0698485535
 30
0.0
 10
16.1625328554
 20
12.0677175842
 30
0.0
 10
16.1653720828
 20
12.0653137624
 30
0.0
 10
16.1681308841
 20
12.0626413036
 30
0.0
 10
16.1708029709
 20
12.0597048981
 30
0.0
 10
16.1733822757
 20
12.0565096433
 30
0.0
 10
16.175863287
 20
12.0530612569
 30
0.0
 10
16.1782407674
 20
12.0493656884
 30
0.0
 10
16.1805097304
 20
12.0454297363
 30
0.0
 10
16.1819240939
 20
12.0426949185
 30
0.0
 10
16.1826131014
 20
12.0412908688
 30
0.0
  0
SPLINE
  5
2F3
100
AcDbEntity
  8
02___PRT_ALL_AXES
100
AcDbSpline
 62
7
  6
CONTINUOUS
 70
0
 71
3
 72
40
 73
36
 74
0
 42
0.0000001
 43
0.0000001
 44
0.0000000001
 40
0.0
 40
0.0
 40
0.0
 40
0.0
 40
0.0248034546
 40
0.049664248
 40
0.0746390663
 40
0.0997833135
 40
0.1251505275
 40
0.1507918574
 40
0.1767556158
 40
0.2030869115
 40
0.2298273685
 40
0.2570149276
 40
0.2846837213
 40
0.3128640179
 40
0.3271552563
 40
0.3415839409
 40
0.3708626359
 40
0.4007206744
 40
0.4311732902
 40
0.4622322343
 40
0.4939059225
 40
0.5261995923
 40
0.5591154628
 40
0.5926528929
 40
0.6268085439
 40
0.6615765358
 40
0.6969485987
 40
0.7329142173
 40
0.7694607716
 40
0.8065736704
 40
0.8442364555
 40
0.8824310358
 40
0.9211374221
 40
0.960334881
 40
1.0
 40
1.0
 40
1.0
 40
1.0
 10
14.445167323
 20
12.38530377
 30
0.0
 10
14.4469428321
 20
12.391049328
 30
0.0
 10
14.4508371001
 20
12.4024520457
 30
0.0
 10
14.4576831377
 20
12.4192140679
 30
0.0
 10
14.4655289791
 20
12.4356242319
 30
0.0
 10
14.474365201
 20
12.4516629279
 30
0.0
 10
14.4841815312
 20
12.4673120358
 30
0.0
 10
14.4949664872
 20
12.4825536885
 30
0.0
 10
14.5067075153
 20
12.4973706289
 30
0.0
 10
14.519390992
 20
12.5117461389
 30
0.0
 10
14.533002247
 20
12.5256640535
 30
0.0
 10
14.547525665
 20
12.5391088158
 30
0.0
 10
14.5629444131
 20
12.5520652627
 30
0.0
 10
14.5764613363
 20
12.5623948191
 30
0.0
 10
14.5876962618
 20
12.5704022798
 30
0.0
 10
14.5993239765
 20
12.5783117752
 30
0.0
 10
14.6143932566
 20
12.587864153
 30
0.0
 10
14.6332084052
 20
12.5987290766
 30
0.0
 10
14.6528218583
 20
12.6090395117
 30
0.0
 10
14.6732112182
 20
12.6187838314
 30
0.0
 10
14.6943535217
 20
12.6279512196
 30
0.0
 10
14.7162248911
 20
12.6365314427
 30
0.0
 10
14.7388006584
 20
12.6445149271
 30
0.0
 10
14.7620553587
 20
12.6518927586
 30
0.0
 10
14.7859627673
 20
12.6586566927
 30
0.0
 10
14.8104959248
 20
12.6647991643
 30
0.0
 10
14.835627167
 20
12.6703132972
 30
0.0
 10
14.8613281543
 20
12.6751929142
 30
0.0
 10
14.8875699027
 20
12.6794325443
 30
0.0
 10
14.9143228093
 20
12.6830274307
 30
0.0
 10
14.9415567109
 20
12.6859735519
 30
0.0
 10
14.9692408297
 20
12.688267583
 30
0.0
 10
14.9973440691
 20
12.6899069896
 30
0.0
 10
15.0258344188
 20
12.6908898782
 30
0.0
 10
15.0449555485
 20
12.6911055233
 30
0.0
 10
15.0545724248
 20
12.6911055233
 30
0.0
  0
SPLINE
  5
2F4
100
AcDbEntity
  8
02___PRT_ALL_AXES
100
AcDbSpline
 62
7
  6
CONTINUOUS
 70
0
 71
3
 72
72
 73
68
 74
0
 42
0.0000001
 43
0.0000001
 44
0.0000000001
 40
0.0
 40
0.0
 40
0.0
 40
0.0
 40
0.0171787517
 40
0.0345304647
 40
0.0520443931
 40
0.0697101079
 40
0.0875164383
 40
0.1054520335
 40
0.1235052196
 40
0.1416640668
 40
0.1599164188
 40
0.178249917
 40
0.196652031
 40
0.2151100848
 40
0.2336112856
 40
0.2521427506
 40
0.2706915347
 40
0.2892446567
 40
0.3077891261
 40
0.3263119704
 40
0.3448002623
 40
0.3632411461
 40
0.381621865
 40
0.399929788
 40
0.4181524382
 40
0.4362775214
 40
0.4542929531
 40
0.472186888
 40
0.4899477485
 40
0.5075642561
 40
0.5250254628
 40
0.5423207814
 40
0.559440018
 40
0.5763734053
 40
0.5931116383
 40
0.6096459119
 40
0.6259679567
 40
0.6420700777
 40
0.6579451952
 40
0.6735868871
 40
0.6889894362
 40
0.704147875
 40
0.7190580337
 40
0.7337165906
 40
0.7481211248
 40
0.7622701734
 40
0.7761632875
 40
0.7898010885
 40
0.8031853264
 40
0.8163189386
 40
0.8292061084
 40
0.8418523217
 40
0.8542644161
 40
0.8603855312
 40
0.866451324
 40
0.878421314
 40
0.8901862084
 40
0.9017586001
 40
0.9131525417
 40
0.9243835152
 40
0.9354683778
 40
0.9464252807
 40
0.9572735599
 40
0.9680335958
 40
0.9787266445
 40
0.989374644
 40
1.0
 40
1.0
 40
1.0
 40
1.0
 10
15.0545724248
 20
12.6911055233
 30
0.0
 10
15.0639063257
 20
12.6911055233
 30
0.0
 10
15.0826687033
 20
12.690900142
 30
0.0
 10
15.1109337623
 20
12.6899875833
 30
0.0
 10
15.1394378383
 20
12.6884698327
 30
0.0
 10
15.1681509615
 20
12.6863485318
 30
0.0
 10
15.1970434075
 20
12.683625849
 30
0.0
 10
15.2260850492
 20
12.6803046337
 30
0.0
 10
15.2552456767
 20
12.6763883394
 30
0.0
 10
15.2844949358
 20
12.6718810471
 30
0.0
 10
15.3138023821
 20
12.6667874496
 30
0.0
 10
15.3431375101
 20
12.6611128479
 30
0.0
 10
15.3724697836
 20
12.6548631459
 30
0.0
 10
15.4017686687
 20
12.648044848
 30
0.0
 10
15.4310036669
 20
12.6406650561
 30
0.0
 10
15.4601443455
 20
12.6327314531
 30
0.0
 10
15.4891603693
 20
12.6242522976
 30
0.0
 10
15.5180215324
 20
12.6152364141
 30
0.0
 10
15.546697789
 20
12.6056931851
 30
0.0
 10
15.5751592885
 20
12.5956325488
 30
0.0
 10
15.6033764035
 20
12.5850649798
 30
0.0
 10
15.631319761
 20
12.5740014787
 30
0.0
 10
15.6589602725
 20
12.5624535611
 30
0.0
 10
15.6862691637
 20
12.5504332438
 30
0.0
 10
15.7132180092
 20
12.537953041
 30
0.0
 10
15.7397787595
 20
12.5250259455
 30
0.0
 10
15.7659237692
 20
12.5116654122
 30
0.0
 10
15.7916258253
 20
12.4978853457
 30
0.0
 10
15.8168581752
 20
12.4837000838
 30
0.0
 10
15.8415945579
 20
12.4691243877
 30
0.0
 10
15.8658092325
 20
12.454173427
 30
0.0
 10
15.8894770009
 20
12.4388627575
 30
0.0
 10
15.9125732343
 20
12.4232083068
 30
0.0
 10
15.9350738975
 20
12.4072263563
 30
0.0
 10
15.9569555762
 20
12.3909335251
 30
0.0
 10
15.9781955062
 20
12.3743467587
 30
0.0
 10
15.9987715909
 20
12.3574833023
 30
0.0
 10
16.0186624233
 20
12.3403606843
 30
0.0
 10
16.0378473077
 20
12.3229966977
 30
0.0
 10
16.0563062806
 20
12.3054093796
 30
0.0
 10
16.0740201387
 20
12.2876169991
 30
0.0
 10
16.0909704532
 20
12.2696380322
 30
0.0
 10
16.107139585
 20
12.2514911409
 30
0.0
 10
16.1225107021
 20
12.2331951549
 30
0.0
 10
16.1370677945
 20
12.2147690499
 30
0.0
 10
16.1507956964
 20
12.1962319321
 30
0.0
 10
16.1636801007
 20
12.1776030178
 30
0.0
 10
16.1757075638
 20
12.1589016111
 30
0.0
 10
16.1868655205
 20
12.1401470798
 30
0.0
 10
16.1971422831
 20
12.1213588637
 30
0.0
 10
16.2065270924
 20
12.1025563547
 30
0.0
 10
16.2150099966
 20
12.0837592573
 30
0.0
 10
16.2213492273
 20
12.0680433099
 30
0.0
 10
16.2259541145
 20
12.0554950498
 30
0.0
 10
16.2302112971
 20
12.0430783309
 30
0.0
 10
16.2349629719
 20
12.027593336
 30
0.0
 10
16.2397582239
 20
12.0090116314
 30
0.0
 10
16.2436162101
 20
11.9905320596
 30
0.0
 10
16.2465326047
 20
11.9721740789
 30
0.0
 10
16.2485041339
 20
11.9539568129
 30
0.0
 10
16.2495284809
 20
11.9358993547
 30
0.0
 10
16.2496043275
 20
11.918020673
 30
0.0
 10
16.2487313678
 20
11.9003395919
 30
0.0
 10
16.2469103466
 20
11.8828748419
 30
0.0
 10
16.2441429685
 20
11.8656447334
 30
0.0
 10
16.2404322588
 20
11.8486682411
 30
0.0
 10
16.2373304985
 20
11.8375260129
 30
0.0
 10
16.2356259847
 20
11.832010196
 30
0.0
  0
SPLINE
  5
2F5
100
AcDbEntity
  8
LAYER_CHAMFER_FEAT
100
AcDbSpline
 62
7
  6
CONTINUOUS
 70
0
 71
3
 72
44
 73
40
 74
0
 42
0.0000001
 43
0.0000001
 44
0.0000000001
 40
0.0
 40
0.0
 40
0.0
 40
0.0
 40
0.0106260959
 40
0.0212748375
 40
0.0319686312
 40
0.0427294168
 40
0.0535784528
 40
0.0645361183
 40
0.075621754
 40
0.0868535082
 40
0.0982482459
 40
0.1098214423
 40
0.1335519248
 40
0.1581465024
 40
0.183676803
 40
0.2101921586
 40
0.2377211135
 40
0.2662732102
 40
0.2958408542
 40
0.3264011376
 40
0.357917558
 40
0.3903416089
 40
0.4236142386
 40
0.4576671854
 40
0.492424206
 40
0.5278022127
 40
0.563712334
 40
0.6000609162
 40
0.6367504765
 40
0.6736806196
 40
0.7107489283
 40
0.747851836
 40
0.7848854901
 40
0.8217466109
 40
0.8583333604
 40
0.8945462102
 40
0.9302888671
 40
0.9654691316
 40
1.0
 40
1.0
 40
1.0
 40
1.0
 10
14.9895857731
 20
11.8201801287
 30
0.0
 10
14.9891309876
 20
11.8187084613
 30
0.0
 10
14.9883034231
 20
11.8157356112
 30
0.0
 10
14.9873133609
 20
11.8112061339
 30
0.0
 10
14.9865750077
 20
11.8066089851
 30
0.0
 10
14.986089135
 20
11.8019492342
 30
0.0
 10
14.9858562316
 20
11.7972317625
 30
0.0
 10
14.9858764586
 20
11.7924615711
 30
0.0
 10
14.9861497737
 20
11.7876436757
 30
0.0
 10
14.9866757788
 20
11.7827831622
 30
0.0
 10
14.9874539313
 20
11.7778850232
 30
0.0
 10
14.9888377336
 20
11.771256426
 30
0.0
 10
14.9912116345
 20
11.7628909184
 30
0.0
 10
14.9950248367
 20
11.7528740847
 30
0.0
 10
14.9998091962
 20
11.7428348661
 30
0.0
 10
15.0055437394
 20
11.7328148261
 30
0.0
 10
15.01220407
 20
11.7228545313
 30
0.0
 10
15.0197621787
 20
11.7129946271
 30
0.0
 10
15.0281865325
 20
11.7032753843
 30
0.0
 10
15.0374421201
 20
11.6937366343
 30
0.0
 10
15.0474905499
 20
11.684417571
 30
0.0
 10
15.0582901716
 20
11.67535658
 30
0.0
 10
15.0697962261
 20
11.6665910599
 30
0.0
 10
15.0819610157
 20
11.65815725
 30
0.0
 10
15.094734095
 20
11.6500900649
 30
0.0
 10
15.1080624755
 20
11.6424229361
 30
0.0
 10
15.1218908448
 20
11.6351876629
 30
0.0
 10
15.1361617975
 20
11.6284142716
 30
0.0
 10
15.1508160747
 20
11.622130884
 30
0.0
 10
15.1657928136
 20
11.6163635957
 30
0.0
 10
15.1810298031
 20
11.6111363631
 30
0.0
 10
15.1964637457
 20
11.6064709013
 30
0.0
 10
15.2120305247
 20
11.602386592
 30
0.0
 10
15.2276654719
 20
11.5989004015
 30
0.0
 10
15.2433036523
 20
11.5960268112
 30
0.0
 10
15.258880094
 20
11.593777755
 30
0.0
 10
15.2743302292
 20
11.5921625781
 30
0.0
 10
15.2895895473
 20
11.5911879925
 30
0.0
 10
15.2996959256
 20
11.5909657953
 30
0.0
 10
15.3047014459
 20
11.5909657953
 30
0.0
  0
SPLINE
  5
2F6
100
AcDbEntity
  8
LAYER_CUT_FEAT
100
AcDbSpline
 62
7
  6
CONTINUOUS
 70
0
 71
3
 72
22
 73
18
 74
0
 42
0.0000001
 43
0.0000001
 44
0.0000000001
 40
0.0
 40
0.0
 40
0.0
 40
0.0
 40
0.1381197978
 40
0.2053664405
 40
0.2714549011
 40
0.3364371411
 40
0.4003725799
 40
0.4633278459
 40
0.5253764074
 40
0.5865986107
 40
0.6470813122
 40
0.7069174445
 40
0.7662054998
 40
0.8250488571
 40
0.883554961
 40
0.9418344168
 40
1.0
 40
1.0
 40
1.0
 40
1.0
 10
16.3185634295
 20
12.108656983
 30
0.0
 10
16.3251234086
 20
12.0952891511
 30
0.0
 10
16.3341625422
 20
12.0750462076
 30
0.0
 10
16.3444719599
 20
12.0476504326
 30
0.0
 10
16.3511756426
 20
12.0273409934
 30
0.0
 10
16.3569119068
 20
12.0071084017
 30
0.0
 10
16.3616753324
 20
11.986971419
 30
0.0
 10
16.3654610923
 20
11.9669494567
 30
0.0
 10
16.3682653191
 20
11.9470616405
 30
0.0
 10
16.3700851142
 20
11.9273270819
 30
0.0
 10
16.3709185164
 20
11.9077647672
 30
0.0
 10
16.3707644877
 20
11.8883935744
 30
0.0
 10
16.3696229614
 20
11.8692322314
 30
0.0
 10
16.3674949115
 20
11.8502993686
 30
0.0
 10
16.3643821988
 20
11.8316131956
 30
0.0
 10
16.3602879241
 20
11.8131925966
 30
0.0
 10
16.3569050256
 20
11.801095553
 30
0.0
 10
16.3550535814
 20
11.7951042773
 30
0.0
  0
SPLINE
  5
2F7
100
AcDbEntity
  8
02___PRT_ALL_AXES
100
AcDbSpline
 62
7
  6
CONTINUOUS
 70
0
 71
3
 72
28
 73
24
 74
0
 42
0.0000001
 43
0.0000001
 44
0.0000000001
 40
0.0
 40
0.0
 40
0.0
 40
0.0
 40
0.068425819
 40
0.1023151305
 40
0.1359818611
 40
0.2026415441
 40
0.2684146178
 40
0.3333102039
 40
0.3973469422
 40
0.4605514713
 40
0.5229583089
 40
0.5846093944
 40
0.6455537251
 40
0.6757830277
 40
0.7058571409
 40
0.735784055
 40
0.7655721914
 40
0.8247572226
 40
0.8834978125
 40
0.9127320898
 40
0.9418863786
 40
0.970971839
 40
1.0
 40
1.0
 40
1.0
 40
1.0
 10
15.033754721
 20
12.6237394091
 30
0.0
 10
15.0368054843
 20
12.6237394091
 30
0.0
 10
15.0413688243
 20
12.6236054602
 30
0.0
 10
15.0474152719
 20
12.6231517736
 30
0.0
 10
15.0533668154
 20
12.6225214185
 30
0.0
 10
15.0606922997
 20
12.621400285
 30
0.0
 10
15.0692928232
 20
12.619519383
 30
0.0
 10
15.0776413052
 20
12.6171172974
 30
0.0
 10
15.0857049003
 20
12.6142067216
 30
0.0
 10
15.0934520796
 20
12.6108027778
 30
0.0
 10
15.1008525236
 20
12.6069228293
 30
0.0
 10
15.1078769302
 20
12.6025865595
 30
0.0
 10
15.1134099532
 20
12.5985990943
 30
0.0
 10
15.1176173958
 20
12.595203337
 30
0.0
 10
15.1206541911
 20
12.5925634058
 30
0.0
 10
15.1235772798
 20
12.5898267814
 30
0.0
 10
15.1273108127
 20
12.5860619761
 30
0.0
 10
15.1316838016
 20
12.581128736
 30
0.0
 10
15.1356558318
 20
12.5758980003
 30
0.0
 10
15.138570023
 20
12.5715632431
 30
0.0
 10
15.1406201868
 20
12.5682443543
 30
0.0
 10
15.1425357792
 20
12.564856691
 30
0.0
 10
15.1437227881
 20
12.562552717
 30
0.0
 10
15.144292948
 20
12.5613908554
 30
0.0
  0
SPLINE
  5
2F8
100
AcDbEntity
  8
LAYER_CHAMFER_FEAT
100
AcDbSpline
 62
7
  6
CONTINUOUS
 70
0
 71
3
 72
29
 73
25
 74
0
 42
0.0000001
 43
0.0000001
 44
0.0000000001
 40
0.0
 40
0.0
 40
0.0
 40
0.0
 40
0.0248056148
 40
0.0496685706
 40
0.0746455629
 40
0.0997920002
 40
0.1251614194
 40
0.1508049872
 40
0.1767709964
 40
0.203104594
 40
0.2298473637
 40
0.2570373059
 40
0.2847084902
 40
0.3128912613
 40
0.3708798346
 40
0.4311838459
 40
0.4939113744
 40
0.5591171839
 40
0.6268077415
 40
0.6969463549
 40
0.7694579634
 40
0.844234029
 40
0.9211358024
 40
1.0
 40
1.0
 40
1.0
 40
1.0
 10
15.4672961854
 20
11.672556446
 30
0.0
 10
15.4668224573
 20
11.6710234815
 30
0.0
 10
15.4657834404
 20
11.6679811316
 30
0.0
 10
15.4639568517
 20
11.6635088755
 30
0.0
 10
15.4618635175
 20
11.6591304935
 30
0.0
 10
15.4595059248
 20
11.6548512312
 30
0.0
 10
15.4568868514
 20
11.6506759012
 30
0.0
 10
15.4540093135
 20
11.6466093032
 30
0.0
 10
15.4508767187
 20
11.6426559962
 30
0.0
 10
15.447492638
 20
11.6388204987
 30
0.0
 10
15.4438610462
 20
11.6351070508
 30
0.0
 10
15.4399860721
 20
11.6315199044
 30
0.0
 10
15.4358721438
 20
11.6280629269
 30
0.0
 10
15.4300195777
 20
11.6235904473
 30
0.0
 10
15.4221098375
 20
11.618351603
 30
0.0
 10
15.4118377586
 20
11.6127072207
 30
0.0
 10
15.4007413443
 20
11.6076688432
 30
0.0
 10
15.388871088
 20
11.6032584262
 30
0.0
 10
15.3762800507
 20
11.5994947899
 30
0.0
 10
15.3630246591
 20
11.596394255
 30
0.0
 10
15.3491642832
 20
11.5939702937
 30
0.0
 10
15.334760961
 20
11.592233526
 30
0.0
 10
15.3198796699
 20
11.5911915378
 30
0.0
 10
15.3098025921
 20
11.5909657953
 30
0.0
 10
15.3047014459
 20
11.5909657953
 30
0.0
  0
SPLINE
  5
2F9
100
AcDbEntity
  8
LAYER_FEATURE
100
AcDbSpline
 62
7
  6
CONTINUOUS
 70
0
 71
3
 72
26
 73
22
 74
0
 42
0.0000001
 43
0.0000001
 44
0.0000000001
 40
0.0
 40
0.0
 40
0.0
 40
0.0
 40
0.021844961
 40
0.0442765209
 40
0.0673642536
 40
0.0911727921
 40
0.1411119584
 40
0.1673265215
 40
0.1943816384
 40
0.2509877344
 40
0.3108438989
 40
0.3737138704
 40
0.4392578878
 40
0.5070542317
 40
0.5766179902
 40
0.6474178462
 40
0.7188915334
 40
0.7904601779
 40
0.861543306
 40
0.9315700187
 40
1.0
 40
1.0
 40
1.0
 40
1.0
 10
16.8650035237
 20
12.6452295041
 30
0.0
 10
16.8649686372
 20
12.6456082542
 30
0.0
 10
16.8648641392
 20
12.6463731687
 30
0.0
 10
16.8646098549
 20
12.6475193936
 30
0.0
 10
16.8642568673
 20
12.6486750015
 30
0.0
 10
16.8636467539
 20
12.6502480912
 30
0.0
 10
16.862848087
 20
12.6518011067
 30
0.0
 10
16.8618865415
 20
12.6533199875
 30
0.0
 10
16.8607723703
 20
12.6548763664
 30
0.0
 10
16.8591547554
 20
12.656787102
 30
0.0
 10
16.856918045
 20
12.6589715599
 30
0.0
 10
16.8543835287
 20
12.6610562497
 30
0.0
 10
16.851581607
 20
12.6630163921
 30
0.0
 10
16.8485456812
 20
12.6648287673
 30
0.0
 10
16.8453120833
 20
12.6664717298
 30
0.0
 10
16.8419195537
 20
12.6679256171
 30
0.0
 10
16.8384087824
 20
12.6691729892
 30
0.0
 10
16.8348219185
 20
12.6701988843
 30
0.0
 10
16.8312019643
 20
12.6709909703
 30
0.0
 10
16.827592578
 20
12.6715397632
 30
0.0
 10
16.8251880449
 20
12.6717418697
 30
0.0
 10
16.8239979453
 20
12.6717989622
 30
0.0
  0
SPLINE
  5
2FA
100
AcDbEntity
  8
02___PRT_ALL_AXES
100
AcDbSpline
 62
7
  6
CONTINUOUS
 70
0
 71
3
 72
61
 73
57
 74
0
 42
0.0000001
 43
0.0000001
 44
0.0000000001
 40
0.0
 40
0.0
 40
0.0
 40
0.0
 40
0.0142247454
 40
0.0288617701
 40
0.0439054915
 40
0.0593513011
 40
0.0751925651
 40
0.0914201415
 40
0.1080233629
 40
0.1249901717
 40
0.1423069945
 40
0.1599589726
 40
0.1962006172
 40
0.2335758254
 40
0.2719273588
 40
0.3110847969
 40
0.3508663969
 40
0.3910805636
 40
0.4315272299
 40
0.4719990378
 40
0.5122827264
 40
0.5521606204
 40
0.5914125524
 40
0.6298181347
 40
0.6671595681
 40
0.6853649998
 40
0.703225586
 40
0.7207162727
 40
0.7378129707
 40
0.7544924259
 40
0.7707326098
 40
0.7865126668
 40
0.8018131201
 40
0.8166161089
 40
0.8309053425
 40
0.8446665958
 40
0.8578874826
 40
0.8705581577
 40
0.8826711163
 40
0.894221887
 40
0.9052091362
 40
0.9156352564
 40
0.9255069561
 40
0.9348358023
 40
0.943639323
 40
0.9519416823
 40
0.9597752069
 40
0.9671812533
 40
0.9742116361
 40
0.9809291833
 40
0.9841946775
 40
0.9874105834
 40
0.9905876814
 40
0.9937372018
 40
0.9968707152
 40
1.0
 40
1.0
 40
1.0
 40
1.0
 10
16.1826131014
 20
12.0412908688
 30
0.0
 10
16.1832675865
 20
12.0399571685
 30
0.0
 10
16.1845414202
 20
12.0372242546
 30
0.0
 10
16.1863230762
 20
12.0329980188
 30
0.0
 10
16.1880004365
 20
12.0285925868
 30
0.0
 10
16.1895714104
 20
12.0240150287
 30
0.0
 10
16.191034287
 20
12.0192723056
 30
0.0
 10
16.1923876524
 20
12.0143717247
 30
0.0
 10
16.193630478
 20
12.0093208633
 30
0.0
 10
16.1947619797
 20
12.0041274723
 30
0.0
 10
16.1957818717
 20
11.998799478
 30
0.0
 10
16.1970033234
 20
11.9914626316
 30
0.0
 10
16.1982416967
 20
11.9820078705
 30
0.0
 10
16.1992759182
 20
11.9703567243
 30
0.0
 10
16.1998808169
 20
11.9583707701
 30
0.0
 10
16.2000698626
 20
11.946120097
 30
0.0
 10
16.1998597472
 20
11.9336754894
 30
0.0
 10
16.1992698483
 20
11.9211085448
 30
0.0
 10
16.1983217114
 20
11.908491448
 30
0.0
 10
16.1970385452
 20
11.8958968695
 30
0.0
 10
16.1954447422
 20
11.8833978202
 30
0.0
 10
16.193565411
 20
11.8710674524
 30
0.0
 10
16.1914259357
 20
11.8589787376
 30
0.0
 10
16.1890515211
 20
11.847204148
 30
0.0
 10
16.186879691
 20
11.8376339967
 30
0.0
 10
16.1850413148
 20
11.8301908078
 30
0.0
 10
16.1836300166
 20
11.8247781401
 30
0.0
 10
16.1821773515
 20
11.8194964292
 30
0.0
 10
16.1806859293
 20
11.8143538372
 30
0.0
 10
16.1791582801
 20
11.8093582944
 30
0.0
 10
16.1775967907
 20
11.8045174982
 30
0.0
 10
16.1760037301
 20
11.7998388731
 30
0.0
 10
16.1743812271
 20
11.7953295601
 30
0.0
 10
16.172731273
 20
11.7909964041
 30
0.0
 10
16.1710557151
 20
11.7868459178
 30
0.0
 10
16.1693562618
 20
11.7828843008
 30
0.0
 10
16.1676344679
 20
11.7791173923
 30
0.0
 10
16.1658917592
 20
11.775550698
 30
0.0
 10
16.164129401
 20
11.7721893532
 30
0.0
 10
16.1623485334
 20
11.7690381434
 30
0.0
 10
16.1605501481
 20
11.7661014865
 30
0.0
 10
16.1587350908
 20
11.7633834501
 30
0.0
 10
16.1569040888
 20
11.760887737
 30
0.0
 10
16.1550576762
 20
11.7586177349
 30
0.0
 10
16.1531963071
 20
11.7565764781
 30
0.0
 10
16.1513201891
 20
11.7547667788
 30
0.0
 10
16.1494295044
 20
11.7531911604
 30
0.0
 10
16.1475241572
 20
11.7518520688
 30
0.0
 10
16.1456043878
 20
11.7507518631
 30
0.0
 10
16.1439769432
 20
11.7500292418
 30
0.0
 10
16.142673687
 20
11.7495780539
 30
0.0
 10
16.1417024051
 20
11.7493035279
 30
0.0
 10
16.1407283429
 20
11.7490898776
 30
0.0
 10
16.1397515579
 20
11.7489371902
 30
0.0
 10
16.1387722101
 20
11.7488455738
 30
0.0
 10
16.1381179391
 20
11.7488252624
 30
0.0
 10
16.1377911163
 20
11.7488252638
 30
0.0
  0
SPLINE
  5
2FB
100
AcDbEntity
  8
LAYER_FEATURE
100
AcDbSpline
 62
7
  6
CONTINUOUS
 70
0
 71
3
 72
24
 73
20
 74
0
 42
0.0000001
 43
0.0000001
 44
0.0000000001
 40
0.0
 40
0.0
 40
0.0
 40
0.0
 40
0.0496008167
 40
0.0756140735
 40
0.1024294988
 40
0.1584051154
 40
0.2173657777
 40
0.2790245088
 40
0.343007551
 40
0.4088738855
 40
0.4761318061
 40
0.5442541304
 40
0.6126923917
 40
0.6808904843
 40
0.7482981451
 40
0.8143843537
 40
0.8786521629
 40
0.9406512371
 40
1.0
 40
1.0
 40
1.0
 40
1.0
 10
16.7918795461
 20
12.8795549788
 30
0.0
 10
16.7914598586
 20
12.8803551194
 30
0.0
 10
16.7907390424
 20
12.8815339077
 30
0.0
 10
16.7896369363
 20
12.8830400985
 30
0.0
 10
16.7883831089
 20
12.8845762251
 30
0.0
 10
16.7866010817
 20
12.8864506655
 30
0.0
 10
16.7841838039
 20
12.8885787117
 30
0.0
 10
16.7814863071
 20
12.8905922031
 30
0.0
 10
16.7785409393
 20
12.8924671274
 30
0.0
 10
16.7753828602
 20
12.8941811954
 30
0.0
 10
16.7720498971
 20
12.8957138941
 30
0.0
 10
16.7685820086
 20
12.8970468556
 30
0.0
 10
16.7650208104
 20
12.8981640846
 30
0.0
 10
16.7614090512
 20
12.8990521731
 30
0.0
 10
16.7577900681
 20
12.8997004594
 30
0.0
 10
16.7542072782
 20
12.9001011789
 30
0.0
 10
16.7507034946
 20
12.9002494786
 30
0.0
 10
16.74732091
 20
12.9001436176
 30
0.0
 10
16.745120968
 20
12.8998984463
 30
0.0
 10
16.744052982
 20
12.8997305913
 30
0.0
  0
SPLINE
  5
2FC
100
AcDbEntity
  8
LAYER_FEATURE
100
AcDbSpline
 62
7
  6
CONTINUOUS
 70
0
 71
3
 72
24
 73
20
 74
0
 42
0.0000001
 43
0.0000001
 44
0.0000000001
 40
0.0
 40
0.0
 40
0.0
 40
0.0
 40
0.0575248884
 40
0.1178619218
 40
0.1806737446
 40
0.2455449435
 40
0.3120049785
 40
0.3795414527
 40
0.4476152961
 40
0.5156743371
 40
0.5831667582
 40
0.6495545328
 40
0.7143272076
 40
0.7770164527
 40
0.8372116516
 40
0.8945780848
 40
0.9221283333
 40
0.948891639
 40
1.0
 40
1.0
 40
1.0
 40
1.0
 10
16.6199913997
 20
13.1123489506
 30
0.0
 10
16.6192613949
 20
13.113107197
 30
0.0
 10
16.6176909786
 20
13.1145900818
 30
0.0
 10
16.6151034162
 20
13.1166527532
 30
0.0
 10
16.6122543269
 20
13.1185866258
 30
0.0
 10
16.6091779833
 20
13.1203684072
 30
0.0
 10
16.6059111437
 20
13.1219769055
 30
0.0
 10
16.6024929704
 20
13.1233928292
 30
0.0
 10
16.5989644664
 20
13.1245992017
 30
0.0
 10
16.5953679839
 20
13.1255815394
 30
0.0
 10
16.5917466909
 20
13.1263280514
 30
0.0
 10
16.5881440239
 20
13.126829781
 30
0.0
 10
16.5846031645
 20
13.1270807087
 30
0.0
 10
16.5811663954
 20
13.1270777879
 30
0.0
 10
16.5778749034
 20
13.1268209889
 30
0.0
 10
16.5752507479
 20
13.126392127
 30
0.0
 10
16.5732617606
 20
13.1259200973
 30
0.0
 10
16.5714089086
 20
13.1253821252
 30
0.0
 10
16.570071815
 20
13.12487869
 30
0.0
 10
16.5692184738
 20
13.1244962094
 30
0.0
  0
SPLINE
  5
2FD
100
AcDbEntity
  8
LAYER_FEATURE
100
AcDbSpline
 62
7
  6
CONTINUOUS
 70
0
 71
3
 72
25
 73
21
 74
0
 42
0.0000001
 43
0.0000001
 44
0.0000000001
 40
0.0
 40
0.0
 40
0.0
 40
0.0
 40
0.0665200508
 40
0.1348915992
 40
0.2046011036
 40
0.275096945
 40
0.3458103757
 40
0.4161667233
 40
0.4856001239
 40
0.5535674168
 40
0.6195629012
 40
0.6831341144
 40
0.7438992066
 40
0.8015666561
 40
0.8291871128
 40
0.8559771794
 40
0.9070532661
 40
0.9313937122
 40
0.9549705145
 40
1.0
 40
1.0
 40
1.0
 40
1.0
 10
16.3632644401
 20
13.3247518366
 30
0.0
 10
16.3622904246
 20
13.3254049092
 30
0.0
 10
16.3602652203
 20
13.3266558878
 30
0.0
 10
16.3570710658
 20
13.3283369116
 30
0.0
 10
16.3537093112
 20
13.3298330346
 30
0.0
 10
16.3502204571
 20
13.3311261573
 30
0.0
 10
16.3466463385
 20
13.3322008095
 30
0.0
 10
16.3430298629
 20
13.3330440759
 30
0.0
 10
16.3394144256
 20
13.3336458421
 30
0.0
 10
16.3358433644
 20
13.3339988838
 30
0.0
 10
16.33235944
 20
13.3340989531
 30
0.0
 10
16.3290041792
 20
13.3339447784
 30
0.0
 10
16.3258177501
 20
13.3335380921
 30
0.0
 10
16.3232987871
 20
13.3329846959
 30
0.0
 10
16.3214059151
 20
13.3324150909
 30
0.0
 10
16.3196556316
 20
13.3317850389
 30
0.0
 10
16.3180122922
 20
13.3310335584
 30
0.0
 10
16.3165026601
 20
13.3301554573
 30
0.0
 10
16.3151454335
 20
13.3292360185
 30
0.0
 10
16.3142183239
 20
13.3284494369
 30
0.0
 10
16.3136584728
 20
13.327886643
 30
0.0
  0
SPLINE
  5
2FE
100
AcDbEntity
  8
LAYER_FEATURE
100
AcDbSpline
 62
7
  6
CONTINUOUS
 70
0
 71
3
 72
31
 73
27
 74
0
 42
0.0000001
 43
0.0000001
 44
0.0000000001
 40
0.0
 40
0.0
 40
0.0
 40
0.0
 40
0.0753791575
 40
0.1512389169
 40
0.2269663046
 40
0.3019466691
 40
0.3755860474
 40
0.4473234
 40
0.5166479659
 40
0.5502705841
 40
0.5831309008
 40
0.6151873053
 40
0.646405572
 40
0.676758776
 40
0.7062288733
 40
0.7348071911
 40
0.7624954703
 40
0.7893071901
 40
0.8152679229
 40
0.8647739859
 40
0.8884749357
 40
0.9115687285
 40
0.9341519814
 40
0.9563363374
 40
0.9782450052
 40
1.0
 40
1.0
 40
1.0
 40
1.0
 10
16.0424971585
 20
13.4995560179
 30
0.0
 10
16.0413629362
 20
13.5000531218
 30
0.0
 10
16.0390542436
 20
13.5009768874
 30
0.0
 10
16.035509648
 20
13.5021416676
 30
0.0
 10
16.0319050938
 20
13.5030800419
 30
0.0
 10
16.0282840088
 20
13.5037806443
 30
0.0
 10
16.0246897504
 20
13.5042351068
 30
0.0
 10
16.0211655464
 20
13.5044379441
 30
0.0
 10
16.0182930273
 20
13.5043948446
 30
0.0
 10
16.0160675487
 20
13.5042290216
 30
0.0
 10
16.0144589614
 20
13.5040425836
 30
0.0
 10
16.0128988725
 20
13.5037933444
 30
0.0
 10
16.0113919503
 20
13.5034820895
 30
0.0
 10
16.0099427415
 20
13.5031096935
 30
0.0
 10
16.0085556026
 20
13.5026772874
 30
0.0
 10
16.0072346978
 20
13.5021861231
 30
0.0
 10
16.0059840498
 20
13.5016376566
 30
0.0
 10
16.0048072757
 20
13.5010334108
 30
0.0
 10
16.003364992
 20
13.5001698327
 30
0.0
 10
16.0020545413
 20
13.4991898565
 30
0.0
 10
16.0009085388
 20
13.4980970064
 30
0.0
 10
16.0001508247
 20
13.4972436394
 30
0.0
 10
15.9994851747
 20
13.4963474846
 30
0.0
 10
15.9989136708
 20
13.495411131
 30
0.0
 10
15.9984383588
 20
13.4944376399
 30
0.0
 10
15.9981861061
 20
13.4937647298
 30
0.0
 10
15.9980769304
 20
13.4934244086
 30
0.0
  0
SPLINE
  5
2FF
100
AcDbEntity
  8
LAYER_FEATURE
100
AcDbSpline
 62
7
  6
CONTINUOUS
 70
0
 71
3
 72
26
 73
22
 74
0
 42
0.0000001
 43
0.0000001
 44
0.0000000001
 40
0.0
 40
0.0
 40
0.0
 40
0.0
 40
0.078727802
 40
0.1565704545
 40
0.2330933623
 40
0.3078899714
 40
0.3805834787
 40
0.4508399225
 40
0.5183769618
 40
0.5829759566
 40
0.6444948353
 40
0.7028828771
 40
0.7581968864
 40
0.8106178079
 40
0.8604651873
 40
0.8845791211
 40
0.9082365393
 40
0.9315174247
 40
0.9545088927
 40
0.9773039954
 40
1.0
 40
1.0
 40
1.0
 40
1.0
 10
15.6836762126
 20
13.6225998996
 30
0.0
 10
15.6826657076
 20
13.6228562844
 30
0.0
 10
15.6806421062
 20
13.6233129836
 30
0.0
 10
15.6775974091
 20
13.6238290374
 30
0.0
 10
15.6745802915
 20
13.6241692174
 30
0.0
 10
15.6716165431
 20
13.6243306136
 30
0.0
 10
15.6687312856
 20
13.6243118296
 30
0.0
 10
15.6659489944
 20
13.6241129906
 30
0.0
 10
15.6632931989
 20
13.6237356958
 30
0.0
 10
15.6607863124
 20
13.6231829918
 30
0.0
 10
15.6584494403
 20
13.6224592805
 30
0.0
 10
15.6563022757
 20
13.6215702662
 30
0.0
 10
15.6543629334
 20
13.6205227253
 30
0.0
 10
15.6526482902
 20
13.619324876
 30
0.0
 10
15.6514053021
 20
13.6181959479
 30
0.0
 10
15.6505454054
 20
13.6172294561
 30
0.0
 10
15.6499724002
 20
13.6164820552
 30
0.0
 10
15.6494656845
 20
13.6157058983
 30
0.0
 10
15.6490263599
 20
13.614902626
 30
0.0
 10
15.6486554866
 20
13.6140740645
 30
0.0
 10
15.6484542048
 20
13.6135054643
 30
0.0
 10
15.648365475
 20
13.6132183177
 30
0.0
  0
SPLINE
  5
300
100
AcDbEntity
  8
LAYER_FEATURE
100
AcDbSpline
 62
7
  6
CONTINUOUS
 70
0
 71
3
 72
54
 73
50
 74
0
 42
0.0000001
 43
0.0000001
 44
0.0000000001
 40
0.0
 40
0.0
 40
0.0
 40
0.0
 40
0.0109479129
 40
0.0220504925
 40
0.033337619
 40
0.0448389915
 40
0.0565809538
 40
0.0685861463
 40
0.0934519416
 40
0.1063512063
 40
0.1195727837
 40
0.1331238224
 40
0.1470087169
 40
0.1612293129
 40
0.1757849608
 40
0.1906728587
 40
0.2058880223
 40
0.221423608
 40
0.237270957
 40
0.269854164
 40
0.3035423898
 40
0.3382155374
 40
0.3737367346
 40
0.4099555128
 40
0.4467107378
 40
0.4838333694
 40
0.5211490905
 40
0.5584808526
 40
0.5956513806
 40
0.6324856752
 40
0.6688135503
 40
0.7044722481
 40
0.7393091641
 40
0.7731847417
 40
0.7897246998
 40
0.8059796044
 40
0.8219371326
 40
0.8375864549
 40
0.8529182673
 40
0.8679250877
 40
0.8826012152
 40
0.8969430564
 40
0.9109491656
 40
0.9246204512
 40
0.9509673779
 40
0.9636658853
 40
0.9760601758
 40
0.9881654221
 40
1.0
 40
1.0
 40
1.0
 40
1.0
 10
15.4197835996
 20
13.6493564098
 30
0.0
 10
15.4197155409
 20
13.6483890201
 30
0.0
 10
15.4196480398
 20
13.6464350236
 30
0.0
 10
15.4197505265
 20
13.6434815415
 30
0.0
 10
15.4200559803
 20
13.640492774
 30
0.0
 10
15.4205636655
 20
13.6374743895
 30
0.0
 10
15.4212725782
 20
13.634431501
 30
0.0
 10
15.4224984095
 20
13.6303013514
 30
0.0
 10
15.4241167012
 20
13.6261891749
 30
0.0
 10
15.4260880139
 20
13.6221242781
 30
0.0
 10
15.4277759014
 20
13.6190402729
 30
0.0
 10
15.4296517476
 20
13.6159644436
 30
0.0
 10
15.4317122859
 20
13.6129019432
 30
0.0
 10
15.4339538675
 20
13.60985823
 30
0.0
 10
15.436372481
 20
13.6068385881
 30
0.0
 10
15.4389638941
 20
13.6038483629
 30
0.0
 10
15.4417234827
 20
13.6008927811
 30
0.0
 10
15.4446464192
 20
13.5979770249
 30
0.0
 10
15.4487927211
 20
13.5941138105
 30
0.0
 10
15.4543581789
 20
13.5894215057
 30
0.0
 10
15.4615369625
 20
13.5840819753
 30
0.0
 10
15.4692269679
 20
13.5790193326
 30
0.0
 10
15.4773739581
 20
13.5742692301
 30
0.0
 10
15.485920746
 20
13.5698649652
 30
0.0
 10
15.4948072036
 20
13.5658375094
 30
0.0
 10
15.5039708037
 20
13.5622151923
 30
0.0
 10
15.5133470394
 20
13.5590235122
 30
0.0
 10
15.522869897
 20
13.5562849405
 30
0.0
 10
15.5324723269
 20
13.5540187595
 30
0.0
 10
15.5420867373
 20
13.5522409245
 30
0.0
 10
15.5516454515
 20
13.550963952
 30
0.0
 10
15.5610813152
 20
13.5501968291
 30
0.0
 10
15.5703277675
 20
13.5499449796
 30
0.0
 10
15.5778810231
 20
13.550167743
 30
0.0
 10
15.5837709411
 20
13.5506107289
 30
0.0
 10
15.5880658677
 20
13.5510689862
 30
0.0
 10
15.5922655916
 20
13.5516550582
 30
0.0
 10
15.5963627474
 20
13.5523679035
 30
0.0
 10
15.6003500947
 20
13.5532063227
 30
0.0
 10
15.604220611
 20
13.554168793
 30
0.0
 10
15.6079674762
 20
13.5552536999
 30
0.0
 10
15.6115840425
 20
13.5564590902
 30
0.0
 10
15.6150641157
 20
13.557782971
 30
0.0
 10
15.6194590033
 20
13.5596793221
 30
0.0
 10
15.6236184948
 20
13.5618210318
 30
0.0
 10
15.627498415
 20
13.5642135926
 30
0.0
 10
15.6302082342
 20
13.5660912749
 30
0.0
 10
15.6327482853
 20
13.568070578
 30
0.0
 10
15.6343428411
 20
13.5694708878
 30
0.0
 10
15.6351087402
 20
13.5701866946
 30
0.0
  0
SPLINE
  5
301
100
AcDbEntity
  8
LAYER_FEATURE
100
AcDbSpline
 62
7
  6
CONTINUOUS
 70
0
 71
3
 72
27
 73
23
 74
0
 42
0.0000001
 43
0.0000001
 44
0.0000000001
 40
0.0
 40
0.0
 40
0.0
 40
0.0
 40
0.0215365374
 40
0.0434974703
 40
0.0659785452
 40
0.0890714454
 40
0.1128533051
 40
0.1373849692
 40
0.1888469191
 40
0.2158586429
 40
0.2437319865
 40
0.3020294064
 40
0.3636362269
 40
0.4282989632
 40
0.4956604932
 40
0.5652817713
 40
0.6366608404
 40
0.7092498916
 40
0.7824706994
 40
0.8557303844
 40
0.9284328151
 40
1.0
 40
1.0
 40
1.0
 40
1.0
 10
15.4197835996
 20
13.6493564098
 30
0.0
 10
15.4198093004
 20
13.649721723
 30
0.0
 10
15.4198266338
 20
13.6504623919
 30
0.0
 10
15.4197521269
 20
13.6515832127
 30
0.0
 10
15.4195775468
 20
13.6527196449
 30
0.0
 10
15.4193036312
 20
13.653868008
 30
0.0
 10
15.4189313171
 20
13.6550249767
 30
0.0
 10
15.4182952949
 20
13.6565991636
 30
0.0
 10
15.4174718791
 20
13.6581515926
 30
0.0
 10
15.4164867096
 20
13.6596687926
 30
0.0
 10
15.4153489633
 20
13.6612222756
 30
0.0
 10
15.4137035047
 20
13.663127539
 30
0.0
 10
15.4114361262
 20
13.6653032477
 30
0.0
 10
15.4088737744
 20
13.6673767066
 30
0.0
 10
15.4060471844
 20
13.6693232542
 30
0.0
 10
15.4029900598
 20
13.6711198185
 30
0.0
 10
15.3997389937
 20
13.6727449357
 30
0.0
 10
15.3963329358
 20
13.6741791483
 30
0.0
 10
15.3928127568
 20
13.6754052614
 30
0.0
 10
15.3892206621
 20
13.6764085428
 30
0.0
 10
15.385599972
 20
13.6771769595
 30
0.0
 10
15.3831701786
 20
13.6775302397
 30
0.0
 10
15.3819606185
 20
13.6776642186
 30
0.0
  0
SPLINE
  5
302
100
AcDbEntity
  8
LAYER_FEATURE
100
AcDbSpline
 62
7
  6
CONTINUOUS
 70
0
 71
3
 72
24
 73
20
 74
0
 42
0.0000001
 43
0.0000001
 44
0.0000000001
 40
0.0
 40
0.0
 40
0.0
 40
0.0
 40
0.0794177129
 40
0.1570746661
 40
0.2327175259
 40
0.3061455515
 40
0.3771769148
 40
0.4456712537
 40
0.5115317302
 40
0.5747113726
 40
0.6352208338
 40
0.6645022909
 40
0.6931506772
 40
0.7486198851
 40
0.801870099
 40
0.8532100029
 40
0.9030286451
 40
0.9517868557
 40
1.0
 40
1.0
 40
1.0
 40
1.0
 10
15.3158711413
 20
13.683915198
 30
0.0
 10
15.3150737495
 20
13.6839775959
 30
0.0
 10
15.3134934901
 20
13.6840643377
 30
0.0
 10
15.3111488555
 20
13.6840782375
 30
0.0
 10
15.3088667287
 20
13.6839744522
 30
0.0
 10
15.3066599092
 20
13.683753609
 30
0.0
 10
15.3045405238
 20
13.6834168393
 30
0.0
 10
15.3025203239
 20
13.6829659742
 30
0.0
 10
15.3006104269
 20
13.6824034118
 30
0.0
 10
15.2988214707
 20
13.6817321711
 30
0.0
 10
15.2974245081
 20
13.6810780409
 30
0.0
 10
15.29637929
 20
13.6805025286
 30
0.0
 10
15.2954044333
 20
13.6799069797
 30
0.0
 10
15.2942751271
 20
13.6791037315
 30
0.0
 10
15.2930617853
 20
13.6780378857
 30
0.0
 10
15.2920119643
 20
13.6768860177
 30
0.0
 10
15.2911321756
 20
13.675654308
 30
0.0
 10
15.2904281347
 20
13.6743500211
 30
0.0
 10
15.2900781017
 20
13.6734347759
 30
0.0
 10
15.2899347465
 20
13.6729708571
 30
0.0
  0
SPLINE
  5
303
100
AcDbEntity
  8
LAYER_FEATURE
100
AcDbSpline
 62
7
  6
CONTINUOUS
 70
0
 71
3
 72
39
 73
35
 74
0
 42
0.0000001
 43
0.0000001
 44
0.0000000001
 40
0.0
 40
0.0
 40
0.0
 40
0.0
 40
0.0482691234
 40
0.0609331686
 40
0.0738390022
 40
0.1003775622
 40
0.1278890173
 40
0.1563584152
 40
0.1857567464
 40
0.2160427361
 40
0.2471642679
 40
0.2790597491
 40
0.3116593463
 40
0.3448861334
 40
0.3786571564
 40
0.4128844308
 40
0.4474758862
 40
0.4823362714
 40
0.5173680297
 40
0.5524721526
 40
0.5875490221
 40
0.622499249
 40
0.657224513
 40
0.691628411
 40
0.7256173215
 40
0.7591012946
 40
0.7919949777
 40
0.8242185876
 40
0.8556989411
 40
0.8863705614
 40
0.9161768775
 40
0.9450715231
 40
0.9730197545
 40
1.0
 40
1.0
 40
1.0
 40
1.0
 10
15.0748960105
 20
13.6619086687
 30
0.0
 10
15.076136814
 20
13.6586203073
 30
0.0
 10
15.0780713663
 20
13.6545992037
 30
0.0
 10
15.0808200169
 20
13.6499789333
 30
0.0
 10
15.0828735111
 20
13.6467873161
 30
0.0
 10
15.0857196112
 20
13.6428244439
 30
0.0
 10
15.0895257423
 20
13.6381704816
 30
0.0
 10
15.0937379803
 20
13.6335936817
 30
0.0
 10
15.0983385234
 20
13.629113186
 30
0.0
 10
15.1033080551
 20
13.6247476528
 30
0.0
 10
15.1086256901
 20
13.620515341
 30
0.0
 10
15.1142690848
 20
13.6164339753
 30
0.0
 10
15.1202145157
 20
13.6125206754
 30
0.0
 10
15.1264369805
 20
13.6087918748
 30
0.0
 10
15.1329103025
 20
13.6052632469
 30
0.0
 10
15.1396072406
 20
13.6019496344
 30
0.0
 10
15.1464996046
 20
13.5988649826
 30
0.0
 10
15.1535583749
 20
13.5960222785
 30
0.0
 10
15.1607538263
 20
13.5934334936
 30
0.0
 10
15.1680556541
 20
13.5911095318
 30
0.0
 10
15.1754331044
 20
13.5890601825
 30
0.0
 10
15.1828551044
 20
13.5872940763
 30
0.0
 10
15.1902903965
 20
13.58581865
 30
0.0
 10
15.1977076724
 20
13.5846401162
 30
0.0
 10
15.2050757073
 20
13.5837634376
 30
0.0
 10
15.2123634934
 20
13.5831923074
 30
0.0
 10
15.2195403731
 20
13.5829291366
 30
0.0
 10
15.2265761713
 20
13.5829750467
 30
0.0
 10
15.2334413218
 20
13.5833298685
 30
0.0
 10
15.2401070057
 20
13.5839921544
 30
0.0
 10
15.2465452314
 20
13.5849591737
 30
0.0
 10
15.2527291057
 20
13.5862269942
 30
0.0
 10
15.2586323907
 20
13.5877903117
 30
0.0
 10
15.2624324468
 20
13.5890478374
 30
0.0
 10
15.2642759912
 20
13.5897266357
 30
0.0
  0
SPLINE
  5
304
100
AcDbEntity
  8
LAYER_FEATURE
100
AcDbSpline
 62
7
  6
CONTINUOUS
 70
0
 71
3
 72
26
 73
22
 74
0
 42
0.0000001
 43
0.0000001
 44
0.0000000001
 40
0.0
 40
0.0
 40
0.0
 40
0.0
 40
0.0473355942
 40
0.0721857522
 40
0.0978422326
 40
0.1243133383
 40
0.1515951966
 40
0.2085178293
 40
0.2381257126
 40
0.2684489666
 40
0.3310618213
 40
0.3959841998
 40
0.4627642359
 40
0.5309003988
 40
0.5998567267
 40
0.6690771208
 40
0.7379991443
 40
0.806067418
 40
0.8727481798
 40
0.9375409819
 40
1.0
 40
1.0
 40
1.0
 40
1.0
 10
15.0748960105
 20
13.6619086687
 30
0.0
 10
15.0745950356
 20
13.6627063085
 30
0.0
 10
15.0740453967
 20
13.6638901912
 30
0.0
 10
15.0731577392
 20
13.6654131177
 30
0.0
 10
15.0723895362
 20
13.6665682716
 30
0.0
 10
15.0715322747
 20
13.6677139281
 30
0.0
 10
15.0702558858
 20
13.6692459328
 30
0.0
 10
15.0688274536
 20
13.6707210288
 30
0.0
 10
15.0672677609
 20
13.6721346843
 30
0.0
 10
15.0655711398
 20
13.6735472362
 30
0.0
 10
15.0632774077
 20
13.6752323253
 30
0.0
 10
15.0603094793
 20
13.6770922718
 30
0.0
 10
15.0571323703
 20
13.6787893067
 30
0.0
 10
15.053784266
 20
13.6803030399
 30
0.0
 10
15.0503052771
 20
13.6816153509
 30
0.0
 10
15.0467371657
 20
13.6827104868
 30
0.0
 10
15.0431227534
 20
13.6835753007
 30
0.0
 10
15.0395054322
 20
13.6841994255
 30
0.0
 10
15.035928502
 20
13.6845753458
 30
0.0
 10
15.0324350723
 20
13.6846985941
 30
0.0
 10
15.0301422168
 20
13.6846093988
 30
0.0
 10
15.0290208972
 20
13.6845195439
 30
0.0
  0
SPLINE
  5
305
100
AcDbEntity
  8
LAYER_FEATURE
100
AcDbSpline
 62
7
  6
CONTINUOUS
 70
0
 71
3
 72
22
 73
18
 74
0
 42
0.0000001
 43
0.0000001
 44
0.0000000001
 40
0.0
 40
0.0
 40
0.0
 40
0.0
 40
0.0772780071
 40
0.1525368474
 40
0.2256739403
 40
0.2966435598
 40
0.365419798
 40
0.4319965577
 40
0.496400798
 40
0.5586914644
 40
0.6772596407
 40
0.7339230482
 40
0.7890764095
 40
0.8429659289
 40
0.895872992
 40
0.9481074001
 40
1.0
 40
1.0
 40
1.0
 40
1.0
 10
14.9688793241
 20
13.6785345124
 30
0.0
 10
14.9683330765
 20
13.6784692892
 30
0.0
 10
14.967257454
 20
13.6783173139
 30
0.0
 10
14.9656781254
 20
13.678019841
 30
0.0
 10
14.9641586606
 20
13.6776566095
 30
0.0
 10
14.9627040822
 20
13.6772288294
 30
0.0
 10
14.9613189651
 20
13.6767378526
 30
0.0
 10
14.9600078247
 20
13.676185186
 30
0.0
 10
14.9587747207
 20
13.6755724895
 30
0.0
 10
14.9572654879
 20
13.6746929872
 30
0.0
 10
14.9558954445
 20
13.6736887138
 30
0.0
 10
14.9547004965
 20
13.6725630038
 30
0.0
 10
14.9539130808
 20
13.6716825371
 30
0.0
 10
14.953224057
 20
13.6707561875
 30
0.0
 10
14.9526356988
 20
13.6697869178
 30
0.0
 10
14.9521502096
 20
13.6687780518
 30
0.0
 10
14.9518958651
 20
13.6680802567
 30
0.0
 10
14.9517868006
 20
13.6677273098
 30
0.0
  0
SPLINE
  5
306
100
AcDbEntity
  8
LAYER_FEATURE
100
AcDbSpline
 62
7
  6
CONTINUOUS
 70
0
 71
3
 72
28
 73
24
 74
0
 42
0.0000001
 43
0.0000001
 44
0.0000000001
 40
0.0
 40
0.0
 40
0.0
 40
0.0
 40
0.0263217955
 40
0.0532840114
 40
0.0808688158
 40
0.1090606759
 40
0.1378384951
 40
0.1671771388
 40
0.1970487667
 40
0.2274226321
 40
0.2582653709
 40
0.289541228
 40
0.3532328774
 40
0.4181813589
 40
0.4840410336
 40
0.5504505679
 40
0.6170393627
 40
0.6834338462
 40
0.7492636781
 40
0.8141680162
 40
0.8778019917
 40
0.9398434274
 40
1.0
 40
1.0
 40
1.0
 40
1.0
 10
14.7703440475
 20
13.6095477816
 30
0.0
 10
14.7712352764
 20
13.6084411307
 30
0.0
 10
14.7730882978
 20
13.6062398546
 30
0.0
 10
14.776034384
 20
13.6030169146
 30
0.0
 10
14.7791748361
 20
13.5998394624
 30
0.0
 10
14.7825029212
 20
13.5967142472
 30
0.0
 10
14.7860117613
 20
13.5936476373
 30
0.0
 10
14.7896940736
 20
13.5906460634
 30
0.0
 10
14.7935421603
 20
13.5877157556
 30
0.0
 10
14.7975479889
 20
13.5848628031
 30
0.0
 10
14.8017032694
 20
13.5820931477
 30
0.0
 10
14.8074658341
 20
13.5784975078
 30
0.0
 10
14.8149886117
 20
13.5742526512
 30
0.0
 10
14.8244112499
 20
13.5696093324
 30
0.0
 10
14.8342058733
 20
13.5654241563
 30
0.0
 10
14.8442909359
 20
13.5617319878
 30
0.0
 10
14.8545827472
 20
13.5585634467
 30
0.0
 10
14.8649958059
 20
13.5559448549
 30
0.0
 10
14.8754436554
 20
13.5538979605
 30
0.0
 10
14.8858395205
 20
13.5524397674
 30
0.0
 10
14.8960973313
 20
13.5515823851
 30
0.0
 10
14.9061314836
 20
13.5513329198
 30
0.0
 10
14.9127288305
 20
13.5515775285
 30
0.0
 10
14.9159680766
 20
13.5518071109
 30
0.0
  0
SPLINE
  5
307
100
AcDbEntity
  8
LAYER_FEATURE
100
AcDbSpline
 62
7
  6
CONTINUOUS
 70
0
 71
3
 72
25
 73
21
 74
0
 42
0.0000001
 43
0.0000001
 44
0.0000000001
 40
0.0
 40
0.0
 40
0.0
 40
0.0
 40
0.0545948003
 40
0.1122176103
 40
0.1726158428
 40
0.2354415278
 40
0.3002760765
 40
0.3666452106
 40
0.4340351049
 40
0.5019065509
 40
0.569708647
 40
0.6368921656
 40
0.70292296
 40
0.7672957859
 40
0.8295487061
 40
0.8892795929
 40
0.9180998885
 40
0.9461759787
 40
0.9734848369
 40
1.0
 40
1.0
 40
1.0
 40
1.0
 10
14.7703440475
 20
13.6095477816
 30
0.0
 10
14.7697154088
 20
13.6103283707
 30
0.0
 10
14.7683375397
 20
13.6118651072
 30
0.0
 10
14.7660120165
 20
13.6140231768
 30
0.0
 10
14.7633969941
 20
13.6160744103
 30
0.0
 10
14.7605239211
 20
13.617994185
 30
0.0
 10
14.75742706
 20
13.6197597774
 30
0.0
 10
14.7541434881
 20
13.6213500594
 30
0.0
 10
14.7507125575
 20
13.6227459911
 30
0.0
 10
14.7471754309
 20
13.6239308218
 30
0.0
 10
14.7435745653
 20
13.6248903294
 30
0.0
 10
14.7399531759
 20
13.6256129985
 30
0.0
 10
14.7363547159
 20
13.6260901609
 30
0.0
 10
14.7328222368
 20
13.6263160828
 30
0.0
 10
14.7293981688
 20
13.6262880351
 30
0.0
 10
14.726636514
 20
13.6260504318
 30
0.0
 10
14.7245190534
 20
13.6257295564
 30
0.0
 10
14.7230020265
 20
13.6254295272
 30
0.0
 10
14.7215420032
 20
13.625068179
 30
0.0
 10
14.7205954256
 20
13.6247829227
 30
0.0
 10
14.7201333307
 20
13.6246299247
 30
0.0
  0
SPLINE
  5
308
100
AcDbEntity
  8
LAYER_FEATURE
100
AcDbSpline
 62
7
  6
CONTINUOUS
 70
0
 71
3
 72
17
 73
13
 74
0
 42
0.0000001
 43
0.0000001
 44
0.0000000001
 40
0.0
 40
0.0
 40
0.0
 40
0.0
 40
0.1433003256
 40
0.2802119019
 40
0.4110340407
 40
0.5363098771
 40
0.6567780343
 40
0.7733996522
 40
0.8306532553
 40
0.8873921659
 40
0.9437836465
 40
1.0
 40
1.0
 40
1.0
 40
1.0
 10
14.6708119745
 20
13.6068937538
 30
0.0
 10
14.6702100457
 20
13.606659297
 30
0.0
 10
14.6690502617
 20
13.6061544956
 30
0.0
 10
14.6674203209
 20
13.60526807
 30
0.0
 10
14.6659498317
 20
13.6042746073
 30
0.0
 10
14.6646480816
 20
13.6031797849
 30
0.0
 10
14.6635235053
 20
13.6019898976
 30
0.0
 10
14.6627351984
 20
13.6009177225
 30
0.0
 10
14.6622042011
 20
13.6000232443
 30
0.0
 10
14.6618565315
 20
13.5993376936
 30
0.0
 10
14.661557671
 20
13.5986346351
 30
0.0
 10
14.6613911899
 20
13.5981545964
 30
0.0
 10
14.6613163714
 20
13.5979124772
 30
0.0
  0
SPLINE
  5
309
100
AcDbEntity
  8
LAYER_FEATURE
100
AcDbSpline
 62
7
  6
CONTINUOUS
 70
0
 71
3
 72
22
 73
18
 74
0
 42
0.0000001
 43
0.0000001
 44
0.0000000001
 40
0.0
 40
0.0
 40
0.0
 40
0.0
 40
0.0579633741
 40
0.11701323
 40
0.1770544569
 40
0.2379977831
 40
0.2997427936
 40
0.362185097
 40
0.4252166887
 40
0.4887258599
 40
0.5525982702
 40
0.6167176006
 40
0.6809661688
 40
0.7452255644
 40
0.8093773354
 40
0.8733036271
 40
1.0
 40
1.0
 40
1.0
 40
1.0
 10
14.5308006993
 20
13.4965157163
 30
0.0
 10
14.5322694005
 20
13.4953774192
 30
0.0
 10
14.5352782199
 20
13.4931355691
 30
0.0
 10
14.5399501588
 20
13.4899103157
 30
0.0
 10
14.5448122783
 20
13.486798537
 30
0.0
 10
14.5498510423
 20
13.4838088285
 30
0.0
 10
14.5550527914
 20
13.4809493215
 30
0.0
 10
14.5604032455
 20
13.4782278482
 30
0.0
 10
14.5658877575
 20
13.4756518532
 30
0.0
 10
14.5714913233
 20
13.4732284061
 30
0.0
 10
14.5771985904
 20
13.4709641295
 30
0.0
 10
14.582993925
 20
13.4688652193
 30
0.0
 10
14.5888614703
 20
13.4669374328
 30
0.0
 10
14.5947851184
 20
13.4651860638
 30
0.0
 10
14.600748785
 20
13.4636158551
 30
0.0
 10
14.6087069968
 20
13.4617753221
 30
0.0
 10
14.6147222424
 20
13.4606695062
 30
0.0
 10
14.6187380611
 20
13.4600614427
 30
0.0
  0
SPLINE
  5
30A
100
AcDbEntity
  8
LAYER_FEATURE
100
AcDbSpline
 62
7
  6
CONTINUOUS
 70
0
 71
3
 72
25
 73
21
 74
0
 42
0.0000001
 43
0.0000001
 44
0.0000000001
 40
0.0
 40
0.0
 40
0.0
 40
0.0
 40
0.0633395775
 40
0.1289150169
 40
0.1962644323
 40
0.2648750295
 40
0.3342042747
 40
0.4036914318
 40
0.4727721116
 40
0.5408917278
 40
0.6075194484
 40
0.6721627458
 40
0.7343830116
 40
0.7938128552
 40
0.8501755894
 40
0.8771600975
 40
0.9033277688
 40
0.9286796645
 40
0.953229498
 40
1.0
 40
1.0
 40
1.0
 40
1.0
 10
14.5308006993
 20
13.4965157163
 30
0.0
 10
14.5299026669
 20
13.4972117243
 30
0.0
 10
14.5280173489
 20
13.4985553217
 30
0.0
 10
14.5250069412
 20
13.5003858888
 30
0.0
 10
14.5217943365
 20
13.5020496201
 30
0.0
 10
14.5184182229
 20
13.5035264065
 30
0.0
 10
14.5149190511
 20
13.5047985983
 30
0.0
 10
14.5113388246
 20
13.5058509086
 30
0.0
 10
14.5077205152
 20
13.5066707114
 30
0.0
 10
14.5041075399
 20
13.5072481671
 30
0.0
 10
14.5005432003
 20
13.5075763439
 30
0.0
 10
14.4970701707
 20
13.5076512924
 30
0.0
 10
14.493729826
 20
13.5074720341
 30
0.0
 10
14.4905621737
 20
13.5070405918
 30
0.0
 10
14.4880617223
 20
13.5064666868
 30
0.0
 10
14.4861857323
 20
13.5058810945
 30
0.0
 10
14.484865383
 20
13.5053894881
 30
0.0
 10
14.4836151669
 20
13.5048405279
 30
0.0
 10
14.4820723924
 20
13.504047472
 30
0.0
 10
14.4809914652
 20
13.5033531029
 30
0.0
 10
14.4803221528
 20
13.5028472617
 30
0.0
  0
SPLINE
  5
30B
100
AcDbEntity
  8
LAYER_FEATURE
100
AcDbSpline
 62
7
  6
CONTINUOUS
 70
0
 71
3
 72
14
 73
10
 74
0
 42
0.0000001
 43
0.0000001
 44
0.0000000001
 40
0.0
 40
0.0
 40
0.0
 40
0.0
 40
0.2613108011
 40
0.388295163
 40
0.5132054474
 40
0.6364216614
 40
0.7583458341
 40
0.879394586
 40
1.0
 40
1.0
 40
1.0
 40
1.0
 10
14.4458167363
 20
13.4747968305
 30
0.0
 10
14.4453681854
 20
13.4744042309
 30
0.0
 10
14.4447350596
 20
13.4737802991
 30
0.0
 10
14.4439863859
 20
13.4728794221
 30
0.0
 10
14.4434849614
 20
13.4721851407
 30
0.0
 10
14.4430394486
 20
13.4714673064
 30
0.0
 10
14.442650626
 20
13.4707271313
 30
0.0
 10
14.442319219
 20
13.4699660577
 30
0.0
 10
14.4421368725
 20
13.4694452007
 30
0.0
 10
14.4420556438
 20
13.4691823423
 30
0.0
  0
SPLINE
  5
30C
100
AcDbEntity
  8
LAYER_FEATURE
100
AcDbSpline
 62
7
  6
CONTINUOUS
 70
0
 71
3
 72
29
 73
25
 74
0
 42
0.0000001
 43
0.0000001
 44
0.0000000001
 40
0.0
 40
0.0
 40
0.0
 40
0.0
 40
0.072422
 40
0.1458425572
 40
0.2196747546
 40
0.2933170455
 40
0.3661748122
 40
0.437671895
 40
0.5072666363
 40
0.5744677101
 40
0.6070417607
 40
0.6388655663
 40
0.6698999721
 40
0.7001129712
 40
0.7294801136
 40
0.757985403
 40
0.8123722204
 40
0.8382958743
 40
0.8633979169
 40
0.9112816505
 40
0.9342200323
 40
0.9565859152
 40
0.9784784167
 40
1.0
 40
1.0
 40
1.0
 40
1.0
 10
14.3756723435
 20
13.3319696584
 30
0.0
 10
14.374583448
 20
13.3325258487
 30
0.0
 10
14.3723523151
 20
13.3335723869
 30
0.0
 10
14.3688981122
 20
13.3349293532
 30
0.0
 10
14.3653455592
 20
13.3360724095
 30
0.0
 10
14.3617374561
 20
13.3369877172
 30
0.0
 10
14.3581170913
 20
13.3376643278
 30
0.0
 10
14.354527837
 20
13.3380941139
 30
0.0
 10
14.3510128521
 20
13.338271902
 30
0.0
 10
14.3481510061
 20
13.338207632
 30
0.0
 10
14.3459361895
 20
13.338024863
 30
0.0
 10
14.3443368069
 20
13.3378259625
 30
0.0
 10
14.3427868554
 20
13.3375644003
 30
0.0
 10
14.3412910079
 20
13.3372409808
 30
0.0
 10
14.3398536555
 20
13.3368566183
 30
0.0
 10
14.3380496816
 20
13.3362736397
 30
0.0
 10
14.3363479071
 20
13.3355684974
 30
0.0
 10
14.3347740012
 20
13.3347352351
 30
0.0
 10
14.3333521854
 20
13.3338578544
 30
0.0
 10
14.3320638766
 20
13.3328645294
 30
0.0
 10
14.3309418194
 20
13.3317595501
 30
0.0
 10
14.3302020563
 20
13.3308974719
 30
0.0
 10
14.3295549382
 20
13.3299931816
 30
0.0
 10
14.3291839646
 20
13.3293595709
 30
0.0
 10
14.3290154389
 20
13.3290376619
 30
0.0
  0
SPLINE
  5
30D
100
AcDbEntity
  8
LAYER_FEATURE
100
AcDbSpline
 62
7
  6
CONTINUOUS
 70
0
 71
3
 72
40
 73
36
 74
0
 42
0.0000001
 43
0.0000001
 44
0.0000000001
 40
0.0
 40
0.0
 40
0.0
 40
0.0
 40
0.0475531159
 40
0.0938226453
 40
0.1387498811
 40
0.1822938682
 40
0.2244186789
 40
0.2650921917
 40
0.3042902716
 40
0.3419970538
 40
0.3782059727
 40
0.4129201139
 40
0.4461547195
 40
0.4779377344
 40
0.50831225
 40
0.5373380112
 40
0.5650935092
 40
0.5785276574
 40
0.5916833956
 40
0.6172186475
 40
0.6418496133
 40
0.6657441719
 40
0.6890916859
 40
0.712098797
 40
0.7349838362
 40
0.7579694531
 40
0.7812747358
 40
0.8051077332
 40
0.8296596957
 40
0.8551006711
 40
0.8815780231
 40
0.9092154606
 40
0.9381144777
 40
0.9683555033
 40
1.0
 40
1.0
 40
1.0
 40
1.0
 10
16.1028927315
 20
11.9943804835
 30
0.0
 10
16.1033290894
 20
11.9957925384
 30
0.0
 10
16.1042233193
 20
11.9985683952
 30
0.0
 10
16.105649844
 20
12.0026384278
 30
0.0
 10
16.107141297
 20
12.0065521295
 30
0.0
 10
16.1086949736
 20
12.0103025305
 30
0.0
 10
16.1103082088
 20
12.0138832432
 30
0.0
 10
16.11197824
 20
12.0172880753
 30
0.0
 10
16.1137021511
 20
12.020511122
 30
0.0
 10
16.1154770184
 20
12.0235467996
 30
0.0
 10
16.1172997512
 20
12.0263899051
 30
0.0
 10
16.1191673168
 20
12.0290355025
 30
0.0
 10
16.1210765067
 20
12.0314790677
 30
0.0
 10
16.1230241723
 20
12.033716346
 30
0.0
 10
16.1250070916
 20
12.0357434925
 30
0.0
 10
16.127021936
 20
12.0375568721
 30
0.0
 10
16.1287433732
 20
12.0389016091
 30
0.0
 10
16.1301325139
 20
12.0398631206
 30
0.0
 10
16.1315004433
 20
12.0407316955
 30
0.0
 10
16.1332258479
 20
12.0416837434
 30
0.0
 10
16.1353354752
 20
12.0426125358
 30
0.0
 10
16.1374600735
 20
12.043314088
 30
0.0
 10
16.1395956242
 20
12.0437866595
 30
0.0
 10
16.1417379995
 20
12.0440288826
 30
0.0
 10
16.1438828129
 20
12.0440400733
 30
0.0
 10
16.1460256176
 20
12.0438202021
 30
0.0
 10
16.1481620171
 20
12.04336988
 30
0.0
 10
16.1502878419
 20
12.042690438
 30
0.0
 10
16.152399122
 20
12.0417835315
 30
0.0
 10
16.1544922074
 20
12.0406513726
 30
0.0
 10
16.1565635455
 20
12.0392962866
 30
0.0
 10
16.1586097949
 20
12.0377210211
 30
0.0
 10
16.1606276318
 20
12.0359284564
 30
0.0
 10
16.162613734
 20
12.0339219163
 30
0.0
 10
16.1638852117
 20
12.0324771711
 30
0.0
 10
16.1645154426
 20
12.0317221288
 30
0.0
  0
SPLINE
  5
30E
100
AcDbEntity
  8
LAYER_FEATURE
100
AcDbSpline
 62
7
  6
CONTINUOUS
 70
0
 71
3
 72
80
 73
76
 74
0
 42
0.0000001
 43
0.0000001
 44
0.0000000001
 40
0.0
 40
0.0
 40
0.0
 40
0.0
 40
0.005354095
 40
0.0107128794
 40
0.0160810218
 40
0.0214631517
 40
0.0268638368
 40
0.0322875691
 40
0.0377387412
 40
0.0432216372
 40
0.0487404089
 40
0.0542990724
 40
0.0599014843
 40
0.0655513449
 40
0.0712521743
 40
0.0770073212
 40
0.0828199404
 40
0.0886930063
 40
0.1006301243
 40
0.1128399038
 40
0.1190529639
 40
0.125340226
 40
0.1381426332
 40
0.1512590075
 40
0.1646973081
 40
0.1784628136
 40
0.192558276
 40
0.2069840807
 40
0.2217384044
 40
0.2368173697
 40
0.2522151948
 40
0.2679243351
 40
0.2839356189
 40
0.3002383747
 40
0.3168205523
 40
0.3336688367
 40
0.3507687563
 40
0.3681047851
 40
0.3856604405
 40
0.4034183762
 40
0.4213604719
 40
0.4394679187
 40
0.457721303
 40
0.4761006862
 40
0.4945856844
 40
0.5131555443
 40
0.5317892196
 40
0.5504654452
 40
0.5691628106
 40
0.5878598339
 40
0.6065350342
 40
0.6251670046
 40
0.6437344858
 40
0.6622164395
 40
0.6805921233
 40
0.6988411661
 40
0.7169436449
 40
0.734880164
 40
0.7526319353
 40
0.7701808615
 40
0.7875096228
 40
0.8046017653
 40
0.8214417952
 40
0.8380152761
 40
0.8543089316
 40
0.8703107534
 40
0.8860101161
 40
0.9013978976
 40
0.9164666074
 40
0.9312105222
 40
0.9456258266
 40
0.9597107692
 40
0.9734657971
 40
0.9868937654
 40
1.0
 40
1.0
 40
1.0
 40
1.0
 10
14.3354223771
 20
12.4535427658
 30
0.0
 10
14.3366598128
 20
12.4575471204
 30
0.0
 10
14.3392807569
 20
12.4655153572
 30
0.0
 10
14.3436439404
 20
12.4773260268
 30
0.0
 10
14.348437764
 20
12.4889924565
 30
0.0
 10
14.353660154
 20
12.5005093902
 30
0.0
 10
14.359308795
 20
12.5118719625
 30
0.0
 10
14.3653813098
 20
12.523075236
 30
0.0
 10
14.3718749915
 20
12.5341144476
 30
0.0
 10
14.378787106
 20
12.5449848117
 30
0.0
 10
14.3861145815
 20
12.5556817233
 30
0.0
 10
14.3938543276
 20
12.5662005451
 30
0.0
 10
14.4020029203
 20
12.5765368401
 30
0.0
 10
14.4105569164
 20
12.5866861258
 30
0.0
 10
14.4195125567
 20
12.5966441424
 30
0.0
 10
14.4288660281
 20
12.6064065531
 30
0.0
 10
14.4386133313
 20
12.6159693437
 30
0.0
 10
14.4522018122
 20
12.6285150264
 30
0.0
 10
14.4701750412
 20
12.6436765058
 30
0.0
 10
14.4891920117
 20
12.6579515117
 30
0.0
 10
14.5051202166
 20
12.6689298249
 30
0.0
 10
14.5217225734
 20
12.679735394
 30
0.0
 10
14.543382985
 20
12.6926586803
 30
0.0
 10
14.5705963003
 20
12.7071268149
 30
0.0
 10
14.5991397983
 20
12.7206240615
 30
0.0
 10
14.6289642559
 20
12.7331275278
 30
0.0
 10
14.6600189323
 20
12.7446163495
 30
0.0
 10
14.6922508524
 20
12.7550712232
 30
0.0
 10
14.7256050996
 20
12.7644745836
 30
0.0
 10
14.7600248384
 20
12.772810601
 30
0.0
 10
14.795451419
 20
12.7800652256
 30
0.0
 10
14.8318244676
 20
12.7862262152
 30
0.0
 10
14.8690819859
 20
12.7912831631
 30
0.0
 10
14.9071604552
 20
12.7952275211
 30
0.0
 10
14.9459949426
 20
12.7980526198
 30
0.0
 10
14.9855192121
 20
12.7997536836
 30
0.0
 10
15.0256658372
 20
12.8003278431
 30
0.0
 10
15.0663663171
 20
12.7997741425
 30
0.0
 10
15.1075511936
 20
12.7980935443
 30
0.0
 10
15.1491501716
 20
12.7952889296
 30
0.0
 10
15.1910922392
 20
12.7913650946
 30
0.0
 10
15.2333057906
 20
12.7863287442
 30
0.0
 10
15.2757187491
 20
12.7801884811
 30
0.0
 10
15.3182586915
 20
12.7729547926
 30
0.0
 10
15.3608529723
 20
12.7646400327
 30
0.0
 10
15.4034288494
 20
12.7552584018
 30
0.0
 10
15.4459136086
 20
12.7448259225
 30
0.0
 10
15.4882346891
 20
12.7333604127
 30
0.0
 10
15.530319808
 20
12.7208814549
 30
0.0
 10
15.5720970848
 20
12.7074103629
 30
0.0
 10
15.6134951649
 20
12.6929701451
 30
0.0
 10
15.654443342
 20
12.6775854649
 30
0.0
 10
15.6948716797
 20
12.6612825983
 30
0.0
 10
15.7347111316
 20
12.6440893884
 30
0.0
 10
15.7738936601
 20
12.6260351972
 30
0.0
 10
15.8123523528
 20
12.6071508549
 30
0.0
 10
15.8500215375
 20
12.5874686058
 30
0.0
 10
15.8868368949
 20
12.567022053
 30
0.0
 10
15.9227355687
 20
12.5458460988
 30
0.0
 10
15.9576562731
 20
12.5239768846
 30
0.0
 10
15.9915393979
 20
12.5014517265
 30
0.0
 10
16.0243271096
 20
12.4783090503
 30
0.0
 10
16.0559634503
 20
12.4545883234
 30
0.0
 10
16.0863944318
 20
12.4303299848
 30
0.0
 10
16.1155681269
 20
12.4055753735
 30
0.0
 10
16.1434347558
 20
12.3803666546
 30
0.0
 10
16.1699467683
 20
12.3547467439
 30
0.0
 10
16.1950589207
 20
12.328759232
 30
0.0
 10
16.2187283496
 20
12.3024483043
 30
0.0
 10
16.2409146309
 20
12.275858671
 30
0.0
 10
16.2615798641
 20
12.2490354566
 30
0.0
 10
16.2806886505
 20
12.2220242415
 30
0.0
 10
16.2982083846
 20
12.1948705533
 30
0.0
 10
16.3141084902
 20
12.1676213366
 30
0.0
 10
16.3237262993
 20
12.1492004091
 30
0.0
 10
16.3282460824
 20
12.1399900594
 30
0.0
  0
SPLINE
  5
30F
100
AcDbEntity
  8
LAYER_CUT_FEAT
100
AcDbSpline
 62
7
  6
CONTINUOUS
 70
0
 71
3
 72
81
 73
77
 74
0
 42
0.0000001
 43
0.0000001
 44
0.0000000001
 40
0.0
 40
0.0
 40
0.0
 40
0.0
 40
0.0053540899
 40
0.0107128693
 40
0.0160810066
 40
0.0214631314
 40
0.0268638114
 40
0.0322875384
 40
0.0377387056
 40
0.0432215961
 40
0.0487403629
 40
0.0542990206
 40
0.0599014279
 40
0.0655512822
 40
0.0712521073
 40
0.0770072474
 40
0.0828198626
 40
0.0886929213
 40
0.1006300278
 40
0.1128397957
 40
0.1190528523
 40
0.125340106
 40
0.1381425011
 40
0.1446613592
 40
0.1512598124
 40
0.1646981006
 40
0.1784635933
 40
0.1925590427
 40
0.2069848341
 40
0.221739144
 40
0.2368180954
 40
0.2522159061
 40
0.2679250317
 40
0.2839363004
 40
0.3002390407
 40
0.3168212026
 40
0.3336694709
 40
0.3507693741
 40
0.3681053862
 40
0.3856610247
 40
0.4034189433
 40
0.4213610216
 40
0.4394684511
 40
0.4577218178
 40
0.4761011835
 40
0.4945861639
 40
0.5131560062
 40
0.5317896639
 40
0.5504658718
 40
0.5691632196
 40
0.5878602253
 40
0.606535408
 40
0.6251673608
 40
0.6437348245
 40
0.6622167608
 40
0.6805924272
 40
0.6988414526
 40
0.7169439142
 40
0.7348804162
 40
0.7526321705
 40
0.77018108
 40
0.7875098246
 40
0.8046019508
 40
0.8214419646
 40
0.8380154297
 40
0.8543090696
 40
0.8703108762
 40
0.8860102239
 40
0.9013979908
 40
0.9164666863
 40
0.9312105874
 40
0.9456258776
 40
0.9597108083
 40
0.9734658197
 40
0.9868937821
 40
1.0
 40
1.0
 40
1.0
 40
1.0
 10
14.3257397263
 20
12.4222096888
 30
0.0
 10
14.3269771652
 20
12.4262140424
 30
0.0
 10
14.3295980969
 20
12.4341822833
 30
0.0
 10
14.3339612923
 20
12.4459929487
 30
0.0
 10
14.3387551078
 20
12.4576593815
 30
0.0
 10
14.343977503
 20
12.469176313
 30
0.0
 10
14.349626142
 20
12.4805388862
 30
0.0
 10
14.3556986562
 20
12.4917421603
 30
0.0
 10
14.3621923416
 20
12.5027813694
 30
0.0
 10
14.3691044498
 20
12.5136517379
 30
0.0
 10
14.3764319344
 20
12.5243486427
 30
0.0
 10
14.3841716691
 20
12.5348674736
 30
0.0
 10
14.3923202755
 20
12.5452037569
 30
0.0
 10
14.400874256
 20
12.5553530568
 30
0.0
 10
14.4098299135
 20
12.5653110568
 30
0.0
 10
14.4191833666
 20
12.5750734863
 30
0.0
 10
14.4289306879
 20
12.584636257
 30
0.0
 10
14.4425191476
 20
12.5971819614
 30
0.0
 10
14.4604923913
 20
12.6123434283
 30
0.0
 10
14.4795093384
 20
12.6266184439
 30
0.0
 10
14.4954375878
 20
12.6375967462
 30
0.0
 10
14.5120398167
 20
12.6484022762
 30
0.0
 10
14.5292637201
 20
12.6586785917
 30
0.0
 10
14.5470595583
 20
12.6684280618
 30
0.0
 10
14.5655272646
 20
12.6779753802
 30
0.0
 10
14.5894573325
 20
12.6892910742
 30
0.0
 10
14.6192815469
 20
12.7017944303
 30
0.0
 10
14.6503362923
 20
12.7132832816
 30
0.0
 10
14.6825681948
 20
12.7237381458
 30
0.0
 10
14.7159224483
 20
12.7331415074
 30
0.0
 10
14.7503421867
 20
12.7414775231
 30
0.0
 10
14.7857687685
 20
12.7487321468
 30
0.0
 10
14.8221418176
 20
12.7548931353
 30
0.0
 10
14.8593993364
 20
12.7599500823
 30
0.0
 10
14.8974778058
 20
12.7638944396
 30
0.0
 10
14.9363122932
 20
12.7667195378
 30
0.0
 10
14.9758365624
 20
12.7684206014
 30
0.0
 10
15.0159831872
 20
12.7689947608
 30
0.0
 10
15.0566836665
 20
12.7684410605
 30
0.0
 10
15.0978685425
 20
12.7667604628
 30
0.0
 10
15.1394675199
 20
12.7639558488
 30
0.0
 10
15.181409587
 20
12.7600320147
 30
0.0
 10
15.223623138
 20
12.7549956652
 30
0.0
 10
15.2660360962
 20
12.7488554033
 30
0.0
 10
15.3085760384
 20
12.7416217159
 30
0.0
 10
15.3511703193
 20
12.7333069571
 30
0.0
 10
15.3937461965
 20
12.7239253272
 30
0.0
 10
15.436230956
 20
12.7134928488
 30
0.0
 10
15.4785520368
 20
12.7020273397
 30
0.0
 10
15.5206371562
 20
12.6895483823
 30
0.0
 10
15.5624144334
 20
12.6760772905
 30
0.0
 10
15.6038125138
 20
12.6616370726
 30
0.0
 10
15.6447606911
 20
12.6462523921
 30
0.0
 10
15.6851890289
 20
12.6299495251
 30
0.0
 10
15.7250284808
 20
12.6127563147
 30
0.0
 10
15.7642110091
 20
12.5947021229
 30
0.0
 10
15.8026697015
 20
12.5758177799
 30
0.0
 10
15.8403388858
 20
12.5561355303
 30
0.0
 10
15.8771542427
 20
12.535688977
 30
0.0
 10
15.913052916
 20
12.5145130224
 30
0.0
 10
15.9479736198
 20
12.4926438078
 30
0.0
 10
15.9818567441
 20
12.4701186495
 30
0.0
 10
16.0146444553
 20
12.4469759731
 30
0.0
 10
16.0462807955
 20
12.4232552461
 30
0.0
 10
16.0767117767
 20
12.3989969075
 30
0.0
 10
16.1058854716
 20
12.3742422962
 30
0.0
 10
16.1337521004
 20
12.3490335774
 30
0.0
 10
16.160264113
 20
12.3234136668
 30
0.0
 10
16.1853762655
 20
12.2974261551
 30
0.0
 10
16.2090456948
 20
12.2711152276
 30
0.0
 10
16.231231976
 20
12.2445255944
 30
0.0
 10
16.2518972108
 20
12.2177023799
 30
0.0
 10
16.2710059951
 20
12.1906911657
 30
0.0
 10
16.2885257337
 20
12.1635374758
 30
0.0
 10
16.3044258369
 20
12.1362882584
 30
0.0
 10
16.3140436478
 20
12.1178673296
 30
0.0
 10
16.3185634295
 20
12.108656983
 30
0.0
  0
SPLINE
  5
310
100
AcDbEntity
  8
LAYER_FEATURE
100
AcDbSpline
 62
7
  6
CONTINUOUS
 70
0
 71
3
 72
62
 73
58
 74
0
 42
0.0000001
 43
0.0000001
 44
0.0000000001
 40
0.0
 40
0.0
 40
0.0
 40
0.0
 40
0.0176369723
 40
0.0357029934
 40
0.0541721709
 40
0.073021606
 40
0.0922270502
 40
0.1117621972
 40
0.1517110523
 40
0.1926448726
 40
0.2343275524
 40
0.2765151183
 40
0.3189583471
 40
0.3614053955
 40
0.4036043796
 40
0.4453059599
 40
0.4862659543
 40
0.5262480228
 40
0.5458022239
 40
0.5650283271
 40
0.5839003171
 40
0.6023931887
 40
0.6204831112
 40
0.6381475878
 40
0.6553654518
 40
0.6721172361
 40
0.6883850417
 40
0.7041530402
 40
0.7194073703
 40
0.7341366151
 40
0.7483319248
 40
0.7619873496
 40
0.7751003071
 40
0.787671777
 40
0.7997071026
 40
0.8112161897
 40
0.8222144903
 40
0.8327234034
 40
0.8427712008
 40
0.8476339604
 40
0.8523955518
 40
0.8616365063
 40
0.8705483467
 40
0.879191766
 40
0.8876352971
 40
0.8959537832
 40
0.9042263865
 40
0.9125338915
 40
0.920955836
 40
0.9295678046
 40
0.9384392797
 40
0.9476320711
 40
0.9571997399
 40
0.9671872337
 40
0.9776314551
 40
0.9885615923
 40
1.0
 40
1.0
 40
1.0
 40
1.0
 10
16.1028927315
 20
11.9943804835
 30
0.0
 10
16.1024441671
 20
11.9929289287
 30
0.0
 10
16.1015721438
 20
11.9899792632
 30
0.0
 10
16.1003524629
 20
11.9854745962
 30
0.0
 10
16.0992071635
 20
11.9808427773
 30
0.0
 10
16.0981382616
 20
11.9760921105
 30
0.0
 10
16.0971475844
 20
11.97123077
 30
0.0
 10
16.0959242791
 20
11.9645632426
 30
0.0
 10
16.094606853
 20
11.956011784
 30
0.0
 10
16.0933733796
 20
11.9455239679
 30
0.0
 10
16.0924845079
 20
11.9348078428
 30
0.0
 10
16.0919464954
 20
11.9239382963
 30
0.0
 10
16.0917631367
 20
11.9129911628
 30
0.0
 10
16.0919357248
 20
11.902042871
 30
0.0
 10
16.0924630434
 20
11.8911698578
 30
0.0
 10
16.0933413739
 20
11.8804479837
 30
0.0
 10
16.0945645289
 20
11.8699521734
 30
0.0
 10
16.0958734887
 20
11.8613925849
 30
0.0
 10
16.0970901478
 20
11.8547174569
 30
0.0
 10
16.098076037
 20
11.8498496718
 30
0.0
 10
16.0991402596
 20
11.8450920477
 30
0.0
 10
16.1002809771
 20
11.8404528833
 30
0.0
 10
16.101496191
 20
11.8359402873
 30
0.0
 10
16.1027837537
 20
11.8315621351
 30
0.0
 10
16.1041414491
 20
11.8273260756
 30
0.0
 10
16.1055668542
 20
11.823239488
 30
0.0
 10
16.1070575339
 20
11.819309509
 30
0.0
 10
16.1086108352
 20
11.8155429705
 30
0.0
 10
16.1102240958
 20
11.8119464388
 30
0.0
 10
16.1118944864
 20
11.8085261575
 30
0.0
 10
16.1136191192
 20
11.8052880657
 30
0.0
 10
16.1153950345
 20
11.8022377854
 30
0.0
 10
16.1172191461
 20
11.7993805798
 30
0.0
 10
16.119088395
 20
11.7967214214
 30
0.0
 10
16.1209995554
 20
11.7942648711
 30
0.0
 10
16.1229494785
 20
11.7920152341
 30
0.0
 10
16.1249348992
 20
11.7899763694
 30
0.0
 10
16.1269525044
 20
11.788151973
 30
0.0
 10
16.1286765024
 20
11.7867984937
 30
0.0
 10
16.1300678294
 20
11.7858303882
 30
0.0
 10
16.1314378469
 20
11.7849556777
 30
0.0
 10
16.1331659562
 20
11.7839964087
 30
0.0
 10
16.1352791436
 20
11.7830596017
 30
0.0
 10
16.1374074663
 20
11.7823508507
 30
0.0
 10
16.1395468863
 20
11.7818719041
 30
0.0
 10
16.1416932613
 20
11.7816241834
 30
0.0
 10
16.143842177
 20
11.7816083479
 30
0.0
 10
16.1459891583
 20
11.7818244915
 30
0.0
 10
16.1481297838
 20
11.7822719607
 30
0.0
 10
16.1502598461
 20
11.7829494671
 30
0.0
 10
16.1523753565
 20
11.7838553185
 30
0.0
 10
16.1544726366
 20
11.7849873083
 30
0.0
 10
16.1565481101
 20
11.7863430989
 30
0.0
 10
16.1585984276
 20
11.7879199157
 30
0.0
 10
16.160620228
 20
11.7897148833
 30
0.0
 10
16.1626101957
 20
11.7917246359
 30
0.0
 10
16.1638840429
 20
11.793171943
 30
0.0
 10
16.1645154422
 20
11.7939283844
 30
0.0
  0
SPLINE
  5
311
100
AcDbEntity
  8
LAYER_CHAMFER_FEAT
100
AcDbSpline
 62
7
  6
CONTINUOUS
 70
0
 71
3
 72
72
 73
68
 74
0
 42
0.0000001
 43
0.0000001
 44
0.0000000001
 40
0.0
 40
0.0
 40
0.0
 40
0.0
 40
0.0157581997
 40
0.0311479129
 40
0.0461654535
 40
0.0608098848
 40
0.0750832742
 40
0.0889908735
 40
0.1025413348
 40
0.1157469579
 40
0.1286238483
 40
0.141192039
 40
0.1534755969
 40
0.1655026252
 40
0.1773051235
 40
0.188918755
 40
0.2003824776
 40
0.2117379849
 40
0.2230290249
 40
0.2343006097
 40
0.2455981357
 40
0.2569664877
 40
0.2684491712
 40
0.2800875195
 40
0.2919200439
 40
0.3039819195
 40
0.316304594
 40
0.328915582
 40
0.3353374161
 40
0.341839788
 40
0.355093881
 40
0.3686947927
 40
0.3826542892
 40
0.3969805488
 40
0.4116783359
 40
0.4267492601
 40
0.4421920038
 40
0.4580025015
 40
0.4741741641
 40
0.4906981064
 40
0.5075633122
 40
0.524756794
 40
0.5422637999
 40
0.5600679645
 40
0.5781514263
 40
0.5964949957
 40
0.6150782978
 40
0.6338798757
 40
0.6528773159
 40
0.6720473853
 40
0.6913661326
 40
0.7108089874
 40
0.7303508875
 40
0.7499663785
 40
0.7696297087
 40
0.7893149421
 40
0.8089960594
 40
0.8286470524
 40
0.8482420329
 40
0.8677553392
 40
0.8871616217
 40
0.9064359444
 40
0.9255539928
 40
0.9444919585
 40
0.9632266375
 40
0.9817369858
 40
1.0
 40
1.0
 40
1.0
 40
1.0
 10
15.0566886636
 20
11.8875754568
 30
0.0
 10
15.0533767707
 20
11.8867965784
 30
0.0
 10
15.0468590817
 20
11.8851315484
 30
0.0
 10
15.0373072449
 20
11.8822743476
 30
0.0
 10
15.0281124592
 20
11.8790920114
 30
0.0
 10
15.0192929387
 20
11.8755907024
 30
0.0
 10
15.0108659177
 20
11.8717771706
 30
0.0
 10
15.0028479488
 20
11.8676587404
 30
0.0
 10
14.9952548155
 20
11.8632432741
 30
0.0
 10
14.9881014832
 20
11.8585392465
 30
0.0
 10
14.9814021011
 20
11.8535556778
 30
0.0
 10
14.9751700195
 20
11.8483020992
 30
0.0
 10
14.969417735
 20
11.8427886044
 30
0.0
 10
14.9641568436
 20
11.8370258672
 30
0.0
 10
14.9593980751
 20
11.8310250851
 30
0.0
 10
14.9551512545
 20
11.8247980054
 30
0.0
 10
14.9514251636
 20
11.8183569835
 30
0.0
 10
14.9482275637
 20
11.8117149039
 30
0.0
 10
14.9455651642
 20
11.8048851552
 30
0.0
 10
14.9434434744
 20
11.7978816238
 30
0.0
 10
14.9418667835
 20
11.7907186018
 30
0.0
 10
14.9408382111
 20
11.7834106947
 30
0.0
 10
14.9403596625
 20
11.775972768
 30
0.0
 10
14.9404317774
 20
11.7684198679
 30
0.0
 10
14.9410540726
 20
11.7607671687
 30
0.0
 10
14.9422249956
 20
11.7530298853
 30
0.0
 10
14.9439417856
 20
11.7452234867
 30
0.0
 10
14.9458129233
 20
11.7387126142
 30
0.0
 10
14.9475729127
 20
11.7334872504
 30
0.0
 10
14.9495342375
 20
11.7281857137
 30
0.0
 10
14.9523252628
 20
11.7215420631
 30
0.0
 10
14.9561781496
 20
11.7136125389
 30
0.0
 10
14.9605482537
 20
11.7056906328
 30
0.0
 10
14.9654268192
 20
11.6977919563
 30
0.0
 10
14.970804173
 20
11.6899318125
 30
0.0
 10
14.9766696899
 20
11.6821255174
 30
0.0
 10
14.9830118442
 20
11.6743882973
 30
0.0
 10
14.989818157
 20
11.6667352422
 30
0.0
 10
14.9970752418
 20
11.6591812814
 30
0.0
 10
15.004768864
 20
11.6517411868
 30
0.0
 10
15.0128839353
 20
11.644429523
 30
0.0
 10
15.0214045102
 20
11.6372605808
 30
0.0
 10
15.0303138699
 20
11.6302484012
 30
0.0
 10
15.0395945468
 20
11.6234067464
 30
0.0
 10
15.0492283141
 20
11.6167490161
 30
0.0
 10
15.0591962544
 20
11.6102882589
 30
0.0
 10
15.0694788106
 20
11.604037167
 30
0.0
 10
15.0800557958
 20
11.5980080136
 30
0.0
 10
15.0909064285
 20
11.592212615
 30
0.0
 10
15.1020094037
 20
11.5866623558
 30
0.0
 10
15.1133429251
 20
11.5813681559
 30
0.0
 10
15.1248847209
 20
11.5763403931
 30
0.0
 10
15.1366121177
 20
11.5715889381
 30
0.0
 10
15.1485020868
 20
11.5671231453
 30
0.0
 10
15.1605312677
 20
11.5629517827
 30
0.0
 10
15.1726760228
 20
11.5590830283
 30
0.0
 10
15.1849124971
 20
11.5555244939
 30
0.0
 10
15.1972166547
 20
11.5522831856
 30
0.0
 10
15.2095643177
 20
11.5493654471
 30
0.0
 10
15.2219312306
 20
11.5467770103
 30
0.0
 10
15.2342931011
 20
11.544522986
 30
0.0
 10
15.2466256516
 20
11.5426077792
 30
0.0
 10
15.2589046591
 20
11.5410351515
 30
0.0
 10
15.2711059531
 20
11.5398082124
 30
0.0
 10
15.2832057811
 20
11.5389293299
 30
0.0
 10
15.295180028
 20
11.5384003209
 30
0.0
 10
15.3031199839
 20
11.5382806624
 30
0.0
 10
15.3070630288
 20
11.5382806624
 30
0.0
  0
SPLINE
  5
312
100
AcDbEntity
  8
LAYER_FEATURE
100
AcDbSpline
 62
7
  6
CONTINUOUS
 70
0
 71
3
 72
46
 73
42
 74
0
 42
0.0000001
 43
0.0000001
 44
0.0000000001
 40
0.0
 40
0.0
 40
0.0
 40
0.0
 40
0.0396645078
 40
0.0788613625
 40
0.1175671524
 40
0.1557611441
 40
0.1934233488
 40
0.2305356756
 40
0.2670816668
 40
0.3030467311
 40
0.3384182489
 40
0.373185705
 40
0.4073408296
 40
0.4408777429
 40
0.4737931061
 40
0.5060862783
 40
0.5377594784
 40
0.5688179438
 40
0.5992700904
 40
0.6291276687
 40
0.6584059125
 40
0.6728343747
 40
0.6871253929
 40
0.7153052552
 40
0.7429736226
 40
0.7701607626
 40
0.7969008076
 40
0.8232316975
 40
0.8491950558
 40
0.8620540739
 40
0.8748384068
 40
0.8875541856
 40
0.9002077255
 40
0.9128055046
 40
0.9253541479
 40
0.9378604202
 40
0.9503311966
 40
0.9627734571
 40
0.9751942581
 40
0.9876007192
 40
1.0
 40
1.0
 40
1.0
 40
1.0
 10
14.8828338539
 20
13.0410719355
 30
0.0
 10
14.8674386411
 20
13.0410719355
 30
0.0
 10
14.8368285081
 20
13.0407267191
 30
0.0
 10
14.7912196238
 20
13.0391532582
 30
0.0
 10
14.7462304465
 20
13.036528808
 30
0.0
 10
14.70191222
 20
13.0328563996
 30
0.0
 10
14.6583147256
 20
13.0281400903
 30
0.0
 10
14.6154872337
 20
13.0223852027
 30
0.0
 10
14.5734780312
 20
13.0155981748
 30
0.0
 10
14.5323345084
 20
13.0077866216
 30
0.0
 10
14.4921030641
 20
12.9989593009
 30
0.0
 10
14.4528290659
 20
12.989126102
 30
0.0
 10
14.4145568004
 20
12.9782980324
 30
0.0
 10
14.3773294253
 20
12.966487203
 30
0.0
 10
14.3411889227
 20
12.9537068118
 30
0.0
 10
14.3061760581
 20
12.9399711291
 30
0.0
 10
14.2723303214
 20
12.925295481
 30
0.0
 10
14.2396899374
 20
12.9096962499
 30
0.0
 10
14.2082916668
 20
12.8931907508
 30
0.0
 10
14.1781713649
 20
12.8757975966
 30
0.0
 10
14.1540476506
 20
12.8605056365
 30
0.0
 10
14.1354333796
 20
12.8478436908
 30
0.0
 10
14.1174479062
 20
12.8350249168
 30
0.0
 10
14.0958092898
 20
12.8184888089
 30
0.0
 10
14.0711261239
 20
12.7977474252
 30
0.0
 10
14.0478762716
 20
12.7762243504
 30
0.0
 10
14.0260865827
 20
12.7539437169
 30
0.0
 10
14.0057824091
 20
12.7309309457
 30
0.0
 10
13.9900686949
 20
12.7111004237
 30
0.0
 10
13.9782787443
 20
12.6949048199
 30
0.0
 10
13.9698488524
 20
12.6826302693
 30
0.0
 10
13.9618064275
 20
12.6701933814
 30
0.0
 10
13.9541536579
 20
12.6575975911
 30
0.0
 10
13.9468927273
 20
12.6448465013
 30
0.0
 10
13.9400257541
 20
12.631943687
 30
0.0
 10
13.9335546205
 20
12.6188928497
 30
0.0
 10
13.9274812528
 20
12.6056976444
 30
0.0
 10
13.9218073168
 20
12.59236186
 30
0.0
 10
13.9165344537
 20
12.5788892212
 30
0.0
 10
13.9116642169
 20
12.5652837105
 30
0.0
 10
13.9086862946
 20
12.5561261029
 30
0.0
 10
13.9072653878
 20
12.5515280401
 30
0.0
  0
SPLINE
  5
313
100
AcDbEntity
  8
02___PRT_ALL_AXES
100
AcDbSpline
 62
7
  6
CONTINUOUS
 70
0
 71
3
 72
72
 73
68
 74
0
 42
0.0000001
 43
0.0000001
 44
0.0000000001
 40
0.0
 40
0.0
 40
0.0
 40
0.0
 40
0.0171788525
 40
0.0345304109
 40
0.0520444105
 40
0.0697101033
 40
0.0875164387
 40
0.1054520335
 40
0.1235052187
 40
0.1416640663
 40
0.1599164185
 40
0.1782499169
 40
0.1966520307
 40
0.2151100844
 40
0.2336112851
 40
0.2521427503
 40
0.2706915345
 40
0.2892446563
 40
0.3077891257
 40
0.3263119702
 40
0.3448002622
 40
0.3632411459
 40
0.3816218645
 40
0.3999297875
 40
0.4181524381
 40
0.4362775215
 40
0.4542929531
 40
0.4721868875
 40
0.4899477478
 40
0.5075642559
 40
0.525025463
 40
0.5423207817
 40
0.5594400177
 40
0.5763734045
 40
0.5931116379
 40
0.6096459121
 40
0.625967957
 40
0.6420700776
 40
0.6579451945
 40
0.6735868867
 40
0.6889894364
 40
0.7041478755
 40
0.7190580337
 40
0.7337165898
 40
0.7481211242
 40
0.7622701737
 40
0.7761632882
 40
0.7898010888
 40
0.8031853258
 40
0.8163189377
 40
0.8292061083
 40
0.8418523224
 40
0.8542644167
 40
0.8603855311
 40
0.8664513238
 40
0.8784213131
 40
0.8901862079
 40
0.9017586004
 40
0.9131525423
 40
0.9243835154
 40
0.9354683774
 40
0.9464252803
 40
0.9572735599
 40
0.968033596
 40
0.9787266447
 40
0.9893746441
 40
1.0
 40
1.0
 40
1.0
 40
1.0
 10
14.9335392631
 20
12.2994420685
 30
0.0
 10
14.9428732187
 20
12.2994420685
 30
0.0
 10
14.9616355674
 20
12.2992366961
 30
0.0
 10
14.9899006352
 20
12.2983241203
 30
0.0
 10
15.0184046549
 20
12.2968063883
 30
0.0
 10
15.0471178069
 20
12.2946850751
 30
0.0
 10
15.0760102436
 20
12.2919623944
 30
0.0
 10
15.1050518875
 20
12.2886411794
 30
0.0
 10
15.1342125149
 20
12.2847248874
 30
0.0
 10
15.1634617739
 20
12.2802175957
 30
0.0
 10
15.1927692204
 20
12.2751239967
 30
0.0
 10
15.2221043482
 20
12.2694493926
 30
0.0
 10
15.2514366216
 20
12.2631996904
 30
0.0
 10
15.2807355073
 20
12.2563813955
 30
0.0
 10
15.3099705059
 20
12.2490016049
 30
0.0
 10
15.3391111844
 20
12.241068001
 30
0.0
 10
15.3681272077
 20
12.232588843
 30
0.0
 10
15.3969883702
 20
12.2235729579
 30
0.0
 10
15.4256646277
 20
12.2140297312
 30
0.0
 10
15.4541261282
 20
12.2039690971
 30
0.0
 10
15.4823432435
 20
12.1934015283
 30
0.0
 10
15.5102866001
 20
12.1823380252
 30
0.0
 10
15.5379271103
 20
12.1707901051
 30
0.0
 10
15.565236002
 20
12.1587697887
 30
0.0
 10
15.592184849
 20
12.1462895882
 30
0.0
 10
15.6187456003
 20
12.1333624937
 30
0.0
 10
15.6448906094
 20
12.1200019595
 30
0.0
 10
15.6705926638
 20
12.1062218905
 30
0.0
 10
15.6958250132
 20
12.0920366281
 30
0.0
 10
15.7205613975
 20
12.0774609339
 30
0.0
 10
15.7447760735
 20
12.0625099744
 30
0.0
 10
15.7684438419
 20
12.0471993047
 30
0.0
 10
15.7915400737
 20
12.0315448525
 30
0.0
 10
15.8140407356
 20
12.0155629006
 30
0.0
 10
15.8359224156
 20
11.9992700708
 30
0.0
 10
15.8571623473
 20
11.9826833055
 30
0.0
 10
15.8777384323
 20
11.9658198491
 30
0.0
 10
15.8976292633
 20
11.9486972301
 30
0.0
 10
15.916814146
 20
11.9313332422
 30
0.0
 10
15.93527312
 20
11.9137459249
 30
0.0
 10
15.9529869802
 20
11.8959535455
 30
0.0
 10
15.9699372952
 20
11.8779745787
 30
0.0
 10
15.9861064255
 20
11.8598276867
 30
0.0
 10
16.0014775402
 20
11.8415316993
 30
0.0
 10
16.0160346332
 20
11.8231055946
 30
0.0
 10
16.0297625382
 20
11.8045684781
 30
0.0
 10
16.0426469438
 20
11.785939564
 30
0.0
 10
16.0546744054
 20
11.7672381568
 30
0.0
 10
16.0658323589
 20
11.7484836245
 30
0.0
 10
16.0761091202
 20
11.7296954079
 30
0.0
 10
16.0854939335
 20
11.7108929
 30
0.0
 10
16.0939768402
 20
11.6920958029
 30
0.0
 10
16.1003160719
 20
11.6763798558
 30
0.0
 10
16.104920954
 20
11.6638315943
 30
0.0
 10
16.1091781372
 20
11.6514148764
 30
0.0
 10
16.1139298076
 20
11.6359298803
 30
0.0
 10
16.118725063
 20
11.6173481763
 30
0.0
 10
16.1225830535
 20
11.5988686045
 30
0.0
 10
16.1254994495
 20
11.5805106236
 30
0.0
 10
16.1274709756
 20
11.5622933576
 30
0.0
 10
16.1284953177
 20
11.5442358997
 30
0.0
 10
16.1285711646
 20
11.5263572182
 30
0.0
 10
16.1276982094
 20
11.5086761365
 30
0.0
 10
16.1258771908
 20
11.4912113858
 30
0.0
 10
16.1231098124
 20
11.4739812771
 30
0.0
 10
16.1193990958
 20
11.4570047866
 30
0.0
 10
16.1162973398
 20
11.4458625572
 30
0.0
 10
16.1145928222
 20
11.4403467415
 30
0.0
  0
SPLINE
  5
314
100
AcDbEntity
  8
LAYER_FEATURE
100
AcDbSpline
 62
7
  6
CONTINUOUS
 70
0
 71
3
 72
46
 73
42
 74
0
 42
0.0000001
 43
0.0000001
 44
0.0000000001
 40
0.0
 40
0.0
 40
0.0
 40
0.0
 40
0.0396645078
 40
0.0788613625
 40
0.1175671524
 40
0.1557611441
 40
0.1934233488
 40
0.2305356756
 40
0.2670816668
 40
0.3030467311
 40
0.3384182489
 40
0.373185705
 40
0.4073408296
 40
0.4408777429
 40
0.4737931061
 40
0.5060862783
 40
0.5377594784
 40
0.5688179438
 40
0.5992700904
 40
0.6291276687
 40
0.6584059125
 40
0.6728343747
 40
0.6871253929
 40
0.7153052552
 40
0.7429736226
 40
0.7701607626
 40
0.7969008076
 40
0.8232316975
 40
0.8491950558
 40
0.8620540739
 40
0.8748384068
 40
0.8875541856
 40
0.9002077255
 40
0.9128055046
 40
0.9253541479
 40
0.9378604202
 40
0.9503311966
 40
0.9627734571
 40
0.9751942581
 40
0.9876007192
 40
1.0
 40
1.0
 40
1.0
 40
1.0
 10
15.1249001773
 20
13.8243988451
 30
0.0
 10
15.1095049645
 20
13.8243988451
 30
0.0
 10
15.0788948315
 20
13.8240536287
 30
0.0
 10
15.0332859472
 20
13.8224801678
 30
0.0
 10
14.9882967699
 20
13.8198557176
 30
0.0
 10
14.9439785435
 20
13.8161833092
 30
0.0
 10
14.900381049
 20
13.811467
 30
0.0
 10
14.8575535571
 20
13.8057121123
 30
0.0
 10
14.8155443547
 20
13.7989250845
 30
0.0
 10
14.7744008318
 20
13.7911135312
 30
0.0
 10
14.7341693875
 20
13.7822862106
 30
0.0
 10
14.6948953893
 20
13.7724530117
 30
0.0
 10
14.6566231238
 20
13.761624942
 30
0.0
 10
14.6193957487
 20
13.7498141126
 30
0.0
 10
14.5832552461
 20
13.7370337214
 30
0.0
 10
14.5482423815
 20
13.7232980387
 30
0.0
 10
14.5143966448
 20
13.7086223906
 30
0.0
 10
14.4817562608
 20
13.6930231595
 30
0.0
 10
14.4503579902
 20
13.6765176604
 30
0.0
 10
14.4202376883
 20
13.6591245062
 30
0.0
 10
14.396113974
 20
13.6438325461
 30
0.0
 10
14.377499703
 20
13.6311706004
 30
0.0
 10
14.3595142297
 20
13.6183518264
 30
0.0
 10
14.3378756132
 20
13.6018157186
 30
0.0
 10
14.3131924473
 20
13.5810743348
 30
0.0
 10
14.289942595
 20
13.5595512601
 30
0.0
 10
14.2681529061
 20
13.5372706266
 30
0.0
 10
14.2478487325
 20
13.5142578553
 30
0.0
 10
14.2321350183
 20
13.4944273333
 30
0.0
 10
14.2203450677
 20
13.4782317295
 30
0.0
 10
14.2119151758
 20
13.4659571789
 30
0.0
 10
14.2038727509
 20
13.4535202911
 30
0.0
 10
14.1962199813
 20
13.4409245007
 30
0.0
 10
14.1889590507
 20
13.4281734109
 30
0.0
 10
14.1820920775
 20
13.4152705967
 30
0.0
 10
14.1756209439
 20
13.4022197593
 30
0.0
 10
14.1695475762
 20
13.389024554
 30
0.0
 10
14.1638736402
 20
13.3756887696
 30
0.0
 10
14.1586007771
 20
13.3622161308
 30
0.0
 10
14.1537305403
 20
13.3486106202
 30
0.0
 10
14.150752618
 20
13.3394530125
 30
0.0
 10
14.1493317113
 20
13.3348549498
 30
0.0
  0
SPLINE
  5
315
100
AcDbEntity
  8
LAYER_FEATURE
100
AcDbSpline
 62
7
  6
CONTINUOUS
 70
0
 71
3
 72
110
 73
106
 74
0
 42
0.0000001
 43
0.0000001
 44
0.0000000001
 40
0.0
 40
0.0
 40
0.0
 40
0.0
 40
0.0182415895
 40
0.0367363215
 40
0.055461783
 40
0.0743942791
 40
0.0935092766
 40
0.1127813973
 40
0.1321845854
 40
0.1516922192
 40
0.1712772339
 40
0.1909122388
 40
0.2105696341
 40
0.2302217271
 40
0.2498408469
 40
0.2693994603
 40
0.2888702875
 40
0.3082264194
 40
0.3274414358
 40
0.3464895272
 40
0.3653456183
 40
0.3839854951
 40
0.4023859363
 40
0.4205248501
 40
0.4383814164
 40
0.4471979892
 40
0.4559368298
 40
0.4645957583
 40
0.4731727115
 40
0.4816657328
 40
0.4900729931
 40
0.4983927835
 40
0.5066235301
 40
0.5147637972
 40
0.5228122902
 40
0.530767872
 40
0.5386295544
 40
0.5463965238
 40
0.5540681296
 40
0.5616439074
 40
0.5691235755
 40
0.5765070474
 40
0.5837944416
 40
0.5909860809
 40
0.5980825141
 40
0.6050845068
 40
0.6119930671
 40
0.6255338189
 40
0.6321705464
 40
0.6387203354
 40
0.6451854661
 40
0.651568483
 40
0.6578722141
 40
0.6640997563
 40
0.670254491
 40
0.6763400717
 40
0.6823604271
 40
0.6883197546
 40
0.6942225083
 40
0.7000733968
 40
0.7058773593
 40
0.7116395605
 40
0.7173653625
 40
0.7230603096
 40
0.7287301008
 40
0.734380564
 40
0.7400176288
 40
0.7456472941
 40
0.7512755987
 40
0.7569085886
 40
0.7625522844
 40
0.768212651
 40
0.7738955653
 40
0.7796067879
 40
0.7853519363
 40
0.7911364563
 40
0.7969656054
 40
0.8028444246
 40
0.8087777302
 40
0.8147700902
 40
0.8208258201
 40
0.8269489699
 40
0.8331433166
 40
0.8394123664
 40
0.8457593412
 40
0.8521871934
 40
0.858698591
 40
0.8652959358
 40
0.8719813558
 40
0.8787567163
 40
0.8856236266
 40
0.8925834393
 40
0.8996372703
 40
0.9067859891
 40
0.9140302454
 40
0.921370459
 40
0.9288068419
 40
0.9363393978
 40
0.9439679313
 40
0.9516920615
 40
0.9595112172
 40
0.9674246613
 40
0.9754314792
 40
0.9835306037
 40
1.0
 40
1.0
 40
1.0
 40
1.0
 10
14.9291215308
 20
12.9978118156
 30
0.0
 10
14.9486651018
 20
12.9978118156
 30
0.0
 10
14.9880259108
 20
12.9971994448
 30
0.0
 10
15.0473927917
 20
12.9944929882
 30
0.0
 10
15.1073936697
 20
12.9899976751
 30
0.0
 10
15.1679023322
 20
12.9837228851
 30
0.0
 10
15.2287923095
 20
12.9756817867
 30
0.0
 10
15.2899361367
 20
12.9658912015
 30
0.0
 10
15.3512058487
 20
12.9543716285
 30
0.0
 10
15.4124731939
 20
12.941147179
 30
0.0
 10
15.4736099202
 20
12.9262455348
 30
0.0
 10
15.5344880426
 20
12.9096978923
 30
0.0
 10
15.5949801141
 20
12.891538895
 30
0.0
 10
15.6549594947
 20
12.8718065596
 30
0.0
 10
15.7143006178
 20
12.850542196
 30
0.0
 10
15.7728792554
 20
12.8277903205
 30
0.0
 10
15.8305727796
 20
12.803598561
 30
0.0
 10
15.887260421
 20
12.7780175562
 30
0.0
 10
15.9428235236
 20
12.7511008467
 30
0.0
 10
15.9971457932
 20
12.7229047659
 30
0.0
 10
16.050113554
 20
12.6934883099
 30
0.0
 10
16.1016159425
 20
12.6629130378
 30
0.0
 10
16.1515453001
 20
12.6312428337
 30
0.0
 10
16.1997968148
 20
12.598544156
 30
0.0
 10
16.2386873114
 20
12.5703770064
 30
0.0
 10
16.2688649997
 20
12.5473809475
 30
0.0
 10
16.2909220084
 20
12.5299926799
 30
0.0
 10
16.3124859942
 20
12.5124000339
 30
0.0
 10
16.3335457624
 20
12.4946122164
 30
0.0
 10
16.3540902242
 20
12.476638502
 30
0.0
 10
16.3741086576
 20
12.4584883421
 30
0.0
 10
16.3935905505
 20
12.4401712074
 30
0.0
 10
16.4125257075
 20
12.4216966976
 30
0.0
 10
16.4309042166
 20
12.4030744895
 30
0.0
 10
16.4487164249
 20
12.3843143011
 30
0.0
 10
16.4659530403
 20
12.3654259907
 30
0.0
 10
16.4826049817
 20
12.3464193891
 30
0.0
 10
16.4986635765
 20
12.3273044912
 30
0.0
 10
16.5141203612
 20
12.3080912495
 30
0.0
 10
16.5289672696
 20
12.2887897446
 30
0.0
 10
16.5431965011
 20
12.2694100547
 30
0.0
 10
16.5568005894
 20
12.249962307
 30
0.0
 10
16.5697724229
 20
12.2304566965
 30
0.0
 10
16.5821051577
 20
12.2109033597
 30
0.0
 10
16.5937923365
 20
12.1913126488
 30
0.0
 10
16.6048279148
 20
12.1716944354
 30
0.0
 10
16.618572343
 20
12.1456903011
 30
0.0
 10
16.6311020108
 20
12.1194957078
 30
0.0
 10
16.6423419039
 20
12.0931555765
 30
0.0
 10
16.6500387888
 20
12.0735551755
 30
0.0
 10
16.6570542798
 20
12.0539892955
 30
0.0
 10
16.6633846771
 20
12.0344679074
 30
0.0
 10
16.6690266722
 20
12.0150013177
 30
0.0
 10
16.6739771776
 20
11.9955996729
 30
0.0
 10
16.6782336023
 20
11.9762731596
 30
0.0
 10
16.681793615
 20
11.9570318951
 30
0.0
 10
16.6846552878
 20
11.9378859756
 30
0.0
 10
16.6868170843
 20
11.9188454568
 30
0.0
 10
16.6882777397
 20
11.8999203375
 30
0.0
 10
16.6890365094
 20
11.8811205818
 30
0.0
 10
16.6890928319
 20
11.862456084
 30
0.0
 10
16.6884467154
 20
11.8439366867
 30
0.0
 10
16.6870983679
 20
11.8255721632
 30
0.0
 10
16.6850485015
 20
11.8073722134
 30
0.0
 10
16.6822981445
 20
11.7893464582
 30
0.0
 10
16.6788486913
 20
11.7715044396
 30
0.0
 10
16.6747020007
 20
11.7538555881
 30
0.0
 10
16.6698601646
 20
11.7364092682
 30
0.0
 10
16.6643258377
 20
11.7191746885
 30
0.0
 10
16.6581018553
 20
11.7021610014
 30
0.0
 10
16.6511916037
 20
11.6853771788
 30
0.0
 10
16.6435987068
 20
11.6688321124
 30
0.0
 10
16.6353272279
 20
11.6525345329
 30
0.0
 10
16.626381589
 20
11.6364930265
 30
0.0
 10
16.6167665096
 20
11.6207160727
 30
0.0
 10
16.6064871784
 20
11.6052119267
 30
0.0
 10
16.5955489831
 20
11.5899887901
 30
0.0
 10
16.583957817
 20
11.57505459
 30
0.0
 10
16.571719766
 20
11.5604172041
 30
0.0
 10
16.5588413637
 20
11.5460842534
 30
0.0
 10
16.5453294082
 20
11.532063246
 30
0.0
 10
16.5311910375
 20
11.5183615116
 30
0.0
 10
16.5164337463
 20
11.5049861642
 30
0.0
 10
16.5010652719
 20
11.4919442324
 30
0.0
 10
16.4850937654
 20
11.4792424409
 30
0.0
 10
16.4685275779
 20
11.4668874786
 30
0.0
 10
16.4513754674
 20
11.4548857105
 30
0.0
 10
16.433646413
 20
11.4432434329
 30
0.0
 10
16.4153497397
 20
11.43196668
 30
0.0
 10
16.3964950494
 20
11.421061317
 30
0.0
 10
16.3770922162
 20
11.4105330512
 30
0.0
 10
16.3571514383
 20
11.4003873074
 30
0.0
 10
16.3366831354
 20
11.3906294392
 30
0.0
 10
16.3156980642
 20
11.3812644505
 30
0.0
 10
16.2942071906
 20
11.3722972895
 30
0.0
 10
16.2722217909
 20
11.3637325735
 30
0.0
 10
16.2497533685
 20
11.3555747954
 30
0.0
 10
16.2268136912
 20
11.3478282053
 30
0.0
 10
16.2034147764
 20
11.3404968158
 30
0.0
 10
16.1795688676
 20
11.333584501
 30
0.0
 10
16.1552884523
 20
11.3270947968
 30
0.0
 10
16.1305862796
 20
11.3210311747
 30
0.0
 10
16.1054751038
 20
11.3153966846
 30
0.0
 10
16.0712772283
 20
11.3084217863
 30
0.0
 10
16.0453373941
 20
11.3039045332
 30
0.0
 10
16.0279022646
 20
11.3011919045
 30
0.0
  0
SPLINE
  5
316
100
AcDbEntity
  8
LAYER_FEATURE
100
AcDbSpline
 62
7
  6
CONTINUOUS
 70
0
 71
3
 72
72
 73
68
 74
0
 42
0.0000001
 43
0.0000001
 44
0.0000000001
 40
0.0
 40
0.0
 40
0.0
 40
0.0
 40
0.0203462546
 40
0.0404775584
 40
0.0603836196
 40
0.0800558945
 40
0.099485781
 40
0.1186654103
 40
0.1375875509
 40
0.1562456079
 40
0.1746337068
 40
0.1927467285
 40
0.2105803495
 40
0.2281310884
 40
0.2453963598
 40
0.2623745291
 40
0.2790649573
 40
0.295468054
 40
0.3115853376
 40
0.3274194922
 40
0.3429744144
 40
0.3582552657
 40
0.3732685281
 40
0.38802205
 40
0.402525078
 40
0.4167882877
 40
0.4308238096
 40
0.4446452324
 40
0.4582675875
 40
0.4717073197
 40
0.4849822406
 40
0.4981114495
 40
0.5111152296
 40
0.5240149222
 40
0.5368327776
 40
0.549591777
 40
0.5623154372
 40
0.5750276017
 40
0.5877522209
 40
0.6005131294
 40
0.6133338269
 40
0.6262372693
 40
0.639245672
 40
0.6523803372
 40
0.6656615045
 40
0.6791082233
 40
0.6927382487
 40
0.7065679713
 40
0.7206123674
 40
0.7348849663
 40
0.7421110474
 40
0.7493985855
 40
0.7641623474
 40
0.7791861936
 40
0.7944779146
 40
0.8100439356
 40
0.8258893693
 40
0.8420180655
 40
0.8584326572
 40
0.8751346149
 40
0.8921243085
 40
0.9094010606
 40
0.9269631933
 40
0.944808083
 40
0.9629322168
 40
0.9813312408
 40
1.0
 40
1.0
 40
1.0
 40
1.0
 10
14.9291215308
 20
12.9978118156
 30
0.0
 10
14.9163398802
 20
12.9978118156
 30
0.0
 10
14.8909107937
 20
12.9975529884
 30
0.0
 10
14.8529930192
 20
12.9963748069
 30
0.0
 10
14.8155315921
 20
12.9944096487
 30
0.0
 10
14.7785613843
 20
12.9916594085
 30
0.0
 10
14.7421160769
 20
12.9881265279
 30
0.0
 10
14.7062292135
 20
12.9838142664
 30
0.0
 10
14.6709337244
 20
12.978726573
 30
0.0
 10
14.6362620068
 20
12.9728680816
 30
0.0
 10
14.6022458912
 20
12.9662441355
 30
0.0
 10
14.5689165916
 20
12.9588607994
 30
0.0
 10
14.5363046935
 20
12.9507248146
 30
0.0
 10
14.5044401292
 20
12.9418435922
 30
0.0
 10
14.4733521437
 20
12.9322252223
 30
0.0
 10
14.4430692601
 20
12.9218784865
 30
0.0
 10
14.4136192696
 20
12.9108128091
 30
0.0
 10
14.3850292125
 20
12.8990382481
 30
0.0
 10
14.3573253417
 20
12.8865655101
 30
0.0
 10
14.3305330946
 20
12.8734059499
 30
0.0
 10
14.3046770915
 20
12.8595715246
 30
0.0
 10
14.2797811212
 20
12.8450747838
 30
0.0
 10
14.2558681012
 20
12.8299288913
 30
0.0
 10
14.2329600587
 20
12.8141476123
 30
0.0
 10
14.2110781364
 20
12.7977452762
 30
0.0
 10
14.1902425818
 20
12.7807367677
 30
0.0
 10
14.1704726981
 20
12.763137557
 30
0.0
 10
14.1517868371
 20
12.7449636767
 30
0.0
 10
14.1342024046
 20
12.7262316968
 30
0.0
 10
14.1177358473
 20
12.7069587189
 30
0.0
 10
14.1024025877
 20
12.6871624082
 30
0.0
 10
14.0882170251
 20
12.6668609601
 30
0.0
 10
14.0751925317
 20
12.6460730817
 30
0.0
 10
14.063341432
 20
12.6248179815
 30
0.0
 10
14.0526749189
 20
12.6031153845
 30
0.0
 10
14.0432030691
 20
12.580985483
 30
0.0
 10
14.0349348328
 20
12.5584489094
 30
0.0
 10
14.0278780141
 20
12.5355267106
 30
0.0
 10
14.0220391906
 20
12.5122403329
 30
0.0
 10
14.0174237598
 20
12.4886115634
 30
0.0
 10
14.0140359397
 20
12.4646624951
 30
0.0
 10
14.0118787647
 20
12.4404154969
 30
0.0
 10
14.0109540309
 20
12.4158931826
 30
0.0
 10
14.0112623719
 20
12.391118369
 30
0.0
 10
14.01280327
 20
12.3661140534
 30
0.0
 10
14.0155750593
 20
12.3409033873
 30
0.0
 10
14.0195748839
 20
12.3155096752
 30
0.0
 10
14.0247988112
 20
12.289956256
 30
0.0
 10
14.0312417033
 20
12.2642668861
 30
0.0
 10
14.0375951886
 20
12.242854104
 30
0.0
 10
14.0432720504
 20
12.2256834558
 30
0.0
 10
14.0493994051
 20
12.2083407037
 30
0.0
 10
14.0578177031
 20
12.1866174208
 30
0.0
 10
14.0690641641
 20
12.1606200376
 30
0.0
 10
14.0814880762
 20
12.1346048103
 30
0.0
 10
14.0950777861
 20
12.1085958155
 30
0.0
 10
14.1098207344
 20
12.0826167621
 30
0.0
 10
14.1257033047
 20
12.0566914406
 30
0.0
 10
14.1427108447
 20
12.0308435616
 30
0.0
 10
14.1608276662
 20
12.0050967683
 30
0.0
 10
14.1800370927
 20
11.9794746228
 30
0.0
 10
14.2003214671
 20
11.9540005907
 30
0.0
 10
14.2216621389
 20
11.9286979937
 30
0.0
 10
14.2440394694
 20
11.9035900129
 30
0.0
 10
14.2674329512
 20
11.8786996072
 30
0.0
 10
14.2918209142
 20
11.8540497788
 30
0.0
 10
14.3086077278
 20
11.8379073027
 30
0.0
 10
14.3171582725
 20
11.8298804511
 30
0.0
  0
SPLINE
  5
317
100
AcDbEntity
  8
LAYER_FEATURE
100
AcDbSpline
 62
7
  6
CONTINUOUS
 70
0
 71
3
 72
78
 73
74
 74
0
 42
0.0000001
 43
0.0000001
 44
0.0000000001
 40
0.0
 40
0.0
 40
0.0
 40
0.0
 40
0.0171786494
 40
0.034530259
 40
0.052044083
 40
0.0697096926
 40
0.0875159169
 40
0.1054514052
 40
0.1235044838
 40
0.1416632229
 40
0.1599154662
 40
0.1782488551
 40
0.1966508594
 40
0.2151088034
 40
0.2336098939
 40
0.2521412485
 40
0.2706899221
 40
0.2892429336
 40
0.3077872924
 40
0.3263100264
 40
0.3447982082
 40
0.3632389822
 40
0.3816195916
 40
0.3999274055
 40
0.4181499471
 40
0.4362749223
 40
0.4542902467
 40
0.472184075
 40
0.4899448297
 40
0.5075612324
 40
0.5250223351
 40
0.5423175506
 40
0.5594366852
 40
0.5763699716
 40
0.5931081049
 40
0.60964228
 40
0.6259642276
 40
0.6420662527
 40
0.6579412756
 40
0.6735828743
 40
0.6889853316
 40
0.7041436801
 40
0.71905375
 40
0.7337122195
 40
0.748116668
 40
0.7622656323
 40
0.7761586636
 40
0.7897963834
 40
0.8031805416
 40
0.8163140755
 40
0.8292011685
 40
0.8418473065
 40
0.8542593269
 40
0.8603804056
 40
0.8664461623
 40
0.8784160809
 40
0.8901809052
 40
0.8959906881
 40
0.901754044
 40
0.9131479177
 40
0.9243788243
 40
0.9354636208
 40
0.9464204585
 40
0.9518573841
 40
0.9572696635
 40
0.9626598748
 40
0.9680306504
 40
0.9733846742
 40
0.9787246697
 40
0.9840533993
 40
0.9893736532
 40
0.9946882442
 40
1.0
 40
1.0
 40
1.0
 40
1.0
 10
14.8828338539
 20
13.0410719355
 30
0.0
 10
14.8977760645
 20
13.0410719355
 30
0.0
 10
14.9278118878
 20
13.04074315
 30
0.0
 10
14.9730601145
 20
13.0392822769
 30
0.0
 10
15.0186909726
 20
13.0368525802
 30
0.0
 10
15.0646564847
 20
13.0334566875
 30
0.0
 10
15.1109090663
 20
13.0290980704
 30
0.0
 10
15.1574004884
 20
13.0237812904
 30
0.0
 10
15.2040823895
 20
13.0175118758
 30
0.0
 10
15.2509061768
 20
13.0102963599
 30
0.0
 10
15.2978231132
 20
13.002142255
 30
0.0
 10
15.344784364
 20
12.9930580474
 30
0.0
 10
15.3917410451
 20
12.9830531882
 30
0.0
 10
15.4386442763
 20
12.9721380903
 30
0.0
 10
15.485445234
 20
12.9603241223
 30
0.0
 10
15.5320951997
 20
12.947623584
 30
0.0
 10
15.5785456114
 20
12.9340496957
 30
0.0
 10
15.6247481136
 20
12.9196165845
 30
0.0
 10
15.6706546077
 20
12.9043392702
 30
0.0
 10
15.7162173069
 20
12.8882336625
 30
0.0
 10
15.7613887825
 20
12.8713165296
 30
0.0
 10
15.8061220122
 20
12.853605482
 30
0.0
 10
15.8503704296
 20
12.8351189543
 30
0.0
 10
15.8940879717
 20
12.8158761838
 30
0.0
 10
15.9372291331
 20
12.795897204
 30
0.0
 10
15.9797490109
 20
12.7752028141
 30
0.0
 10
16.0216033487
 20
12.7538145537
 30
0.0
 10
16.0627485826
 20
12.731754682
 30
0.0
 10
16.1031418855
 20
12.7090461518
 30
0.0
 10
16.1427412174
 20
12.6857125934
 30
0.0
 10
16.181505371
 20
12.6617782914
 30
0.0
 10
16.2193940078
 20
12.6372681482
 30
0.0
 10
16.2563677004
 20
12.6122076614
 30
0.0
 10
16.2923879724
 20
12.5866228954
 30
0.0
 10
16.3274173406
 20
12.5605404549
 30
0.0
 10
16.361419363
 20
12.533987467
 30
0.0
 10
16.3943586662
 20
12.506991539
 30
0.0
 10
16.4262009805
 20
12.4795807311
 30
0.0
 10
16.4569131755
 20
12.4517835274
 30
0.0
 10
16.4864632921
 20
12.4236288025
 30
0.0
 10
16.514820589
 20
12.3951458028
 30
0.0
 10
16.5419555642
 20
12.3663641056
 30
0.0
 10
16.5678399801
 20
12.3373135859
 30
0.0
 10
16.5924468912
 20
12.3080243874
 30
0.0
 10
16.6157506677
 20
12.2785268872
 30
0.0
 10
16.6377270314
 20
12.2488516721
 30
0.0
 10
16.658353079
 20
12.219029504
 30
0.0
 10
16.6776072889
 20
12.1890912863
 30
0.0
 10
16.6954695461
 20
12.1590680237
 30
0.0
 10
16.7119211404
 20
12.1289908369
 30
0.0
 10
16.726944848
 20
12.0988907687
 30
0.0
 10
16.7405247371
 20
12.0687993656
 30
0.0
 10
16.7506729194
 20
12.0436404276
 30
0.0
 10
16.7580446688
 20
12.0235525059
 30
0.0
 10
16.7648598024
 20
12.0036751219
 30
0.0
 10
16.7724664886
 20
11.9788861532
 30
0.0
 10
16.7788902594
 20
11.9539937377
 30
0.0
 10
16.7832681883
 20
11.9341700394
 30
0.0
 10
16.7871120398
 20
11.914564711
 30
0.0
 10
16.7909878672
 20
11.8901676315
 30
0.0
 10
16.7941439371
 20
11.8610046062
 30
0.0
 10
16.7957838076
 20
11.8320975414
 30
0.0
 10
16.7958851647
 20
11.8081842951
 30
0.0
 10
16.795201762
 20
11.7892275267
 30
0.0
 10
16.7943114634
 20
11.7751285435
 30
0.0
 10
16.7930423221
 20
11.7611164497
 30
0.0
 10
16.7913946194
 20
11.7471947924
 30
0.0
 10
16.7893688555
 20
11.7333672372
 30
0.0
 10
16.7869654708
 20
11.7196374014
 30
0.0
 10
16.7841851499
 20
11.7060088819
 30
0.0
 10
16.7810285903
 20
11.6924852083
 30
0.0
 10
16.7774966239
 20
11.6790700685
 30
0.0
 10
16.7748920298
 20
11.6702001941
 30
0.0
 10
16.7735279198
 20
11.665785926
 30
0.0
  0
SPLINE
  5
318
100
AcDbEntity
  8
LAYER_CHAMFER_FEAT
100
AcDbSpline
 62
7
  6
CONTINUOUS
 70
0
 71
3
 72
49
 73
45
 74
0
 42
0.0000001
 43
0.0000001
 44
0.0000000001
 40
0.0
 40
0.0
 40
0.0
 40
0.0
 40
0.035733353
 40
0.0703705073
 40
0.1039020219
 40
0.1363329928
 40
0.1676844993
 40
0.1979950272
 40
0.2273217641
 40
0.2557416118
 40
0.2696442148
 40
0.2833582529
 40
0.2968989654
 40
0.3102828161
 40
0.3235273586
 40
0.3366511898
 40
0.3496738311
 40
0.3626155949
 40
0.375497461
 40
0.3883408903
 40
0.4011676758
 40
0.4139997457
 40
0.4268589823
 40
0.4397670467
 40
0.4527451827
 40
0.4658140726
 40
0.4789936632
 40
0.4923030415
 40
0.5057603241
 40
0.5193825315
 40
0.5471776729
 40
0.5758078113
 40
0.6053651996
 40
0.6359219213
 40
0.667530554
 40
0.7002252658
 40
0.7340231555
 40
0.7689256835
 40
0.8049201314
 40
0.841980931
 40
0.8800711605
 40
0.9191432351
 40
0.9591413306
 40
1.0
 40
1.0
 40
1.0
 40
1.0
 10
15.4499146317
 20
11.7660594391
 30
0.0
 10
15.4528935349
 20
11.7627995325
 30
0.0
 10
15.4586018481
 20
11.7562326568
 30
0.0
 10
15.4664988047
 20
11.7460998509
 30
0.0
 10
15.4735734244
 20
11.7358679825
 30
0.0
 10
15.4798016852
 20
11.7255709182
 30
0.0
 10
15.4851625779
 20
11.7152423562
 30
0.0
 10
15.4896377299
 20
11.7049159769
 30
0.0
 10
15.4932113778
 20
11.6946262153
 30
0.0
 10
15.495443833
 20
11.6860463642
 30
0.0
 10
15.496755882
 20
11.6792448658
 30
0.0
 10
15.497501245
 20
11.6742117642
 30
0.0
 10
15.4980142442
 20
11.6692141484
 30
0.0
 10
15.498294488
 20
11.6642561268
 30
0.0
 10
15.4983416638
 20
11.6593418838
 30
0.0
 10
15.4981556924
 20
11.6544755534
 30
0.0
 10
15.4977367265
 20
11.6496612394
 30
0.0
 10
15.4970850272
 20
11.6449030177
 30
0.0
 10
15.4962012084
 20
11.6402049031
 30
0.0
 10
15.4950858922
 20
11.6355708982
 30
0.0
 10
15.4937401349
 20
11.631004902
 30
0.0
 10
15.492164949
 20
11.6265108223
 30
0.0
 10
15.4903617967
 20
11.6220924236
 30
0.0
 10
15.4883321102
 20
11.6177534866
 30
0.0
 10
15.4860777158
 20
11.6134976334
 30
0.0
 10
15.4836004801
 20
11.6093284823
 30
0.0
 10
15.4809025569
 20
11.6052495093
 30
0.0
 10
15.4779862592
 20
11.6012641547
 30
0.0
 10
15.4748539839
 20
11.5973756913
 30
0.0
 10
15.4703638032
 20
11.5922911035
 30
0.0
 10
15.4642055335
 20
11.586190622
 30
0.0
 10
15.4560502705
 20
11.5793612963
 30
0.0
 10
15.4471071985
 20
11.5729947348
 30
0.0
 10
15.4374070458
 20
11.5671117213
 30
0.0
 10
15.4269822847
 20
11.5617308658
 30
0.0
 10
15.4158677317
 20
11.5568693807
 30
0.0
 10
15.4041003232
 20
11.5525428282
 30
0.0
 10
15.3917190982
 20
11.5487651261
 30
0.0
 10
15.3787651022
 20
11.5455484821
 30
0.0
 10
15.3652812618
 20
11.5429033154
 30
0.0
 10
15.3513123297
 20
11.5408382574
 30
0.0
 10
15.3369045244
 20
11.5393599991
 30
0.0
 10
15.3221060268
 20
11.5384734251
 30
0.0
 10
15.3121123998
 20
11.5382806624
 30
0.0
 10
15.3070630288
 20
11.5382806624
 30
0.0
  0
ENDSEC
  0
SECTION
  2
OBJECTS
  0
DICTIONARY
  5
C
100
AcDbDictionary
280
0
281
1
  3
ACAD_GROUP
350
D
  3
ACAD_MLINESTYLE
350
17
  3
ACAD_LAYOUT
350
1A
  3
ACAD_PLOTSETTINGS
350
19
  3
ACAD_PLOTSTYLENAME
350
E
  0
DICTIONARY
  5
D
102
{ACAD_REACTORS
330
C
102
}
100
AcDbDictionary
280
0
281
1
  0
ACDBDICTIONARYWDFLT
  5
E
102
{ACAD_REACTORS
330
C
102
}
100
AcDbDictionary
281
1
  3
Normal
350
F
100
AcDbDictionaryWithDefault
340
F
  0
DICTIONARY
  5
17
102
{ACAD_REACTORS
330
C
102
}
100
AcDbDictionary
280
0
281
1
  3
Standard
350
18
  0
DICTIONARY
  5
19
102
{ACAD_REACTORS
330
C
102
}
100
AcDbDictionary
281
1
  0
DICTIONARY
  5
1A
102
{ACAD_REACTORS
330
C
102
}
100
AcDbDictionary
281
1
  3
Model
350
319
  3
Layout1
350
31A
  0
ACDBPLACEHOLDER
  5
F
102
{ACAD_REACTORS
330
E
102
}
  0
MLINESTYLE
  5
18
102
{ACAD_REACTORS
330
17
102
}
100
AcDbMlineStyle
  2
STANDARD
 70
0
  3

 62
256
 51
90.0
 52
90.0
 71
2
 49
0.5
 62
256
  6
BYLAYER
 49
-0.5
 62
256
  6
BYLAYER
  0
LAYOUT
  5
319
102
{ACAD_REACTORS
330
1A
102
}
100
AcDbPlotSettings
  1

  2
none_device
  4
ANSI_C_(22.00_x_17.00_Inches)
  6

 40
0.0
 41
0.0
 42
0.0
 43
0.0
 44
558.8
 45
431.8
 46
0.0
 47
0.0
 48
0.0
 49
0.0
140
0.0
141
0.0
142
1.0
143
1.0
 70
1024
 72
0
 73
0
 74
0
  7

 75
0
147
1.0
148
0.0
149
0.0
100
AcDbLayout
  1
Model
 70
0
 71
0
 10
0.0
 20
0.0
 11
22.0
 21
17.0
 12
0.0
 22
0.0
 32
0.0
 14
0.0
 24
0.0
 34
0.0
 15
0.0
 25
0.0
 35
0.0
146
0.0
 13
0.0
 23
0.0
 33
0.0
 16
1.0
 26
0.0
 36
0.0
 17
0.0
 27
1.0
 37
0.0
 76
0
330
222
345
0
346
0
  0
LAYOUT
  5
31A
102
{ACAD_REACTORS
330
1A
102
}
100
AcDbPlotSettings
  1

  2
none_device
  4
ANSI_C_(22.00_x_17.00_Inches)
  6

 40
0.0
 41
0.0
 42
0.0
 43
0.0
 44
558.8
 45
431.8
 46
0.0
 47
0.0
 48
0.0
 49
0.0
140
0.0
141
0.0
142
1.0
143
1.0
 70
0
 72
0
 73
0
 74
0
  7

 75
0
147
1.0
148
0.0
149
0.0
100
AcDbLayout
  1
Layout1
 70
0
 71
1
 10
0.0
 20
0.0
 11
22.0
 21
17.0
 12
0.0
 22
0.0
 32
0.0
 14
0.0
 24
0.0
 34
0.0
 15
0.0
 25
0.0
 35
0.0
146
0.0
 13
0.0
 23
0.0
 33
0.0
 16
1.0
 26
0.0
 36
0.0
 17
0.0
 27
1.0
 37
0.0
 76
0
330
223
345
0
346
0
  0
ENDSEC
  0
EOF