999
DXF file: _cgs_temp_output.dxf
999
Pro/ENGINEER 2016360 by Parametric Technology Corporation
  0
SECTION
  2
HEADER
  9
$ACADVER
  1
AC1021
  9
$DWGCODEPAGE
  3
ANSI_1252
  9
$EXTMAX
 10
22.0
 20
17.0
 30
0.0
  9
$EXTMIN
 10
0.0
 20
0.0
 30
0.0
  9
$LIMMIN
 10
0.0
 20
0.0
  9
$LIMMAX
 10
22.0
 20
17.0
  9
$VIEWCTR
 10
11.0
 20
8.5
  9
$VIEWSIZE
 40
17.0
  9
$CLAYER
  8
0
  9
$LTSCALE
 40
1.21
  9
$CELTYPE
  6
BYLAYER
  9
$DIMSCALE
 40
1.0
  9
$DIMASZ
 40
0.1875
  9
$DIMEXO
 40
0.0625
  9
$DIMDLI
 40
0.836
  9
$DIMEXE
 40
0.125
  9
$DIMCEN
 40
0.198
  9
$DIMLFAC
 40
1.0
  9
$DIMBLK
  1
_CLOSED
  9
$DIMALT
 70
0
  9
$DIMALTF
 40
25.4
  9
$DIMTXT
 40
0.15625
  9
$DIMTOL
 70
0
  9
$DIMLIM
 70
0
  9
$DIMTFAC
 40
1.0
  9
$DIMGAP
 40
0.09
  9
$DIMDSEP
 70
46
  9
$AUNITS
 70
0
  9
$PDMODE
 70
3
  9
$PDSIZE
 40
0.3125
  9
$HANDSEED
  5
3C5
  9
$TILEMODE
 70
1
  9
$MEASUREMENT
 70
0
  9
$INSUNITS
 70
1
  0
ENDSEC
  0
SECTION
  2
CLASSES
  0
CLASS
  1
ACDBDICTIONARYWDFLT
  2
AcDbDictionaryWithDefault
  3
AutoCAD 2000
 90
0
 91
1
280
0
281
0
  0
CLASS
  1
ACDBPLACEHOLDER
  2
AcDbPlaceHolder
  3
AutoCAD 2000
 90
0
 91
1
280
0
281
0
  0
CLASS
  1
LAYOUT
  2
AcDbLayout
  3
AutoCAD 2000
 90
0
 91
0
280
0
281
0
  0
ENDSEC
  0
SECTION
  2
TABLES
  0
TABLE
  2
VPORT
  5
8
100
AcDbSymbolTable
 70
2
  0
VPORT
  5
1F4
100
AcDbSymbolTableRecord
100
AcDbViewportTableRecord
  2
*ACTIVE
 70
0
 10
0.0
 20
0.0
 11
1.0
 21
1.0
 12
11.0
 22
8.5
 13
0.0
 23
0.0
 14
1.0
 24
1.0
 15
0.0
 25
0.0
 16
0.0
 26
0.0
 36
1.0
 17
0.0
 27
0.0
 37
0.0
 40
17.0
 41
1.2941176471
 42
50.0
 43
0.0
 44
0.0
 50
0.0
 51
0.0
 71
0
 72
100
 73
1
 74
1
 75
0
 76
0
 77
0
 78
0
  0
ENDTAB
  0
TABLE
  2
LTYPE
  5
5
100
AcDbSymbolTable
 70
6
  0
LTYPE
  5
14
100
AcDbSymbolTableRecord
100
AcDbLinetypeTableRecord
  2
BYBLOCK
 70
0
  3

 72
65
 73
0
 40
0.0
  0
LTYPE
  5
15
100
AcDbSymbolTableRecord
100
AcDbLinetypeTableRecord
  2
BYLAYER
 70
0
  3

 72
65
 73
0
 40
0.0
  0
LTYPE
  5
16
100
AcDbSymbolTableRecord
100
AcDbLinetypeTableRecord
  2
CONTINUOUS
 70
64
  3
Solid line
 72
65
 73
0
 40
0.0
  0
LTYPE
  5
1F5
100
AcDbSymbolTableRecord
100
AcDbLinetypeTableRecord
  2
CENTER
 70
64
  3
____ _ ____ _ ____ _ ____ _ ____ _ ____ _ ____
 72
65
 73
4
 40
0.6
 49
0.375
 74
0
 49
-0.075
 74
0
 49
0.075
 74
0
 49
-0.075
 74
0
  0
LTYPE
  5
1F6
100
AcDbSymbolTableRecord
100
AcDbLinetypeTableRecord
  2
HIDDEN
 70
64
  3
- - - - - - - - - - - - - - - - - - - -
 72
65
 73
2
 40
0.2
 49
0.1
 74
0
 49
-0.1
 74
0
  0
LTYPE
  5
1F7
100
AcDbSymbolTableRecord
100
AcDbLinetypeTableRecord
  2
PHANTOM
 70
64
  3
_____ _ _ _____ _ _ _____ _ _ _____
 72
65
 73
6
 40
0.8
 49
0.45
 74
0
 49
-0.05
 74
0
 49
0.1
 74
0
 49
-0.05
 74
0
 49
0.1
 74
0
 49
-0.05
 74
0
  0
LTYPE
  5
1F8
100
AcDbSymbolTableRecord
100
AcDbLinetypeTableRecord
  2
DOT
 70
64
  3
. . . . . . . . . . . . . . . . . . . .
 72
65
 73
2
 40
0.2
 49
0.1
 74
0
 49
-0.1
 74
0
  0
LTYPE
  5
1F9
100
AcDbSymbolTableRecord
100
AcDbLinetypeTableRecord
  2
DASHED
 70
64
  3
- - - - - - - - - - - - - - - - - - - -
 72
65
 73
2
 40
0.2
 49
0.1
 74
0
 49
-0.1
 74
0
  0
ENDTAB
  0
TABLE
  2
LAYER
  5
2
100
AcDbSymbolTable
 70
36
  0
LAYER
  5
10
100
AcDbSymbolTableRecord
100
AcDbLayerTableRecord
  2
0
 70
0
 62
7
  6
CONTINUOUS
370
-3
390
F
  0
LAYER
  5
1FA
100
AcDbSymbolTableRecord
100
AcDbLayerTableRecord
  2
DEFAULT_1
 70
0
 62
7
  6
CENTER
370
-3
390
F
  0
LAYER
  5
1FB
100
AcDbSymbolTableRecord
100
AcDbLayerTableRecord
  2
DEFAULT_2
 70
0
 62
8
  6
HIDDEN
370
-3
390
F
  0
LAYER
  5
1FC
100
AcDbSymbolTableRecord
100
AcDbLayerTableRecord
  2
DEFAULT_3
 70
0
 62
7
  6
PHANTOM
370
-3
390
F
  0
LAYER
  5
1FD
100
AcDbSymbolTableRecord
100
AcDbLayerTableRecord
  2
01_ALL_DTM_PLN
 70
0
 62
7
  6
CONTINUOUS
370
-3
390
F
  0
LAYER
  5
1FE
100
AcDbSymbolTableRecord
100
AcDbLayerTableRecord
  2
01__ASM_ALL_DTM_PLN
 70
0
 62
7
  6
CONTINUOUS
370
-3
390
F
  0
LAYER
  5
1FF
100
AcDbSymbolTableRecord
100
AcDbLayerTableRecord
  2
01__ASM_DEF_DTM_PLN
 70
0
 62
7
  6
CONTINUOUS
370
-3
390
F
  0
LAYER
  5
200
100
AcDbSymbolTableRecord
100
AcDbLayerTableRecord
  2
01___PRT_ALL_DTM_PLN
 70
0
 62
7
  6
CONTINUOUS
370
-3
390
F
  0
LAYER
  5
201
100
AcDbSymbolTableRecord
100
AcDbLayerTableRecord
  2
01___PRT_DEF_DTM_PLN
 70
0
 62
7
  6
CONTINUOUS
370
-3
390
F
  0
LAYER
  5
202
100
AcDbSymbolTableRecord
100
AcDbLayerTableRecord
  2
02_ALL_AXES
 70
0
 62
7
  6
CONTINUOUS
370
-3
390
F
  0
LAYER
  5
203
100
AcDbSymbolTableRecord
100
AcDbLayerTableRecord
  2
02__ASM_ALL_AXES
 70
0
 62
7
  6
CONTINUOUS
370
-3
390
F
  0
LAYER
  5
204
100
AcDbSymbolTableRecord
100
AcDbLayerTableRecord
  2
02___PRT_ALL_AXES
 70
0
 62
7
  6
CONTINUOUS
370
-3
390
F
  0
LAYER
  5
205
100
AcDbSymbolTableRecord
100
AcDbLayerTableRecord
  2
03_ALL_CURVES
 70
0
 62
7
  6
CONTINUOUS
370
-3
390
F
  0
LAYER
  5
206
100
AcDbSymbolTableRecord
100
AcDbLayerTableRecord
  2
03__ASM_ALL_CURVES
 70
0
 62
7
  6
CONTINUOUS
370
-3
390
F
  0
LAYER
  5
207
100
AcDbSymbolTableRecord
100
AcDbLayerTableRecord
  2
03___PRT_ALL_CURVES
 70
0
 62
7
  6
CONTINUOUS
370
-3
390
F
  0
LAYER
  5
208
100
AcDbSymbolTableRecord
100
AcDbLayerTableRecord
  2
04_ALL_DTM_PNT
 70
0
 62
7
  6
CONTINUOUS
370
-3
390
F
  0
LAYER
  5
209
100
AcDbSymbolTableRecord
100
AcDbLayerTableRecord
  2
04__ASM_ALL_DTM_PNT
 70
0
 62
7
  6
CONTINUOUS
370
-3
390
F
  0
LAYER
  5
20A
100
AcDbSymbolTableRecord
100
AcDbLayerTableRecord
  2
04___PRT_ALL_DTM_PNT
 70
0
 62
7
  6
CONTINUOUS
370
-3
390
F
  0
LAYER
  5
20B
100
AcDbSymbolTableRecord
100
AcDbLayerTableRecord
  2
05_ALL_DTM_CSYS
 70
0
 62
7
  6
CONTINUOUS
370
-3
390
F
  0
LAYER
  5
20C
100
AcDbSymbolTableRecord
100
AcDbLayerTableRecord
  2
05__ASM_ALL_DTM_CSYS
 70
0
 62
7
  6
CONTINUOUS
370
-3
390
F
  0
LAYER
  5
20D
100
AcDbSymbolTableRecord
100
AcDbLayerTableRecord
  2
05__ASM_DEF_DTM_CSYS
 70
0
 62
7
  6
CONTINUOUS
370
-3
390
F
  0
LAYER
  5
20E
100
AcDbSymbolTableRecord
100
AcDbLayerTableRecord
  2
05___PRT_ALL_DTM_CSYS
 70
0
 62
7
  6
CONTINUOUS
370
-3
390
F
  0
LAYER
  5
20F
100
AcDbSymbolTableRecord
100
AcDbLayerTableRecord
  2
05___PRT_DEF_DTM_CSYS
 70
0
 62
7
  6
CONTINUOUS
370
-3
390
F
  0
LAYER
  5
210
100
AcDbSymbolTableRecord
100
AcDbLayerTableRecord
  2
06_ALL_SURFS
 70
0
 62
7
  6
CONTINUOUS
370
-3
390
F
  0
LAYER
  5
211
100
AcDbSymbolTableRecord
100
AcDbLayerTableRecord
  2
06__ASM_ALL_SURFS
 70
0
 62
7
  6
CONTINUOUS
370
-3
390
F
  0
LAYER
  5
212
100
AcDbSymbolTableRecord
100
AcDbLayerTableRecord
  2
06___PRT_ALL_SURFS
 70
0
 62
7
  6
CONTINUOUS
370
-3
390
F
  0
LAYER
  5
213
100
AcDbSymbolTableRecord
100
AcDbLayerTableRecord
  2
07__ASM_ALL_SKELETONS
 70
0
 62
7
  6
CONTINUOUS
370
-3
390
F
  0
LAYER
  5
214
100
AcDbSymbolTableRecord
100
AcDbLayerTableRecord
  2
LAYER_AXIS
 70
0
 62
7
  6
CONTINUOUS
370
-3
390
F
  0
LAYER
  5
215
100
AcDbSymbolTableRecord
100
AcDbLayerTableRecord
  2
LAYER_CHAMFER_FEAT
 70
0
 62
7
  6
CONTINUOUS
370
-3
390
F
  0
LAYER
  5
216
100
AcDbSymbolTableRecord
100
AcDbLayerTableRecord
  2
LAYER_CUT_FEAT
 70
0
 62
7
  6
CONTINUOUS
370
-3
390
F
  0
LAYER
  5
217
100
AcDbSymbolTableRecord
100
AcDbLayerTableRecord
  2
LAYER_DATUM
 70
0
 62
7
  6
CONTINUOUS
370
-3
390
F
  0
LAYER
  5
218
100
AcDbSymbolTableRecord
100
AcDbLayerTableRecord
  2
LAYER_DIM
 70
0
 62
7
  6
CONTINUOUS
370
-3
390
F
  0
LAYER
  5
219
100
AcDbSymbolTableRecord
100
AcDbLayerTableRecord
  2
LAYER_FEATURE
 70
0
 62
7
  6
CONTINUOUS
370
-3
390
F
  0
LAYER
  5
21A
100
AcDbSymbolTableRecord
100
AcDbLayerTableRecord
  2
LAYER_GEOM_FEAT
 70
0
 62
7
  6
CONTINUOUS
370
-3
390
F
  0
LAYER
  5
21B
100
AcDbSymbolTableRecord
100
AcDbLayerTableRecord
  2
LAYER_NOGEOM_FEAT
 70
0
 62
7
  6
CONTINUOUS
370
-3
390
F
  0
LAYER
  5
21C
100
AcDbSymbolTableRecord
100
AcDbLayerTableRecord
  2
LAYER_PARAMETER_DIM
 70
0
 62
7
  6
CONTINUOUS
370
-3
390
F
  0
LAYER
  5
21D
100
AcDbSymbolTableRecord
100
AcDbLayerTableRecord
  2
LAYER_PROTRUSION_FEAT
 70
0
 62
7
  6
CONTINUOUS
370
-3
390
F
  0
LAYER
  5
21E
100
AcDbSymbolTableRecord
100
AcDbLayerTableRecord
  2
LAYER_QUILT
 70
0
 62
7
  6
CONTINUOUS
370
-3
390
F
  0
LAYER
  5
21F
100
AcDbSymbolTableRecord
100
AcDbLayerTableRecord
  2
LAYER_ROUND_FEAT
 70
0
 62
7
  6
CONTINUOUS
370
-3
390
F
  0
ENDTAB
  0
TABLE
  2
STYLE
  5
3
100
AcDbSymbolTable
 70
1
  0
STYLE
  5
11
100
AcDbSymbolTableRecord
100
AcDbTextStyleTableRecord
  2
STANDARD
 70
0
 40
0.0
 41
0.8
 50
0.0
 71
0
 42
0.2
  3
txt
  4

  0
STYLE
  5
220
100
AcDbSymbolTableRecord
100
AcDbTextStyleTableRecord
  2
TEXTSTYLE_1
 70
0
 40
0.0
 41
0.8
 50
0.0
 71
0
 42
0.2
  3
gdt
  4

  0
ENDTAB
  0
TABLE
  2
VIEW
  5
6
100
AcDbSymbolTable
 70
0
  0
ENDTAB
  0
TABLE
  2
UCS
  5
7
100
AcDbSymbolTable
 70
0
  0
ENDTAB
  0
TABLE
  2
APPID
  5
9
100
AcDbSymbolTable
 70
1
  0
APPID
  5
221
100
AcDbSymbolTableRecord
100
AcDbRegAppTableRecord
  2
ACAD
 70
0
  0
ENDTAB
  0
TABLE
  2
BLOCK_RECORD
  5
1
100
AcDbSymbolTable
 70
0
  0
BLOCK_RECORD
  5
222
100
AcDbSymbolTableRecord
100
AcDbBlockTableRecord
  2
*Model_Space
  0
BLOCK_RECORD
  5
223
100
AcDbSymbolTableRecord
100
AcDbBlockTableRecord
  2
*Paper_Space
  0
ENDTAB
  0
TABLE
  2
DIMSTYLE
  5
A
100
AcDbSymbolTable
 70
1
100
AcDbDimStyleTable
 71
0
  0
DIMSTYLE
105
224
100
AcDbSymbolTableRecord
100
AcDbDimStyleTableRecord
  2
STANDARD
 70
0
  3

  4

 40
1.0
 41
0.1875
 42
0.0625
 43
0.38
 44
0.125
 45
0.0
 46
0.0
 47
0.0001
 48
0.0001
140
0.15625
141
0.09
142
0.0
143
25.4
144
1.0
145
0.0
146
1.0
147
0.09
 71
0.0
 72
0.0
 73
1
 74
1
 75
0
 76
0
 77
0
 78
4
 79
1
170
0
171
3
172
0
173
0
174
0
175
0
176
0
177
0
178
0
270
2
179
4
271
4
272
4
273
2
274
2
275
0
280
0
281
0
282
0
283
1
284
4
285
0
286
0
287
3
288
0
340
11
278
46
  0
ENDTAB
  0
ENDSEC
  0
SECTION
  2
BLOCKS
  0
BLOCK
  5
20
100
AcDbEntity
  8
0
100
AcDbBlockBegin
  2
*Model_Space
 70
0
 10
0.0
 20
0.0
 30
0.0
  3
*Model_Space
  1

  0
ENDBLK
  5
21
100
AcDbEntity
  8
0
100
AcDbBlockEnd
  0
BLOCK
  5
1C
100
AcDbEntity
  8
0
100
AcDbBlockBegin
  2
*Paper_Space
 70
0
 10
0.0
 20
0.0
 30
0.0
  3
*Paper_Space
  1

  0
ENDBLK
  5
1D
100
AcDbEntity
  8
0
100
AcDbBlockEnd
  0
ENDSEC
  0
SECTION
  2
ENTITIES
  0
MTEXT
  5
225
100
AcDbEntity
  8
0
100
AcDbMText
 62
7
  6
CONTINUOUS
  7
STANDARD
 71
1
 72
1
 10
15.9560215477
 20
0.9479130325
 30
0.0
 11
1.0
 21
0.0
 31
0.0
 44
0.9
  1
SCALE: 1:0.083
 40
0.3
 41
3.36
  0
LINE
  5
226
100
AcDbEntity
  8
0
100
AcDbLine
 62
7
  6
CONTINUOUS
 10
0.0
 20
0.0
 11
0.0
 21
17.0
  0
LINE
  5
227
100
AcDbEntity
  8
0
100
AcDbLine
 62
7
  6
CONTINUOUS
 10
0.0
 20
0.0
 11
22.0
 21
0.0
  0
LINE
  5
228
100
AcDbEntity
  8
0
100
AcDbLine
 62
7
  6
CONTINUOUS
 10
0.0
 20
17.0
 11
22.0
 21
17.0
  0
LINE
  5
229
100
AcDbEntity
  8
0
100
AcDbLine
 62
7
  6
CONTINUOUS
 10
22.0
 20
0.0
 11
22.0
 21
17.0
  0
LINE
  5
22A
100
AcDbEntity
  8
02___PRT_ALL_AXES
100
AcDbLine
 62
7
  6
CONTINUOUS
 10
6.0416172762
 20
4.1211483774
 11
6.2191172762
 21
4.1211483774
  0
LINE
  5
22B
100
AcDbEntity
  8
LAYER_CUT_FEAT
100
AcDbLine
 62
7
  6
CONTINUOUS
 10
6.0416172762
 20
4.1211484221
 11
6.0416172762
 21
6.9190199161
  0
LINE
  5
22C
100
AcDbEntity
  8
LAYER_CUT_FEAT
100
AcDbLine
 62
7
  6
CONTINUOUS
 10
6.2191172762
 20
4.1211484221
 11
6.2191172762
 21
6.9190199161
  0
LINE
  5
22D
100
AcDbEntity
  8
LAYER_CUT_FEAT
100
AcDbLine
 62
7
  6
CONTINUOUS
 10
6.0416172762
 20
6.9104257256
 11
6.2191172762
 21
6.9104257256
  0
LINE
  5
22E
100
AcDbEntity
  8
LAYER_CUT_FEAT
100
AcDbLine
 62
7
  6
CONTINUOUS
 10
6.0416172762
 20
6.9104396226
 11
6.2191172762
 21
6.9104396226
  0
LINE
  5
22F
100
AcDbEntity
  8
LAYER_CUT_FEAT
100
AcDbLine
 62
7
  6
CONTINUOUS
 10
6.0416172762
 20
6.9141422089
 11
6.2191172762
 21
6.9141422089
  0
LINE
  5
230
100
AcDbEntity
  8
LAYER_CUT_FEAT
100
AcDbLine
 62
7
  6
CONTINUOUS
 10
6.0416172762
 20
6.9147848904
 11
6.2191172762
 21
6.9147848904
  0
LINE
  5
231
100
AcDbEntity
  8
LAYER_CUT_FEAT
100
AcDbLine
 62
7
  6
CONTINUOUS
 10
6.0416172762
 20
6.917264759
 11
6.2191172762
 21
6.917264759
  0
LINE
  5
232
100
AcDbEntity
  8
LAYER_CUT_FEAT
100
AcDbLine
 62
7
  6
CONTINUOUS
 10
6.0416172762
 20
6.9176506434
 11
6.2191172762
 21
6.9176506434
  0
LINE
  5
233
100
AcDbEntity
  8
LAYER_CUT_FEAT
100
AcDbLine
 62
7
  6
CONTINUOUS
 10
6.0416172762
 20
6.918891242
 11
6.2191172762
 21
6.918891242
  0
LINE
  5
234
100
AcDbEntity
  8
0
100
AcDbLine
 62
7
  6
CONTINUOUS
 10
6.0416172762
 20
6.9190199161
 11
6.2191172762
 21
6.9190199161
  0
LINE
  5
235
100
AcDbEntity
  8
02___PRT_ALL_AXES
100
AcDbLine
 62
7
  6
CONTINUOUS
 10
5.9821220839
 20
11.2009473972
 11
6.1596220839
 21
11.2009473972
  0
LINE
  5
236
100
AcDbEntity
  8
LAYER_CUT_FEAT
100
AcDbLine
 62
7
  6
CONTINUOUS
 10
5.9821220839
 20
11.2009474705
 11
5.9821220839
 21
12.5809890639
  0
LINE
  5
237
100
AcDbEntity
  8
0
100
AcDbLine
 62
7
  6
CONTINUOUS
 10
5.9821220839
 20
12.5809890639
 11
5.9821220839
 21
12.6189057306
  0
LINE
  5
238
100
AcDbEntity
  8
LAYER_CUT_FEAT
100
AcDbLine
 62
7
  6
CONTINUOUS
 10
5.9821220839
 20
12.6189057306
 11
5.9821220839
 21
13.9989473949
  0
LINE
  5
239
100
AcDbEntity
  8
LAYER_CUT_FEAT
100
AcDbLine
 62
7
  6
CONTINUOUS
 10
5.9821220839
 20
12.4439669656
 11
6.1596220839
 21
12.4439669656
  0
LINE
  5
23A
100
AcDbEntity
  8
LAYER_CUT_FEAT
100
AcDbLine
 62
7
  6
CONTINUOUS
 10
6.1596220839
 20
12.4597494772
 11
5.9821220839
 21
12.4597494772
  0
LINE
  5
23B
100
AcDbEntity
  8
LAYER_CUT_FEAT
100
AcDbLine
 62
7
  6
CONTINUOUS
 10
6.1596220839
 20
12.4697013245
 11
5.9821220839
 21
12.4697013245
  0
LINE
  5
23C
100
AcDbEntity
  8
LAYER_CUT_FEAT
100
AcDbLine
 62
7
  6
CONTINUOUS
 10
5.9821220839
 20
12.4817010531
 11
6.1596220839
 21
12.4817010531
  0
LINE
  5
23D
100
AcDbEntity
  8
LAYER_CUT_FEAT
100
AcDbLine
 62
7
  6
CONTINUOUS
 10
5.9821220839
 20
12.4895390791
 11
6.1596220839
 21
12.4895390791
  0
LINE
  5
23E
100
AcDbEntity
  8
LAYER_CUT_FEAT
100
AcDbLine
 62
7
  6
CONTINUOUS
 10
6.1596220839
 20
12.5047295806
 11
5.9821220839
 21
12.5047295806
  0
LINE
  5
23F
100
AcDbEntity
  8
LAYER_CUT_FEAT
100
AcDbLine
 62
7
  6
CONTINUOUS
 10
6.1596220839
 20
12.5147081698
 11
5.9821220839
 21
12.5147081698
  0
LINE
  5
240
100
AcDbEntity
  8
LAYER_CUT_FEAT
100
AcDbLine
 62
7
  6
CONTINUOUS
 10
5.9821220839
 20
12.5273745633
 11
6.1596220839
 21
12.5273745633
  0
LINE
  5
241
100
AcDbEntity
  8
LAYER_CUT_FEAT
100
AcDbLine
 62
7
  6
CONTINUOUS
 10
5.9821220839
 20
12.5352294207
 11
6.1596220839
 21
12.5352294207
  0
LINE
  5
242
100
AcDbEntity
  8
LAYER_CUT_FEAT
100
AcDbLine
 62
7
  6
CONTINUOUS
 10
6.1596220839
 20
12.5498116456
 11
5.9821220839
 21
12.5498116456
  0
LINE
  5
243
100
AcDbEntity
  8
LAYER_CUT_FEAT
100
AcDbLine
 62
7
  6
CONTINUOUS
 10
6.1596220839
 20
12.5598062915
 11
5.9821220839
 21
12.5598062915
  0
LINE
  5
244
100
AcDbEntity
  8
LAYER_CUT_FEAT
100
AcDbLine
 62
7
  6
CONTINUOUS
 10
5.9821220839
 20
12.5731257863
 11
6.1596220839
 21
12.5731257863
  0
LINE
  5
245
100
AcDbEntity
  8
0
100
AcDbLine
 62
7
  6
CONTINUOUS
 10
5.9821220839
 20
12.5809890639
 11
6.1596220839
 21
12.5809890639
  0
LINE
  5
246
100
AcDbEntity
  8
0
100
AcDbLine
 62
7
  6
CONTINUOUS
 10
6.1596220839
 20
12.5949473972
 11
5.9821220839
 21
12.5949473972
  0
LINE
  5
247
100
AcDbEntity
  8
0
100
AcDbLine
 62
7
  6
CONTINUOUS
 10
6.1596220839
 20
12.6049473972
 11
5.9821220839
 21
12.6049473972
  0
LINE
  5
248
100
AcDbEntity
  8
LAYER_CUT_FEAT
100
AcDbLine
 62
7
  6
CONTINUOUS
 10
6.1596220839
 20
13.9989473949
 11
6.1596220839
 21
12.6189057306
  0
LINE
  5
249
100
AcDbEntity
  8
LAYER_CUT_FEAT
100
AcDbLine
 62
7
  6
CONTINUOUS
 10
6.1596220839
 20
11.2009474705
 11
6.1596220839
 21
12.5809890639
  0
LINE
  5
24A
100
AcDbEntity
  8
0
100
AcDbLine
 62
7
  6
CONTINUOUS
 10
6.1596220839
 20
12.5809890639
 11
6.1596220839
 21
12.6189057306
  0
LINE
  5
24B
100
AcDbEntity
  8
0
100
AcDbLine
 62
7
  6
CONTINUOUS
 10
5.9821220839
 20
12.6189057306
 11
6.1596220839
 21
12.6189057306
  0
LINE
  5
24C
100
AcDbEntity
  8
02___PRT_ALL_AXES
100
AcDbLine
 62
7
  6
CONTINUOUS
 10
5.9821220839
 20
13.9989473972
 11
6.1596220839
 21
13.9989473972
  0
LINE
  5
24D
100
AcDbEntity
  8
LAYER_CUT_FEAT
100
AcDbLine
 62
7
  6
CONTINUOUS
 10
15.4366803803
 20
6.8428547785
 11
15.4395210578
 21
6.8525837762
  0
LINE
  5
24E
100
AcDbEntity
  8
LAYER_CUT_FEAT
100
AcDbLine
 62
7
  6
CONTINUOUS
 10
15.481970912
 20
6.8461579746
 11
15.4851283925
 21
6.8557888189
  0
LINE
  5
24F
100
AcDbEntity
  8
LAYER_CUT_FEAT
100
AcDbLine
 62
7
  6
CONTINUOUS
 10
15.5273452722
 20
6.8479775373
 11
15.5308161745
 21
6.8574999153
  0
LINE
  5
250
100
AcDbEntity
  8
0
100
AcDbLine
 62
7
  6
CONTINUOUS
 10
15.5727548728
 20
6.8483115184
 11
15.5765354802
 21
6.8577152333
  0
LINE
  5
251
100
AcDbEntity
  8
LAYER_CUT_FEAT
100
AcDbLine
 62
7
  6
CONTINUOUS
 10
15.5194648278
 20
5.710841886
 11
15.9664850955
 21
6.693261403
  0
LINE
  5
252
100
AcDbEntity
  8
LAYER_CUT_FEAT
100
AcDbLine
 62
7
  6
CONTINUOUS
 10
14.3961786332
 20
4.8868304591
 11
15.3068241141
 21
5.4662267269
  0
LINE
  5
253
100
AcDbEntity
  8
LAYER_CUT_FEAT
100
AcDbLine
 62
7
  6
CONTINUOUS
 10
16.8392968692
 20
5.240658676
 11
15.7620086178
 21
5.3071812327
  0
LINE
  5
254
100
AcDbEntity
  8
LAYER_CUT_FEAT
100
AcDbLine
 62
7
  6
CONTINUOUS
 10
15.3097064614
 20
5.4991721074
 11
14.5135068376
 21
6.2278979722
  0
LINE
  5
255
100
AcDbEntity
  8
LAYER_CUT_FEAT
100
AcDbLine
 62
7
  6
CONTINUOUS
 10
15.7462733748
 20
4.1762299178
 11
15.4766397083
 21
5.2213485297
  0
LINE
  5
256
100
AcDbEntity
  8
LAYER_CUT_FEAT
100
AcDbLine
 62
7
  6
CONTINUOUS
 10
15.9839497058
 20
6.6321019132
 11
15.6261376749
 21
5.7891495936
  0
LINE
  5
257
100
AcDbEntity
  8
LAYER_CUT_FEAT
100
AcDbLine
 62
7
  6
CONTINUOUS
 10
15.2441244826
 20
5.3496936861
 11
14.459173527
 21
4.878047569
  0
LINE
  5
258
100
AcDbEntity
  8
LAYER_CUT_FEAT
100
AcDbLine
 62
7
  6
CONTINUOUS
 10
15.881230088
 20
5.3646045243
 11
16.7934953828
 21
5.2847916529
  0
LINE
  5
259
100
AcDbEntity
  8
LAYER_CUT_FEAT
100
AcDbLine
 62
7
  6
CONTINUOUS
 10
14.5770698303
 20
6.225608482
 11
15.2681951284
 21
5.6248224262
  0
LINE
  5
25A
100
AcDbEntity
  8
LAYER_CUT_FEAT
100
AcDbLine
 62
7
  6
CONTINUOUS
 10
15.5680939644
 20
5.1257069466
 11
15.7740928924
 21
4.2334275598
  0
LINE
  5
25B
100
AcDbEntity
  8
LAYER_CUT_FEAT
100
AcDbLine
 62
7
  6
CONTINUOUS
 10
16.1647277976
 20
6.6091123684
 11
15.7685607091
 21
5.6051069576
  0
LINE
  5
25C
100
AcDbEntity
  8
LAYER_CUT_FEAT
100
AcDbLine
 62
7
  6
CONTINUOUS
 10
15.7507893738
 20
5.7362380867
 11
16.1086014047
 21
6.5791904062
  0
LINE
  5
25D
100
AcDbEntity
  8
LAYER_CUT_FEAT
100
AcDbLine
 62
7
  6
CONTINUOUS
 10
14.5289182663
 20
4.7619728304
 11
15.3138692219
 21
5.2336189475
  0
LINE
  5
25E
100
AcDbEntity
  8
LAYER_CUT_FEAT
100
AcDbLine
 62
7
  6
CONTINUOUS
 10
15.4461974837
 20
5.2342704874
 11
14.5070987867
 21
4.7022283234
  0
LINE
  5
25F
100
AcDbEntity
  8
LAYER_CUT_FEAT
100
AcDbLine
 62
7
  6
CONTINUOUS
 10
16.805297723
 20
5.4196930183
 11
15.8930324282
 21
5.4995058897
  0
LINE
  5
260
100
AcDbEntity
  8
LAYER_CUT_FEAT
100
AcDbLine
 62
7
  6
CONTINUOUS
 10
15.78559365
 20
5.5767593836
 11
16.8580669929
 21
5.4552021715
  0
LINE
  5
261
100
AcDbEntity
  8
LAYER_CUT_FEAT
100
AcDbLine
 62
7
  6
CONTINUOUS
 10
14.6547976892
 20
6.3904345042
 11
15.4872412147
 21
5.7034024787
  0
LINE
  5
262
100
AcDbEntity
  8
LAYER_CUT_FEAT
100
AcDbLine
 62
7
  6
CONTINUOUS
 10
15.3570364552
 20
5.7270226818
 11
14.6659111571
 21
6.3278087376
  0
LINE
  5
263
100
AcDbEntity
  8
LAYER_CUT_FEAT
100
AcDbLine
 62
7
  6
CONTINUOUS
 10
15.9060388387
 20
4.2638896817
 11
15.7000399106
 21
5.1561690686
  0
LINE
  5
264
100
AcDbEntity
  8
LAYER_CUT_FEAT
100
AcDbLine
 62
7
  6
CONTINUOUS
 10
15.7403119411
 20
5.2822220612
 11
15.9561166514
 21
4.2246760555
  0
LINE
  5
265
100
AcDbEntity
  8
LAYER_CUT_FEAT
100
AcDbLine
 62
7
  6
CONTINUOUS
 10
15.4071166342
 20
6.8493922191
 11
15.4118007621
 21
6.84040435
  0
LINE
  5
266
100
AcDbEntity
  8
LAYER_CUT_FEAT
100
AcDbLine
 62
7
  6
CONTINUOUS
 10
15.4526368938
 20
6.8536592135
 11
15.457024439
 21
6.8445228963
  0
LINE
  5
267
100
AcDbEntity
  8
LAYER_CUT_FEAT
100
AcDbLine
 62
7
  6
CONTINUOUS
 10
15.4982723934
 20
6.8564345422
 11
15.5023586575
 21
6.8471595603
  0
LINE
  5
268
100
AcDbEntity
  8
0
100
AcDbLine
 62
7
  6
CONTINUOUS
 10
15.5439742654
 20
6.8577152333
 11
15.5477548728
 21
6.8483115184
  0
LINE
  5
269
100
AcDbEntity
  8
LAYER_CUT_FEAT
100
AcDbLine
 62
7
  6
CONTINUOUS
 10
15.4200569528
 20
6.8330950687
 11
15.4300088001
 21
6.8340752401
  0
LINE
  5
26A
100
AcDbEntity
  8
LAYER_CUT_FEAT
100
AcDbLine
 62
7
  6
CONTINUOUS
 10
15.4650370562
 20
6.8369473935
 11
15.4750156454
 21
6.8376014248
  0
LINE
  5
26B
100
AcDbEntity
  8
LAYER_CUT_FEAT
100
AcDbLine
 62
7
  6
CONTINUOUS
 10
15.5101191212
 20
6.839325948
 11
15.5201137671
 21
6.8396531388
  0
LINE
  5
26C
100
AcDbEntity
  8
0
100
AcDbLine
 62
7
  6
CONTINUOUS
 10
15.5552548728
 20
6.8402281851
 11
15.5652548728
 21
6.8402281851
  0
LINE
  5
26D
100
AcDbEntity
  8
02___PRT_ALL_AXES
100
AcDbLine
 62
7
  6
CONTINUOUS
 10
15.3893442071
 20
11.1117739673
 11
15.5528325335
 21
11.1117739673
  0
LINE
  5
26E
100
AcDbEntity
  8
LAYER_CUT_FEAT
100
AcDbLine
 62
7
  6
CONTINUOUS
 10
15.540995507
 20
11.1782872935
 11
15.5528325335
 21
11.1779406993
  0
LINE
  5
26F
100
AcDbEntity
  8
LAYER_CUT_FEAT
100
AcDbLine
 62
7
  6
CONTINUOUS
 10
15.4380955203
 20
11.2208414443
 11
15.4226121958
 21
11.2208414443
  0
LINE
  5
270
100
AcDbEntity
  8
LAYER_CUT_FEAT
100
AcDbLine
 62
7
  6
CONTINUOUS
 10
14.9466689607
 20
13.2924518607
 11
14.9486837994
 21
13.2999285384
  0
LINE
  5
271
100
AcDbEntity
  8
LAYER_CUT_FEAT
100
AcDbLine
 62
7
  6
CONTINUOUS
 10
14.9570735292
 20
13.329946946
 11
14.9589746772
 21
13.3365304765
  0
LINE
  5
272
100
AcDbEntity
  8
0
100
AcDbLine
 62
7
  6
CONTINUOUS
 10
14.9679710777
 20
13.3665679308
 11
14.9697264055
 21
13.3722481739
  0
LINE
  5
273
100
AcDbEntity
  8
LAYER_CUT_FEAT
100
AcDbLine
 62
7
  6
CONTINUOUS
 10
14.9367663528
 20
13.2541228255
 11
14.9388647918
 21
13.2624815537
  0
LINE
  5
274
100
AcDbEntity
  8
LAYER_CUT_FEAT
100
AcDbLine
 62
7
  6
CONTINUOUS
 10
15.9927811708
 20
11.8401945729
 11
15.9765858484
 21
11.8401945729
  0
LINE
  5
275
100
AcDbEntity
  8
LAYER_CUT_FEAT
100
AcDbLine
 62
7
  6
CONTINUOUS
 10
15.8518588387
 20
11.8401945729
 11
15.8360472917
 21
11.8401945729
  0
LINE
  5
276
100
AcDbEntity
  8
LAYER_CUT_FEAT
100
AcDbLine
 62
7
  6
CONTINUOUS
 10
15.1002431045
 20
13.2540767197
 11
15.1023531182
 21
13.2624815537
  0
LINE
  5
277
100
AcDbEntity
  8
LAYER_CUT_FEAT
100
AcDbLine
 62
7
  6
CONTINUOUS
 10
15.1099561524
 20
13.2917054885
 11
15.1121721259
 21
13.2999285384
  0
LINE
  5
278
100
AcDbEntity
  8
LAYER_CUT_FEAT
100
AcDbLine
 62
7
  6
CONTINUOUS
 10
15.1201434434
 20
13.3284980163
 11
15.1224630037
 21
13.3365304765
  0
LINE
  5
279
100
AcDbEntity
  8
0
100
AcDbLine
 62
7
  6
CONTINUOUS
 10
15.1307940688
 20
13.3644149048
 11
15.133214732
 21
13.3722481739
  0
LINE
  5
27A
100
AcDbEntity
  8
LAYER_CUT_FEAT
100
AcDbLine
 62
7
  6
CONTINUOUS
 10
16.031805147
 20
12.050917414
 11
16.0156098245
 21
12.050917414
  0
LINE
  5
27B
100
AcDbEntity
  8
LAYER_CUT_FEAT
100
AcDbLine
 62
7
  6
CONTINUOUS
 10
14.9378016299
 20
13.2731650307
 11
14.9355215106
 21
13.2814378517
  0
LINE
  5
27C
100
AcDbEntity
  8
LAYER_CUT_FEAT
100
AcDbLine
 62
7
  6
CONTINUOUS
 10
14.9477573293
 20
13.3106956225
 11
14.9455838383
 21
13.3191555907
  0
LINE
  5
27D
100
AcDbEntity
  8
LAYER_CUT_FEAT
100
AcDbLine
 62
7
  6
CONTINUOUS
 10
14.958185891
 20
13.3473696382
 11
14.9561213556
 21
13.3560076944
  0
LINE
  5
27E
100
AcDbEntity
  8
0
100
AcDbLine
 62
7
  6
CONTINUOUS
 10
14.9671227789
 20
13.3919547006
 11
14.9690761479
 21
13.3831478063
  0
LINE
  5
27F
100
AcDbEntity
  8
LAYER_CUT_FEAT
100
AcDbLine
 62
7
  6
CONTINUOUS
 10
15.5417798016
 20
12.2659823007
 11
15.5332599874
 21
12.2659823007
  0
LINE
  5
280
100
AcDbEntity
  8
LAYER_CUT_FEAT
100
AcDbLine
 62
7
  6
CONTINUOUS
 10
15.3057279206
 20
11.3389884414
 11
15.3444625183
 21
12.2905813672
  0
LINE
  5
281
100
AcDbEntity
  8
LAYER_CUT_FEAT
100
AcDbLine
 62
7
  6
CONTINUOUS
 10
15.4991252565
 20
12.9436117557
 11
15.7243523736
 21
13.5239967202
  0
LINE
  5
282
100
AcDbEntity
  8
LAYER_CUT_FEAT
100
AcDbLine
 62
7
  6
CONTINUOUS
 10
15.034413076
 20
12.4499024727
 11
15.3168101324
 21
12.6044757848
  0
LINE
  5
283
100
AcDbEntity
  8
LAYER_CUT_FEAT
100
AcDbLine
 62
7
  6
CONTINUOUS
 10
15.0392627211
 20
12.3842862034
 11
15.441537142
 21
12.6044757848
  0
LINE
  5
284
100
AcDbEntity
  8
LAYER_CUT_FEAT
100
AcDbLine
 62
7
  6
CONTINUOUS
 10
15.8453646637
 20
11.8580769592
 11
15.5682266316
 21
12.1744474734
  0
LINE
  5
285
100
AcDbEntity
  8
LAYER_CUT_FEAT
100
AcDbLine
 62
7
  6
CONTINUOUS
 10
15.1012899563
 20
13.2731650307
 11
15.0990098371
 21
13.2814378517
  0
LINE
  5
286
100
AcDbEntity
  8
LAYER_CUT_FEAT
100
AcDbLine
 62
7
  6
CONTINUOUS
 10
15.1112456558
 20
13.3106956225
 11
15.1090721647
 21
13.3191555907
  0
LINE
  5
287
100
AcDbEntity
  8
LAYER_CUT_FEAT
100
AcDbLine
 62
7
  6
CONTINUOUS
 10
15.1216742175
 20
13.3473696382
 11
15.1196096821
 21
13.3560076944
  0
LINE
  5
288
100
AcDbEntity
  8
0
100
AcDbLine
 62
7
  6
CONTINUOUS
 10
15.1325644743
 20
13.3831478063
 11
15.1306111053
 21
13.3919547006
  0
LINE
  5
289
100
AcDbEntity
  8
LAYER_CUT_FEAT
100
AcDbLine
 62
7
  6
CONTINUOUS
 10
15.3223410533
 20
12.6343418179
 11
15.1685194211
 21
13.4062554397
  0
LINE
  5
28A
100
AcDbEntity
  8
LAYER_CUT_FEAT
100
AcDbLine
 62
7
  6
CONTINUOUS
 10
15.4265162874
 20
11.2422277975
 11
15.4702127718
 21
12.3157194034
  0
LINE
  5
28B
100
AcDbEntity
  8
LAYER_CUT_FEAT
100
AcDbLine
 62
7
  6
CONTINUOUS
 10
15.5523896652
 20
12.7594606656
 11
15.8490793832
 21
13.5239967202
  0
LINE
  5
28C
100
AcDbEntity
  8
LAYER_CUT_FEAT
100
AcDbLine
 62
7
  6
CONTINUOUS
 10
15.4028138037
 20
12.5171654467
 11
15.0522507439
 21
12.3492430039
  0
LINE
  5
28D
100
AcDbEntity
  8
LAYER_CUT_FEAT
100
AcDbLine
 62
7
  6
CONTINUOUS
 10
15.9700916733
 20
11.8580769592
 11
15.5871878347
 21
12.2951858012
  0
LINE
  5
28E
100
AcDbEntity
  8
LAYER_CUT_FEAT
100
AcDbLine
 62
7
  6
CONTINUOUS
 10
15.6373301933
 20
12.3087086181
 11
15.9593781661
 21
11.9154233604
  0
LINE
  5
28F
100
AcDbEntity
  8
LAYER_CUT_FEAT
100
AcDbLine
 62
7
  6
CONTINUOUS
 10
15.4470680629
 20
12.6343418179
 11
15.2555975323
 21
13.5951865875
  0
LINE
  5
290
100
AcDbEntity
  8
LAYER_CUT_FEAT
100
AcDbLine
 62
7
  6
CONTINUOUS
 10
15.4905827588
 20
12.1941669951
 11
15.4444443789
 21
11.2861138609
  0
LINE
  5
291
100
AcDbEntity
  8
LAYER_CUT_FEAT
100
AcDbLine
 62
7
  6
CONTINUOUS
 10
15.4517564079
 20
11.2685935774
 11
15.4978947879
 21
12.1766467116
  0
LINE
  5
292
100
AcDbEntity
  8
LAYER_CUT_FEAT
100
AcDbLine
 62
7
  6
CONTINUOUS
 10
15.4967348865
 20
11.2685935774
 11
15.5428732664
 21
12.1766467116
  0
LINE
  5
293
100
AcDbEntity
  8
LAYER_CUT_FEAT
100
AcDbLine
 62
7
  6
CONTINUOUS
 10
15.8471374984
 20
13.4605882875
 11
15.6019625252
 21
12.7955988099
  0
LINE
  5
294
100
AcDbEntity
  8
LAYER_CUT_FEAT
100
AcDbLine
 62
7
  6
CONTINUOUS
 10
15.5989497393
 20
12.7124574823
 11
15.840452635
 21
13.3674871634
  0
LINE
  5
295
100
AcDbEntity
  8
LAYER_CUT_FEAT
100
AcDbLine
 62
7
  6
CONTINUOUS
 10
15.6402561404
 20
12.7024976858
 11
15.8854311136
 21
13.3674871634
  0
LINE
  5
296
100
AcDbEntity
  8
LAYER_CUT_FEAT
100
AcDbLine
 62
7
  6
CONTINUOUS
 10
15.0485666706
 20
12.2312709067
 11
15.3675051886
 21
12.384044947
  0
LINE
  5
297
100
AcDbEntity
  8
LAYER_CUT_FEAT
100
AcDbLine
 62
7
  6
CONTINUOUS
 10
15.0619206073
 20
12.2161225042
 11
15.4124836671
 21
12.384044947
  0
LINE
  5
298
100
AcDbEntity
  8
LAYER_CUT_FEAT
100
AcDbLine
 62
7
  6
CONTINUOUS
 10
15.9370471352
 20
12.0377157294
 11
15.6307609867
 21
12.4117526337
  0
LINE
  5
299
100
AcDbEntity
  8
LAYER_CUT_FEAT
100
AcDbLine
 62
7
  6
CONTINUOUS
 10
15.9820256137
 20
12.0377157294
 11
15.6599776409
 21
12.431000987
  0
LINE
  5
29A
100
AcDbEntity
  8
LAYER_CUT_FEAT
100
AcDbLine
 62
7
  6
CONTINUOUS
 10
15.2784813312
 20
13.5708497382
 11
15.4490028374
 21
12.7665783812
  0
LINE
  5
29B
100
AcDbEntity
  8
LAYER_CUT_FEAT
100
AcDbLine
 62
7
  6
CONTINUOUS
 10
15.4503385622
 20
12.8313310911
 11
15.2799290244
 21
13.6350743445
  0
LINE
  5
29C
100
AcDbEntity
  8
LAYER_CUT_FEAT
100
AcDbLine
 62
7
  6
CONTINUOUS
 10
15.4953170408
 20
12.8313310911
 11
15.3247955345
 21
13.6356024481
  0
LINE
  5
29D
100
AcDbEntity
  8
LAYER_CUT_FEAT
100
AcDbLine
 62
7
  6
CONTINUOUS
 10
15.5747067353
 20
12.2807080037
 11
15.5096777012
 21
11.2143640108
  0
LINE
  5
29E
100
AcDbEntity
  8
LAYER_CUT_FEAT
100
AcDbLine
 62
7
  6
CONTINUOUS
 10
15.9099805167
 20
13.3759312018
 11
15.6340699769
 21
12.5881374556
  0
LINE
  5
29F
100
AcDbEntity
  8
LAYER_CUT_FEAT
100
AcDbLine
 62
7
  6
CONTINUOUS
 10
15.4608607707
 20
12.3384564006
 11
15.0542072696
 21
12.1711983058
  0
LINE
  5
2A0
100
AcDbEntity
  8
LAYER_CUT_FEAT
100
AcDbLine
 62
7
  6
CONTINUOUS
 10
15.5408273846
 20
12.6875079257
 11
15.5431182674
 21
12.6877798173
  0
LINE
  5
2A1
100
AcDbEntity
  8
LAYER_CUT_FEAT
100
AcDbLine
 62
7
  6
CONTINUOUS
 10
15.6387127342
 20
12.5312126691
 11
16.0061095634
 21
12.0525674467
  0
LINE
  5
2A2
100
AcDbEntity
  8
LAYER_CUT_FEAT
100
AcDbLine
 62
7
  6
CONTINUOUS
 10
15.3292543929
 20
13.698167552
 11
15.539619367
 21
12.7637394393
  0
LINE
  5
2A3
100
AcDbEntity
  8
LAYER_CUT_FEAT
100
AcDbLine
 62
7
  6
CONTINUOUS
 10
15.5848566734
 20
12.292260179
 11
15.5820831423
 21
12.2889373497
  0
LINE
  5
2A4
100
AcDbEntity
  8
LAYER_CUT_FEAT
100
AcDbLine
 62
7
  6
CONTINUOUS
 10
15.5417798016
 20
12.755565634
 11
15.5332599874
 21
12.755565634
  0
LINE
  5
2A5
100
AcDbEntity
  8
LAYER_CUT_FEAT
100
AcDbLine
 62
7
  6
CONTINUOUS
 10
15.5848566734
 20
12.7292877557
 11
15.5820831423
 21
12.732610585
  0
LINE
  5
2A6
100
AcDbEntity
  8
LAYER_CUT_FEAT
100
AcDbLine
 62
7
  6
CONTINUOUS
 10
15.0921393759
 20
13.254070691
 11
15.0960149219
 21
13.2521529455
  0
LINE
  5
2A7
100
AcDbEntity
  8
LAYER_CUT_FEAT
100
AcDbLine
 62
7
  6
CONTINUOUS
 10
15.1018566859
 20
13.2923803415
 11
15.1057057221
 21
13.2901379979
  0
LINE
  5
2A8
100
AcDbEntity
  8
LAYER_CUT_FEAT
100
AcDbLine
 62
7
  6
CONTINUOUS
 10
15.112056912
 20
13.3298530284
 11
15.1158753168
 21
13.3272884878
  0
LINE
  5
2A9
100
AcDbEntity
  8
0
100
AcDbLine
 62
7
  6
CONTINUOUS
 10
15.1227291318
 20
13.3664486249
 11
15.1265128162
 21
13.3635646335
  0
LINE
  5
2AA
100
AcDbEntity
  8
LAYER_CUT_FEAT
100
AcDbLine
 62
7
  6
CONTINUOUS
 10
14.9274938
 20
13.2528005561
 11
15.0909821265
 21
13.2528005561
  0
LINE
  5
2AB
100
AcDbEntity
  8
LAYER_CUT_FEAT
100
AcDbLine
 62
7
  6
CONTINUOUS
 10
15.1002431045
 20
13.2540767197
 11
15.0921393759
 21
13.2540767197
  0
LINE
  5
2AC
100
AcDbEntity
  8
LAYER_CUT_FEAT
100
AcDbLine
 62
7
  6
CONTINUOUS
 10
14.9284383953
 20
13.2541228255
 11
15.0919267217
 21
13.2541228255
  0
LINE
  5
2AD
100
AcDbEntity
  8
LAYER_CUT_FEAT
100
AcDbLine
 62
7
  6
CONTINUOUS
 10
15.1023531182
 20
13.2624815537
 11
14.9388647918
 21
13.2624815537
  0
LINE
  5
2AE
100
AcDbEntity
  8
LAYER_CUT_FEAT
100
AcDbLine
 62
7
  6
CONTINUOUS
 10
14.9354942689
 20
13.2846688854
 11
15.0989825953
 21
13.2846688854
  0
LINE
  5
2AF
100
AcDbEntity
  8
LAYER_CUT_FEAT
100
AcDbLine
 62
7
  6
CONTINUOUS
 10
14.9371955463
 20
13.2912081193
 11
15.1006838727
 21
13.2912081193
  0
LINE
  5
2B0
100
AcDbEntity
  8
LAYER_CUT_FEAT
100
AcDbLine
 62
7
  6
CONTINUOUS
 10
15.1099561524
 20
13.2917054885
 11
15.1030150872
 21
13.2917054885
  0
LINE
  5
2B1
100
AcDbEntity
  8
LAYER_CUT_FEAT
100
AcDbLine
 62
7
  6
CONTINUOUS
 10
14.9381197113
 20
13.2924518607
 11
15.1016080377
 21
13.2924518607
  0
LINE
  5
2B2
100
AcDbEntity
  8
LAYER_CUT_FEAT
100
AcDbLine
 62
7
  6
CONTINUOUS
 10
15.1121721259
 20
13.2999285384
 11
14.9486837994
 21
13.2999285384
  0
LINE
  5
2B3
100
AcDbEntity
  8
LAYER_CUT_FEAT
100
AcDbLine
 62
7
  6
CONTINUOUS
 10
14.9455977791
 20
13.3223871833
 11
15.1090861055
 21
13.3223871833
  0
LINE
  5
2B4
100
AcDbEntity
  8
LAYER_CUT_FEAT
100
AcDbLine
 62
7
  6
CONTINUOUS
 10
15.1201434434
 20
13.3284980163
 11
15.1140744214
 21
13.3284980163
  0
LINE
  5
2B5
100
AcDbEntity
  8
LAYER_CUT_FEAT
100
AcDbLine
 62
7
  6
CONTINUOUS
 10
14.9473814646
 20
13.328779974
 11
15.110869791
 21
13.328779974
  0
LINE
  5
2B6
100
AcDbEntity
  8
LAYER_CUT_FEAT
100
AcDbLine
 62
7
  6
CONTINUOUS
 10
14.9482842098
 20
13.329946946
 11
15.1117725362
 21
13.329946946
  0
LINE
  5
2B7
100
AcDbEntity
  8
LAYER_CUT_FEAT
100
AcDbLine
 62
7
  6
CONTINUOUS
 10
15.1224630037
 20
13.3365304765
 11
14.9589746772
 21
13.3365304765
  0
LINE
  5
2B8
100
AcDbEntity
  8
LAYER_CUT_FEAT
100
AcDbLine
 62
7
  6
CONTINUOUS
 10
15.9359768402
 20
13.3862841171
 11
15.9348055497
 21
13.3862656325
  0
LINE
  5
2B9
100
AcDbEntity
  8
LAYER_CUT_FEAT
100
AcDbLine
 62
7
  6
CONTINUOUS
 10
14.956176464
 20
13.3592363854
 11
15.1196647904
 21
13.3592363854
  0
LINE
  5
2BA
100
AcDbEntity
  8
0
100
AcDbLine
 62
7
  6
CONTINUOUS
 10
15.1307940688
 20
13.3644149048
 11
15.1253972935
 21
13.3644149048
  0
LINE
  5
2BB
100
AcDbEntity
  8
0
100
AcDbLine
 62
7
  6
CONTINUOUS
 10
14.9580406477
 20
13.3654758874
 11
15.1215289742
 21
13.3654758874
  0
LINE
  5
2BC
100
AcDbEntity
  8
0
100
AcDbLine
 62
7
  6
CONTINUOUS
 10
14.9589210064
 20
13.3665679308
 11
15.1224093328
 21
13.3665679308
  0
LINE
  5
2BD
100
AcDbEntity
  8
0
100
AcDbLine
 62
7
  6
CONTINUOUS
 10
15.133214732
 20
13.3722481739
 11
14.9697264055
 21
13.3722481739
  0
LINE
  5
2BE
100
AcDbEntity
  8
LAYER_CUT_FEAT
100
AcDbLine
 62
7
  6
CONTINUOUS
 10
15.9348055497
 20
13.3862656325
 11
15.9186102272
 21
13.3862656325
  0
LINE
  5
2BF
100
AcDbEntity
  8
0
100
AcDbLine
 62
7
  6
CONTINUOUS
 10
14.9672189958
 20
13.3951770328
 11
15.1307073223
 21
13.3951770328
  0
LINE
  5
2C0
100
AcDbEntity
  8
LAYER_CUT_FEAT
100
AcDbLine
 62
7
  6
CONTINUOUS
 10
15.868821552
 20
13.5466888342
 11
15.8526262295
 21
13.5466888342
  0
LINE
  5
2C1
100
AcDbEntity
  8
LAYER_CUT_FEAT
100
AcDbLine
 62
7
  6
CONTINUOUS
 10
15.7278992199
 20
13.5466888342
 11
15.7120876728
 21
13.5466888342
  0
LINE
  5
2C2
100
AcDbEntity
  8
LAYER_CUT_FEAT
100
AcDbLine
 62
7
  6
CONTINUOUS
 10
15.2644846653
 20
13.6108611179
 11
15.2608553132
 21
13.6108611179
  0
LINE
  5
2C3
100
AcDbEntity
  8
02___PRT_ALL_AXES
100
AcDbLine
 62
7
  6
CONTINUOUS
 10
15.3893442071
 20
13.9097739673
 11
15.5528325335
 21
13.9097739673
  0
ARC
  5
2C4
100
AcDbEntity
  8
LAYER_CUT_FEAT
100
AcDbCircle
 62
7
  6
CONTINUOUS
 10
14.4940458966
 20
4.8200101997
 40
0.0677083333
100
AcDbArc
 50
121.0
 51
301.0
  0
ARC
  5
2C5
100
AcDbEntity
  8
LAYER_CUT_FEAT
100
AcDbCircle
 62
7
  6
CONTINUOUS
 10
14.3794034462
 20
4.9131962627
 40
0.03125
100
AcDbArc
 50
204.873006177
 51
302.4664718659
  0
ARC
  5
2C6
100
AcDbEntity
  8
LAYER_CUT_FEAT
100
AcDbCircle
 62
7
  6
CONTINUOUS
 10
14.5225029363
 20
4.6750387174
 40
0.03125
100
AcDbArc
 50
119.5335281341
 51
217.126993823
  0
ARC
  5
2C7
100
AcDbEntity
  8
LAYER_CUT_FEAT
100
AcDbCircle
 62
7
  6
CONTINUOUS
 10
15.5602548728
 20
5.4606531851
 40
1.399
100
AcDbArc
 50
90.7764587099
 51
91.0985412901
  0
ARC
  5
2C8
100
AcDbEntity
  8
LAYER_CUT_FEAT
100
AcDbCircle
 62
7
  6
CONTINUOUS
 10
15.5602548728
 20
5.4606531851
 40
1.399
100
AcDbArc
 50
92.6514587099
 51
92.9735412901
  0
ARC
  5
2C9
100
AcDbEntity
  8
LAYER_CUT_FEAT
100
AcDbCircle
 62
7
  6
CONTINUOUS
 10
15.5602548728
 20
5.4606531851
 40
1.399
100
AcDbArc
 50
94.5264587099
 51
94.8485412901
  0
ARC
  5
2CA
100
AcDbEntity
  8
LAYER_CUT_FEAT
100
AcDbCircle
 62
7
  6
CONTINUOUS
 10
15.5602548728
 20
5.4606531851
 40
1.399
100
AcDbArc
 50
96.4014587099
 51
89.2235412901
  0
ARC
  5
2CB
100
AcDbEntity
  8
LAYER_CUT_FEAT
100
AcDbCircle
 62
7
  6
CONTINUOUS
 10
15.5602548728
 20
5.4606531851
 40
1.3328333333
100
AcDbArc
 50
145.126993823
 51
204.873006177
  0
ARC
  5
2CC
100
AcDbEntity
  8
LAYER_CUT_FEAT
100
AcDbCircle
 62
7
  6
CONTINUOUS
 10
15.5602548728
 20
5.4606531851
 40
1.3328333333
100
AcDbArc
 50
217.126993823
 51
276.873006177
  0
ARC
  5
2CD
100
AcDbEntity
  8
LAYER_CUT_FEAT
100
AcDbCircle
 62
7
  6
CONTINUOUS
 10
15.5602548728
 20
5.4606531851
 40
1.3328333333
100
AcDbArc
 50
289.126993823
 51
348.873006177
  0
ARC
  5
2CE
100
AcDbEntity
  8
LAYER_CUT_FEAT
100
AcDbCircle
 62
7
  6
CONTINUOUS
 10
15.5602548728
 20
5.4606531851
 40
1.3328333333
100
AcDbArc
 50
1.126993823
 51
60.873006177
  0
ARC
  5
2CF
100
AcDbEntity
  8
LAYER_CUT_FEAT
100
AcDbCircle
 62
7
  6
CONTINUOUS
 10
15.5602548728
 20
5.4606531851
 40
1.3328333333
100
AcDbArc
 50
73.126993823
 51
132.873006177
  0
ARC
  5
2D0
100
AcDbEntity
  8
LAYER_CUT_FEAT
100
AcDbCircle
 62
7
  6
CONTINUOUS
 10
15.5602548728
 20
5.4606531851
 40
1.3249166667
100
AcDbArc
 50
277.7799869955
 51
288.2200130045
  0
ARC
  5
2D1
100
AcDbEntity
  8
LAYER_CUT_FEAT
100
AcDbCircle
 62
7
  6
CONTINUOUS
 10
15.5602548728
 20
5.4606531851
 40
1.3249166667
100
AcDbArc
 50
61.7799869955
 51
72.2200130045
  0
ARC
  5
2D2
100
AcDbEntity
  8
LAYER_CUT_FEAT
100
AcDbCircle
 62
7
  6
CONTINUOUS
 10
15.5602548728
 20
5.4606531851
 40
1.3249166667
100
AcDbArc
 50
205.7799869955
 51
216.2200130045
  0
ARC
  5
2D3
100
AcDbEntity
  8
LAYER_CUT_FEAT
100
AcDbCircle
 62
7
  6
CONTINUOUS
 10
15.5602548728
 20
5.4606531851
 40
1.3249166667
100
AcDbArc
 50
349.7799869955
 51
0.2200130045
  0
ARC
  5
2D4
100
AcDbEntity
  8
LAYER_CUT_FEAT
100
AcDbCircle
 62
7
  6
CONTINUOUS
 10
15.5602548728
 20
5.4606531851
 40
1.3249166667
100
AcDbArc
 50
133.7799869955
 51
144.2200130045
  0
ARC
  5
2D5
100
AcDbEntity
  8
LAYER_CUT_FEAT
100
AcDbCircle
 62
7
  6
CONTINUOUS
 10
15.5602548728
 20
5.4606531851
 40
1.32125
100
AcDbArc
 50
61.9340836837
 51
72.0659163163
  0
ARC
  5
2D6
100
AcDbEntity
  8
LAYER_CUT_FEAT
100
AcDbCircle
 62
7
  6
CONTINUOUS
 10
15.5602548728
 20
5.4606531851
 40
1.32125
100
AcDbArc
 50
133.9340836837
 51
144.0659163163
  0
ARC
  5
2D7
100
AcDbEntity
  8
LAYER_CUT_FEAT
100
AcDbCircle
 62
7
  6
CONTINUOUS
 10
15.5602548728
 20
5.4606531851
 40
1.32125
100
AcDbArc
 50
349.9340836837
 51
0.0659163163
  0
ARC
  5
2D8
100
AcDbEntity
  8
LAYER_CUT_FEAT
100
AcDbCircle
 62
7
  6
CONTINUOUS
 10
15.5602548728
 20
5.4606531851
 40
1.32125
100
AcDbArc
 50
277.9340836837
 51
288.0659163163
  0
ARC
  5
2D9
100
AcDbEntity
  8
LAYER_CUT_FEAT
100
AcDbCircle
 62
7
  6
CONTINUOUS
 10
15.5602548728
 20
5.4606531851
 40
1.32125
100
AcDbArc
 50
205.9340836837
 51
216.0659163163
  0
CIRCLE
  5
2DA
100
AcDbEntity
  8
LAYER_CUT_FEAT
100
AcDbCircle
 62
7
  6
CONTINUOUS
 10
15.5602548728
 20
5.4606531851
 40
0.2447916667
  0
CIRCLE
  5
2DB
100
AcDbEntity
  8
LAYER_CUT_FEAT
100
AcDbCircle
 62
7
  6
CONTINUOUS
 10
15.5602548728
 20
5.4606531851
 40
0.241125
  0
ARC
  5
2DC
100
AcDbEntity
  8
LAYER_CUT_FEAT
100
AcDbCircle
 62
7
  6
CONTINUOUS
 10
15.5602548728
 20
5.4606531851
 40
0.1770833333
100
AcDbArc
 50
247.9665029899
 51
42.0334970101
  0
ARC
  5
2DD
100
AcDbEntity
  8
LAYER_CUT_FEAT
100
AcDbCircle
 62
7
  6
CONTINUOUS
 10
15.5602548728
 20
5.4606531851
 40
0.1770833333
100
AcDbArc
 50
152.9665029899
 51
232.0334970101
  0
ARC
  5
2DE
100
AcDbEntity
  8
LAYER_CUT_FEAT
100
AcDbCircle
 62
7
  6
CONTINUOUS
 10
15.5602548728
 20
5.4606531851
 40
0.1770833333
100
AcDbArc
 50
57.9665029899
 51
137.0334970101
  0
ARC
  5
2DF
100
AcDbEntity
  8
02___PRT_ALL_AXES
100
AcDbCircle
 62
7
  6
CONTINUOUS
 10
15.5602548728
 20
5.4606531851
 40
0.1711686905
100
AcDbArc
 50
136.2906790795
 51
153.7093209205
  0
ARC
  5
2E0
100
AcDbEntity
  8
02___PRT_ALL_AXES
100
AcDbCircle
 62
7
  6
CONTINUOUS
 10
15.5602548728
 20
5.4606531851
 40
0.1652540476
100
AcDbArc
 50
58.9866193044
 51
231.0133806956
  0
ARC
  5
2E1
100
AcDbEntity
  8
02___PRT_ALL_AXES
100
AcDbCircle
 62
7
  6
CONTINUOUS
 10
15.5602548728
 20
5.4606531851
 40
0.1652540476
100
AcDbArc
 50
248.9866193044
 51
41.0133806956
  0
ARC
  5
2E2
100
AcDbEntity
  8
LAYER_CUT_FEAT
100
AcDbCircle
 62
7
  6
CONTINUOUS
 10
15.2789968523
 20
5.2916563168
 40
0.0677083333
100
AcDbArc
 50
301.0
 51
121.0
  0
ARC
  5
2E3
100
AcDbEntity
  8
LAYER_CUT_FEAT
100
AcDbCircle
 62
7
  6
CONTINUOUS
 10
15.4769215395
 20
5.3163156178
 40
0.0260416667
100
AcDbArc
 50
142.4067456567
 51
337.5932543433
  0
ARC
  5
2E4
100
AcDbEntity
  8
LAYER_CUT_FEAT
100
AcDbCircle
 62
7
  6
CONTINUOUS
 10
15.2956406561
 20
5.4838039293
 40
0.0208333333
100
AcDbArc
 50
302.4664718659
 51
47.5335281341
  0
ARC
  5
2E5
100
AcDbEntity
  8
LAYER_CUT_FEAT
100
AcDbCircle
 62
7
  6
CONTINUOUS
 10
15.4564669168
 20
5.2161440834
 40
0.0208333333
100
AcDbArc
 50
14.4664718659
 51
119.5335281341
  0
ARC
  5
2E6
100
AcDbEntity
  8
LAYER_CUT_FEAT
100
AcDbCircle
 62
7
  6
CONTINUOUS
 10
14.6214904937
 20
6.2767086098
 40
0.0677083333
100
AcDbArc
 50
49.0
 51
229.0
  0
ARC
  5
2E7
100
AcDbEntity
  8
LAYER_CUT_FEAT
100
AcDbCircle
 62
7
  6
CONTINUOUS
 10
15.3126157918
 20
5.675922554
 40
0.0677083333
100
AcDbArc
 50
229.0
 51
49.0
  0
ARC
  5
2E8
100
AcDbEntity
  8
LAYER_CUT_FEAT
100
AcDbCircle
 62
7
  6
CONTINUOUS
 10
14.4924081296
 20
6.204845705
 40
0.03125
100
AcDbArc
 50
47.5335281341
 51
145.126993823
  0
ARC
  5
2E9
100
AcDbEntity
  8
LAYER_CUT_FEAT
100
AcDbCircle
 62
7
  6
CONTINUOUS
 10
14.6746892407
 20
6.4145361365
 40
0.03125
100
AcDbArc
 50
132.873006177
 51
230.4664718659
  0
ARC
  5
2EA
100
AcDbEntity
  8
LAYER_CUT_FEAT
100
AcDbCircle
 62
7
  6
CONTINUOUS
 10
15.4237295321
 20
5.5562492578
 40
0.0260416667
100
AcDbArc
 50
60.5714868013
 51
229.4285131987
  0
ARC
  5
2EB
100
AcDbEntity
  8
LAYER_CUT_FEAT
100
AcDbCircle
 62
7
  6
CONTINUOUS
 10
15.500502249
 20
5.7194702336
 40
0.0208333333
100
AcDbArc
 50
230.4664718659
 51
335.5335281341
  0
ARC
  5
2EC
100
AcDbEntity
  8
LAYER_CUT_FEAT
100
AcDbCircle
 62
7
  6
CONTINUOUS
 10
15.4254721845
 20
6.8475293639
 40
0.0154166667
100
AcDbArc
 50
207.5267741555
 51
249.435704114
  0
ARC
  5
2ED
100
AcDbEntity
  8
LAYER_CUT_FEAT
100
AcDbCircle
 62
7
  6
CONTINUOUS
 10
15.4218816293
 20
6.8471757251
 40
0.0154166667
100
AcDbArc
 50
301.814295886
 51
343.7232258445
  0
ARC
  5
2EE
100
AcDbEntity
  8
LAYER_CUT_FEAT
100
AcDbCircle
 62
7
  6
CONTINUOUS
 10
15.4709216654
 20
6.8511967789
 40
0.0154166667
100
AcDbArc
 50
205.6517741555
 51
247.560704114
  0
ARC
  5
2EF
100
AcDbEntity
  8
LAYER_CUT_FEAT
100
AcDbCircle
 62
7
  6
CONTINUOUS
 10
15.4673214618
 20
6.8509608091
 40
0.0154166667
100
AcDbArc
 50
299.939295886
 51
341.8482258445
  0
ARC
  5
2F0
100
AcDbEntity
  8
LAYER_CUT_FEAT
100
AcDbCircle
 62
7
  6
CONTINUOUS
 10
15.5164668065
 20
6.8533751651
 40
0.0154166667
100
AcDbArc
 50
203.7767741555
 51
245.685704114
  0
ARC
  5
2F1
100
AcDbEntity
  8
LAYER_CUT_FEAT
100
AcDbCircle
 62
7
  6
CONTINUOUS
 10
15.5128608099
 20
6.853257117
 40
0.0154166667
100
AcDbArc
 50
298.064295886
 51
339.9732258445
  0
ARC
  5
2F2
100
AcDbEntity
  8
0
100
AcDbCircle
 62
7
  6
CONTINUOUS
 10
15.562058837
 20
6.8540621897
 40
0.0154166667
100
AcDbArc
 50
201.9017741555
 51
243.810704114
  0
ARC
  5
2F3
100
AcDbEntity
  8
0
100
AcDbCircle
 62
7
  6
CONTINUOUS
 10
15.5584509086
 20
6.8540621897
 40
0.0154166667
100
AcDbArc
 50
296.189295886
 51
338.0982258445
  0
ARC
  5
2F4
100
AcDbEntity
  8
LAYER_CUT_FEAT
100
AcDbCircle
 62
7
  6
CONTINUOUS
 10
15.4045573211
 20
6.8480584046
 40
0.0028860257
100
AcDbArc
 50
27.5267741555
 51
95.6249999998
  0
ARC
  5
2F5
100
AcDbEntity
  8
LAYER_CUT_FEAT
100
AcDbCircle
 62
7
  6
CONTINUOUS
 10
15.4422914087
 20
6.8517748878
 40
0.0028860257
100
AcDbArc
 50
95.6249999998
 51
163.7232258445
  0
ARC
  5
2F6
100
AcDbEntity
  8
LAYER_CUT_FEAT
100
AcDbCircle
 62
7
  6
CONTINUOUS
 10
15.4500353098
 20
6.8524098516
 40
0.0028860257
100
AcDbArc
 50
25.6517741555
 51
93.7500000004
  0
ARC
  5
2F7
100
AcDbEntity
  8
LAYER_CUT_FEAT
100
AcDbCircle
 62
7
  6
CONTINUOUS
 10
15.487870794
 20
6.8548897202
 40
0.0028860257
100
AcDbArc
 50
93.7499999994
 51
161.8482258445
  0
ARC
  5
2F8
100
AcDbEntity
  8
LAYER_CUT_FEAT
100
AcDbCircle
 62
7
  6
CONTINUOUS
 10
15.4956313244
 20
6.8552709706
 40
0.0028860257
100
AcDbArc
 50
23.7767741555
 51
91.8750000002
  0
ARC
  5
2F9
100
AcDbEntity
  8
LAYER_CUT_FEAT
100
AcDbCircle
 62
7
  6
CONTINUOUS
 10
15.53352769
 20
6.8565115692
 40
0.0028860257
100
AcDbArc
 50
91.875
 51
159.9732258445
  0
ARC
  5
2FA
100
AcDbEntity
  8
0
100
AcDbCircle
 62
7
  6
CONTINUOUS
 10
15.5412965395
 20
6.856638698
 40
0.0028860257
100
AcDbArc
 50
21.9017741555
 51
90.0
  0
ARC
  5
2FB
100
AcDbEntity
  8
0
100
AcDbCircle
 62
7
  6
CONTINUOUS
 10
15.5792132061
 20
6.856638698
 40
0.0028860257
100
AcDbArc
 50
89.9999999999
 51
158.0982258445
  0
ARC
  5
2FC
100
AcDbEntity
  8
LAYER_CUT_FEAT
100
AcDbCircle
 62
7
  6
CONTINUOUS
 10
15.8400658655
 20
4.2486586208
 40
0.0677083333
100
AcDbArc
 50
193.0
 51
13.0
  0
ARC
  5
2FD
100
AcDbEntity
  8
LAYER_CUT_FEAT
100
AcDbCircle
 62
7
  6
CONTINUOUS
 10
15.6340669375
 20
5.1409380076
 40
0.0677083333
100
AcDbArc
 50
13.0
 51
193.0
  0
ARC
  5
2FE
100
AcDbEntity
  8
LAYER_CUT_FEAT
100
AcDbCircle
 62
7
  6
CONTINUOUS
 10
16.7993965529
 20
5.3522423356
 40
0.0677083333
100
AcDbArc
 50
265.0
 51
85.0
  0
ARC
  5
2FF
100
AcDbEntity
  8
LAYER_CUT_FEAT
100
AcDbCircle
 62
7
  6
CONTINUOUS
 10
15.8871312581
 20
5.432055207
 40
0.0677083333
100
AcDbArc
 50
85.0
 51
265.0
  0
ARC
  5
300
100
AcDbEntity
  8
LAYER_CUT_FEAT
100
AcDbCircle
 62
7
  6
CONTINUOUS
 10
16.83737085
 20
5.2094680853
 40
0.03125
100
AcDbArc
 50
348.873006177
 51
86.4664718659
  0
ARC
  5
301
100
AcDbEntity
  8
LAYER_CUT_FEAT
100
AcDbCircle
 62
7
  6
CONTINUOUS
 10
16.8615864235
 20
5.4862533568
 40
0.03125
100
AcDbArc
 50
263.5335281341
 51
1.126993823
  0
ARC
  5
302
100
AcDbEntity
  8
LAYER_CUT_FEAT
100
AcDbCircle
 62
7
  6
CONTINUOUS
 10
15.7160141876
 20
4.1684232483
 40
0.03125
100
AcDbArc
 50
276.873006177
 51
14.4664718659
  0
ARC
  5
303
100
AcDbEntity
  8
LAYER_CUT_FEAT
100
AcDbCircle
 62
7
  6
CONTINUOUS
 10
15.9867356473
 20
4.2309242221
 40
0.03125
100
AcDbArc
 50
191.5335281341
 51
289.126993823
  0
ARC
  5
304
100
AcDbEntity
  8
LAYER_CUT_FEAT
100
AcDbCircle
 62
7
  6
CONTINUOUS
 10
15.760724605
 20
5.2863875055
 40
0.0208333333
100
AcDbArc
 50
86.4664718659
 51
191.5335281341
  0
ARC
  5
305
100
AcDbEntity
  8
LAYER_CUT_FEAT
100
AcDbCircle
 62
7
  6
CONTINUOUS
 10
16.0462755553
 20
6.6056461597
 40
0.0677083333
100
AcDbArc
 50
337.0
 51
157.0
  0
ARC
  5
306
100
AcDbEntity
  8
LAYER_CUT_FEAT
100
AcDbCircle
 62
7
  6
CONTINUOUS
 10
15.6884635243
 20
5.7626938402
 40
0.0677083333
100
AcDbArc
 50
157.0
 51
337.0
  0
ARC
  5
307
100
AcDbEntity
  8
LAYER_CUT_FEAT
100
AcDbCircle
 62
7
  6
CONTINUOUS
 10
16.1937966395
 20
6.5976421927
 40
0.03125
100
AcDbArc
 50
60.873006177
 51
158.4664718659
  0
ARC
  5
308
100
AcDbEntity
  8
LAYER_CUT_FEAT
100
AcDbCircle
 62
7
  6
CONTINUOUS
 10
15.9380412272
 20
6.7062039244
 40
0.03125
100
AcDbArc
 50
335.5335281341
 51
73.126993823
  0
ARC
  5
309
100
AcDbEntity
  8
LAYER_CUT_FEAT
100
AcDbCircle
 62
7
  6
CONTINUOUS
 10
15.6673861411
 20
5.588327259
 40
0.0260416667
100
AcDbArc
 50
312.4067456567
 51
147.5932543433
  0
ARC
  5
30A
100
AcDbEntity
  8
LAYER_CUT_FEAT
100
AcDbCircle
 62
7
  6
CONTINUOUS
 10
15.7879399371
 20
5.5974601738
 40
0.0208333333
100
AcDbArc
 50
158.4664718659
 51
263.5335281341
  0
ARC
  5
30B
100
AcDbEntity
  8
LAYER_CUT_FEAT
100
AcDbCircle
 62
7
  6
CONTINUOUS
 10
16.3616074038
 20
25.0137853183
 40
12.7003656943
100
AcDbArc
 50
266.2255174951
 51
266.3874657114
  0
ARC
  5
30C
100
AcDbEntity
  8
LAYER_CUT_FEAT
100
AcDbCircle
 62
7
  6
CONTINUOUS
 10
14.9478382311
 20
4.9441241353
 40
7.4394091272
100
AcDbArc
 50
85.1320096204
 51
85.6847740206
  0
ARC
  5
30D
100
AcDbEntity
  8
LAYER_CUT_FEAT
100
AcDbCircle
 62
7
  6
CONTINUOUS
 10
18.2889552549
 20
12.5042714256
 40
3.2519285847
100
AcDbArc
 50
182.060886971
 51
186.2484411507
  0
ARC
  5
30E
100
AcDbEntity
  8
LAYER_CUT_FEAT
100
AcDbCircle
 62
7
  6
CONTINUOUS
 10
13.5139555055
 20
12.3727573398
 40
2.3823797691
100
AcDbArc
 50
347.0828222307
 51
347.6420664147
  0
ARC
  5
30F
100
AcDbEntity
  8
LAYER_CUT_FEAT
100
AcDbCircle
 62
7
  6
CONTINUOUS
 10
13.5173108307
 20
12.3697141786
 40
2.3767524522
100
AcDbArc
 50
347.0050604721
 51
347.7267239258
  0
ARC
  5
310
100
AcDbEntity
  8
LAYER_CUT_FEAT
100
AcDbCircle
 62
7
  6
CONTINUOUS
 10
17.1431428422
 20
12.7138077369
 40
2.2802619748
100
AcDbArc
 50
165.3320588682
 51
165.5018389038
  0
ARC
  5
311
100
AcDbEntity
  8
LAYER_CUT_FEAT
100
AcDbCircle
 62
7
  6
CONTINUOUS
 10
17.3033409874
 20
12.7146637256
 40
2.2768622714
100
AcDbArc
 50
165.3319321143
 51
165.5019656577
  0
ARC
  5
312
100
AcDbEntity
  8
LAYER_CUT_FEAT
100
AcDbCircle
 62
7
  6
CONTINUOUS
 10
17.0280464445
 20
12.7447976632
 40
2.1610650379
100
AcDbArc
 50
164.3221095356
 51
164.4980738129
  0
ARC
  5
313
100
AcDbEntity
  8
LAYER_CUT_FEAT
100
AcDbCircle
 62
7
  6
CONTINUOUS
 10
17.1882379878
 20
12.7457175157
 40
2.1576423372
100
AcDbArc
 50
164.3219699681
 51
164.4982133804
  0
ARC
  5
314
100
AcDbEntity
  8
LAYER_CUT_FEAT
100
AcDbCircle
 62
7
  6
CONTINUOUS
 10
16.9130785218
 20
12.7779685748
 40
2.0414058713
100
AcDbArc
 50
163.2739814901
 51
163.4567536363
  0
ARC
  5
315
100
AcDbEntity
  8
LAYER_CUT_FEAT
100
AcDbCircle
 62
7
  6
CONTINUOUS
 10
17.073284539
 20
12.7789492344
 40
2.037980201
100
AcDbArc
 50
163.2738278778
 51
163.4569072486
  0
ARC
  5
316
100
AcDbEntity
  8
LAYER_CUT_FEAT
100
AcDbCircle
 62
7
  6
CONTINUOUS
 10
16.6437163327
 20
12.6169037936
 40
1.70608177
100
AcDbArc
 50
139.3983104842
 51
139.6093648721
  0
ARC
  5
317
100
AcDbEntity
  8
LAYER_CUT_FEAT
100
AcDbCircle
 62
7
  6
CONTINUOUS
 10
14.6419038218
 20
13.0248826577
 40
1.1896473786
100
AcDbArc
 50
24.6457194463
 51
25.9973920191
  0
ARC
  5
318
100
AcDbEntity
  8
LAYER_CUT_FEAT
100
AcDbCircle
 62
7
  6
CONTINUOUS
 10
14.67243723
 20
13.0353896673
 40
1.1585766618
100
AcDbArc
 50
24.8540985785
 51
26.1879185619
  0
ARC
  5
319
100
AcDbEntity
  8
LAYER_CUT_FEAT
100
AcDbCircle
 62
7
  6
CONTINUOUS
 10
14.6961613181
 20
13.0510620889
 40
1.1294047733
100
AcDbArc
 50
26.0101895053
 51
26.3171415022
  0
ARC
  5
31A
100
AcDbEntity
  8
LAYER_CUT_FEAT
100
AcDbCircle
 62
7
  6
CONTINUOUS
 10
16.0192129684
 20
13.1736347452
 40
0.8715294636
100
AcDbArc
 50
147.9996938635
 51
149.8072264984
  0
ARC
  5
31B
100
AcDbEntity
  8
LAYER_CUT_FEAT
100
AcDbCircle
 62
7
  6
CONTINUOUS
 10
15.7593003066
 20
13.3570844995
 40
0.5530500442
100
AcDbArc
 50
138.6340709673
 51
140.152661513
  0
ARC
  5
31C
100
AcDbEntity
  8
LAYER_CUT_FEAT
100
AcDbCircle
 62
7
  6
CONTINUOUS
 10
15.742776241
 20
13.3656104344
 40
0.5348992993
100
AcDbArc
 50
138.1570545609
 51
139.7146971825
  0
ARC
  5
31D
100
AcDbEntity
  8
LAYER_CUT_FEAT
100
AcDbCircle
 62
7
  6
CONTINUOUS
 10
15.7388661326
 20
13.3749341602
 40
0.5259178938
100
AcDbArc
 50
137.9451336444
 51
138.622305027
  0
ARC
  5
31E
100
AcDbEntity
  8
LAYER_CUT_FEAT
100
AcDbCircle
 62
7
  6
CONTINUOUS
 10
15.6383523864
 20
12.5609834496
 40
0.3376110269
100
AcDbArc
 50
162.3798344653
 51
162.828080958
  0
ARC
  5
31F
100
AcDbEntity
  8
LAYER_CUT_FEAT
100
AcDbCircle
 62
7
  6
CONTINUOUS
 10
15.9804615394
 20
13.7395170377
 40
0.3304651998
100
AcDbArc
 50
214.619536863
 51
215.6974680323
  0
ARC
  5
320
100
AcDbEntity
  8
LAYER_CUT_FEAT
100
AcDbCircle
 62
7
  6
CONTINUOUS
 10
15.5533114253
 20
11.3921239968
 40
0.2062898973
100
AcDbArc
 50
258.4122726232
 51
264.3222330773
  0
ARC
  5
321
100
AcDbEntity
  8
LAYER_CUT_FEAT
100
AcDbCircle
 62
7
  6
CONTINUOUS
 10
15.930041206
 20
11.7825007886
 40
0.1102879354
100
AcDbArc
 50
148.4582560644
 51
151.4171437088
  0
ARC
  5
322
100
AcDbEntity
  8
LAYER_CUT_FEAT
100
AcDbCircle
 62
7
  6
CONTINUOUS
 10
15.5102407132
 20
12.3544663198
 40
0.0971449653
100
AcDbArc
 50
317.622157029
 51
320.1825726707
  0
ARC
  5
323
100
AcDbEntity
  8
LAYER_CUT_FEAT
100
AcDbCircle
 62
7
  6
CONTINUOUS
 10
15.5102945863
 20
12.6671282571
 40
0.0970737207
100
AcDbArc
 50
39.8166443693
 51
42.3989754956
  0
ARC
  5
324
100
AcDbEntity
  8
LAYER_CUT_FEAT
100
AcDbCircle
 62
7
  6
CONTINUOUS
 10
15.514088043
 20
12.3509795627
 40
0.0919527499
100
AcDbArc
 50
317.1418584194
 51
317.6112892941
  0
ARC
  5
325
100
AcDbEntity
  8
LAYER_CUT_FEAT
100
AcDbCircle
 62
7
  6
CONTINUOUS
 10
15.5206315262
 20
12.3382552256
 40
0.0787189831
100
AcDbArc
 50
312.7567077051
 51
313.1970746431
  0
ARC
  5
326
100
AcDbEntity
  8
LAYER_CUT_FEAT
100
AcDbCircle
 62
7
  6
CONTINUOUS
 10
15.6262188757
 20
12.2775668912
 40
0.0516078211
100
AcDbArc
 50
176.0319010073
 51
176.5105328786
  0
SPLINE
  5
327
100
AcDbEntity
  8
0
100
AcDbSpline
 62
7
  6
CONTINUOUS
 70
0
 71
3
 72
11
 73
7
 74
0
 42
0.0000001
 43
0.0000001
 44
0.0000000001
 40
0.0
 40
0.0
 40
0.0
 40
0.0
 40
0.2332642467
 40
0.4902698403
 40
0.7523067551
 40
1.0
 40
1.0
 40
1.0
 40
1.0
 10
14.9672189958
 20
13.3951770328
 30
0.0
 10
14.9671443093
 20
13.3949353472
 30
0.0
 10
14.9670326727
 20
13.3944131814
 30
0.0
 10
14.9669627277
 20
13.3935987019
 30
0.0
 10
14.9669853039
 20
13.3927658596
 30
0.0
 10
14.9670646148
 20
13.3922169375
 30
0.0
 10
14.9671227789
 20
13.3919547006
 30
0.0
  0
SPLINE
  5
328
100
AcDbEntity
  8
0
100
AcDbSpline
 62
7
  6
CONTINUOUS
 70
0
 71
3
 72
10
 73
6
 74
0
 42
0.0000001
 43
0.0000001
 44
0.0000000001
 40
0.0
 40
0.0
 40
0.0
 40
0.0
 40
0.511717396
 40
0.7623334746
 40
1.0
 40
1.0
 40
1.0
 40
1.0
 10
14.9697264055
 20
13.3722481739
 30
0.0
 10
14.9698837304
 20
13.3741097441
 30
0.0
 10
14.9699160881
 20
13.3769054857
 30
0.0
 10
14.9695700844
 20
13.3805418373
 30
0.0
 10
14.9692640346
 20
13.3823007066
 30
0.0
 10
14.9690761479
 20
13.3831478063
 30
0.0
  0
SPLINE
  5
329
100
AcDbEntity
  8
LAYER_CUT_FEAT
100
AcDbSpline
 62
7
  6
CONTINUOUS
 70
0
 71
3
 72
11
 73
7
 74
0
 42
0.0000001
 43
0.0000001
 44
0.0000000001
 40
0.0
 40
0.0
 40
0.0
 40
0.0
 40
0.2363375782
 40
0.4944337904
 40
0.7554079687
 40
1.0
 40
1.0
 40
1.0
 40
1.0
 10
14.956176464
 20
13.3592363854
 30
0.0
 10
14.9561052439
 20
13.3589897555
 30
0.0
 10
14.9560004233
 20
13.358460814
 30
0.0
 10
14.9559404978
 20
13.3576408435
 30
0.0
 10
14.9559732913
 20
13.3568103546
 30
0.0
 10
14.9560595979
 20
13.3562660898
 30
0.0
 10
14.9561213556
 20
13.3560076944
 30
0.0
  0
SPLINE
  5
32A
100
AcDbEntity
  8
LAYER_CUT_FEAT
100
AcDbSpline
 62
7
  6
CONTINUOUS
 70
0
 71
3
 72
10
 73
6
 74
0
 42
0.0000001
 43
0.0000001
 44
0.0000000001
 40
0.0
 40
0.0
 40
0.0
 40
0.0
 40
0.5143009285
 40
0.7642492862
 40
1.0
 40
1.0
 40
1.0
 40
1.0
 10
14.9589746772
 20
13.3365304765
 30
0.0
 10
14.9591075175
 20
13.3383947072
 30
0.0
 10
14.959106272
 20
13.3411847113
 30
0.0
 10
14.9587138018
 20
13.3447994684
 30
0.0
 10
14.9583850403
 20
13.3465363939
 30
0.0
 10
14.958185891
 20
13.3473696382
 30
0.0
  0
SPLINE
  5
32B
100
AcDbEntity
  8
LAYER_CUT_FEAT
100
AcDbSpline
 62
7
  6
CONTINUOUS
 70
0
 71
3
 72
12
 73
8
 74
0
 42
0.0000001
 43
0.0000001
 44
0.0000000001
 40
0.0
 40
0.0
 40
0.0
 40
0.0
 40
0.2468192511
 40
0.5034442134
 40
0.7582921648
 40
0.8814790685
 40
1.0
 40
1.0
 40
1.0
 40
1.0
 10
15.2776503571
 20
13.6313310402
 30
0.0
 10
15.2767750916
 20
13.6264047102
 30
0.0
 10
15.2755303964
 20
13.6162553599
 30
0.0
 10
15.2750577666
 20
13.6008727058
 30
0.0
 10
15.2758023195
 20
13.5880081672
 30
0.0
 10
15.2771030985
 20
13.5780232533
 30
0.0
 10
15.2779830018
 20
13.5732001284
 30
0.0
 10
15.2784813312
 20
13.5708497382
 30
0.0
  0
SPLINE
  5
32C
100
AcDbEntity
  8
LAYER_CUT_FEAT
100
AcDbSpline
 62
7
  6
CONTINUOUS
 70
0
 71
3
 72
11
 73
7
 74
0
 42
0.0000001
 43
0.0000001
 44
0.0000000001
 40
0.0
 40
0.0
 40
0.0
 40
0.0
 40
0.2394149823
 40
0.4985926939
 40
0.758498015
 40
1.0
 40
1.0
 40
1.0
 40
1.0
 10
14.9455977791
 20
13.3223871833
 30
0.0
 10
14.9455300643
 20
13.322135907
 30
0.0
 10
14.9454321179
 20
13.3216007585
 30
0.0
 10
14.9453822815
 20
13.3207761434
 30
0.0
 10
14.9454252542
 20
13.3199488673
 30
0.0
 10
14.9455185172
 20
13.3194098427
 30
0.0
 10
14.9455838383
 20
13.3191555907
 30
0.0
  0
SPLINE
  5
32D
100
AcDbEntity
  8
LAYER_CUT_FEAT
100
AcDbSpline
 62
7
  6
CONTINUOUS
 70
0
 71
3
 72
10
 73
6
 74
0
 42
0.0000001
 43
0.0000001
 44
0.0000000001
 40
0.0
 40
0.0
 40
0.0
 40
0.0
 40
0.5168992625
 40
0.7661730977
 40
1.0
 40
1.0
 40
1.0
 40
1.0
 10
14.9486837994
 20
13.2999285384
 30
0.0
 10
14.9487922611
 20
13.3017933981
 30
0.0
 10
14.9487575897
 20
13.3045747977
 30
0.0
 10
14.948318842
 20
13.3081640924
 30
0.0
 10
14.9479675994
 20
13.3098771796
 30
0.0
 10
14.9477573293
 20
13.3106956225
 30
0.0
  0
SPLINE
  5
32E
100
AcDbEntity
  8
LAYER_CUT_FEAT
100
AcDbSpline
 62
7
  6
CONTINUOUS
 70
0
 71
3
 72
15
 73
11
 74
0
 42
0.0000001
 43
0.0000001
 44
0.0000000001
 40
0.0
 40
0.0
 40
0.0
 40
0.0
 40
0.0894916682
 40
0.183898245
 40
0.2872574235
 40
0.4023551731
 40
0.5308079867
 40
0.6733123179
 40
0.8298742629
 40
1.0
 40
1.0
 40
1.0
 40
1.0
 10
15.866284306
 20
13.48174605
 30
0.0
 10
15.8653853923
 20
13.4817460459
 30
0.0
 10
15.8635302752
 20
13.481496994
 30
0.0
 10
15.8608330266
 20
13.4804041421
 30
0.0
 10
15.8582195067
 20
13.4786240412
 30
0.0
 10
15.8557089585
 20
13.4761880909
 30
0.0
 10
15.8533164574
 20
13.4731239793
 30
0.0
 10
15.8510606379
 20
13.4694615201
 30
0.0
 10
15.848961456
 20
13.4652361408
 30
0.0
 10
15.8477286386
 20
13.4621916406
 30
0.0
 10
15.8471374984
 20
13.4605882875
 30
0.0
  0
SPLINE
  5
32F
100
AcDbEntity
  8
LAYER_CUT_FEAT
100
AcDbSpline
 62
7
  6
CONTINUOUS
 70
0
 71
3
 72
11
 73
7
 74
0
 42
0.0000001
 43
0.0000001
 44
0.0000000001
 40
0.0
 40
0.0
 40
0.0
 40
0.0
 40
0.2424990241
 40
0.5027503188
 40
0.7615796254
 40
1.0
 40
1.0
 40
1.0
 40
1.0
 10
14.9354942689
 20
13.2846688854
 30
0.0
 10
14.9354300953
 20
13.2844132621
 30
0.0
 10
14.9353390744
 20
13.2838724814
 30
0.0
 10
14.9352993848
 20
13.2830440738
 30
0.0
 10
14.9353524869
 20
13.2822208661
 30
0.0
 10
14.9354526596
 20
13.2816876599
 30
0.0
 10
14.9355215106
 20
13.2814378517
 30
0.0
  0
SPLINE
  5
330
100
AcDbEntity
  8
LAYER_CUT_FEAT
100
AcDbSpline
 62
7
  6
CONTINUOUS
 70
0
 71
3
 72
10
 73
6
 74
0
 42
0.0000001
 43
0.0000001
 44
0.0000000001
 40
0.0
 40
0.0
 40
0.0
 40
0.0
 40
0.5195150355
 40
0.7681066188
 40
1.0
 40
1.0
 40
1.0
 40
1.0
 10
14.9388647918
 20
13.2624815537
 30
0.0
 10
14.9389490048
 20
13.2643450203
 30
0.0
 10
14.9388811272
 20
13.2671149654
 30
0.0
 10
14.9383963385
 20
13.2706749507
 30
0.0
 10
14.938022868
 20
13.2723623256
 30
0.0
 10
14.9378016299
 20
13.2731650307
 30
0.0
  0
SPLINE
  5
331
100
AcDbEntity
  8
LAYER_CUT_FEAT
100
AcDbSpline
 62
7
  6
CONTINUOUS
 70
0
 71
3
 72
15
 73
11
 74
0
 42
0.0000001
 43
0.0000001
 44
0.0000000001
 40
0.0
 40
0.0
 40
0.0
 40
0.0
 40
0.097200353
 40
0.1978829729
 40
0.3051068402
 40
0.4212615073
 40
0.5480257135
 40
0.686447829
 40
0.837062682
 40
1.0
 40
1.0
 40
1.0
 40
1.0
 10
15.6486539171
 20
12.4375631315
 30
0.0
 10
15.6479359686
 20
12.4375631226
 30
0.0
 10
15.6464700918
 20
12.4374072334
 30
0.0
 10
15.6443111851
 20
12.436715214
 30
0.0
 10
15.6421925851
 20
12.435576274
 30
0.0
 10
15.640127673
 20
12.4340043786
 30
0.0
 10
15.638126061
 20
12.4320129628
 30
0.0
 10
15.636197852
 20
12.4296157561
 30
0.0
 10
15.6343536447
 20
12.4268282824
 30
0.0
 10
15.6332308788
 20
12.4247999097
 30
0.0
 10
15.6326827908
 20
12.4237284568
 30
0.0
  0
SPLINE
  5
332
100
AcDbEntity
  8
LAYER_CUT_FEAT
100
AcDbSpline
 62
7
  6
CONTINUOUS
 70
0
 71
3
 72
15
 73
11
 74
0
 42
0.0000001
 43
0.0000001
 44
0.0000000001
 40
0.0
 40
0.0
 40
0.0
 40
0.0
 40
0.147701747
 40
0.293665195
 40
0.4352272763
 40
0.5698698686
 40
0.6953164225
 40
0.8096454835
 40
0.9114384854
 40
1.0
 40
1.0
 40
1.0
 40
1.0
 10
15.622324277
 20
12.3734514681
 30
0.0
 10
15.6222554088
 20
12.3701266979
 30
0.0
 10
15.6223080015
 20
12.3635108018
 30
0.0
 10
15.6229485725
 20
12.3537273675
 30
0.0
 10
15.6241365864
 20
12.3442906655
 30
0.0
 10
15.6258458518
 20
12.3354033462
 30
0.0
 10
15.6280385634
 20
12.3272548415
 30
0.0
 10
15.6306680069
 20
12.3200152083
 30
0.0
 10
15.6336770879
 20
12.3138356186
 30
0.0
 10
15.6360669168
 20
12.3102513324
 30
0.0
 10
15.6373301933
 20
12.3087086181
 30
0.0
  0
SPLINE
  5
333
100
AcDbEntity
  8
LAYER_CUT_FEAT
100
AcDbSpline
 62
7
  6
CONTINUOUS
 70
0
 71
3
 72
15
 73
11
 74
0
 42
0.0000001
 43
0.0000001
 44
0.0000000001
 40
0.0
 40
0.0
 40
0.0
 40
0.0
 40
0.1540755233
 40
0.2994139282
 40
0.4360163153
 40
0.5640290154
 40
0.6837741972
 40
0.7957844431
 40
0.9008397052
 40
1.0
 40
1.0
 40
1.0
 40
1.0
 10
15.7039192453
 20
13.5709116083
 30
0.0
 10
15.6956703061
 20
13.5870524916
 30
0.0
 10
15.6788486754
 20
13.6180248887
 30
0.0
 10
15.65178949
 20
13.6616398766
 30
0.0
 10
15.6237274561
 20
13.7009131601
 30
0.0
 10
15.5947616496
 20
13.73569795
 30
0.0
 10
15.5649911039
 20
13.7658642007
 30
0.0
 10
15.534510681
 20
13.7912960646
 30
0.0
 10
15.5034272761
 20
13.8118835401
 30
0.0
 10
15.4818212585
 20
13.8225813691
 30
0.0
 10
15.4710243439
 20
13.8269996333
 30
0.0
  0
SPLINE
  5
334
100
AcDbEntity
  8
LAYER_CUT_FEAT
100
AcDbSpline
 62
7
  6
CONTINUOUS
 70
0
 71
3
 72
11
 73
7
 74
0
 42
0.0000001
 43
0.0000001
 44
0.0000000001
 40
0.0
 40
0.0
 40
0.0
 40
0.0
 40
0.2806825837
 40
0.5453093772
 40
0.7869290256
 40
1.0
 40
1.0
 40
1.0
 40
1.0
 10
15.708507617
 20
13.5517716985
 30
0.0
 10
15.7083737782
 20
13.553618854
 30
0.0
 10
15.7079849361
 20
13.5571998132
 30
0.0
 10
15.7070163932
 20
13.5623073918
 30
0.0
 10
15.7057079591
 20
13.5668767791
 30
0.0
 10
15.7045590264
 20
13.5696597343
 30
0.0
 10
15.7039192453
 20
13.5709116083
 30
0.0
  0
SPLINE
  5
335
100
AcDbEntity
  8
LAYER_CUT_FEAT
100
AcDbSpline
 62
7
  6
CONTINUOUS
 70
0
 71
3
 72
15
 73
11
 74
0
 42
0.0000001
 43
0.0000001
 44
0.0000000001
 40
0.0
 40
0.0
 40
0.0
 40
0.0
 40
0.1266686554
 40
0.2547922673
 40
0.3834000424
 40
0.5115148143
 40
0.6381658679
 40
0.7624018485
 40
0.8833039918
 40
1.0
 40
1.0
 40
1.0
 40
1.0
 10
15.8939513378
 20
12.1987567867
 30
0.0
 10
15.8978181255
 20
12.2399942758
 30
0.0
 10
15.9039829175
 20
12.3231022367
 30
0.0
 10
15.9085785512
 20
12.4484100663
 30
0.0
 10
15.9085576463
 20
12.5742766383
 30
0.0
 10
15.9039201982
 20
12.6995757728
 30
0.0
 10
15.8947081968
 20
12.8231893391
 30
0.0
 10
15.8810047055
 20
12.9440151476
 30
0.0
 10
15.8629341311
 20
13.0609725102
 30
0.0
 10
15.8477801203
 20
13.1372021491
 30
0.0
 10
15.8394538446
 20
13.1744401468
 30
0.0
  0
SPLINE
  5
336
100
AcDbEntity
  8
LAYER_CUT_FEAT
100
AcDbSpline
 62
7
  6
CONTINUOUS
 70
0
 71
3
 72
11
 73
7
 74
0
 42
0.0000001
 43
0.0000001
 44
0.0000000001
 40
0.0
 40
0.0
 40
0.0
 40
0.0
 40
0.2356686522
 40
0.4855952034
 40
0.7428165422
 40
1.0
 40
1.0
 40
1.0
 40
1.0
 10
15.8316018252
 20
11.8131650781
 30
0.0
 10
15.8320081911
 20
11.8148638999
 30
0.0
 10
15.8326780091
 20
11.8184055763
 30
0.0
 10
15.8332707925
 20
11.8238841084
 30
0.0
 10
15.8334693562
 20
11.8295504323
 30
0.0
 10
15.833332934
 20
11.833364571
 30
0.0
 10
15.8331944841
 20
11.8352657498
 30
0.0
  0
SPLINE
  5
337
100
AcDbEntity
  8
LAYER_CUT_FEAT
100
AcDbSpline
 62
7
  6
CONTINUOUS
 70
0
 71
3
 72
20
 73
16
 74
0
 42
0.0000001
 43
0.0000001
 44
0.0000000001
 40
0.0
 40
0.0
 40
0.0
 40
0.0
 40
0.0347495466
 40
0.0710147803
 40
0.1100910673
 40
0.1529401572
 40
0.2001887549
 40
0.252181886
 40
0.309044658
 40
0.3707337496
 40
0.437075878
 40
0.5077957449
 40
0.6608333152
 40
0.8263263582
 40
1.0
 40
1.0
 40
1.0
 40
1.0
 10
15.5167280126
 20
12.2531151866
 30
0.0
 10
15.5159322232
 20
12.2531151839
 30
0.0
 10
15.5143002506
 20
12.2529221684
 30
0.0
 10
15.5119087513
 20
12.2520691455
 30
0.0
 10
15.5095737927
 20
12.2506709258
 30
0.0
 10
15.507311548
 20
12.2487480623
 30
0.0
 10
15.5051337771
 20
12.2463193882
 30
0.0
 10
15.5030537522
 20
12.2434044848
 30
0.0
 10
15.501085543
 20
12.2400257149
 30
0.0
 10
15.49924369
 20
12.2362090771
 30
0.0
 10
15.4975422291
 20
12.2319843025
 30
0.0
 10
15.4954234655
 20
12.2256845064
 30
0.0
 10
15.4932542818
 20
12.2170229809
 30
0.0
 10
15.4914489507
 20
12.2058860618
 30
0.0
 10
15.4907845835
 20
12.1981391216
 30
0.0
 10
15.4905827588
 20
12.1941669951
 30
0.0
  0
SPLINE
  5
338
100
AcDbEntity
  8
LAYER_CUT_FEAT
100
AcDbSpline
 62
7
  6
CONTINUOUS
 70
0
 71
3
 72
9
 73
5
 74
0
 42
0.0000001
 43
0.0000001
 44
0.0000000001
 40
0.0
 40
0.0
 40
0.0
 40
0.0
 40
0.4888430585
 40
1.0
 40
1.0
 40
1.0
 40
1.0
 10
15.4076487354
 20
12.5183135244
 30
0.0
 10
15.4068338217
 20
12.5183135387
 30
0.0
 10
15.4051613064
 20
12.5181109475
 30
0.0
 10
15.4035822992
 20
12.517533562
 30
0.0
 10
15.4028138037
 20
12.5171654467
 30
0.0
  0
SPLINE
  5
339
100
AcDbEntity
  8
LAYER_CUT_FEAT
100
AcDbSpline
 62
7
  6
CONTINUOUS
 70
0
 71
3
 72
13
 73
9
 74
0
 42
0.0000001
 43
0.0000001
 44
0.0000000001
 40
0.0
 40
0.0
 40
0.0
 40
0.0
 40
0.0996361603
 40
0.2023793964
 40
0.4270848851
 40
0.5535666345
 40
0.6908886525
 40
1.0
 40
1.0
 40
1.0
 40
1.0
 10
15.2643367649
 20
13.6122009408
 30
0.0
 10
15.2640285909
 20
13.6122009392
 30
0.0
 10
15.263400992
 20
13.6121389363
 30
0.0
 10
15.2621284064
 20
13.6117606588
 30
0.0
 10
15.2609141646
 20
13.6110051143
 30
0.0
 10
15.2598012817
 20
13.6099814486
 30
0.0
 10
15.2586333783
 20
13.6086443056
 30
0.0
 10
15.257878957
 20
13.6074783376
 30
0.0
 10
15.2574102066
 20
13.6066450543
 30
0.0
  0
LINE
  5
33A
100
AcDbEntity
  8
LAYER_CUT_FEAT
100
AcDbLine
 62
7
  6
CONTINUOUS
 10
15.0921393759
 20
13.254070691
 11
15.0919267217
 21
13.2541228273
  0
LINE
  5
33B
100
AcDbEntity
  8
LAYER_CUT_FEAT
100
AcDbLine
 62
7
  6
CONTINUOUS
 10
15.0960149219
 20
13.2521529455
 11
15.0971508853
 21
13.251874452
  0
LINE
  5
33C
100
AcDbEntity
  8
LAYER_CUT_FEAT
100
AcDbLine
 62
7
  6
CONTINUOUS
 10
15.1018566859
 20
13.2923803415
 11
15.1016080377
 21
13.2924518619
  0
LINE
  5
33D
100
AcDbEntity
  8
LAYER_CUT_FEAT
100
AcDbLine
 62
7
  6
CONTINUOUS
 10
15.1057057221
 20
13.2901379979
 11
15.1070339589
 21
13.289755954
  0
LINE
  5
33E
100
AcDbEntity
  8
LAYER_CUT_FEAT
100
AcDbLine
 62
7
  6
CONTINUOUS
 10
15.112056912
 20
13.3298530284
 11
15.1117725362
 21
13.3299469461
  0
SPLINE
  5
33F
100
AcDbEntity
  8
LAYER_CUT_FEAT
100
AcDbSpline
 62
7
  6
CONTINUOUS
 70
0
 71
3
 72
9
 73
5
 74
0
 42
0.0000001
 43
0.0000001
 44
0.0000000001
 40
0.0
 40
0.0
 40
0.0
 40
0.0
 40
0.5203146429
 40
1.0
 40
1.0
 40
1.0
 40
1.0
 10
15.1158753168
 20
13.3272884878
 30
0.0
 10
15.1161082589
 20
13.3271320378
 30
0.0
 10
15.1165934463
 20
13.3268799428
 30
0.0
 10
15.117135712
 20
13.326786787
 30
0.0
 10
15.1173944048
 20
13.3267867984
 30
0.0
  0
LINE
  5
340
100
AcDbEntity
  8
0
100
AcDbLine
 62
7
  6
CONTINUOUS
 10
15.1227291318
 20
13.3664486249
 11
15.1224093328
 21
13.366567931
  0
SPLINE
  5
341
100
AcDbEntity
  8
0
100
AcDbSpline
 62
7
  6
CONTINUOUS
 70
0
 71
3
 72
9
 73
5
 74
0
 42
0.0000001
 43
0.0000001
 44
0.0000000001
 40
0.0
 40
0.0
 40
0.0
 40
0.0
 40
0.5250921542
 40
1.0
 40
1.0
 40
1.0
 40
1.0
 10
15.1265128162
 20
13.3635646335
 30
0.0
 10
15.1267701254
 20
13.3633685079
 30
0.0
 10
15.1273084911
 20
13.3630489189
 30
0.0
 10
15.1279285171
 20
13.3629273251
 30
0.0
 10
15.1282211288
 20
13.362927332
 30
0.0
  0
SPLINE
  5
342
100
AcDbEntity
  8
LAYER_CUT_FEAT
100
AcDbSpline
 62
7
  6
CONTINUOUS
 70
0
 71
3
 72
11
 73
7
 74
0
 42
0.0000001
 43
0.0000001
 44
0.0000000001
 40
0.0
 40
0.0
 40
0.0
 40
0.0
 40
0.2735393083
 40
0.5359962155
 40
0.780197459
 40
1.0
 40
1.0
 40
1.0
 40
1.0
 10
15.0353598653
 20
12.4076109381
 30
0.0
 10
15.0354169778
 20
12.4057218089
 30
0.0
 10
15.0356598293
 20
12.4020225583
 30
0.0
 10
15.0364153297
 20
12.3966794523
 30
0.0
 10
15.0375316215
 20
12.3917795991
 30
0.0
 10
15.0385519437
 20
12.3887315216
 30
0.0
 10
15.0391300963
 20
12.3873271712
 30
0.0
  0
SPLINE
  5
343
100
AcDbEntity
  8
LAYER_CUT_FEAT
100
AcDbSpline
 62
7
  6
CONTINUOUS
 70
0
 71
3
 72
11
 73
7
 74
0
 42
0.0000001
 43
0.0000001
 44
0.0000000001
 40
0.0
 40
0.0
 40
0.0
 40
0.0
 40
0.2419150344
 40
0.4940052098
 40
0.7491306149
 40
1.0
 40
1.0
 40
1.0
 40
1.0
 10
15.056345403
 20
12.150332073
 30
0.0
 10
15.0560147156
 20
12.1485485091
 30
0.0
 10
15.05549707
 20
12.1448759376
 30
0.0
 10
15.0551308901
 20
12.1392660012
 30
0.0
 10
15.0551646405
 20
12.133577155
 30
0.0
 10
15.0554582625
 20
12.1297903119
 30
0.0
 10
15.0556764563
 20
12.1279219054
 30
0.0
  0
SPLINE
  5
344
100
AcDbEntity
  8
LAYER_CUT_FEAT
100
AcDbSpline
 62
7
  6
CONTINUOUS
 70
0
 71
3
 72
23
 73
19
 74
0
 42
0.0000001
 43
0.0000001
 44
0.0000000001
 40
0.0
 40
0.0
 40
0.0
 40
0.0
 40
0.0819824455
 40
0.1623275265
 40
0.2407616279
 40
0.3170238896
 40
0.3908691287
 40
0.4620704117
 40
0.5304220848
 40
0.5957432296
 40
0.6578817445
 40
0.7167193732
 40
0.7721778172
 40
0.8242264964
 40
0.8728923586
 40
0.9182720811
 40
0.9605469765
 40
1.0
 40
1.0
 40
1.0
 40
1.0
 10
15.0556764563
 20
12.1279219054
 30
0.0
 10
15.0588868541
 20
12.1004310787
 30
0.0
 10
15.0659792797
 20
12.0460811012
 30
0.0
 10
15.0787712209
 20
11.9658008489
 30
0.0
 10
15.0935674162
 20
11.8878290156
 30
0.0
 10
15.1103048169
 20
11.8124961468
 30
0.0
 10
15.1289122078
 20
11.7401204481
 30
0.0
 10
15.1493105555
 20
11.6710074797
 30
0.0
 10
15.1714133695
 20
11.6054484638
 30
0.0
 10
15.1951272288
 20
11.5437190332
 30
0.0
 10
15.2203524331
 20
11.4860779525
 30
0.0
 10
15.2469836889
 20
11.432765875
 30
0.0
 10
15.2749110588
 20
11.3840043849
 30
0.0
 10
15.3040215374
 20
11.3399949917
 30
0.0
 10
15.3341992267
 20
11.3009195296
 30
0.0
 10
15.3653315591
 20
11.2669383918
 30
0.0
 10
15.3972959407
 20
11.2382008072
 30
0.0
 10
15.4198086291
 20
11.2221113672
 30
0.0
 10
15.431132026
 20
11.2150977859
 30
0.0
  0
SPLINE
  5
345
100
AcDbEntity
  8
LAYER_CUT_FEAT
100
AcDbSpline
 62
7
  6
CONTINUOUS
 70
0
 71
3
 72
9
 73
5
 74
0
 42
0.0000001
 43
0.0000001
 44
0.0000000001
 40
0.0
 40
0.0
 40
0.0
 40
0.0
 40
0.5176756298
 40
1.0
 40
1.0
 40
1.0
 40
1.0
 10
15.431132026
 20
11.2150977859
 30
0.0
 10
15.4315740356
 20
11.2148240103
 30
0.0
 10
15.4324917068
 20
11.2143859298
 30
0.0
 10
15.4335010284
 20
11.2142266008
 30
0.0
 10
15.4339854517
 20
11.2142265963
 30
0.0
  0
SPLINE
  5
346
100
AcDbEntity
  8
LAYER_CUT_FEAT
100
AcDbSpline
 62
7
  6
CONTINUOUS
 70
0
 71
3
 72
14
 73
10
 74
0
 42
0.0000001
 43
0.0000001
 44
0.0000000001
 40
0.0
 40
0.0
 40
0.0
 40
0.0
 40
0.3207549979
 40
0.4618163168
 40
0.5899932502
 40
0.7060023006
 40
0.8112869004
 40
0.9081869913
 40
1.0
 40
1.0
 40
1.0
 40
1.0
 10
15.5329024189
 20
11.1868461505
 30
0.0
 10
15.5334041088
 20
11.1856253083
 30
0.0
 10
15.5342305686
 20
11.1839028987
 30
0.0
 10
15.5355697281
 20
11.1818738825
 30
0.0
 10
15.5365807137
 20
11.1806480363
 30
0.0
 10
15.5376344223
 20
11.1796623534
 30
0.0
 10
15.5387253033
 20
11.1789260726
 30
0.0
 10
15.5398460855
 20
11.1784491477
 30
0.0
 10
15.5406183436
 20
11.1783093876
 30
0.0
 10
15.540995507
 20
11.1782872935
 30
0.0
  0
SPLINE
  5
347
100
AcDbEntity
  8
LAYER_CUT_FEAT
100
AcDbSpline
 62
7
  6
CONTINUOUS
 70
0
 71
3
 72
11
 73
7
 74
0
 42
0.0000001
 43
0.0000001
 44
0.0000000001
 40
0.0
 40
0.0
 40
0.0
 40
0.0
 40
0.196429641
 40
0.4307407206
 40
0.7004539641
 40
1.0
 40
1.0
 40
1.0
 40
1.0
 10
15.3547173438
 20
13.7426918903
 30
0.0
 10
15.353957573
 20
13.7418861672
 30
0.0
 10
15.3525371534
 20
13.739888684
 30
0.0
 10
15.3508252321
 20
13.7363180977
 30
0.0
 10
15.3493881833
 20
13.7320113441
 30
0.0
 10
15.348677311
 20
13.7288766554
 30
0.0
 10
15.3483701367
 20
13.7272160192
 30
0.0
  0
SPLINE
  5
348
100
AcDbEntity
  8
LAYER_CUT_FEAT
100
AcDbSpline
 62
7
  6
CONTINUOUS
 70
0
 71
3
 72
23
 73
19
 74
0
 42
0.0000001
 43
0.0000001
 44
0.0000000001
 40
0.0
 40
0.0
 40
0.0
 40
0.0
 40
0.0474177133
 40
0.0975742026
 40
0.1503830124
 40
0.2057280682
 40
0.2634683168
 40
0.3234413224
 40
0.3854662332
 40
0.4493463868
 40
0.5148715968
 40
0.581820183
 40
0.6499608948
 40
0.719054677
 40
0.7888563678
 40
0.8591163405
 40
0.9295820448
 40
1.0
 40
1.0
 40
1.0
 40
1.0
 10
15.2574102066
 20
13.6066450543
 30
0.0
 10
15.2478607611
 20
13.5896692955
 30
0.0
 10
15.2292734682
 20
13.5541317765
 30
0.0
 10
15.2035579861
 20
13.497941305
 30
0.0
 10
15.1793174069
 20
13.437576291
 30
0.0
 10
15.1566549111
 20
13.3732921544
 30
0.0
 10
15.1356656916
 20
13.3053581512
 30
0.0
 10
15.116438802
 20
13.2340605731
 30
0.0
 10
15.0990558297
 20
13.1597001518
 30
0.0
 10
15.0835906966
 20
13.0825910559
 30
0.0
 10
15.0701092574
 20
13.0030593711
 30
0.0
 10
15.0586689123
 20
12.9214416939
 30
0.0
 10
15.0493184231
 20
12.8380836393
 30
0.0
 10
15.0420976557
 20
12.7533383173
 30
0.0
 10
15.0370373691
 20
12.6675648904
 30
0.0
 10
15.0341591684
 20
12.5811267255
 30
0.0
 10
15.0334752839
 20
12.4943908822
 30
0.0
 10
15.034485799
 20
12.4365227254
 30
0.0
 10
15.0353598653
 20
12.4076109381
 30
0.0
  0
SPLINE
  5
349
100
AcDbEntity
  8
LAYER_CUT_FEAT
100
AcDbSpline
 62
7
  6
CONTINUOUS
 70
0
 71
3
 72
25
 73
21
 74
0
 42
0.0000001
 43
0.0000001
 44
0.0000000001
 40
0.0
 40
0.0
 40
0.0
 40
0.0
 40
0.0878004882
 40
0.1723194234
 40
0.2534108206
 40
0.3309533952
 40
0.4048553531
 40
0.4750587739
 40
0.5415452794
 40
0.6043428093
 40
0.6635340189
 40
0.7192660169
 40
0.7717615068
 40
0.8213302354
 40
0.8683787671
 40
0.9134152237
 40
0.9353770418
 40
0.9570697319
 40
0.9785806654
 40
1.0
 40
1.0
 40
1.0
 40
1.0
 10
14.9672189958
 20
13.3951770328
 30
0.0
 10
14.9734661934
 20
13.414839748
 30
0.0
 10
14.9863456937
 20
13.4532377676
 30
0.0
 10
15.0072514711
 20
13.5090070062
 30
0.0
 10
15.0293256554
 20
13.5617227574
 30
0.0
 10
15.0525010043
 20
13.6112243252
 30
0.0
 10
15.0767075598
 20
13.6573620371
 30
0.0
 10
15.1018728478
 20
13.6999966098
 30
0.0
 10
15.127922346
 20
13.7389998029
 30
0.0
 10
15.1547802379
 20
13.7742544262
 30
0.0
 10
15.1823698518
 20
13.8056543267
 30
0.0
 10
15.2106145877
 20
13.8331037626
 30
0.0
 10
15.239437447
 20
13.8565162465
 30
0.0
 10
15.2687625818
 20
13.8758131546
 30
0.0
 10
15.2985056697
 20
13.8909211107
 30
0.0
 10
15.3237916263
 20
13.9000420904
 30
0.0
 10
15.3440221468
 20
13.9051044
 30
0.0
 10
15.3591090315
 20
13.9077975255
 30
0.0
 10
15.3742197143
 20
13.9094142905
 30
0.0
 10
15.3843111103
 20
13.9097739565
 30
0.0
 10
15.3893442071
 20
13.9097739625
 30
0.0
  0
SPLINE
  5
34A
100
AcDbEntity
  8
LAYER_CUT_FEAT
100
AcDbSpline
 62
7
  6
CONTINUOUS
 70
0
 71
3
 72
15
 73
11
 74
0
 42
0.0000001
 43
0.0000001
 44
0.0000000001
 40
0.0
 40
0.0
 40
0.0
 40
0.0
 40
0.1113132419
 40
0.2241011445
 40
0.3397683044
 40
0.4595918545
 40
0.5846842293
 40
0.7159771408
 40
0.8542211951
 40
1.0
 40
1.0
 40
1.0
 40
1.0
 10
15.5528325335
 20
13.843607296
 30
0.0
 10
15.5443495428
 20
13.8436072849
 30
0.0
 10
15.5272521745
 20
13.8425256161
 30
0.0
 10
15.5017543737
 20
13.837676432
 30
0.0
 10
15.4764015659
 20
13.8296186138
 30
0.0
 10
15.451265082
 20
13.8183840013
 30
0.0
 10
15.4264033616
 20
13.8040113726
 30
0.0
 10
15.4018720688
 20
13.7865437725
 30
0.0
 10
15.3777254701
 20
13.7660301367
 30
0.0
 10
15.3623391125
 20
13.7507746367
 30
0.0
 10
15.3547173438
 20
13.7426918903
 30
0.0
  0
SPLINE
  5
34B
100
AcDbEntity
  8
LAYER_CUT_FEAT
100
AcDbSpline
 62
7
  6
CONTINUOUS
 70
0
 71
3
 72
22
 73
18
 74
0
 42
0.0000001
 43
0.0000001
 44
0.0000000001
 40
0.0
 40
0.0
 40
0.0
 40
0.0
 40
0.0879414335
 40
0.135541376
 40
0.1857541135
 40
0.2386868647
 40
0.2944068872
 40
0.3529469053
 40
0.4143098249
 40
0.4784727245
 40
0.5453902384
 40
0.6149973854
 40
0.6872119359
 40
0.761936391
 40
0.8390598014
 40
0.9184587163
 40
1.0
 40
1.0
 40
1.0
 40
1.0
 10
15.5097109856
 20
11.2142764851
 30
0.0
 10
15.5270787278
 20
11.2249092447
 30
0.0
 10
15.5522224291
 20
11.2440447575
 30
0.0
 10
15.5832436313
 20
11.2738637755
 30
0.0
 10
15.6066559633
 20
11.2997980859
 30
0.0
 10
15.6295305494
 20
11.328635552
 30
0.0
 10
15.651822682
 20
11.3603134665
 30
0.0
 10
15.673478981
 20
11.3947549457
 30
0.0
 10
15.6944495536
 20
11.4318787609
 30
0.0
 10
15.7146848731
 20
11.4715965162
 30
0.0
 10
15.734137011
 20
11.5138136352
 30
0.0
 10
15.7527595796
 20
11.5584293268
 30
0.0
 10
15.7705080052
 20
11.6053369017
 30
0.0
 10
15.7873396886
 20
11.6544239856
 30
0.0
 10
15.8032141416
 20
11.7055728932
 30
0.0
 10
15.8180930855
 20
11.7586604722
 30
0.0
 10
15.8272090908
 20
11.7948011553
 30
0.0
 10
15.8316018252
 20
11.8131650781
 30
0.0
  0
LINE
  5
34C
100
AcDbEntity
  8
LAYER_CUT_FEAT
100
AcDbLine
 62
7
  6
CONTINUOUS
 10
15.5408273846
 20
12.6875079257
 11
15.5232167734
 21
12.6861918064
  0
LINE
  5
34D
100
AcDbEntity
  8
LAYER_CUT_FEAT
100
AcDbLine
 62
7
  6
CONTINUOUS
 10
15.4621438506
 20
12.3387185974
 11
15.4608607707
 21
12.3384564006
  0
SPLINE
  5
34E
100
AcDbEntity
  8
LAYER_CUT_FEAT
100
AcDbSpline
 62
7
  6
CONTINUOUS
 70
0
 71
3
 72
14
 73
10
 74
0
 42
0.0000001
 43
0.0000001
 44
0.0000000001
 40
0.0
 40
0.0
 40
0.0
 40
0.0
 40
0.1030463799
 40
0.2124513446
 40
0.328270289
 40
0.4504704966
 40
0.5789453492
 40
0.7135234956
 40
1.0
 40
1.0
 40
1.0
 40
1.0
 10
15.5848566719
 20
12.2922601869
 30
0.0
 10
15.5865511324
 20
12.2942902291
 30
0.0
 10
15.5898854861
 20
12.2986101572
 30
0.0
 10
15.5945872925
 20
12.3056056333
 30
0.0
 10
15.5991231242
 20
12.3132862257
 30
0.0
 10
15.603477895
 20
12.3216261605
 30
0.0
 10
15.6076376688
 20
12.3305982648
 30
0.0
 10
15.6130174194
 20
12.3436366878
 30
0.0
 10
15.6165397876
 20
12.3538646599
 30
0.0
 10
15.6187102453
 20
12.3608882638
 30
0.0
  0
SPLINE
  5
34F
100
AcDbEntity
  8
LAYER_CUT_FEAT
100
AcDbSpline
 62
7
  6
CONTINUOUS
 70
0
 71
3
 72
13
 73
9
 74
0
 42
0.0000001
 43
0.0000001
 44
0.0000000001
 40
0.0
 40
0.0
 40
0.0
 40
0.0
 40
0.1138610826
 40
0.228899911
 40
0.3462501755
 40
0.4669637891
 40
0.7218823161
 40
1.0
 40
1.0
 40
1.0
 40
1.0
 10
15.5417798016
 20
12.265982309
 30
0.0
 10
15.5431541894
 20
12.2659823126
 30
0.0
 10
15.545919596
 20
12.2661364667
 30
0.0
 10
15.5500493623
 20
12.2668282462
 30
0.0
 10
15.5541616104
 20
12.2679788836
 30
0.0
 10
15.5597081533
 20
12.2701589394
 30
0.0
 10
15.5665948036
 20
12.2741032968
 30
0.0
 10
15.5716078562
 20
12.2781773045
 30
0.0
 10
15.5740727976
 20
12.2804563605
 30
0.0
  0
SPLINE
  5
350
100
AcDbEntity
  8
LAYER_CUT_FEAT
100
AcDbSpline
 62
7
  6
CONTINUOUS
 70
0
 71
3
 72
9
 73
5
 74
0
 42
0.0000001
 43
0.0000001
 44
0.0000000001
 40
0.0
 40
0.0
 40
0.0
 40
0.0
 40
0.241361287
 40
1.0
 40
1.0
 40
1.0
 40
1.0
 10
15.5745154483
 20
12.2808688053
 30
0.0
 10
15.5751644912
 20
12.2814782221
 30
0.0
 10
15.5778110146
 20
12.284048341
 30
0.0
 10
15.5802899424
 20
12.286789015
 30
0.0
 10
15.5820831408
 20
12.288937358
 30
0.0
  0
SPLINE
  5
351
100
AcDbEntity
  8
LAYER_CUT_FEAT
100
AcDbSpline
 62
7
  6
CONTINUOUS
 70
0
 71
3
 72
10
 73
6
 74
0
 42
0.0000001
 43
0.0000001
 44
0.0000000001
 40
0.0
 40
0.0
 40
0.0
 40
0.0
 40
0.5176932009
 40
0.763833406
 40
1.0
 40
1.0
 40
1.0
 40
1.0
 10
15.3015231586
 20
12.5961124842
 30
0.0
 10
15.3031875647
 20
12.6074073309
 30
0.0
 10
15.3061852866
 20
12.6240030212
 30
0.0
 10
15.3113443165
 20
12.6454484504
 30
0.0
 10
15.314253267
 20
12.6556836073
 30
0.0
 10
15.315790987
 20
12.6606596709
 30
0.0
  0
SPLINE
  5
352
100
AcDbEntity
  8
LAYER_CUT_FEAT
100
AcDbSpline
 62
7
  6
CONTINUOUS
 70
0
 71
3
 72
13
 73
9
 74
0
 42
0.0000001
 43
0.0000001
 44
0.0000000001
 40
0.0
 40
0.0
 40
0.0
 40
0.0
 40
0.298588725
 40
0.5690438593
 40
0.6913903693
 40
0.8041935482
 40
0.9070739507
 40
1.0
 40
1.0
 40
1.0
 40
1.0
 10
15.8518588387
 20
11.8401945729
 30
0.0
 10
15.8515904181
 20
11.8420913801
 30
0.0
 10
15.8509289251
 20
11.8456873213
 30
0.0
 10
15.8496956274
 20
11.8499592817
 30
0.0
 10
15.8484942245
 20
11.8529750826
 30
0.0
 10
15.8475424658
 20
11.8549265928
 30
0.0
 10
15.8465194935
 20
11.8566250777
 30
0.0
 10
15.8457575167
 20
11.8576284927
 30
0.0
 10
15.8453646637
 20
11.8580769592
 30
0.0
  0
SPLINE
  5
353
100
AcDbEntity
  8
LAYER_CUT_FEAT
100
AcDbSpline
 62
7
  6
CONTINUOUS
 70
0
 71
3
 72
25
 73
21
 74
0
 42
0.0000001
 43
0.0000001
 44
0.0000000001
 40
0.0
 40
0.0
 40
0.0
 40
0.0
 40
0.0202807514
 40
0.0417804794
 40
0.0645102178
 40
0.0884648675
 40
0.1399504541
 40
0.1959698314
 40
0.2560988133
 40
0.3198054876
 40
0.3864751816
 40
0.4554304706
 40
0.5259483952
 40
0.5972760751
 40
0.6686454641
 40
0.7392877326
 40
0.8084476493
 40
0.8753982822
 40
0.9394564403
 40
1.0
 40
1.0
 40
1.0
 40
1.0
 10
15.5848566724
 20
12.7292877501
 30
0.0
 10
15.5865051771
 20
12.727312749
 30
0.0
 10
15.5897507761
 20
12.7231167736
 30
0.0
 10
15.5943352967
 20
12.7163330232
 30
0.0
 10
15.5987634128
 20
12.7088983768
 30
0.0
 10
15.604580133
 20
12.6978825603
 30
0.0
 10
15.6113132423
 20
12.6826023544
 30
0.0
 10
15.6183805739
 20
12.6625295541
 30
0.0
 10
15.6245313815
 20
12.6405447233
 30
0.0
 10
15.6296874553
 20
12.6169235745
 30
0.0
 10
15.6337829329
 20
12.5919617462
 30
0.0
 10
15.6367652365
 20
12.5659737741
 30
0.0
 10
15.6385960298
 20
12.5392877091
 30
0.0
 10
15.6392517531
 20
12.5122409365
 30
0.0
 10
15.6387239666
 20
12.4851756099
 30
0.0
 10
15.6370194509
 20
12.4584340941
 30
0.0
 10
15.6341601723
 20
12.432354616
 30
0.0
 10
15.6301828046
 20
12.4072660841
 30
0.0
 10
15.6251387531
 20
12.3834860008
 30
0.0
 10
15.6209777062
 20
12.3682257698
 30
0.0
 10
15.6187102453
 20
12.3608882638
 30
0.0
  0
SPLINE
  5
354
100
AcDbEntity
  8
LAYER_CUT_FEAT
100
AcDbSpline
 62
7
  6
CONTINUOUS
 70
0
 71
3
 72
15
 73
11
 74
0
 42
0.0000001
 43
0.0000001
 44
0.0000000001
 40
0.0
 40
0.0
 40
0.0
 40
0.0
 40
0.1088237204
 40
0.2194334102
 40
0.3335107663
 40
0.4525517372
 40
0.5778197211
 40
0.7103319499
 40
0.8508694817
 40
1.0
 40
1.0
 40
1.0
 40
1.0
 10
15.5417798016
 20
12.7555656257
 30
0.0
 10
15.5435170403
 20
12.7555656303
 30
0.0
 10
15.5470248404
 20
12.7553178676
 30
0.0
 10
15.5522479636
 20
12.7542084417
 30
0.0
 10
15.5574328952
 20
12.7523668799
 30
0.0
 10
15.5625617354
 20
12.7498026561
 30
0.0
 10
15.5676202472
 20
12.7465268241
 30
0.0
 10
15.5725949332
 20
12.7425513381
 30
0.0
 10
15.5774725915
 20
12.737889567
 30
0.0
 10
15.5805575958
 20
12.7344382513
 30
0.0
 10
15.5820831412
 20
12.732610579
 30
0.0
  0
SPLINE
  5
355
100
AcDbEntity
  8
LAYER_CUT_FEAT
100
AcDbSpline
 62
7
  6
CONTINUOUS
 70
0
 71
3
 72
11
 73
7
 74
0
 42
0.0000001
 43
0.0000001
 44
0.0000000001
 40
0.0
 40
0.0
 40
0.0
 40
0.0
 40
0.2209758852
 40
0.4665588162
 40
0.729139156
 40
1.0
 40
1.0
 40
1.0
 40
1.0
 10
15.7243523736
 20
13.5239967202
 30
0.0
 10
15.7249675673
 20
13.5255820053
 30
0.0
 10
15.7260302378
 20
13.529021995
 30
0.0
 10
15.7271302578
 20
13.5345313695
 30
0.0
 10
15.7277892835
 20
13.5404966615
 30
0.0
 10
15.7279156778
 20
13.5446045529
 30
0.0
 10
15.7278992199
 20
13.5466888342
 30
0.0
  0
SPLINE
  5
356
100
AcDbEntity
  8
LAYER_CUT_FEAT
100
AcDbSpline
 62
7
  6
CONTINUOUS
 70
0
 71
3
 72
13
 73
9
 74
0
 42
0.0000001
 43
0.0000001
 44
0.0000000001
 40
0.0
 40
0.0
 40
0.0
 40
0.0
 40
0.1779454947
 40
0.2851269004
 40
0.4050639259
 40
0.5374832906
 40
0.6816130957
 40
1.0
 40
1.0
 40
1.0
 40
1.0
 10
15.3168101324
 20
12.6044757848
 30
0.0
 10
15.3174897668
 20
12.6048477906
 30
0.0
 10
15.3184216509
 20
12.6057251053
 30
0.0
 10
15.3194386221
 20
12.6071637894
 30
0.0
 10
15.3201940192
 20
12.6085398289
 30
0.0
 10
15.3208822368
 20
12.6101247586
 30
0.0
 10
15.3217290196
 20
12.6125749475
 30
0.0
 10
15.3221930096
 20
12.6145410407
 30
0.0
 10
15.322445443
 20
12.6159041379
 30
0.0
  0
SPLINE
  5
357
100
AcDbEntity
  8
LAYER_CUT_FEAT
100
AcDbSpline
 62
7
  6
CONTINUOUS
 70
0
 71
3
 72
11
 73
7
 74
0
 42
0.0000001
 43
0.0000001
 44
0.0000000001
 40
0.0
 40
0.0
 40
0.0
 40
0.0
 40
0.2454210884
 40
0.5014207641
 40
0.7566959946
 40
1.0
 40
1.0
 40
1.0
 40
1.0
 10
15.322445443
 20
12.6159041379
 30
0.0
 10
15.3227215418
 20
12.6173950245
 30
0.0
 10
15.3231212841
 20
12.6204728732
 30
0.0
 10
15.3233001684
 20
12.6251501564
 30
0.0
 10
15.3230695768
 20
12.6298120923
 30
0.0
 10
15.3226348162
 20
12.6328676455
 30
0.0
 10
15.3223410533
 20
12.6343418179
 30
0.0
  0
SPLINE
  5
358
100
AcDbEntity
  8
LAYER_CUT_FEAT
100
AcDbSpline
 62
7
  6
CONTINUOUS
 70
0
 71
3
 72
18
 73
14
 74
0
 42
0.0000001
 43
0.0000001
 44
0.0000000001
 40
0.0
 40
0.0
 40
0.0
 40
0.0
 40
0.0348451571
 40
0.0711913199
 40
0.1103237208
 40
0.1531999329
 40
0.2004472691
 40
0.252414436
 40
0.3707716782
 40
0.5076506771
 40
0.6606062582
 40
0.8261246302
 40
1.0
 40
1.0
 40
1.0
 40
1.0
 10
15.5321439597
 20
12.7000979162
 30
0.0
 10
15.5318398889
 20
12.7000979143
 30
0.0
 10
15.5312165024
 20
12.7000246861
 30
0.0
 10
15.5303026631
 20
12.6997009447
 30
0.0
 10
15.5294101042
 20
12.6991701411
 30
0.0
 10
15.5285450061
 20
12.6984399792
 30
0.0
 10
15.5277117107
 20
12.6975176112
 30
0.0
 10
15.5266018379
 20
12.6959733528
 30
0.0
 10
15.5253558423
 20
12.6935854352
 30
0.0
 10
15.5241295097
 20
12.6902341528
 30
0.0
 10
15.5231494183
 20
12.6863771826
 30
0.0
 10
15.522447089
 20
12.6821343147
 30
0.0
 10
15.5221833558
 20
12.6791813432
 30
0.0
 10
15.522100771
 20
12.6776662965
 30
0.0
  0
SPLINE
  5
359
100
AcDbEntity
  8
LAYER_CUT_FEAT
100
AcDbSpline
 62
7
  6
CONTINUOUS
 70
0
 71
3
 72
21
 73
17
 74
0
 42
0.0000001
 43
0.0000001
 44
0.0000000001
 40
0.0
 40
0.0
 40
0.0
 40
0.0
 40
0.0382837444
 40
0.0779746274
 40
0.1199241871
 40
0.1648160451
 40
0.2131582445
 40
0.2652985976
 40
0.3214488212
 40
0.381708839
 40
0.4460876914
 40
0.5145203381
 40
0.5868807898
 40
0.6629923996
 40
0.8255254726
 40
1.0
 40
1.0
 40
1.0
 40
1.0
 10
15.5431182665
 20
12.3337680427
 30
0.0
 10
15.5415057745
 20
12.3338905222
 30
0.0
 10
15.5382376101
 20
12.3344383647
 30
0.0
 10
15.5334367994
 20
12.336120586
 30
0.0
 10
15.5287086531
 20
12.3386537878
 30
0.0
 10
15.5240758426
 20
12.3420178919
 30
0.0
 10
15.5195558276
 20
12.3461924812
 30
0.0
 10
15.5151664828
 20
12.3511559735
 30
0.0
 10
15.5109258097
 20
12.3568845517
 30
0.0
 10
15.5068521941
 20
12.3633513568
 30
0.0
 10
15.5029639748
 20
12.3705261263
 30
0.0
 10
15.4992792034
 20
12.3783751069
 30
0.0
 10
15.495815054
 20
12.3868611765
 30
0.0
 10
15.491416511
 20
12.3992442212
 30
0.0
 10
15.4866336362
 20
12.4160461875
 30
0.0
 10
15.4837125836
 20
12.4299905135
 30
0.0
 10
15.4824228862
 20
12.4372467391
 30
0.0
  0
SPLINE
  5
35A
100
AcDbEntity
  8
LAYER_CUT_FEAT
100
AcDbSpline
 62
7
  6
CONTINUOUS
 70
0
 71
3
 72
13
 73
9
 74
0
 42
0.0000001
 43
0.0000001
 44
0.0000000001
 40
0.0
 40
0.0
 40
0.0
 40
0.0
 40
0.0822388813
 40
0.1711287264
 40
0.2716633112
 40
0.3867452672
 40
0.663732075
 40
1.0
 40
1.0
 40
1.0
 40
1.0
 10
14.9284383953
 20
13.2541228273
 30
0.0
 10
14.9283911786
 20
13.2541228285
 30
0.0
 10
14.9282923509
 20
13.2541062873
 30
0.0
 10
14.92815156
 20
13.2540350816
 30
0.0
 10
14.9280175009
 20
13.2539209073
 30
0.0
 10
14.9278381087
 20
13.2537007942
 30
0.0
 10
14.9276465159
 20
13.2533246946
 30
0.0
 10
14.9275408097
 20
13.2529878103
 30
0.0
 10
14.9274938
 20
13.2528005561
 30
0.0
  0
SPLINE
  5
35B
100
AcDbEntity
  8
LAYER_CUT_FEAT
100
AcDbSpline
 62
7
  6
CONTINUOUS
 70
0
 71
3
 72
12
 73
8
 74
0
 42
0.0000001
 43
0.0000001
 44
0.0000000001
 40
0.0
 40
0.0
 40
0.0
 40
0.0
 40
0.1717044458
 40
0.2728148281
 40
0.3880379418
 40
0.6644334035
 40
1.0
 40
1.0
 40
1.0
 40
1.0
 10
14.9381197113
 20
13.2924518619
 30
0.0
 10
14.9380259276
 20
13.2924518583
 30
0.0
 10
14.9378759864
 20
13.2923986356
 30
0.0
 10
14.9377126224
 20
13.2922631131
 30
0.0
 10
14.9375374431
 20
13.2920569689
 30
0.0
 10
14.9373491857
 20
13.2917031356
 30
0.0
 10
14.9372432369
 20
13.29138509
 30
0.0
 10
14.9371955463
 20
13.2912081193
 30
0.0
  0
SPLINE
  5
35C
100
AcDbEntity
  8
LAYER_CUT_FEAT
100
AcDbSpline
 62
7
  6
CONTINUOUS
 70
0
 71
3
 72
11
 73
7
 74
0
 42
0.0000001
 43
0.0000001
 44
0.0000000001
 40
0.0
 40
0.0
 40
0.0
 40
0.0
 40
0.1740636353
 40
0.3901037588
 40
0.6656257468
 40
1.0
 40
1.0
 40
1.0
 40
1.0
 10
14.9482842098
 20
13.3299469461
 30
0.0
 10
14.9481938161
 20
13.3299469447
 30
0.0
 10
14.9479907341
 20
13.3298770331
 30
0.0
 10
14.9477464923
 20
13.3296230693
 30
0.0
 10
14.9475352679
 20
13.3292468916
 30
0.0
 10
14.9474296403
 20
13.3289468026
 30
0.0
 10
14.9473814646
 20
13.328779974
 30
0.0
  0
SPLINE
  5
35D
100
AcDbEntity
  8
0
100
AcDbSpline
 62
7
  6
CONTINUOUS
 70
0
 71
3
 72
11
 73
7
 74
0
 42
0.0000001
 43
0.0000001
 44
0.0000000001
 40
0.0
 40
0.0
 40
0.0
 40
0.0
 40
0.1763729144
 40
0.392906309
 40
0.6672915025
 40
1.0
 40
1.0
 40
1.0
 40
1.0
 10
14.9589210064
 20
13.366567931
 30
0.0
 10
14.9588339807
 20
13.3665679328
 30
0.0
 10
14.9586393895
 20
13.3665037932
 30
0.0
 10
14.9584015206
 20
13.3662670844
 30
0.0
 10
14.9581943383
 20
13.3659146148
 30
0.0
 10
14.9580891169
 20
13.3656327337
 30
0.0
 10
14.9580406477
 20
13.3654758874
 30
0.0
  0
SPLINE
  5
35E
100
AcDbEntity
  8
LAYER_CUT_FEAT
100
AcDbSpline
 62
7
  6
CONTINUOUS
 70
0
 71
3
 72
69
 73
65
 74
0
 42
0.0000001
 43
0.0000001
 44
0.0000000001
 40
0.0
 40
0.0
 40
0.0
 40
0.0
 40
0.004177204
 40
0.0083684424
 40
0.0125875766
 40
0.0168481279
 40
0.0255413359
 40
0.0345484372
 40
0.0391979551
 40
0.0439562523
 40
0.0538291899
 40
0.0642267119
 40
0.0751925982
 40
0.0867591276
 40
0.0989484668
 40
0.1117739974
 40
0.1252415168
 40
0.1393502744
 40
0.1540938438
 40
0.1694608525
 40
0.1854356029
 40
0.2019985906
 40
0.2191269399
 40
0.2367947767
 40
0.2549735601
 40
0.2736323689
 40
0.2927381552
 40
0.312255975
 40
0.3321492052
 40
0.3729059003
 40
0.4146913399
 40
0.457170904
 40
0.5
 40
0.5428290959
 40
0.5853086601
 40
0.6270940995
 40
0.6678507949
 40
0.6877440251
 40
0.7072618446
 40
0.7263676307
 40
0.7450264402
 40
0.7632052234
 40
0.7808730598
 40
0.7980014091
 40
0.8145643975
 40
0.8305391477
 40
0.8459061558
 40
0.8606497253
 40
0.8747584836
 40
0.8882260028
 40
0.9010515328
 40
0.9132408723
 40
0.9248074023
 40
0.9357732881
 40
0.9461708097
 40
0.9560437477
 40
0.9608020447
 40
0.965451563
 40
0.9744586641
 40
0.983151872
 40
0.9874124235
 40
0.9916315577
 40
0.995822796
 40
1.0
 40
1.0
 40
1.0
 40
1.0
 10
15.5528325335
 20
11.1117739743
 30
0.0
 10
15.5572914026
 20
11.1117739705
 30
0.0
 10
15.5662266828
 20
11.1120560214
 30
0.0
 10
15.5796113727
 20
11.1133240971
 30
0.0
 10
15.5929797897
 20
11.1154367659
 30
0.0
 10
15.6108864466
 20
11.1194025133
 30
0.0
 10
15.6332765361
 20
11.1265372778
 30
0.0
 10
15.6550907854
 20
11.1363149566
 30
0.0
 10
15.6723609487
 20
11.1457166399
 30
0.0
 10
15.6899324479
 20
11.1564463496
 30
0.0
 10
15.711707294
 20
11.1719951985
 30
0.0
 10
15.7371134491
 20
11.1936423656
 30
0.0
 10
15.7620600511
 20
11.2184501925
 30
0.0
 10
15.7864903862
 20
11.2463567941
 30
0.0
 10
15.810350454
 20
11.2772956728
 30
0.0
 10
15.8335858874
 20
11.3111932415
 30
0.0
 10
15.8561431516
 20
11.347969216
 30
0.0
 10
15.8779695853
 20
11.3875364076
 30
0.0
 10
15.8990137789
 20
11.429800848
 30
0.0
 10
15.9192258403
 20
11.4746619307
 30
0.0
 10
15.9385576011
 20
11.5220126565
 30
0.0
 10
15.9569628142
 20
11.5717398924
 30
0.0
 10
15.974397331
 20
11.623724646
 30
0.0
 10
15.9908192667
 20
11.6778423653
 30
0.0
 10
16.0061891003
 20
11.7339632579
 30
0.0
 10
16.0204698161
 20
11.7919526489
 30
0.0
 10
16.0336269312
 20
11.8516711985
 30
0.0
 10
16.0456289354
 20
11.9129756837
 30
0.0
 10
16.0601688471
 20
11.9973108779
 30
0.0
 10
16.0751959685
 20
12.1056521415
 30
0.0
 10
16.0881005401
 20
12.2385132663
 30
0.0
 10
16.0958937001
 20
12.3739876366
 30
0.0
 10
16.0984998961
 20
12.5107739671
 30
0.0
 10
16.0958936998
 20
12.6475602976
 30
0.0
 10
16.0881005409
 20
12.783034668
 30
0.0
 10
16.0751959677
 20
12.9158957928
 30
0.0
 10
16.0601688475
 20
13.0242370568
 30
0.0
 10
16.0456289366
 20
13.1085722511
 30
0.0
 10
16.0336269307
 20
13.1698767355
 30
0.0
 10
16.0204698146
 20
13.2295952849
 30
0.0
 10
16.0061891018
 20
13.2875846771
 30
0.0
 10
15.9908192676
 20
13.3437055697
 30
0.0
 10
15.9743973303
 20
13.3978232877
 30
0.0
 10
15.9569628127
 20
13.4498080413
 30
0.0
 10
15.9385576029
 20
13.4995352789
 30
0.0
 10
15.919225841
 20
13.5468860043
 30
0.0
 10
15.8990137779
 20
13.5917470855
 30
0.0
 10
15.8779695841
 20
13.6340115261
 30
0.0
 10
15.8561431536
 20
13.6735787201
 30
0.0
 10
15.8335858878
 20
13.7103546936
 30
0.0
 10
15.8103504526
 20
13.7442522602
 30
0.0
 10
15.7864903856
 20
13.7751911398
 30
0.0
 10
15.762060053
 20
13.8030977443
 30
0.0
 10
15.7371134495
 20
13.8279055696
 30
0.0
 10
15.7117072919
 20
13.8495527326
 30
0.0
 10
15.6899324498
 20
13.8651015869
 30
0.0
 10
15.6723609471
 20
13.875831292
 30
0.0
 10
15.6550907879
 20
13.8852329827
 30
0.0
 10
15.6332765357
 20
13.8950106566
 30
0.0
 10
15.6108864456
 20
13.9021454165
 30
0.0
 10
15.5929797902
 20
13.9061111706
 30
0.0
 10
15.5796113728
 20
13.90822384
 30
0.0
 10
15.5662266826
 20
13.9094919077
 30
0.0
 10
15.5572914026
 20
13.9097739677
 30
0.0
 10
15.5528325335
 20
13.9097739625
 30
0.0
  0
SPLINE
  5
35F
100
AcDbEntity
  8
LAYER_CUT_FEAT
100
AcDbSpline
 62
7
  6
CONTINUOUS
 70
0
 71
3
 72
42
 73
38
 74
0
 42
0.0000001
 43
0.0000001
 44
0.0000000001
 40
0.0
 40
0.0
 40
0.0
 40
0.0
 40
0.0077225173
 40
0.0154926162
 40
0.0233568072
 40
0.0313595536
 40
0.0395424654
 40
0.0479437075
 40
0.0655250803
 40
0.0843421209
 40
0.1045606847
 40
0.1262923287
 40
0.1496028459
 40
0.1745203043
 40
0.2010418289
 40
0.2291390705
 40
0.2587625133
 40
0.2898448629
 40
0.3223037606
 40
0.3560440007
 40
0.3909593684
 40
0.426934213
 40
0.4638448447
 40
0.5015607845
 40
0.5399459113
 40
0.5788595494
 40
0.6181575039
 40
0.6576930575
 40
0.6973179501
 40
0.7368833455
 40
0.7762407904
 40
0.8152431803
 40
0.8537457352
 40
0.8916069911
 40
0.9286898248
 40
0.9648625141
 40
1.0
 40
1.0
 40
1.0
 40
1.0
 10
15.3893442071
 20
11.1117739743
 30
0.0
 10
15.3832963544
 20
11.1117739795
 30
0.0
 10
15.3711570589
 20
11.1122942225
 30
0.0
 10
15.3529944
 20
11.1146316975
 30
0.0
 10
15.3348750973
 20
11.1185233787
 30
0.0
 10
15.3168226858
 20
11.1239632109
 30
0.0
 10
15.2988569949
 20
11.1309436595
 30
0.0
 10
15.2746843507
 20
11.1424637452
 30
0.0
 10
15.2447034599
 20
11.1609043848
 30
0.0
 10
15.2100029802
 20
11.1886542533
 30
0.0
 10
15.176153411
 20
11.2222173042
 30
0.0
 10
15.1432870397
 20
11.2614375882
 30
0.0
 10
15.1115292218
 20
11.306145163
 30
0.0
 10
15.0810090461
 20
11.3561476976
 30
0.0
 10
15.0518537523
 20
11.411230276
 30
0.0
 10
15.0241878345
 20
11.4711549072
 30
0.0
 10
14.9981311111
 20
11.5356613408
 30
0.0
 10
14.9737975177
 20
11.6044681345
 30
0.0
 10
14.951294099
 20
11.6772740132
 30
0.0
 10
14.9307202603
 20
11.7537593437
 30
0.0
 10
14.9121671197
 20
11.8335876718
 30
0.0
 10
14.8957169601
 20
11.9164073173
 30
0.0
 10
14.8814428253
 20
12.0018530346
 30
0.0
 10
14.8694081515
 20
12.0895477036
 30
0.0
 10
14.8596664303
 20
12.1791040522
 30
0.0
 10
14.8522609698
 20
12.2701264226
 30
0.0
 10
14.8472247101
 20
12.3622125654
 30
0.0
 10
14.8445800559
 20
12.4549554503
 30
0.0
 10
14.8443387587
 20
12.5479450969
 30
0.0
 10
14.8465018922
 20
12.6407704171
 30
0.0
 10
14.8510598475
 20
12.7330210626
 30
0.0
 10
14.8579923425
 20
12.8242892566
 30
0.0
 10
14.8672685478
 20
12.914171672
 30
0.0
 10
14.8788472018
 20
13.0022710802
 30
0.0
 10
14.892676912
 20
13.0881987294
 30
0.0
 10
14.9086959221
 20
13.1715740618
 30
0.0
 10
14.9209798874
 20
13.2260648916
 30
0.0
 10
14.9274938
 20
13.2528005561
 30
0.0
  0
SPLINE
  5
360
100
AcDbEntity
  8
LAYER_CUT_FEAT
100
AcDbSpline
 62
7
  6
CONTINUOUS
 70
0
 71
3
 72
17
 73
13
 74
0
 42
0.0000001
 43
0.0000001
 44
0.0000000001
 40
0.0
 40
0.0
 40
0.0
 40
0.0
 40
0.1757545231
 40
0.3384617329
 40
0.4862708095
 40
0.6179534106
 40
0.7331671837
 40
0.7848938185
 40
0.8330082574
 40
0.9200416018
 40
0.9605060095
 40
1.0
 40
1.0
 40
1.0
 40
1.0
 10
15.4490028374
 20
12.7665783812
 30
0.0
 10
15.4495480722
 20
12.7640067603
 30
0.0
 10
15.4507525225
 20
12.7590849382
 30
0.0
 10
15.4529962743
 20
12.7521588781
 30
0.0
 10
15.4555766832
 20
12.7460575632
 30
0.0
 10
15.4584496711
 20
12.7408855424
 30
0.0
 10
15.4611432645
 20
12.7372958212
 30
0.0
 10
15.4634230509
 20
12.7350180407
 30
0.0
 10
15.4656011285
 20
12.7332622811
 30
0.0
 10
15.4679450116
 20
12.7319864357
 30
0.0
 10
15.4703707438
 20
12.7313509017
 30
0.0
 10
15.4715692218
 20
12.7312464155
 30
0.0
 10
15.4721599391
 20
12.7312464108
 30
0.0
  0
SPLINE
  5
361
100
AcDbEntity
  8
LAYER_CUT_FEAT
100
AcDbSpline
 62
7
  6
CONTINUOUS
 70
0
 71
3
 72
15
 73
11
 74
0
 42
0.0000001
 43
0.0000001
 44
0.0000000001
 40
0.0
 40
0.0
 40
0.0
 40
0.0
 40
0.1114083264
 40
0.2341186461
 40
0.364761311
 40
0.4995127704
 40
0.6343295576
 40
0.7651647463
 40
0.8881841557
 40
1.0
 40
1.0
 40
1.0
 40
1.0
 10
15.6019625252
 20
12.7955988099
 30
0.0
 10
15.6007507929
 20
12.7923122213
 30
0.0
 10
15.5986444528
 20
12.7852408191
 30
0.0
 10
15.5964291392
 20
12.7739749626
 30
0.0
 10
15.5950603721
 20
12.7618365149
 30
0.0
 10
15.5945886748
 20
12.74925095
 30
0.0
 10
15.5950311895
 20
12.7366582796
 30
0.0
 10
15.596371848
 20
12.7244988224
 30
0.0
 10
15.5985611431
 20
12.7131988386
 30
0.0
 10
15.6006500906
 20
12.7060990029
 30
0.0
 10
15.6018533317
 20
12.7027956563
 30
0.0
  0
SPLINE
  5
362
100
AcDbEntity
  8
LAYER_CUT_FEAT
100
AcDbSpline
 62
7
  6
CONTINUOUS
 70
0
 71
3
 72
14
 73
10
 74
0
 42
0.0000001
 43
0.0000001
 44
0.0000000001
 40
0.0
 40
0.0
 40
0.0
 40
0.0
 40
0.3024291492
 40
0.4380011545
 40
0.5639331171
 40
0.6813365802
 40
0.7917558685
 40
0.8971834928
 40
1.0
 40
1.0
 40
1.0
 40
1.0
 10
15.6074347849
 20
12.6911575489
 30
0.0
 10
15.6083895754
 20
12.6896703154
 30
0.0
 10
15.6099149119
 20
12.6875958811
 30
0.0
 10
15.6122274037
 20
12.6852413494
 30
0.0
 10
15.6139433084
 20
12.6838338705
 30
0.0
 10
15.6156969293
 20
12.6827277781
 30
0.0
 10
15.6174818324
 20
12.6819302092
 30
0.0
 10
15.6192889961
 20
12.681448008
 30
0.0
 10
15.6205084924
 20
12.6813399205
 30
0.0
 10
15.6211093328
 20
12.6813399233
 30
0.0
  0
SPLINE
  5
363
100
AcDbEntity
  8
LAYER_CUT_FEAT
100
AcDbSpline
 62
7
  6
CONTINUOUS
 70
0
 71
3
 72
12
 73
8
 74
0
 42
0.0000001
 43
0.0000001
 44
0.0000000001
 40
0.0
 40
0.0
 40
0.0
 40
0.0
 40
0.2906492701
 40
0.5485948625
 40
0.7811190113
 40
0.8914797878
 40
1.0
 40
1.0
 40
1.0
 40
1.0
 10
15.9593781661
 20
11.9154233604
 30
0.0
 10
15.9602073598
 20
11.9144107484
 30
0.0
 10
15.961901295
 20
11.912596546
 30
0.0
 10
15.9647324654
 20
11.9104733765
 30
0.0
 10
15.967233664
 20
11.9093622425
 30
0.0
 10
15.9692261493
 20
11.9089322284
 30
0.0
 10
15.9702132228
 20
11.9088612099
 30
0.0
 10
15.9707018899
 20
11.9088612159
 30
0.0
  0
SPLINE
  5
364
100
AcDbEntity
  8
LAYER_CUT_FEAT
100
AcDbSpline
 62
7
  6
CONTINUOUS
 70
0
 71
3
 72
21
 73
17
 74
0
 42
0.0000001
 43
0.0000001
 44
0.0000000001
 40
0.0
 40
0.0
 40
0.0
 40
0.0
 40
0.1665765631
 40
0.3306760415
 40
0.4098667501
 40
0.486158206
 40
0.5588768926
 40
0.6274187619
 40
0.6912692367
 40
0.7500286699
 40
0.8034463171
 40
0.8514689004
 40
0.8943113781
 40
0.9325550042
 40
0.967257148
 40
1.0
 40
1.0
 40
1.0
 40
1.0
 10
15.4444443789
 20
11.2861138609
 30
0.0
 10
15.4442014444
 20
11.2813326485
 30
0.0
 10
15.4441162966
 20
11.2718172399
 30
0.0
 10
15.4449754127
 20
11.2600541329
 30
0.0
 10
15.446255565
 20
11.2509561704
 30
0.0
 10
15.4474762838
 20
11.2445095689
 30
0.0
 10
15.4489545658
 20
11.2384313208
 30
0.0
 10
15.4506738234
 20
11.2327889626
 30
0.0
 10
15.4526147531
 20
11.2276448243
 30
0.0
 10
15.4547559989
 20
11.2230550318
 30
0.0
 10
15.457074831
 20
11.2190687701
 30
0.0
 10
15.4595485512
 20
11.2157278392
 30
0.0
 10
15.4621559251
 20
11.2130673321
 30
0.0
 10
15.4648802464
 20
11.2111191226
 30
0.0
 10
15.4677013104
 20
11.2099196671
 30
0.0
 10
15.4696486091
 20
11.2096453828
 30
0.0
 10
15.4705896327
 20
11.209645386
 30
0.0
  0
SPLINE
  5
365
100
AcDbEntity
  8
LAYER_CUT_FEAT
100
AcDbSpline
 62
7
  6
CONTINUOUS
 70
0
 71
3
 72
11
 73
7
 74
0
 42
0.0000001
 43
0.0000001
 44
0.0000000001
 40
0.0
 40
0.0
 40
0.0
 40
0.0
 40
0.2578435644
 40
0.5148812221
 40
0.7643907693
 40
1.0
 40
1.0
 40
1.0
 40
1.0
 10
15.5096777012
 20
11.2143640108
 30
0.0
 10
15.5095663119
 20
11.2125374528
 30
0.0
 10
15.5094717037
 20
11.2088811139
 30
0.0
 10
15.5096999033
 20
11.2034567835
 30
0.0
 10
15.5102898221
 20
11.1982184007
 30
0.0
 10
15.5109354352
 20
11.1948317737
 30
0.0
 10
15.5113234442
 20
11.1932052625
 30
0.0
  0
SPLINE
  5
366
100
AcDbEntity
  8
LAYER_CUT_FEAT
100
AcDbSpline
 62
7
  6
CONTINUOUS
 70
0
 71
3
 72
11
 73
7
 74
0
 42
0.0000001
 43
0.0000001
 44
0.0000000001
 40
0.0
 40
0.0
 40
0.0
 40
0.0
 40
0.293979562
 40
0.5529141087
 40
0.7842409296
 40
1.0
 40
1.0
 40
1.0
 40
1.0
 10
16.0061095634
 20
12.0525674467
 30
0.0
 10
16.0065081229
 20
12.0520482028
 30
0.0
 10
16.0073230079
 20
12.0511177156
 30
0.0
 10
16.0086980523
 20
12.0500223292
 30
0.0
 10
16.0101342225
 20
12.0493428275
 30
0.0
 10
16.0111350322
 20
12.0491860493
 30
0.0
 10
16.0116154388
 20
12.0491860552
 30
0.0
  0
SPLINE
  5
367
100
AcDbEntity
  8
LAYER_CUT_FEAT
100
AcDbSpline
 62
7
  6
CONTINUOUS
 70
0
 71
3
 72
14
 73
10
 74
0
 42
0.0000001
 43
0.0000001
 44
0.0000000001
 40
0.0
 40
0.0
 40
0.0
 40
0.0
 40
0.0883377769
 40
0.1828132657
 40
0.2869087848
 40
0.4029114361
 40
0.5320728006
 40
0.6748467512
 40
1.0
 40
1.0
 40
1.0
 40
1.0
 10
15.9186102272
 20
13.3862656325
 30
0.0
 10
15.9181963044
 20
13.386229057
 30
0.0
 10
15.9173467338
 20
13.386038938
 30
0.0
 10
15.9161272586
 20
13.38543764
 30
0.0
 10
15.9149480235
 20
13.3845307749
 30
0.0
 10
15.9138172596
 20
13.3833314788
 30
0.0
 10
15.9127418962
 20
13.3818521354
 30
0.0
 10
15.9113328283
 20
13.3794183477
 30
0.0
 10
15.9104860863
 20
13.37737473
 30
0.0
 10
15.9099805167
 20
13.3759312018
 30
0.0
  0
LINE
  5
368
100
AcDbEntity
  8
LAYER_CUT_FEAT
100
AcDbLine
 62
7
  6
CONTINUOUS
 10
15.3283001046
 20
13.7035113007
 11
15.3292543929
 21
13.698167552
  0
SPLINE
  5
369
100
AcDbEntity
  8
LAYER_CUT_FEAT
100
AcDbSpline
 62
7
  6
CONTINUOUS
 70
0
 71
3
 72
11
 73
7
 74
0
 42
0.0000001
 43
0.0000001
 44
0.0000000001
 40
0.0
 40
0.0
 40
0.0
 40
0.0
 40
0.2844924298
 40
0.5476507153
 40
0.7867431629
 40
1.0
 40
1.0
 40
1.0
 40
1.0
 10
15.539619367
 20
12.7637394393
 30
0.0
 10
15.5397899846
 20
12.7629815662
 30
0.0
 10
15.5401636649
 20
12.761532214
 30
0.0
 10
15.5408513441
 20
12.7594945542
 30
0.0
 10
15.5416350386
 20
12.7577019895
 30
0.0
 10
15.5422493869
 20
12.7566261184
 30
0.0
 10
15.5425740985
 20
12.7561427312
 30
0.0
  0
LINE
  5
36A
100
AcDbEntity
  8
LAYER_CUT_FEAT
100
AcDbLine
 62
7
  6
CONTINUOUS
 10
15.5425740985
 20
12.7561427312
 11
15.5430334765
 21
12.7555086227
  0
SPLINE
  5
36B
100
AcDbEntity
  8
LAYER_CUT_FEAT
100
AcDbSpline
 62
7
  6
CONTINUOUS
 70
0
 71
3
 72
11
 73
7
 74
0
 42
0.0000001
 43
0.0000001
 44
0.0000000001
 40
0.0
 40
0.0
 40
0.0
 40
0.0
 40
0.2070305474
 40
0.4403749855
 40
0.7041810918
 40
1.0
 40
1.0
 40
1.0
 40
1.0
 10
15.0522507439
 20
12.3492430039
 30
0.0
 10
15.0512151658
 20
12.3487469539
 30
0.0
 10
15.0491464068
 20
12.3474037984
 30
0.0
 10
15.0463358118
 20
12.3446671628
 30
0.0
 10
15.0436754331
 20
12.3411483861
 30
0.0
 10
15.0421088817
 20
12.338461103
 30
0.0
 10
15.0413479794
 20
12.3370075114
 30
0.0
  0
SPLINE
  5
36C
100
AcDbEntity
  8
LAYER_CUT_FEAT
100
AcDbSpline
 62
7
  6
CONTINUOUS
 70
0
 71
3
 72
10
 73
6
 74
0
 42
0.0000001
 43
0.0000001
 44
0.0000000001
 40
0.0
 40
0.0
 40
0.0
 40
0.0
 40
0.5231542973
 40
0.7647701443
 40
1.0
 40
1.0
 40
1.0
 40
1.0
 10
15.049745771
 20
12.2176507944
 30
0.0
 10
15.0508552546
 20
12.216825038
 30
0.0
 10
15.052641564
 20
12.2157971025
 30
0.0
 10
15.0552001269
 20
12.2150905674
 30
0.0
 10
15.0564638042
 20
12.2149744375
 30
0.0
 10
15.0570856756
 20
12.2149744265
 30
0.0
  0
SPLINE
  5
36D
100
AcDbEntity
  8
LAYER_CUT_FEAT
100
AcDbSpline
 62
7
  6
CONTINUOUS
 70
0
 71
3
 72
14
 73
10
 74
0
 42
0.0000001
 43
0.0000001
 44
0.0000000001
 40
0.0
 40
0.0
 40
0.0
 40
0.0
 40
0.3291122254
 40
0.4725912735
 40
0.6015515748
 40
0.7165607135
 40
0.8191731071
 40
0.9122311783
 40
1.0
 40
1.0
 40
1.0
 40
1.0
 10
15.5613719547
 20
12.3386556544
 30
0.0
 10
15.5618101637
 20
12.3373657428
 30
0.0
 10
15.5625491879
 20
12.3355428813
 30
0.0
 10
15.5637980217
 20
12.3333844933
 30
0.0
 10
15.5647521662
 20
12.3320902986
 30
0.0
 10
15.5657580831
 20
12.3310595487
 30
0.0
 10
15.5668094905
 20
12.330304625
 30
0.0
 10
15.5678985444
 20
12.3298397336
 30
0.0
 10
15.5686505259
 20
12.329733387
 30
0.0
 10
15.5690138326
 20
12.3297333934
 30
0.0
  0
SPLINE
  5
36E
100
AcDbEntity
  8
LAYER_CUT_FEAT
100
AcDbSpline
 62
7
  6
CONTINUOUS
 70
0
 71
3
 72
20
 73
16
 74
0
 42
0.0000001
 43
0.0000001
 44
0.0000000001
 40
0.0
 40
0.0
 40
0.0
 40
0.0
 40
0.1497773918
 40
0.2990639996
 40
0.4441185806
 40
0.513949819
 40
0.58141672
 40
0.6461347884
 40
0.7077555293
 40
0.7659746191
 40
0.8205417793
 40
0.8712731377
 40
0.918067816
 40
0.9609298858
 40
1.0
 40
1.0
 40
1.0
 40
1.0
 10
15.4769728272
 20
12.4842946714
 30
0.0
 10
15.4763759944
 20
12.494429052
 30
0.0
 10
15.4758772926
 20
12.5147118301
 30
0.0
 10
15.4771400438
 20
12.5448083034
 30
0.0
 10
15.4798640864
 20
12.5693650855
 30
0.0
 10
15.4830511161
 20
12.5882399704
 30
0.0
 10
15.4858698567
 20
12.6016435234
 30
0.0
 10
15.4891255521
 20
12.6143744034
 30
0.0
 10
15.492794184
 20
12.6263390927
 30
0.0
 10
15.4968485359
 20
12.6374498592
 30
0.0
 10
15.5012589158
 20
12.6476258338
 30
0.0
 10
15.5059933261
 20
12.6567933896
 30
0.0
 10
15.5110191416
 20
12.6648875202
 30
0.0
 10
15.5163009252
 20
12.6718494859
 30
0.0
 10
15.5201431405
 20
12.6758828902
 30
0.0
 10
15.522100771
 20
12.6776662965
 30
0.0
  0
SPLINE
  5
36F
100
AcDbEntity
  8
LAYER_CUT_FEAT
100
AcDbSpline
 62
7
  6
CONTINUOUS
 70
0
 71
3
 72
23
 73
19
 74
0
 42
0.0000001
 43
0.0000001
 44
0.0000000001
 40
0.0
 40
0.0
 40
0.0
 40
0.0
 40
0.056097895
 40
0.1189396894
 40
0.1876028271
 40
0.2608927205
 40
0.4156424694
 40
0.5711370671
 40
0.6453320494
 40
0.7152150267
 40
0.7795410564
 40
0.8373124658
 40
0.8878862906
 40
0.931148017
 40
0.9502516907
 40
0.9678872974
 40
0.9843437675
 40
1.0
 40
1.0
 40
1.0
 40
1.0
 10
15.4769728272
 20
12.4842946714
 30
0.0
 10
15.4765245486
 20
12.4834552164
 30
0.0
 10
15.4756987508
 20
12.4816080849
 30
0.0
 10
15.4747011983
 20
12.4785818886
 30
0.0
 10
15.473892435
 20
12.475199385
 30
0.0
 10
15.4730780169
 20
12.4702289106
 30
0.0
 10
15.4726564294
 20
12.463719064
 30
0.0
 10
15.4729878232
 20
12.4571891031
 30
0.0
 10
15.4737297804
 20
12.452158185
 30
0.0
 10
15.4744903895
 20
12.4487021241
 30
0.0
 10
15.4754449336
 20
12.4455841659
 30
0.0
 10
15.4765717919
 20
12.4428738615
 30
0.0
 10
15.477845545
 20
12.4406312862
 30
0.0
 10
15.4790589763
 20
12.43913015
 30
0.0
 10
15.4800890569
 20
12.4382412047
 30
0.0
 10
15.480849495
 20
12.4377490296
 30
0.0
 10
15.4816256379
 20
12.4374078321
 30
0.0
 10
15.482159616
 20
12.4372817953
 30
0.0
 10
15.4824228862
 20
12.4372467391
 30
0.0
  0
LINE
  5
370
100
AcDbEntity
  8
LAYER_CUT_FEAT
100
AcDbLine
 62
7
  6
CONTINUOUS
 10
15.5281976616
 20
11.1906521206
 11
15.5329024189
 21
11.1868461505
  0
SPLINE
  5
371
100
AcDbEntity
  8
LAYER_CUT_FEAT
100
AcDbSpline
 62
7
  6
CONTINUOUS
 70
0
 71
3
 72
11
 73
7
 74
0
 42
0.0000001
 43
0.0000001
 44
0.0000000001
 40
0.0
 40
0.0
 40
0.0
 40
0.0
 40
0.261774771
 40
0.514284289
 40
0.759590823
 40
1.0
 40
1.0
 40
1.0
 40
1.0
 10
15.4380955203
 20
11.2208414443
 30
0.0
 10
15.445349846
 20
11.2167116763
 30
0.0
 10
15.4599700857
 20
11.2092211145
 30
0.0
 10
15.4825364499
 20
11.2003104658
 30
0.0
 10
15.5052526192
 20
11.1939737859
 30
0.0
 10
15.5205743569
 20
11.1914616109
 30
0.0
 10
15.5281976616
 20
11.1906521206
 30
0.0
  0
LINE
  5
372
100
AcDbEntity
  8
LAYER_CUT_FEAT
100
AcDbLine
 62
7
  6
CONTINUOUS
 10
15.2644846653
 20
13.6108611179
 11
15.2659167265
 21
13.6119364426
  0
SPLINE
  5
373
100
AcDbEntity
  8
LAYER_CUT_FEAT
100
AcDbSpline
 62
7
  6
CONTINUOUS
 70
0
 71
3
 72
9
 73
5
 74
0
 42
0.0000001
 43
0.0000001
 44
0.0000000001
 40
0.0
 40
0.0
 40
0.0
 40
0.0
 40
0.5155215814
 40
1.0
 40
1.0
 40
1.0
 40
1.0
 10
15.2801165337
 20
13.6354789464
 30
0.0
 10
15.2886447345
 20
13.6491152749
 30
0.0
 10
15.3059634778
 20
13.6750926936
 30
0.0
 10
15.3250080069
 20
13.6998442075
 30
0.0
 10
15.3346937046
 20
13.7114481333
 30
0.0
  0
SPLINE
  5
374
100
AcDbEntity
  8
LAYER_CUT_FEAT
100
AcDbSpline
 62
7
  6
CONTINUOUS
 70
0
 71
3
 72
11
 73
7
 74
0
 42
0.0000001
 43
0.0000001
 44
0.0000000001
 40
0.0
 40
0.0
 40
0.0
 40
0.0
 40
0.2082692894
 40
0.4361020031
 40
0.697520264
 40
1.0
 40
1.0
 40
1.0
 40
1.0
 10
15.0971508853
 20
13.251874452
 30
0.0
 10
15.0974248092
 20
13.2518744524
 30
0.0
 10
15.0980020761
 20
13.2519800303
 30
0.0
 10
15.0988154098
 20
13.2524293693
 30
0.0
 10
15.0995826617
 20
13.2531445193
 30
0.0
 10
15.1000267474
 20
13.2537428622
 30
0.0
 10
15.1002431045
 20
13.2540767197
 30
0.0
  0
SPLINE
  5
375
100
AcDbEntity
  8
LAYER_CUT_FEAT
100
AcDbSpline
 62
7
  6
CONTINUOUS
 70
0
 71
3
 72
10
 73
6
 74
0
 42
0.0000001
 43
0.0000001
 44
0.0000000001
 40
0.0
 40
0.0
 40
0.0
 40
0.0
 40
0.2127072505
 40
0.4502614518
 40
1.0
 40
1.0
 40
1.0
 40
1.0
 10
15.5495454862
 20
12.7547119521
 30
0.0
 10
15.5498269755
 20
12.7549888803
 30
0.0
 10
15.5503748461
 20
12.7556246453
 30
0.0
 10
15.5514044689
 20
12.757172961
 30
0.0
 10
15.5520204532
 20
12.7585092478
 30
0.0
 10
15.5523896652
 20
12.7594606656
 30
0.0
  0
SPLINE
  5
376
100
AcDbEntity
  8
LAYER_CUT_FEAT
100
AcDbSpline
 62
7
  6
CONTINUOUS
 70
0
 71
3
 72
13
 73
9
 74
0
 42
0.0000001
 43
0.0000001
 44
0.0000000001
 40
0.0
 40
0.0
 40
0.0
 40
0.0
 40
0.0822388813
 40
0.1711287264
 40
0.2716633112
 40
0.3867452672
 40
0.663732075
 40
1.0
 40
1.0
 40
1.0
 40
1.0
 10
15.0919267217
 20
13.2541228273
 30
0.0
 10
15.0918795051
 20
13.2541228285
 30
0.0
 10
15.0917806773
 20
13.2541062873
 30
0.0
 10
15.0916398864
 20
13.2540350816
 30
0.0
 10
15.0915058273
 20
13.2539209073
 30
0.0
 10
15.0913264351
 20
13.2537007942
 30
0.0
 10
15.0911348423
 20
13.2533246946
 30
0.0
 10
15.0910291362
 20
13.2529878103
 30
0.0
 10
15.0909821265
 20
13.2528005561
 30
0.0
  0
SPLINE
  5
377
100
AcDbEntity
  8
LAYER_CUT_FEAT
100
AcDbSpline
 62
7
  6
CONTINUOUS
 70
0
 71
3
 72
9
 73
5
 74
0
 42
0.0000001
 43
0.0000001
 44
0.0000000001
 40
0.0
 40
0.0
 40
0.0
 40
0.0
 40
0.4845800142
 40
1.0
 40
1.0
 40
1.0
 40
1.0
 10
15.4481052918
 20
11.242029444
 30
0.0
 10
15.449109678
 20
11.2462470832
 30
0.0
 10
15.4507083081
 20
11.2550666143
 30
0.0
 10
15.451522398
 20
11.2639880085
 30
0.0
 10
15.4517564079
 20
11.2685935774
 30
0.0
  0
SPLINE
  5
378
100
AcDbEntity
  8
LAYER_CUT_FEAT
100
AcDbSpline
 62
7
  6
CONTINUOUS
 70
0
 71
3
 72
11
 73
7
 74
0
 42
0.0000001
 43
0.0000001
 44
0.0000000001
 40
0.0
 40
0.0
 40
0.0
 40
0.0
 40
0.2116719917
 40
0.4410604949
 40
0.7013292815
 40
1.0
 40
1.0
 40
1.0
 40
1.0
 10
15.1070339589
 20
13.289755954
 30
0.0
 10
15.1072909662
 20
13.2897559522
 30
0.0
 10
15.1078296883
 20
13.2898479566
 30
0.0
 10
15.108595455
 20
13.2902430001
 30
0.0
 10
15.1093228531
 20
13.2908755185
 30
0.0
 10
15.1097484172
 20
13.2914082459
 30
0.0
 10
15.1099561524
 20
13.2917054885
 30
0.0
  0
SPLINE
  5
379
100
AcDbEntity
  8
LAYER_CUT_FEAT
100
AcDbSpline
 62
7
  6
CONTINUOUS
 70
0
 71
3
 72
11
 73
7
 74
0
 42
0.0000001
 43
0.0000001
 44
0.0000000001
 40
0.0
 40
0.0
 40
0.0
 40
0.0
 40
0.2298300337
 40
0.4683430107
 40
0.7231217995
 40
1.0
 40
1.0
 40
1.0
 40
1.0
 10
16.0116154388
 20
12.0491860552
 30
0.0
 10
16.0119561454
 20
12.0491860594
 30
0.0
 10
16.0126525493
 20
12.049262268
 30
0.0
 10
16.0136769822
 20
12.0496002461
 30
0.0
 10
16.0146808524
 20
12.050155802
 30
0.0
 10
16.0153035712
 20
12.0506441378
 30
0.0
 10
16.0156098245
 20
12.050917414
 30
0.0
  0
SPLINE
  5
37A
100
AcDbEntity
  8
LAYER_CUT_FEAT
100
AcDbSpline
 62
7
  6
CONTINUOUS
 70
0
 71
3
 72
12
 73
8
 74
0
 42
0.0000001
 43
0.0000001
 44
0.0000000001
 40
0.0
 40
0.0
 40
0.0
 40
0.0
 40
0.1717044458
 40
0.2728148281
 40
0.3880379418
 40
0.6644334035
 40
1.0
 40
1.0
 40
1.0
 40
1.0
 10
15.1016080377
 20
13.2924518619
 30
0.0
 10
15.101514254
 20
13.2924518583
 30
0.0
 10
15.1013643129
 20
13.2923986356
 30
0.0
 10
15.1012009488
 20
13.2922631131
 30
0.0
 10
15.1010257696
 20
13.2920569689
 30
0.0
 10
15.1008375121
 20
13.2917031356
 30
0.0
 10
15.1007315633
 20
13.29138509
 30
0.0
 10
15.1006838727
 20
13.2912081193
 30
0.0
  0
SPLINE
  5
37B
100
AcDbEntity
  8
LAYER_CUT_FEAT
100
AcDbSpline
 62
7
  6
CONTINUOUS
 70
0
 71
3
 72
11
 73
7
 74
0
 42
0.0000001
 43
0.0000001
 44
0.0000000001
 40
0.0
 40
0.0
 40
0.0
 40
0.0
 40
0.2151127348
 40
0.4461253445
 40
0.7052733123
 40
1.0
 40
1.0
 40
1.0
 40
1.0
 10
15.1173944048
 20
13.3267867984
 30
0.0
 10
15.1176345606
 20
13.3267868089
 30
0.0
 10
15.1181353409
 20
13.3268663461
 30
0.0
 10
15.1188529506
 20
13.3272106813
 30
0.0
 10
15.1195391629
 20
13.3277651842
 30
0.0
 10
15.1199450072
 20
13.3282355487
 30
0.0
 10
15.1201434434
 20
13.3284980163
 30
0.0
  0
SPLINE
  5
37C
100
AcDbEntity
  8
LAYER_CUT_FEAT
100
AcDbSpline
 62
7
  6
CONTINUOUS
 70
0
 71
3
 72
10
 73
6
 74
0
 42
0.0000001
 43
0.0000001
 44
0.0000000001
 40
0.0
 40
0.0
 40
0.0
 40
0.0
 40
0.5143009285
 40
0.7642492862
 40
1.0
 40
1.0
 40
1.0
 40
1.0
 10
15.1224630037
 20
13.3365304765
 30
0.0
 10
15.1225958439
 20
13.3383947072
 30
0.0
 10
15.1225945984
 20
13.3411847113
 30
0.0
 10
15.1222021282
 20
13.3447994684
 30
0.0
 10
15.1218733667
 20
13.3465363939
 30
0.0
 10
15.1216742175
 20
13.3473696382
 30
0.0
  0
SPLINE
  5
37D
100
AcDbEntity
  8
LAYER_CUT_FEAT
100
AcDbSpline
 62
7
  6
CONTINUOUS
 70
0
 71
3
 72
11
 73
7
 74
0
 42
0.0000001
 43
0.0000001
 44
0.0000000001
 40
0.0
 40
0.0
 40
0.0
 40
0.0
 40
0.1740636353
 40
0.3901037588
 40
0.6656257468
 40
1.0
 40
1.0
 40
1.0
 40
1.0
 10
15.1117725362
 20
13.3299469461
 30
0.0
 10
15.1116821425
 20
13.3299469447
 30
0.0
 10
15.1114790605
 20
13.3298770331
 30
0.0
 10
15.1112348187
 20
13.3296230693
 30
0.0
 10
15.1110235944
 20
13.3292468916
 30
0.0
 10
15.1109179667
 20
13.3289468026
 30
0.0
 10
15.110869791
 20
13.328779974
 30
0.0
  0
SPLINE
  5
37E
100
AcDbEntity
  8
LAYER_CUT_FEAT
100
AcDbSpline
 62
7
  6
CONTINUOUS
 70
0
 71
3
 72
26
 73
22
 74
0
 42
0.0000001
 43
0.0000001
 44
0.0000000001
 40
0.0
 40
0.0
 40
0.0
 40
0.0
 40
0.0201391119
 40
0.0403916909
 40
0.0608697691
 40
0.0816802377
 40
0.1029237615
 40
0.1246933127
 40
0.1701153889
 40
0.2185397765
 40
0.2703899335
 40
0.3259610132
 40
0.3854383022
 40
0.4489154975
 40
0.5164105487
 40
0.5878786152
 40
0.6632225326
 40
0.7423009945
 40
0.8249352296
 40
0.9109142683
 40
1.0
 40
1.0
 40
1.0
 40
1.0
 10
15.5528325335
 20
11.1779406544
 30
0.0
 10
15.5583507576
 20
11.1779406516
 30
0.0
 10
15.5694235975
 20
11.1783950227
 30
0.0
 10
15.5859942392
 20
11.1804369198
 30
0.0
 10
15.6025288064
 20
11.1838367807
 30
0.0
 10
15.6190077488
 20
11.1885899065
 30
0.0
 10
15.6354144583
 20
11.1946903567
 30
0.0
 10
15.6574787309
 20
11.2047501793
 30
0.0
 10
15.6848731616
 20
11.2208535601
 30
0.0
 10
15.7166666401
 20
11.2451305203
 30
0.0
 10
15.7477446294
 20
11.2745175537
 30
0.0
 10
15.7779948365
 20
11.3088876343
 30
0.0
 10
15.8073114489
 20
11.3481028437
 30
0.0
 10
15.8355855382
 20
11.3920077583
 30
0.0
 10
15.8627093997
 20
11.4404290206
 30
0.0
 10
15.8885772459
 20
11.4931746747
 30
0.0
 10
15.9130866211
 20
11.5500347102
 30
0.0
 10
15.9361394989
 20
11.6107816318
 30
0.0
 10
15.9576430609
 20
11.6751718159
 30
0.0
 10
15.9775101467
 20
11.7429452353
 30
0.0
 10
15.9894113825
 20
11.7894248589
 30
0.0
 10
15.9950901516
 20
11.8131650781
 30
0.0
  0
SPLINE
  5
37F
100
AcDbEntity
  8
0
100
AcDbSpline
 62
7
  6
CONTINUOUS
 70
0
 71
3
 72
11
 73
7
 74
0
 42
0.0000001
 43
0.0000001
 44
0.0000000001
 40
0.0
 40
0.0
 40
0.0
 40
0.0
 40
0.2185706296
 40
0.451265266
 40
0.7093285631
 40
1.0
 40
1.0
 40
1.0
 40
1.0
 10
15.1282211288
 20
13.362927332
 30
0.0
 10
15.1284444928
 20
13.3629273373
 30
0.0
 10
15.1289079184
 20
13.3629955139
 30
0.0
 10
15.1295768816
 20
13.3632927202
 30
0.0
 10
15.1302206485
 20
13.3637739729
 30
0.0
 10
15.1306055852
 20
13.3641853175
 30
0.0
 10
15.1307940688
 20
13.3644149048
 30
0.0
  0
SPLINE
  5
380
100
AcDbEntity
  8
LAYER_CUT_FEAT
100
AcDbSpline
 62
7
  6
CONTINUOUS
 70
0
 71
3
 72
11
 73
7
 74
0
 42
0.0000001
 43
0.0000001
 44
0.0000000001
 40
0.0
 40
0.0
 40
0.0
 40
0.0
 40
0.2363375782
 40
0.4944337904
 40
0.7554079687
 40
1.0
 40
1.0
 40
1.0
 40
1.0
 10
15.1196647904
 20
13.3592363854
 30
0.0
 10
15.1195935703
 20
13.3589897555
 30
0.0
 10
15.1194887497
 20
13.358460814
 30
0.0
 10
15.1194288243
 20
13.3576408435
 30
0.0
 10
15.1194616177
 20
13.3568103546
 30
0.0
 10
15.1195479244
 20
13.3562660898
 30
0.0
 10
15.1196096821
 20
13.3560076944
 30
0.0
  0
SPLINE
  5
381
100
AcDbEntity
  8
0
100
AcDbSpline
 62
7
  6
CONTINUOUS
 70
0
 71
3
 72
11
 73
7
 74
0
 42
0.0000001
 43
0.0000001
 44
0.0000000001
 40
0.0
 40
0.0
 40
0.0
 40
0.0
 40
0.1763729144
 40
0.392906309
 40
0.6672915025
 40
1.0
 40
1.0
 40
1.0
 40
1.0
 10
15.1224093328
 20
13.366567931
 30
0.0
 10
15.1223223071
 20
13.3665679328
 30
0.0
 10
15.122127716
 20
13.3665037932
 30
0.0
 10
15.1218898471
 20
13.3662670844
 30
0.0
 10
15.1216826647
 20
13.3659146148
 30
0.0
 10
15.1215774433
 20
13.3656327337
 30
0.0
 10
15.1215289742
 20
13.3654758874
 30
0.0
  0
SPLINE
  5
382
100
AcDbEntity
  8
LAYER_CUT_FEAT
100
AcDbSpline
 62
7
  6
CONTINUOUS
 70
0
 71
3
 72
30
 73
26
 74
0
 42
0.0000001
 43
0.0000001
 44
0.0000000001
 40
0.0
 40
0.0
 40
0.0
 40
0.0
 40
0.0157908756
 40
0.0321880808
 40
0.0497194227
 40
0.068790325
 40
0.089678702
 40
0.1125514626
 40
0.1374864418
 40
0.1644919643
 40
0.1935220921
 40
0.2244879749
 40
0.2916867929
 40
0.3648169799
 40
0.442274219
 40
0.5222559998
 40
0.6028515279
 40
0.6821243771
 40
0.7581936842
 40
0.8293186265
 40
0.8939933065
 40
0.9235477637
 40
0.9510974054
 40
0.9765839709
 40
1.0
 40
1.0
 40
1.0
 40
1.0
 10
15.9707018899
 20
11.9088612159
 30
0.0
 10
15.9714462738
 20
11.9088612252
 30
0.0
 10
15.9729683403
 20
11.9090292318
 30
0.0
 10
15.9752063754
 20
11.909773997
 30
0.0
 10
15.9773989911
 20
11.9109981363
 30
0.0
 10
15.9795318264
 20
11.9126856116
 30
0.0
 10
15.9815945658
 20
11.9148212761
 30
0.0
 10
15.9835760925
 20
11.9173895477
 30
0.0
 10
15.9854647687
 20
11.9203729243
 30
0.0
 10
15.9872485134
 20
11.9237512283
 30
0.0
 10
15.9889155487
 20
11.9275014103
 30
0.0
 10
15.9910244853
 20
11.9331172999
 30
0.0
 10
15.9932554475
 20
11.9408919455
 30
0.0
 10
15.9952450591
 20
11.9509737438
 30
0.0
 10
15.9965576008
 20
11.9617725152
 30
0.0
 10
15.9971551942
 20
11.9729856788
 30
0.0
 10
15.9970203858
 20
11.9842994775
 30
0.0
 10
15.9961571026
 20
11.9953963732
 30
0.0
 10
15.9945905101
 20
12.0059663088
 30
0.0
 10
15.9923657811
 20
12.0157136465
 30
0.0
 10
15.9899493018
 20
12.023140533
 30
0.0
 10
15.9877032296
 20
12.0284271058
 30
0.0
 10
15.98594916
 20
12.0319066229
 30
0.0
 10
15.9840874278
 20
12.0349966888
 30
0.0
 10
15.9827249535
 20
12.036861695
 30
0.0
 10
15.9820256137
 20
12.0377157294
 30
0.0
  0
SPLINE
  5
383
100
AcDbEntity
  8
LAYER_CUT_FEAT
100
AcDbSpline
 62
7
  6
CONTINUOUS
 70
0
 71
3
 72
25
 73
21
 74
0
 42
0.0000001
 43
0.0000001
 44
0.0000000001
 40
0.0
 40
0.0
 40
0.0
 40
0.0
 40
0.0155361064
 40
0.0314282189
 40
0.0654611663
 40
0.0841822382
 40
0.1042508454
 40
0.1488042515
 40
0.1995958343
 40
0.2565622757
 40
0.3193069947
 40
0.3871960975
 40
0.4594218335
 40
0.5350481503
 40
0.6130470918
 40
0.6923300059
 40
0.7717764968
 40
0.8502621367
 40
0.9266856034
 40
1.0
 40
1.0
 40
1.0
 40
1.0
 10
15.4721599391
 20
12.7312464108
 30
0.0
 10
15.4727298615
 20
12.7312464063
 30
0.0
 10
15.4738850527
 20
12.7313435389
 30
0.0
 10
15.4762218924
 20
12.7319336646
 30
0.0
 10
15.4784867495
 20
12.7331196113
 30
0.0
 10
15.4805993394
 20
12.7347587345
 30
0.0
 10
15.4828082255
 20
12.7368806722
 30
0.0
 10
15.48543007
 20
12.7402307305
 30
0.0
 10
15.4882456033
 20
12.7450710061
 30
0.0
 10
15.4907958745
 20
12.7507930863
 30
0.0
 10
15.4930406548
 20
12.7573061115
 30
0.0
 10
15.4949436536
 20
12.7645063294
 30
0.0
 10
15.4964729993
 20
12.7722762513
 30
0.0
 10
15.4976029509
 20
12.7804881536
 30
0.0
 10
15.4983143424
 20
12.7890062927
 30
0.0
 10
15.4985951364
 20
12.7976895148
 30
0.0
 10
15.4984405386
 20
12.8063937073
 30
0.0
 10
15.4978531913
 20
12.8149745316
 30
0.0
 10
15.4968430962
 20
12.8232892991
 30
0.0
 10
15.4958748569
 20
12.8287001294
 30
0.0
 10
15.4953170408
 20
12.8313310911
 30
0.0
  0
SPLINE
  5
384
100
AcDbEntity
  8
0
100
AcDbSpline
 62
7
  6
CONTINUOUS
 70
0
 71
3
 72
10
 73
6
 74
0
 42
0.0000001
 43
0.0000001
 44
0.0000000001
 40
0.0
 40
0.0
 40
0.0
 40
0.0
 40
0.511717396
 40
0.7623334746
 40
1.0
 40
1.0
 40
1.0
 40
1.0
 10
15.133214732
 20
13.3722481739
 30
0.0
 10
15.1333720568
 20
13.3741097441
 30
0.0
 10
15.1334044145
 20
13.3769054857
 30
0.0
 10
15.1330584109
 20
13.3805418373
 30
0.0
 10
15.132752361
 20
13.3823007066
 30
0.0
 10
15.1325644743
 20
13.3831478063
 30
0.0
  0
SPLINE
  5
385
100
AcDbEntity
  8
0
100
AcDbSpline
 62
7
  6
CONTINUOUS
 70
0
 71
3
 72
11
 73
7
 74
0
 42
0.0000001
 43
0.0000001
 44
0.0000000001
 40
0.0
 40
0.0
 40
0.0
 40
0.0
 40
0.2332642467
 40
0.4902698403
 40
0.7523067551
 40
1.0
 40
1.0
 40
1.0
 40
1.0
 10
15.1307073223
 20
13.3951770328
 30
0.0
 10
15.1306326358
 20
13.3949353472
 30
0.0
 10
15.1305209992
 20
13.3944131814
 30
0.0
 10
15.1304510541
 20
13.3935987019
 30
0.0
 10
15.1304736303
 20
13.3927658596
 30
0.0
 10
15.1305529412
 20
13.3922169375
 30
0.0
 10
15.1306111053
 20
13.3919547006
 30
0.0
  0
SPLINE
  5
386
100
AcDbEntity
  8
LAYER_CUT_FEAT
100
AcDbSpline
 62
7
  6
CONTINUOUS
 70
0
 71
3
 72
25
 73
21
 74
0
 42
0.0000001
 43
0.0000001
 44
0.0000000001
 40
0.0
 40
0.0
 40
0.0
 40
0.0
 40
0.0214193346
 40
0.0429302681
 40
0.0646229582
 40
0.0865847763
 40
0.1316212329
 40
0.1786697646
 40
0.2282384932
 40
0.2807339831
 40
0.3364659811
 40
0.3956571907
 40
0.4584547206
 40
0.5249412261
 40
0.5951446469
 40
0.6690466048
 40
0.7465891794
 40
0.8276805766
 40
0.9121995118
 40
1.0
 40
1.0
 40
1.0
 40
1.0
 10
15.5528325335
 20
13.9097739625
 30
0.0
 10
15.5477994367
 20
13.9097739565
 30
0.0
 10
15.5377080407
 20
13.9094142905
 30
0.0
 10
15.5225973579
 20
13.9077975255
 30
0.0
 10
15.5075104733
 20
13.9051044
 30
0.0
 10
15.4872799527
 20
13.9000420904
 30
0.0
 10
15.4619939961
 20
13.8909211107
 30
0.0
 10
15.4322509083
 20
13.8758131546
 30
0.0
 10
15.4029257734
 20
13.8565162465
 30
0.0
 10
15.3741029141
 20
13.8331037626
 30
0.0
 10
15.3458581782
 20
13.8056543267
 30
0.0
 10
15.3182685644
 20
13.7742544262
 30
0.0
 10
15.2914106724
 20
13.7389998029
 30
0.0
 10
15.2653611742
 20
13.6999966098
 30
0.0
 10
15.2401958863
 20
13.6573620371
 30
0.0
 10
15.2159893307
 20
13.6112243252
 30
0.0
 10
15.1928139819
 20
13.5617227574
 30
0.0
 10
15.1707397975
 20
13.5090070062
 30
0.0
 10
15.1498340202
 20
13.4532377676
 30
0.0
 10
15.1369545199
 20
13.414839748
 30
0.0
 10
15.1307073223
 20
13.3951770328
 30
0.0
  0
SPLINE
  5
387
100
AcDbEntity
  8
LAYER_CUT_FEAT
100
AcDbSpline
 62
7
  6
CONTINUOUS
 70
0
 71
3
 72
11
 73
7
 74
0
 42
0.0000001
 43
0.0000001
 44
0.0000000001
 40
0.0
 40
0.0
 40
0.0
 40
0.0
 40
0.2126515059
 40
0.4424961402
 40
0.7024393606
 40
1.0
 40
1.0
 40
1.0
 40
1.0
 10
15.4339854517
 20
11.2142265963
 30
0.0
 10
15.4344966626
 20
11.2142265916
 30
0.0
 10
15.4355666188
 20
11.21440565
 30
0.0
 10
15.4370911165
 20
11.2151763733
 30
0.0
 10
15.4385420372
 20
11.2164124362
 30
0.0
 10
15.439393514
 20
11.2174555625
 30
0.0
 10
15.4398093641
 20
11.2180375997
 30
0.0
  0
SPLINE
  5
388
100
AcDbEntity
  8
LAYER_CUT_FEAT
100
AcDbSpline
 62
7
  6
CONTINUOUS
 70
0
 71
3
 72
21
 73
17
 74
0
 42
0.0000001
 43
0.0000001
 44
0.0000000001
 40
0.0
 40
0.0
 40
0.0
 40
0.0
 40
0.0590897
 40
0.1219813006
 40
0.1880542341
 40
0.2566166195
 40
0.3981611347
 40
0.5403747313
 40
0.6097605879
 40
0.6769631764
 40
0.7412664503
 40
0.8020175554
 40
0.8586476437
 40
0.9106980382
 40
0.9578545329
 40
1.0
 40
1.0
 40
1.0
 40
1.0
 10
15.9456384325
 20
11.9321952875
 30
0.0
 10
15.946325522
 20
11.9342287052
 30
0.0
 10
15.9475919654
 20
11.9384786648
 30
0.0
 10
15.9491416367
 20
11.9451349251
 30
0.0
 10
15.9503859772
 20
11.9522046084
 30
0.0
 10
15.9516279318
 20
11.9621627964
 30
0.0
 10
15.9523095237
 20
11.9749610289
 30
0.0
 10
15.9518643252
 20
11.987799121
 30
0.0
 10
15.9508119146
 20
11.997874764
 30
0.0
 10
15.9497006851
 20
12.0050900359
 30
0.0
 10
15.9482765506
 20
12.011930347
 30
0.0
 10
15.9465583199
 20
12.0183065485
 30
0.0
 10
15.9445688432
 20
12.0241358062
 30
0.0
 10
15.9423336262
 20
12.0293438265
 30
0.0
 10
15.9398818293
 20
12.0338638406
 30
0.0
 10
15.9380170347
 20
12.0365312872
 30
0.0
 10
15.9370471352
 20
12.0377157294
 30
0.0
  0
SPLINE
  5
389
100
AcDbEntity
  8
LAYER_CUT_FEAT
100
AcDbSpline
 62
7
  6
CONTINUOUS
 70
0
 71
3
 72
9
 73
5
 74
0
 42
0.0000001
 43
0.0000001
 44
0.0000000001
 40
0.0
 40
0.0
 40
0.0
 40
0.0
 40
0.4913759363
 40
1.0
 40
1.0
 40
1.0
 40
1.0
 10
15.9765858484
 20
11.8401945729
 30
0.0
 10
15.9844353501
 20
11.8744147414
 30
0.0
 10
15.9988515846
 20
11.944420417
 30
0.0
 10
16.0104098497
 20
12.0149500849
 30
0.0
 10
16.0156098245
 20
12.050917414
 30
0.0
  0
SPLINE
  5
38A
100
AcDbEntity
  8
LAYER_CUT_FEAT
100
AcDbSpline
 62
7
  6
CONTINUOUS
 70
0
 71
3
 72
11
 73
7
 74
0
 42
0.0000001
 43
0.0000001
 44
0.0000000001
 40
0.0
 40
0.0
 40
0.0
 40
0.0
 40
0.2625677775
 40
0.5169267806
 40
0.7628121544
 40
1.0
 40
1.0
 40
1.0
 40
1.0
 10
15.9186102272
 20
13.3862656325
 30
0.0
 10
15.9136618378
 20
13.400628286
 30
0.0
 10
15.9035376177
 20
13.4287749292
 30
0.0
 10
15.8873945964
 20
13.4698570501
 30
0.0
 10
15.8705613277
 20
13.5090685861
 30
0.0
 10
15.8586832318
 20
13.5343750973
 30
0.0
 10
15.8526262295
 20
13.5466888342
 30
0.0
  0
SPLINE
  5
38B
100
AcDbEntity
  8
LAYER_CUT_FEAT
100
AcDbSpline
 62
7
  6
CONTINUOUS
 70
0
 71
3
 72
10
 73
6
 74
0
 42
0.0000001
 43
0.0000001
 44
0.0000000001
 40
0.0
 40
0.0
 40
0.0
 40
0.0
 40
0.5195150355
 40
0.7681066188
 40
1.0
 40
1.0
 40
1.0
 40
1.0
 10
15.1023531182
 20
13.2624815537
 30
0.0
 10
15.1024373312
 20
13.2643450203
 30
0.0
 10
15.1023694536
 20
13.2671149654
 30
0.0
 10
15.1018846649
 20
13.2706749507
 30
0.0
 10
15.1015111944
 20
13.2723623256
 30
0.0
 10
15.1012899563
 20
13.2731650307
 30
0.0
  0
SPLINE
  5
38C
100
AcDbEntity
  8
LAYER_CUT_FEAT
100
AcDbSpline
 62
7
  6
CONTINUOUS
 70
0
 71
3
 72
16
 73
12
 74
0
 42
0.0000001
 43
0.0000001
 44
0.0000000001
 40
0.0
 40
0.0
 40
0.0
 40
0.0
 40
0.1713664614
 40
0.3310769767
 40
0.4775314129
 40
0.6095894881
 40
0.7267490723
 40
0.8294097798
 40
0.9192672553
 40
0.9604976867
 40
1.0
 40
1.0
 40
1.0
 40
1.0
 10
15.3247955345
 20
13.6356024481
 30
0.0
 10
15.3242877761
 20
13.6379973104
 30
0.0
 10
15.3231723029
 20
13.6425973678
 30
0.0
 10
15.3211196203
 20
13.6491091379
 30
0.0
 10
15.3187708535
 20
13.6549205403
 30
0.0
 10
15.3161610395
 20
13.6599459791
 30
0.0
 10
15.3133243521
 20
13.6641144886
 30
0.0
 10
15.3102959345
 20
13.6673673168
 30
0.0
 10
15.3075490913
 20
13.6693258679
 30
0.0
 10
15.3053152792
 20
13.6703175346
 30
0.0
 10
15.3041994658
 20
13.6706293545
 30
0.0
 10
15.3036456902
 20
13.6707379347
 30
0.0
  0
SPLINE
  5
38D
100
AcDbEntity
  8
LAYER_CUT_FEAT
100
AcDbSpline
 62
7
  6
CONTINUOUS
 70
0
 71
3
 72
11
 73
7
 74
0
 42
0.0000001
 43
0.0000001
 44
0.0000000001
 40
0.0
 40
0.0
 40
0.0
 40
0.0
 40
0.2424990241
 40
0.5027503188
 40
0.7615796254
 40
1.0
 40
1.0
 40
1.0
 40
1.0
 10
15.0989825953
 20
13.2846688854
 30
0.0
 10
15.0989184217
 20
13.2844132621
 30
0.0
 10
15.0988274009
 20
13.2838724814
 30
0.0
 10
15.0987877112
 20
13.2830440738
 30
0.0
 10
15.0988408133
 20
13.2822208661
 30
0.0
 10
15.098940986
 20
13.2816876599
 30
0.0
 10
15.0990098371
 20
13.2814378517
 30
0.0
  0
SPLINE
  5
38E
100
AcDbEntity
  8
LAYER_CUT_FEAT
100
AcDbSpline
 62
7
  6
CONTINUOUS
 70
0
 71
3
 72
15
 73
11
 74
0
 42
0.0000001
 43
0.0000001
 44
0.0000000001
 40
0.0
 40
0.0
 40
0.0
 40
0.0
 40
0.0894916682
 40
0.183898245
 40
0.2872574235
 40
0.4023551731
 40
0.5308079867
 40
0.6733123179
 40
0.8298742629
 40
1.0
 40
1.0
 40
1.0
 40
1.0
 10
15.6211093328
 20
12.6813399233
 30
0.0
 10
15.6220082465
 20
12.6813399275
 30
0.0
 10
15.6238633636
 20
12.6815889793
 30
0.0
 10
15.6265606122
 20
12.6826818312
 30
0.0
 10
15.6291741321
 20
12.6844619322
 30
0.0
 10
15.6316846803
 20
12.6868978824
 30
0.0
 10
15.6340771814
 20
12.689961994
 30
0.0
 10
15.6363330009
 20
12.6936244532
 30
0.0
 10
15.6384321828
 20
12.6978498325
 30
0.0
 10
15.6396650002
 20
12.7008943327
 30
0.0
 10
15.6402561404
 20
12.7024976858
 30
0.0
  0
SPLINE
  5
38F
100
AcDbEntity
  8
LAYER_CUT_FEAT
100
AcDbSpline
 62
7
  6
CONTINUOUS
 70
0
 71
3
 72
27
 73
23
 74
0
 42
0.0000001
 43
0.0000001
 44
0.0000000001
 40
0.0
 40
0.0
 40
0.0
 40
0.0
 40
0.0641078422
 40
0.1336088076
 40
0.2074073118
 40
0.2842538248
 40
0.3627984525
 40
0.4416377728
 40
0.5193592523
 40
0.5945852145
 40
0.6660185071
 40
0.7324921539
 40
0.7930279086
 40
0.846913693
 40
0.8712569569
 40
0.8938565097
 40
0.9147625052
 40
0.9340786919
 40
0.9519743807
 40
0.9686956605
 40
0.9845705211
 40
1.0
 40
1.0
 40
1.0
 40
1.0
 10
15.8854311136
 20
13.3674871634
 30
0.0
 10
15.8863536457
 20
13.3699893526
 30
0.0
 10
15.888021393
 20
13.3752998675
 30
0.0
 10
15.8899618318
 20
13.3837137353
 30
0.0
 10
15.8914126946
 20
13.3927625435
 30
0.0
 10
15.8923425365
 20
13.4022567523
 30
0.0
 10
15.8927314003
 20
13.4119980546
 30
0.0
 10
15.8925708829
 20
13.4217821223
 30
0.0
 10
15.8918644529
 20
13.4314037678
 30
0.0
 10
15.890627324
 20
13.4406615026
 30
0.0
 10
15.8888861448
 20
13.4493619385
 30
0.0
 10
15.886678076
 20
13.4573253573
 30
0.0
 10
15.8840498001
 20
13.4643872533
 30
0.0
 10
15.8814725526
 20
13.4695705369
 30
0.0
 10
15.879216657
 20
13.4731109183
 30
0.0
 10
15.8775128273
 20
13.4753654631
 30
0.0
 10
15.8757478481
 20
13.4772986354
 30
0.0
 10
15.8739292749
 20
13.4789001585
 30
0.0
 10
15.8720647813
 20
13.4801606583
 30
0.0
 10
15.8701620196
 20
13.4810710232
 30
0.0
 10
15.8682314894
 20
13.4816222877
 30
0.0
 10
15.8669261603
 20
13.481746053
 30
0.0
 10
15.866284306
 20
13.48174605
 30
0.0
  0
SPLINE
  5
390
100
AcDbEntity
  8
LAYER_CUT_FEAT
100
AcDbSpline
 62
7
  6
CONTINUOUS
 70
0
 71
3
 72
11
 73
7
 74
0
 42
0.0000001
 43
0.0000001
 44
0.0000000001
 40
0.0
 40
0.0
 40
0.0
 40
0.0
 40
0.2356686522
 40
0.4855952034
 40
0.7428165422
 40
1.0
 40
1.0
 40
1.0
 40
1.0
 10
15.9950901516
 20
11.8131650781
 30
0.0
 10
15.9954965176
 20
11.8148638999
 30
0.0
 10
15.9961663356
 20
11.8184055763
 30
0.0
 10
15.9967591189
 20
11.8238841084
 30
0.0
 10
15.9969576827
 20
11.8295504323
 30
0.0
 10
15.9968212604
 20
11.833364571
 30
0.0
 10
15.9966828105
 20
11.8352657498
 30
0.0
  0
SPLINE
  5
391
100
AcDbEntity
  8
LAYER_CUT_FEAT
100
AcDbSpline
 62
7
  6
CONTINUOUS
 70
0
 71
3
 72
12
 73
8
 74
0
 42
0.0000001
 43
0.0000001
 44
0.0000000001
 40
0.0
 40
0.0
 40
0.0
 40
0.0
 40
0.2906492701
 40
0.5485948625
 40
0.7811190113
 40
0.8914797878
 40
1.0
 40
1.0
 40
1.0
 40
1.0
 10
15.6599776409
 20
12.431000987
 30
0.0
 10
15.6591484472
 20
12.4320135991
 30
0.0
 10
15.657454512
 20
12.4338278015
 30
0.0
 10
15.6546233416
 20
12.435950971
 30
0.0
 10
15.652122143
 20
12.4370621049
 30
0.0
 10
15.6501296576
 20
12.4374921191
 30
0.0
 10
15.6491425842
 20
12.4375631375
 30
0.0
 10
15.6486539171
 20
12.4375631315
 30
0.0
  0
SPLINE
  5
392
100
AcDbEntity
  8
LAYER_CUT_FEAT
100
AcDbSpline
 62
7
  6
CONTINUOUS
 70
0
 71
3
 72
11
 73
7
 74
0
 42
0.0000001
 43
0.0000001
 44
0.0000000001
 40
0.0
 40
0.0
 40
0.0
 40
0.0
 40
0.2031814853
 40
0.440697439
 40
0.7084169384
 40
1.0
 40
1.0
 40
1.0
 40
1.0
 10
16.0370021758
 20
12.0529834722
 30
0.0
 10
16.0377191063
 20
12.0539847402
 30
0.0
 10
16.0390357206
 20
12.0563273511
 30
0.0
 10
16.0405938993
 20
12.0603376204
 30
0.0
 10
16.0418485475
 20
12.065009519
 30
0.0
 10
16.0424340401
 20
12.0683529238
 30
0.0
 10
16.042672926
 20
12.0701039753
 30
0.0
  0
SPLINE
  5
393
100
AcDbEntity
  8
LAYER_CUT_FEAT
100
AcDbSpline
 62
7
  6
CONTINUOUS
 70
0
 71
3
 72
23
 73
19
 74
0
 42
0.0000001
 43
0.0000001
 44
0.0000000001
 40
0.0
 40
0.0
 40
0.0
 40
0.0
 40
0.0632941481
 40
0.1275596154
 40
0.1925694453
 40
0.2580916592
 40
0.3238911278
 40
0.3897310121
 40
0.455374221
 40
0.5205848847
 40
0.5851298256
 40
0.6487800682
 40
0.7113123646
 40
0.7725107836
 40
0.8321683889
 40
0.8900889822
 40
0.9460890114
 40
1.0
 40
1.0
 40
1.0
 40
1.0
 10
16.042672926
 20
12.0701039753
 30
0.0
 10
16.0464340781
 20
12.0976734954
 30
0.0
 10
16.0532313223
 20
12.1533452413
 30
0.0
 10
16.0612210126
 20
12.2376327719
 30
0.0
 10
16.0670603031
 20
12.3230786842
 30
0.0
 10
16.0707241752
 20
12.4093200501
 30
0.0
 10
16.0721970582
 20
12.4959915304
 30
0.0
 10
16.0714726405
 20
12.5827256599
 30
0.0
 10
16.0685540231
 20
12.66915479
 30
0.0
 10
16.0634536594
 20
12.754912562
 30
0.0
 10
16.0561932714
 20
12.8396355108
 30
0.0
 10
16.0468038343
 20
12.9229646315
 30
0.0
 10
16.0353253639
 20
13.0045469145
 30
0.0
 10
16.0218067523
 20
13.0840369321
 30
0.0
 10
16.0063056446
 20
13.1610981521
 30
0.0
 10
15.9888878756
 20
13.2354050859
 30
0.0
 10
15.9696279815
 20
13.3066423607
 30
0.0
 10
15.9553284472
 20
13.3528106241
 30
0.0
 10
15.9478632808
 20
13.3753041444
 30
0.0
  0
SPLINE
  5
394
100
AcDbEntity
  8
LAYER_CUT_FEAT
100
AcDbSpline
 62
7
  6
CONTINUOUS
 70
0
 71
3
 72
21
 73
17
 74
0
 42
0.0000001
 43
0.0000001
 44
0.0000000001
 40
0.0
 40
0.0
 40
0.0
 40
0.0
 40
0.1665765631
 40
0.3306760415
 40
0.4098667501
 40
0.486158206
 40
0.5588768926
 40
0.6274187619
 40
0.6912692367
 40
0.7500286699
 40
0.8034463171
 40
0.8514689004
 40
0.8943113781
 40
0.9325550042
 40
0.967257148
 40
1.0
 40
1.0
 40
1.0
 40
1.0
 10
15.5428732664
 20
12.1766467116
 30
0.0
 10
15.5431162009
 20
12.181427924
 30
0.0
 10
15.5432013487
 20
12.1909433327
 30
0.0
 10
15.5423422326
 20
12.2027064397
 30
0.0
 10
15.5410620803
 20
12.2118044022
 30
0.0
 10
15.5398413615
 20
12.2182510037
 30
0.0
 10
15.5383630795
 20
12.2243292518
 30
0.0
 10
15.5366438219
 20
12.22997161
 30
0.0
 10
15.5347028922
 20
12.2351157483
 30
0.0
 10
15.5325616464
 20
12.2397055408
 30
0.0
 10
15.5302428143
 20
12.2436918024
 30
0.0
 10
15.5277690941
 20
12.2470327333
 30
0.0
 10
15.5251617202
 20
12.2496932405
 30
0.0
 10
15.5224373989
 20
12.2516414499
 30
0.0
 10
15.5196163349
 20
12.2528409054
 30
0.0
 10
15.5176690362
 20
12.2531151898
 30
0.0
 10
15.5167280126
 20
12.2531151866
 30
0.0
  0
SPLINE
  5
395
100
AcDbEntity
  8
LAYER_CUT_FEAT
100
AcDbSpline
 62
7
  6
CONTINUOUS
 70
0
 71
3
 72
14
 73
10
 74
0
 42
0.0000001
 43
0.0000001
 44
0.0000000001
 40
0.0
 40
0.0
 40
0.0
 40
0.0
 40
0.3172929028
 40
0.459018685
 40
0.5889218424
 40
0.7070777967
 40
0.8140474016
 40
0.9110256656
 40
1.0
 40
1.0
 40
1.0
 40
1.0
 10
15.9478632808
 20
13.3753041444
 30
0.0
 10
15.9474101657
 20
13.3766694393
 30
0.0
 10
15.9466532122
 20
13.3786162599
 30
0.0
 10
15.9454127351
 20
13.3809832864
 30
0.0
 10
15.9444596982
 20
13.3824745985
 30
0.0
 10
15.9434562659
 20
13.3837374411
 30
0.0
 10
15.9424086927
 20
13.3847616925
 30
0.0
 10
15.9413239104
 20
13.3855378626
 30
0.0
 10
15.940552884
 20
13.3858955506
 30
0.0
 10
15.9401702601
 20
13.3860232968
 30
0.0
  0
SPLINE
  5
396
100
AcDbEntity
  8
LAYER_CUT_FEAT
100
AcDbSpline
 62
7
  6
CONTINUOUS
 70
0
 71
3
 72
11
 73
7
 74
0
 42
0.0000001
 43
0.0000001
 44
0.0000000001
 40
0.0
 40
0.0
 40
0.0
 40
0.0
 40
0.2806825837
 40
0.5453093772
 40
0.7869290256
 40
1.0
 40
1.0
 40
1.0
 40
1.0
 10
15.8719959434
 20
13.5517716985
 30
0.0
 10
15.8718621047
 20
13.553618854
 30
0.0
 10
15.8714732626
 20
13.5571998132
 30
0.0
 10
15.8705047196
 20
13.5623073918
 30
0.0
 10
15.8691962855
 20
13.5668767791
 30
0.0
 10
15.8680473528
 20
13.5696597343
 30
0.0
 10
15.8674075717
 20
13.5709116083
 30
0.0
  0
SPLINE
  5
397
100
AcDbEntity
  8
LAYER_CUT_FEAT
100
AcDbSpline
 62
7
  6
CONTINUOUS
 70
0
 71
3
 72
23
 73
19
 74
0
 42
0.0000001
 43
0.0000001
 44
0.0000000001
 40
0.0
 40
0.0
 40
0.0
 40
0.0
 40
0.0829806162
 40
0.1628931906
 40
0.2397225821
 40
0.3134732617
 40
0.3841721026
 40
0.4518711298
 40
0.5166508338
 40
0.5786237419
 40
0.6379382243
 40
0.6947822583
 40
0.7493867494
 40
0.8020277891
 40
0.8530270458
 40
0.9027493989
 40
0.9515970722
 40
1.0
 40
1.0
 40
1.0
 40
1.0
 10
15.8674075717
 20
13.5709116083
 30
0.0
 10
15.861908671
 20
13.5816714301
 30
0.0
 10
15.8507588901
 20
13.6026144599
 30
0.0
 10
15.8332290671
 20
13.6328112817
 30
0.0
 10
15.8152344321
 20
13.6611552943
 30
0.0
 10
15.7968042993
 20
13.6875996257
 30
0.0
 10
15.7779682024
 20
13.7121010979
 30
0.0
 10
15.7587561348
 20
13.7346195121
 30
0.0
 10
15.739198384
 20
13.7551177952
 30
0.0
 10
15.7193254805
 20
13.773561873
 30
0.0
 10
15.6991681833
 20
13.7899205492
 30
0.0
 10
15.6787575497
 20
13.8041653303
 30
0.0
 10
15.6581251804
 20
13.8162702581
 30
0.0
 10
15.6373034899
 20
13.8262118304
 30
0.0
 10
15.61632661
 20
13.8339691338
 30
0.0
 10
15.595229531
 20
13.8395243208
 30
0.0
 10
15.574053388
 20
13.8428634387
 30
0.0
 10
15.5598809047
 20
13.8436073053
 30
0.0
 10
15.5528325335
 20
13.843607296
 30
0.0
  0
SPLINE
  5
398
100
AcDbEntity
  8
LAYER_CUT_FEAT
100
AcDbSpline
 62
7
  6
CONTINUOUS
 70
0
 71
3
 72
20
 73
16
 74
0
 42
0.0000001
 43
0.0000001
 44
0.0000000001
 40
0.0
 40
0.0
 40
0.0
 40
0.0
 40
0.0347495466
 40
0.0710147803
 40
0.1100910673
 40
0.1529401572
 40
0.2001887549
 40
0.252181886
 40
0.309044658
 40
0.3707337496
 40
0.437075878
 40
0.5077957449
 40
0.6608333152
 40
0.8263263582
 40
1.0
 40
1.0
 40
1.0
 40
1.0
 10
15.4705896327
 20
11.209645386
 30
0.0
 10
15.4713854221
 20
11.2096453887
 30
0.0
 10
15.4730173947
 20
11.2098384042
 30
0.0
 10
15.475408894
 20
11.210691427
 30
0.0
 10
15.4777438526
 20
11.2120896468
 30
0.0
 10
15.4800060973
 20
11.2140125102
 30
0.0
 10
15.4821838682
 20
11.2164411844
 30
0.0
 10
15.4842638931
 20
11.2193560878
 30
0.0
 10
15.4862321023
 20
11.2227348576
 30
0.0
 10
15.4880739552
 20
11.2265514954
 30
0.0
 10
15.4897754162
 20
11.2307762701
 30
0.0
 10
15.4918941798
 20
11.2370760662
 30
0.0
 10
15.4940633635
 20
11.2457375916
 30
0.0
 10
15.4958686946
 20
11.2568745107
 30
0.0
 10
15.4965330618
 20
11.264621451
 30
0.0
 10
15.4967348865
 20
11.2685935774
 30
0.0
  0
LINE
  5
399
100
AcDbEntity
  8
LAYER_CUT_FEAT
100
AcDbLine
 62
7
  6
CONTINUOUS
 10
15.2659167265
 20
13.6119364426
 11
15.2643367649
 21
13.6122009408
  0
SPLINE
  5
39A
100
AcDbEntity
  8
LAYER_CUT_FEAT
100
AcDbSpline
 62
7
  6
CONTINUOUS
 70
0
 71
3
 72
11
 73
7
 74
0
 42
0.0000001
 43
0.0000001
 44
0.0000000001
 40
0.0
 40
0.0
 40
0.0
 40
0.0
 40
0.2140730455
 40
0.4567779017
 40
0.7214628097
 40
1.0
 40
1.0
 40
1.0
 40
1.0
 10
15.4220723936
 20
11.221193039
 30
0.0
 10
15.4227410387
 20
11.2225838279
 30
0.0
 10
15.4239240201
 20
11.2256695381
 30
0.0
 10
15.425225261
 20
11.2307127566
 30
0.0
 10
15.4261275726
 20
11.2363131103
 30
0.0
 10
15.4264346246
 20
11.240221589
 30
0.0
 10
15.4265162874
 20
11.2422277975
 30
0.0
  0
SPLINE
  5
39B
100
AcDbEntity
  8
LAYER_CUT_FEAT
100
AcDbSpline
 62
7
  6
CONTINUOUS
 70
0
 71
3
 72
11
 73
7
 74
0
 42
0.0000001
 43
0.0000001
 44
0.0000000001
 40
0.0
 40
0.0
 40
0.0
 40
0.0
 40
0.2709218902
 40
0.5353014687
 40
0.7816515946
 40
1.0
 40
1.0
 40
1.0
 40
1.0
 10
15.4702127718
 20
12.3157194034
 30
0.0
 10
15.4702773681
 20
12.3173063404
 30
0.0
 10
15.4702648551
 20
12.3204492429
 30
0.0
 10
15.4698398851
 20
12.325018369
 30
0.0
 10
15.4690320978
 20
12.3292223056
 30
0.0
 10
15.4682085054
 20
12.3318299721
 30
0.0
 10
15.4677215869
 20
12.3330137898
 30
0.0
  0
SPLINE
  5
39C
100
AcDbEntity
  8
LAYER_CUT_FEAT
100
AcDbSpline
 62
7
  6
CONTINUOUS
 70
0
 71
3
 72
15
 73
11
 74
0
 42
0.0000001
 43
0.0000001
 44
0.0000000001
 40
0.0
 40
0.0
 40
0.0
 40
0.0
 40
0.1174138056
 40
0.2405803437
 40
0.3677909546
 40
0.4972305632
 40
0.6270277193
 40
0.7553019169
 40
0.8802099742
 40
1.0
 40
1.0
 40
1.0
 40
1.0
 10
15.4496842826
 20
12.7636669457
 30
0.0
 10
15.4503014596
 20
12.7662622583
 30
0.0
 10
15.4513862447
 20
12.7716239315
 30
0.0
 10
15.4525605597
 20
12.7799014838
 30
0.0
 10
15.4533077894
 20
12.7885027678
 30
0.0
 10
15.4536149225
 20
12.7972814224
 30
0.0
 10
15.4534766013
 20
12.8060884998
 30
0.0
 10
15.4528952523
 20
12.8147744996
 30
0.0
 10
15.4518810082
 20
12.8231916206
 30
0.0
 10
15.4509030632
 20
12.8286686002
 30
0.0
 10
15.4503385622
 20
12.8313310911
 30
0.0
  0
SPLINE
  5
39D
100
AcDbEntity
  8
LAYER_CUT_FEAT
100
AcDbSpline
 62
7
  6
CONTINUOUS
 70
0
 71
3
 72
13
 73
9
 74
0
 42
0.0000001
 43
0.0000001
 44
0.0000000001
 40
0.0
 40
0.0
 40
0.0
 40
0.0
 40
0.298588725
 40
0.5690438593
 40
0.6913903693
 40
0.8041935482
 40
0.9070739507
 40
1.0
 40
1.0
 40
1.0
 40
1.0
 10
15.9765858484
 20
11.8401945729
 30
0.0
 10
15.9763174277
 20
11.8420913801
 30
0.0
 10
15.9756559347
 20
11.8456873213
 30
0.0
 10
15.974422637
 20
11.8499592817
 30
0.0
 10
15.9732212341
 20
11.8529750826
 30
0.0
 10
15.9722694754
 20
11.8549265928
 30
0.0
 10
15.9712465031
 20
11.8566250777
 30
0.0
 10
15.9704845263
 20
11.8576284927
 30
0.0
 10
15.9700916733
 20
11.8580769592
 30
0.0
  0
SPLINE
  5
39E
100
AcDbEntity
  8
LAYER_CUT_FEAT
100
AcDbSpline
 62
7
  6
CONTINUOUS
 70
0
 71
3
 72
11
 73
7
 74
0
 42
0.0000001
 43
0.0000001
 44
0.0000000001
 40
0.0
 40
0.0
 40
0.0
 40
0.0
 40
0.2209758852
 40
0.4665588162
 40
0.729139156
 40
1.0
 40
1.0
 40
1.0
 40
1.0
 10
15.8490793832
 20
13.5239967202
 30
0.0
 10
15.8496945769
 20
13.5255820053
 30
0.0
 10
15.8507572474
 20
13.529021995
 30
0.0
 10
15.8518572674
 20
13.5345313695
 30
0.0
 10
15.8525162931
 20
13.5404966615
 30
0.0
 10
15.8526426874
 20
13.5446045529
 30
0.0
 10
15.8526262295
 20
13.5466888342
 30
0.0
  0
SPLINE
  5
39F
100
AcDbEntity
  8
LAYER_CUT_FEAT
100
AcDbSpline
 62
7
  6
CONTINUOUS
 70
0
 71
3
 72
10
 73
6
 74
0
 42
0.0000001
 43
0.0000001
 44
0.0000000001
 40
0.0
 40
0.0
 40
0.0
 40
0.0
 40
0.5168992625
 40
0.7661730977
 40
1.0
 40
1.0
 40
1.0
 40
1.0
 10
15.1121721259
 20
13.2999285384
 30
0.0
 10
15.1122805875
 20
13.3017933981
 30
0.0
 10
15.1122459161
 20
13.3045747977
 30
0.0
 10
15.1118071685
 20
13.3081640924
 30
0.0
 10
15.1114559259
 20
13.3098771796
 30
0.0
 10
15.1112456558
 20
13.3106956225
 30
0.0
  0
SPLINE
  5
3A0
100
AcDbEntity
  8
LAYER_CUT_FEAT
100
AcDbSpline
 62
7
  6
CONTINUOUS
 70
0
 71
3
 72
13
 73
9
 74
0
 42
0.0000001
 43
0.0000001
 44
0.0000000001
 40
0.0
 40
0.0
 40
0.0
 40
0.0
 40
0.1779454947
 40
0.2851269004
 40
0.4050639259
 40
0.5374832906
 40
0.6816130957
 40
1.0
 40
1.0
 40
1.0
 40
1.0
 10
15.441537142
 20
12.6044757848
 30
0.0
 10
15.4422167764
 20
12.6048477906
 30
0.0
 10
15.4431486605
 20
12.6057251053
 30
0.0
 10
15.4441656317
 20
12.6071637894
 30
0.0
 10
15.4449210288
 20
12.6085398289
 30
0.0
 10
15.4456092464
 20
12.6101247586
 30
0.0
 10
15.4464560292
 20
12.6125749475
 30
0.0
 10
15.4469200192
 20
12.6145410407
 30
0.0
 10
15.4471724526
 20
12.6159041379
 30
0.0
  0
SPLINE
  5
3A1
100
AcDbEntity
  8
LAYER_CUT_FEAT
100
AcDbSpline
 62
7
  6
CONTINUOUS
 70
0
 71
3
 72
14
 73
10
 74
0
 42
0.0000001
 43
0.0000001
 44
0.0000000001
 40
0.0
 40
0.0
 40
0.0
 40
0.0
 40
0.1681943773
 40
0.2473516175
 40
0.3231254855
 40
0.5299449552
 40
0.7075613884
 40
0.8609296781
 40
1.0
 40
1.0
 40
1.0
 40
1.0
 10
15.4677215869
 20
12.3330137898
 30
0.0
 10
15.4675424277
 20
12.3334493694
 30
0.0
 10
15.4672583664
 20
12.3340819451
 30
0.0
 10
15.4668393648
 20
12.3348842106
 30
0.0
 10
15.4663326085
 20
12.3357614152
 30
0.0
 10
15.4655906248
 20
12.3368218817
 30
0.0
 10
15.4645100545
 20
12.3378868267
 30
0.0
 10
15.4633577296
 20
12.3385593174
 30
0.0
 10
15.4625332818
 20
12.3387185971
 30
0.0
 10
15.4621438506
 20
12.3387185974
 30
0.0
  0
SPLINE
  5
3A2
100
AcDbEntity
  8
LAYER_CUT_FEAT
100
AcDbSpline
 62
7
  6
CONTINUOUS
 70
0
 71
3
 72
42
 73
38
 74
0
 42
0.0000001
 43
0.0000001
 44
0.0000000001
 40
0.0
 40
0.0
 40
0.0
 40
0.0
 40
0.0351374859
 40
0.0713101752
 40
0.1083930089
 40
0.1462542648
 40
0.1847568197
 40
0.2237592096
 40
0.2631166545
 40
0.3026820499
 40
0.3423069425
 40
0.3818424961
 40
0.4211404506
 40
0.4600540887
 40
0.4984392155
 40
0.5361551553
 40
0.573065787
 40
0.6090406316
 40
0.6439559993
 40
0.6776962394
 40
0.7101551371
 40
0.7412374867
 40
0.7708609295
 40
0.7989581711
 40
0.8254796957
 40
0.8503971541
 40
0.8737076713
 40
0.8954393153
 40
0.9156578791
 40
0.9344749197
 40
0.9520562925
 40
0.9604575346
 40
0.9686404464
 40
0.9766431928
 40
0.9845073838
 40
0.9922774827
 40
1.0
 40
1.0
 40
1.0
 40
1.0
 10
15.0909821265
 20
13.2528005561
 30
0.0
 10
15.0844682139
 20
13.2260648916
 30
0.0
 10
15.0721842485
 20
13.1715740618
 30
0.0
 10
15.0561652384
 20
13.0881987294
 30
0.0
 10
15.0423355282
 20
13.0022710802
 30
0.0
 10
15.0307568742
 20
12.914171672
 30
0.0
 10
15.0214806689
 20
12.8242892566
 30
0.0
 10
15.0145481739
 20
12.7330210626
 30
0.0
 10
15.0099902186
 20
12.6407704171
 30
0.0
 10
15.0078270851
 20
12.5479450969
 30
0.0
 10
15.0080683823
 20
12.4549554503
 30
0.0
 10
15.0107130365
 20
12.3622125654
 30
0.0
 10
15.0157492962
 20
12.2701264226
 30
0.0
 10
15.0231547567
 20
12.1791040522
 30
0.0
 10
15.032896478
 20
12.0895477036
 30
0.0
 10
15.0449311517
 20
12.0018530346
 30
0.0
 10
15.0592052866
 20
11.9164073173
 30
0.0
 10
15.0756554462
 20
11.8335876718
 30
0.0
 10
15.0942085867
 20
11.7537593437
 30
0.0
 10
15.1147824255
 20
11.6772740132
 30
0.0
 10
15.1372858441
 20
11.6044681345
 30
0.0
 10
15.1616194376
 20
11.5356613408
 30
0.0
 10
15.1876761609
 20
11.4711549072
 30
0.0
 10
15.2153420788
 20
11.411230276
 30
0.0
 10
15.2444973725
 20
11.3561476976
 30
0.0
 10
15.2750175483
 20
11.306145163
 30
0.0
 10
15.3067753661
 20
11.2614375882
 30
0.0
 10
15.3396417375
 20
11.2222173042
 30
0.0
 10
15.3734913066
 20
11.1886542533
 30
0.0
 10
15.4081917864
 20
11.1609043848
 30
0.0
 10
15.4381726771
 20
11.1424637452
 30
0.0
 10
15.4623453214
 20
11.1309436595
 30
0.0
 10
15.4803110123
 20
11.1239632109
 30
0.0
 10
15.4983634238
 20
11.1185233787
 30
0.0
 10
15.5164827264
 20
11.1146316975
 30
0.0
 10
15.5346453854
 20
11.1122942225
 30
0.0
 10
15.5467846809
 20
11.1117739795
 30
0.0
 10
15.5528325335
 20
11.1117739743
 30
0.0
  0
SPLINE
  5
3A3
100
AcDbEntity
  8
LAYER_CUT_FEAT
100
AcDbSpline
 62
7
  6
CONTINUOUS
 70
0
 71
3
 72
11
 73
7
 74
0
 42
0.0000001
 43
0.0000001
 44
0.0000000001
 40
0.0
 40
0.0
 40
0.0
 40
0.0
 40
0.2454210884
 40
0.5014207641
 40
0.7566959946
 40
1.0
 40
1.0
 40
1.0
 40
1.0
 10
15.4471724526
 20
12.6159041379
 30
0.0
 10
15.4474485514
 20
12.6173950245
 30
0.0
 10
15.4478482937
 20
12.6204728732
 30
0.0
 10
15.448027178
 20
12.6251501564
 30
0.0
 10
15.4477965864
 20
12.6298120923
 30
0.0
 10
15.4473618258
 20
12.6328676455
 30
0.0
 10
15.4470680629
 20
12.6343418179
 30
0.0
  0
LINE
  5
3A4
100
AcDbEntity
  8
LAYER_CUT_FEAT
100
AcDbLine
 62
7
  6
CONTINUOUS
 10
15.2555975323
 20
13.5951865875
 11
15.2541985916
 21
13.6006898025
  0
SPLINE
  5
3A5
100
AcDbEntity
  8
LAYER_CUT_FEAT
100
AcDbSpline
 62
7
  6
CONTINUOUS
 70
0
 71
3
 72
11
 73
7
 74
0
 42
0.0000001
 43
0.0000001
 44
0.0000000001
 40
0.0
 40
0.0
 40
0.0
 40
0.0
 40
0.2394149823
 40
0.4985926939
 40
0.758498015
 40
1.0
 40
1.0
 40
1.0
 40
1.0
 10
15.1090861055
 20
13.3223871833
 30
0.0
 10
15.1090183908
 20
13.322135907
 30
0.0
 10
15.1089204444
 20
13.3216007585
 30
0.0
 10
15.1088706079
 20
13.3207761434
 30
0.0
 10
15.1089135806
 20
13.3199488673
 30
0.0
 10
15.1090068436
 20
13.3194098427
 30
0.0
 10
15.1090721647
 20
13.3191555907
 30
0.0
  0
SPLINE
  5
3A6
100
AcDbEntity
  8
LAYER_CUT_FEAT
100
AcDbSpline
 62
7
  6
CONTINUOUS
 70
0
 71
3
 72
31
 73
27
 74
0
 42
0.0000001
 43
0.0000001
 44
0.0000000001
 40
0.0
 40
0.0
 40
0.0
 40
0.0
 40
0.0386545676
 40
0.0611180758
 40
0.0858832989
 40
0.1129994317
 40
0.1424333269
 40
0.1740886909
 40
0.207819765
 40
0.2807165374
 40
0.3593223041
 40
0.4414785716
 40
0.5248403616
 40
0.6070019191
 40
0.6856180199
 40
0.7585296164
 40
0.7922694972
 40
0.823934397
 40
0.8533783653
 40
0.8805048588
 40
0.9052804432
 40
0.9277538105
 40
0.9480816171
 40
0.9665602599
 40
0.9836546224
 40
1.0
 40
1.0
 40
1.0
 40
1.0
 10
15.4124836671
 20
12.384044947
 30
0.0
 10
15.4142256285
 20
12.3848793601
 30
0.0
 10
15.4166960765
 20
12.386798462
 30
0.0
 10
15.4195146368
 20
12.3900340194
 30
0.0
 10
15.4216353837
 20
12.3930948985
 30
0.0
 10
15.423633277
 20
12.3966375445
 30
0.0
 10
15.4254962849
 20
12.4006362795
 30
0.0
 10
15.4272083094
 20
12.4050573791
 30
0.0
 10
15.4293253135
 20
12.4116381916
 30
0.0
 10
15.4314605509
 20
12.4206600645
 30
0.0
 10
15.4331782955
 20
12.4322201249
 30
0.0
 10
15.4340528418
 20
12.4443983352
 30
0.0
 10
15.4340538125
 20
12.4567847367
 30
0.0
 10
15.4331811722
 20
12.4689638651
 30
0.0
 10
15.4314652424
 20
12.4805257254
 30
0.0
 10
15.4293314398
 20
12.4895496837
 30
0.0
 10
15.4272155415
 20
12.4961325651
 30
0.0
 10
15.425504159
 20
12.5005555038
 30
0.0
 10
15.4236419795
 20
12.5045560182
 30
0.0
 10
15.4216440072
 20
12.5081012823
 30
0.0
 10
15.419525859
 20
12.5111625974
 30
0.0
 10
15.417302688
 20
12.5137153455
 30
0.0
 10
15.4149887385
 20
12.51573812
 30
0.0
 10
15.4125963903
 20
12.5172104434
 30
0.0
 10
15.4101425107
 20
12.518109772
 30
0.0
 10
15.4084654829
 20
12.51831351
 30
0.0
 10
15.4076487354
 20
12.5183135244
 30
0.0
  0
SPLINE
  5
3A7
100
AcDbEntity
  8
LAYER_CUT_FEAT
100
AcDbSpline
 62
7
  6
CONTINUOUS
 70
0
 71
3
 72
21
 73
17
 74
0
 42
0.0000001
 43
0.0000001
 44
0.0000000001
 40
0.0
 40
0.0
 40
0.0
 40
0.0
 40
0.1726729862
 40
0.3316513838
 40
0.4057206837
 40
0.476066251
 40
0.5426623131
 40
0.6055301496
 40
0.6647466058
 40
0.7204542629
 40
0.7728730202
 40
0.8223122145
 40
0.8691812165
 40
0.9139948825
 40
0.957368803
 40
1.0
 40
1.0
 40
1.0
 40
1.0
 10
15.4585882805
 20
12.6629389075
 30
0.0
 10
15.4607301809
 20
12.6698700999
 30
0.0
 10
15.4652606858
 20
12.6830596623
 30
0.0
 10
15.4719979553
 20
12.6987406061
 30
0.0
 10
15.4778273379
 20
12.7100811674
 30
0.0
 10
15.4822713546
 20
12.7177569643
 30
0.0
 10
15.4868767954
 20
12.7247812987
 30
0.0
 10
15.4916300148
 20
12.7311324305
 30
0.0
 10
15.4965169792
 20
12.73679067
 30
0.0
 10
15.5015236938
 20
12.7417382769
 30
0.0
 10
15.5066361699
 20
12.7459592526
 30
0.0
 10
15.5118404002
 20
12.7494390222
 30
0.0
 10
15.517121749
 20
12.7521641082
 30
0.0
 10
15.5224648683
 20
12.7541220472
 30
0.0
 10
15.5278502619
 20
12.755302029
 30
0.0
 10
15.5314689017
 20
12.7555656187
 30
0.0
 10
15.5332599874
 20
12.755565627
 30
0.0
  0
SPLINE
  5
3A8
100
AcDbEntity
  8
LAYER_CUT_FEAT
100
AcDbSpline
 62
7
  6
CONTINUOUS
 70
0
 71
3
 72
21
 73
17
 74
0
 42
0.0000001
 43
0.0000001
 44
0.0000000001
 40
0.0
 40
0.0
 40
0.0
 40
0.0
 40
0.172673194
 40
0.331651411
 40
0.4057206695
 40
0.476066252
 40
0.5426623183
 40
0.605530168
 40
0.6647466392
 40
0.7204543114
 40
0.7728730802
 40
0.822312279
 40
0.8691812815
 40
0.9139949411
 40
0.9573688815
 40
1.0
 40
1.0
 40
1.0
 40
1.0
 10
15.4671080947
 20
12.6629389075
 30
0.0
 10
15.4692499977
 20
12.6698701081
 30
0.0
 10
15.4737805019
 20
12.683059672
 30
0.0
 10
15.4805177759
 20
12.698740613
 30
0.0
 10
15.4863471572
 20
12.710081165
 30
0.0
 10
15.4907911727
 20
12.7177569614
 30
0.0
 10
15.4953966143
 20
12.7247812968
 30
0.0
 10
15.5001498335
 20
12.7311324302
 30
0.0
 10
15.5050367979
 20
12.7367906721
 30
0.0
 10
15.5100435125
 20
12.7417382813
 30
0.0
 10
15.5151559888
 20
12.7459592586
 30
0.0
 10
15.5203602198
 20
12.7494390287
 30
0.0
 10
15.5256415698
 20
12.7521641119
 30
0.0
 10
15.5309846901
 20
12.7541220509
 30
0.0
 10
15.5363700825
 20
12.7553020221
 30
0.0
 10
15.5399887192
 20
12.755565621
 30
0.0
 10
15.5417798016
 20
12.7555656257
 30
0.0
  0
SPLINE
  5
3A9
100
AcDbEntity
  8
LAYER_CUT_FEAT
100
AcDbSpline
 62
7
  6
CONTINUOUS
 70
0
 71
3
 72
35
 73
31
 74
0
 42
0.0000001
 43
0.0000001
 44
0.0000000001
 40
0.0
 40
0.0
 40
0.0
 40
0.0
 40
0.035162747
 40
0.0718535367
 40
0.1098996713
 40
0.1491125337
 40
0.2302161724
 40
0.3134711564
 40
0.3970892051
 40
0.4792684514
 40
0.5192741735
 40
0.5582733341
 40
0.5960676884
 40
0.6324716414
 40
0.6673150763
 40
0.7004465214
 40
0.7317369412
 40
0.7610844631
 40
0.7884203604
 40
0.8137168585
 40
0.8369975799
 40
0.8583513158
 40
0.8779490459
 40
0.8960622366
 40
0.9130756632
 40
0.9294818074
 40
0.9458439028
 40
0.962730684
 40
0.9806486503
 40
1.0
 40
1.0
 40
1.0
 40
1.0
 10
15.4716038052
 20
12.6606596709
 30
0.0
 10
15.4700135861
 20
12.6555137203
 30
0.0
 10
15.4670117727
 20
12.6449203761
 30
0.0
 10
15.4631059452
 20
12.6285415295
 30
0.0
 10
15.4597189708
 20
12.611414637
 30
0.0
 10
15.455881825
 20
12.5874584167
 30
0.0
 10
15.4525560056
 20
12.5564289775
 30
0.0
 10
15.450911759
 20
12.518456839
 30
0.0
 10
15.4516148046
 20
12.4802910134
 30
0.0
 10
15.4541627042
 20
12.4488462287
 30
0.0
 10
15.4573883976
 20
12.4243643412
 30
0.0
 10
15.4603423058
 20
12.4067151569
 30
0.0
 10
15.4638328829
 20
12.3897268765
 30
0.0
 10
15.4678379898
 20
12.3735068813
 30
0.0
 10
15.472332018
 20
12.3581576974
 30
0.0
 10
15.4772864062
 20
12.343776007
 30
0.0
 10
15.4826698575
 20
12.3304520329
 30
0.0
 10
15.4884487073
 20
12.3182688525
 30
0.0
 10
15.4945874332
 20
12.3073018128
 30
0.0
 10
15.5010493994
 20
12.2976181191
 30
0.0
 10
15.5077978418
 20
12.2892767888
 30
0.0
 10
15.5147969734
 20
12.2823293636
 30
0.0
 10
15.5220126922
 20
12.276822105
 30
0.0
 10
15.5294109789
 20
12.272799833
 30
0.0
 10
15.5369511387
 20
12.2703088098
 30
0.0
 10
15.5445750762
 20
12.269391081
 30
0.0
 10
15.5522052277
 20
12.2700665479
 30
0.0
 10
15.5597626895
 20
12.27232053
 30
0.0
 10
15.5671845463
 20
12.2761118128
 30
0.0
 10
15.5718157952
 20
12.2794892805
 30
0.0
 10
15.5740945568
 20
12.2813849065
 30
0.0
  0
SPLINE
  5
3AA
100
AcDbEntity
  8
LAYER_CUT_FEAT
100
AcDbSpline
 62
7
  6
CONTINUOUS
 70
0
 71
3
 72
9
 73
5
 74
0
 42
0.0000001
 43
0.0000001
 44
0.0000000001
 40
0.0
 40
0.0
 40
0.0
 40
0.0
 40
0.2415742986
 40
1.0
 40
1.0
 40
1.0
 40
1.0
 10
15.5740945568
 20
12.2813849065
 30
0.0
 10
15.5747274475
 20
12.2819113872
 30
0.0
 10
15.5773083825
 20
12.2841374015
 30
0.0
 10
15.5797350632
 20
12.2865400503
 30
0.0
 10
15.5814930882
 20
12.2884346341
 30
0.0
  0
SPLINE
  5
3AB
100
AcDbEntity
  8
LAYER_CUT_FEAT
100
AcDbSpline
 62
7
  6
CONTINUOUS
 70
0
 71
3
 72
25
 73
21
 74
0
 42
0.0000001
 43
0.0000001
 44
0.0000000001
 40
0.0
 40
0.0
 40
0.0
 40
0.0
 40
0.0939651843
 40
0.1827160153
 40
0.2659426146
 40
0.3434277693
 40
0.4150739591
 40
0.4809327366
 40
0.541245295
 40
0.5694780931
 40
0.5965293272
 40
0.6474921304
 40
0.695284633
 40
0.7413434572
 40
0.7873151248
 40
0.8348574097
 40
0.885435619
 40
0.9122556916
 40
0.9402369101
 40
1.0
 40
1.0
 40
1.0
 40
1.0
 10
15.4716038052
 20
12.6606596709
 30
0.0
 10
15.4731473205
 20
12.6656544885
 30
0.0
 10
15.4763716102
 20
12.6753003508
 30
0.0
 10
15.4817910494
 20
12.6890759675
 30
0.0
 10
15.4876274794
 20
12.7016784656
 30
0.0
 10
15.4938433802
 20
12.7130262588
 30
0.0
 10
15.5004004336
 20
12.723047468
 30
0.0
 10
15.5072585476
 20
12.7316774337
 30
0.0
 10
15.5133228038
 20
12.737794653
 30
0.0
 10
15.518290282
 20
12.7418876532
 30
0.0
 10
15.523113396
 20
12.7453118763
 30
0.0
 10
15.5292779897
 20
12.7487006211
 30
0.0
 10
15.5369718691
 20
12.7512546094
 30
0.0
 10
15.5447546071
 20
12.7521701911
 30
0.0
 10
15.5525419404
 20
12.7514255261
 30
0.0
 10
15.5602482201
 20
12.7490387456
 30
0.0
 10
15.5664296446
 20
12.7457811324
 30
0.0
 10
15.5712659523
 20
12.7424596638
 30
0.0
 10
15.576246387
 20
12.7384743895
 30
0.0
 10
15.5797378542
 20
12.7350389589
 30
0.0
 10
15.5819803642
 20
12.7325840169
 30
0.0
  0
SPLINE
  5
3AC
100
AcDbEntity
  8
LAYER_CUT_FEAT
100
AcDbSpline
 62
7
  6
CONTINUOUS
 70
0
 71
3
 72
11
 73
7
 74
0
 42
0.0000001
 43
0.0000001
 44
0.0000000001
 40
0.0
 40
0.0
 40
0.0
 40
0.0
 40
0.2656753495
 40
0.5175016582
 40
0.760398766
 40
1.0
 40
1.0
 40
1.0
 40
1.0
 10
15.5613719547
 20
12.3386556544
 30
0.0
 10
15.559927394
 20
12.3377582443
 30
0.0
 10
15.5569976871
 20
12.3361857841
 30
0.0
 10
15.5523980014
 20
12.3345356779
 30
0.0
 10
15.5477539618
 20
12.333682371
 30
0.0
 10
15.5446475756
 20
12.3336518815
 30
0.0
 10
15.5431182665
 20
12.3337680427
 30
0.0
  0
SPLINE
  5
3AD
100
AcDbEntity
  8
LAYER_CUT_FEAT
100
AcDbSpline
 62
7
  6
CONTINUOUS
 70
0
 71
3
 72
15
 73
11
 74
0
 42
0.0000001
 43
0.0000001
 44
0.0000000001
 40
0.0
 40
0.0
 40
0.0
 40
0.0
 40
0.1753204198
 40
0.3373057493
 40
0.4843665342
 40
0.6155084366
 40
0.7305994149
 40
0.8307470619
 40
0.918839367
 40
1.0
 40
1.0
 40
1.0
 40
1.0
 10
15.5408273846
 20
12.6875079257
 30
0.0
 10
15.5406104875
 20
12.6884312103
 30
0.0
 10
15.5401379219
 20
12.690195377
 30
0.0
 10
15.5392747642
 20
12.6926722065
 30
0.0
 10
15.5382962864
 20
12.6948471815
 30
0.0
 10
15.5372172675
 20
12.6966867994
 30
0.0
 10
15.5360521482
 20
12.6981639075
 30
0.0
 10
15.5348115567
 20
12.6992560729
 30
0.0
 10
15.5335041544
 20
12.6999386886
 30
0.0
 10
15.5325830089
 20
12.700097919
 30
0.0
 10
15.5321439597
 20
12.7000979162
 30
0.0
  0
SPLINE
  5
3AE
100
AcDbEntity
  8
LAYER_CUT_FEAT
100
AcDbSpline
 62
7
  6
CONTINUOUS
 70
0
 71
3
 72
19
 73
15
 74
0
 42
0.0000001
 43
0.0000001
 44
0.0000000001
 40
0.0
 40
0.0
 40
0.0
 40
0.0
 40
0.0333668677
 40
0.0685252396
 40
0.1069531643
 40
0.1496786144
 40
0.1973060717
 40
0.2501041954
 40
0.3080904223
 40
0.3710948962
 40
0.5107412208
 40
0.6654314511
 40
0.8303443801
 40
1.0
 40
1.0
 40
1.0
 40
1.0
 10
15.5690138326
 20
12.3297333934
 30
0.0
 10
15.5693554287
 20
12.3297333994
 30
0.0
 10
15.5700599117
 20
12.3298267872
 30
0.0
 10
15.571085101
 20
12.3302369493
 30
0.0
 10
15.5720792977
 20
12.3309055053
 30
0.0
 10
15.5730352081
 20
12.3318208573
 30
0.0
 10
15.5739471826
 20
12.3329727529
 30
0.0
 10
15.5748082753
 20
12.334350186
 30
0.0
 10
15.5756111887
 20
12.3359402059
 30
0.0
 10
15.5766287929
 20
12.3384090961
 30
0.0
 10
15.5776794783
 20
12.3419229402
 30
0.0
 10
15.5785680768
 20
12.3465460187
 30
0.0
 10
15.5790872149
 20
12.3515334155
 30
0.0
 10
15.5791725516
 20
12.3549615806
 30
0.0
 10
15.5791485604
 20
12.3566982786
 30
0.0
  0
SPLINE
  5
3AF
100
AcDbEntity
  8
LAYER_CUT_FEAT
100
AcDbSpline
 62
7
  6
CONTINUOUS
 70
0
 71
3
 72
11
 73
7
 74
0
 42
0.0000001
 43
0.0000001
 44
0.0000000001
 40
0.0
 40
0.0
 40
0.0
 40
0.0
 40
0.241012876
 40
0.48712364
 40
0.7397060192
 40
1.0
 40
1.0
 40
1.0
 40
1.0
 10
15.5118743669
 20
11.1900386388
 30
0.0
 10
15.5057644293
 20
11.1912881146
 30
0.0
 10
15.4935211534
 20
11.1943619364
 30
0.0
 10
15.4753981864
 20
11.2005840759
 30
0.0
 10
15.4573800255
 20
11.2084469809
 30
0.0
 10
15.4456443673
 20
11.2146735236
 30
0.0
 10
15.4398093641
 20
11.2180375997
 30
0.0
  0
LINE
  5
3B0
100
AcDbEntity
  8
LAYER_CUT_FEAT
100
AcDbLine
 62
7
  6
CONTINUOUS
 10
15.4398093641
 20
11.2180375997
 11
15.4380955203
 21
11.2208414443
  0
SPLINE
  5
3B1
100
AcDbEntity
  8
LAYER_CUT_FEAT
100
AcDbSpline
 62
7
  6
CONTINUOUS
 70
0
 71
3
 72
34
 73
30
 74
0
 42
0.0000001
 43
0.0000001
 44
0.0000000001
 40
0.0
 40
0.0
 40
0.0
 40
0.0
 40
0.0156973848
 40
0.0317775038
 40
0.0487874025
 40
0.0671679617
 40
0.0872369089
 40
0.1091983894
 40
0.1331627403
 40
0.1591662654
 40
0.187187445
 40
0.2171591789
 40
0.2489778453
 40
0.282510171
 40
0.3175985747
 40
0.3540654207
 40
0.4303320859
 40
0.5096270151
 40
0.5901243082
 40
0.6699491738
 40
0.7472540536
 40
0.7844172454
 40
0.8203102779
 40
0.8547457592
 40
0.8875542482
 40
0.9185880924
 40
0.947726198
 40
0.9748795429
 40
1.0
 40
1.0
 40
1.0
 40
1.0
 10
15.5431182667
 20
12.6877798732
 30
0.0
 10
15.5450207223
 20
12.6879243675
 30
0.0
 10
15.5489162486
 20
12.6878030507
 30
0.0
 10
15.5547085932
 20
12.6863593063
 30
0.0
 10
15.5604032118
 20
12.6836857718
 30
0.0
 10
15.5659592532
 20
12.6798219425
 30
0.0
 10
15.5713494971
 20
12.6748060091
 30
0.0
 10
15.5765465257
 20
12.6686757175
 30
0.0
 10
15.581521752
 20
12.661472334
 30
0.0
 10
15.5862452394
 20
12.6532431355
 30
0.0
 10
15.590686895
 20
12.6440423566
 30
0.0
 10
15.5948173835
 20
12.6339312635
 30
0.0
 10
15.5986088856
 20
12.6229778116
 30
0.0
 10
15.6020354999
 20
12.6112561658
 30
0.0
 10
15.6050738873
 20
12.5988459179
 30
0.0
 10
15.6086317241
 20
12.5812305534
 30
0.0
 10
15.6119316873
 20
12.5581023546
 30
0.0
 10
15.6140453939
 20
12.5294687023
 30
0.0
 10
15.6143094151
 20
12.5003252491
 30
0.0
 10
15.6127163239
 20
12.4714673454
 30
0.0
 10
15.6098427367
 20
12.4480059825
 30
0.0
 10
15.606616177
 20
12.4300135718
 30
0.0
 10
15.6038075324
 20
12.4172502062
 30
0.0
 10
15.6005984403
 20
12.4051280053
 30
0.0
 10
15.5970108007
 20
12.39372942
 30
0.0
 10
15.5930692829
 20
12.3831319399
 30
0.0
 10
15.5888004484
 20
12.3734068162
 30
0.0
 10
15.5842335265
 20
12.3646201227
 30
0.0
 10
15.5808781132
 20
12.3592144352
 30
0.0
 10
15.5791485604
 20
12.3566982786
 30
0.0
  0
SPLINE
  5
3B2
100
AcDbEntity
  8
LAYER_CUT_FEAT
100
AcDbSpline
 62
7
  6
CONTINUOUS
 70
0
 71
3
 72
9
 73
5
 74
0
 42
0.0000001
 43
0.0000001
 44
0.0000000001
 40
0.0
 40
0.0
 40
0.0
 40
0.0
 40
0.2507092289
 40
1.0
 40
1.0
 40
1.0
 40
1.0
 10
16.031805147
 20
12.050917414
 30
0.0
 10
16.0322525625
 20
12.0510536127
 30
0.0
 10
16.0340262399
 20
12.0516316984
 30
0.0
 10
16.0357536099
 20
12.0523551113
 30
0.0
 10
16.0370021758
 20
12.0529834722
 30
0.0
  0
SPLINE
  5
3B3
100
AcDbEntity
  8
LAYER_CUT_FEAT
100
AcDbSpline
 62
7
  6
CONTINUOUS
 70
0
 71
3
 72
9
 73
5
 74
0
 42
0.0000001
 43
0.0000001
 44
0.0000000001
 40
0.0
 40
0.0
 40
0.0
 40
0.0
 40
0.508886521
 40
1.0
 40
1.0
 40
1.0
 40
1.0
 10
16.0370021758
 20
12.0529834722
 30
0.0
 10
16.0316701167
 20
12.0157963189
 30
0.0
 10
16.0197741168
 20
11.9429157179
 30
0.0
 10
16.0048360601
 20
11.8705925084
 30
0.0
 10
15.9966828105
 20
11.8352657498
 30
0.0
  0
LINE
  5
3B4
100
AcDbEntity
  8
LAYER_CUT_FEAT
100
AcDbLine
 62
7
  6
CONTINUOUS
 10
15.9966828105
 20
11.8352657498
 11
15.9927811708
 21
11.8401945729
  0
SPLINE
  5
3B5
100
AcDbEntity
  8
LAYER_CUT_FEAT
100
AcDbSpline
 62
7
  6
CONTINUOUS
 70
0
 71
3
 72
9
 73
5
 74
0
 42
0.0000001
 43
0.0000001
 44
0.0000000001
 40
0.0
 40
0.0
 40
0.0
 40
0.0
 40
0.4913759356
 40
1.0
 40
1.0
 40
1.0
 40
1.0
 10
15.9927811708
 20
11.8401945729
 30
0.0
 10
16.0006306725
 20
11.8744147413
 30
0.0
 10
16.015046907
 20
11.9444204169
 30
0.0
 10
16.0266051722
 20
12.0149500849
 30
0.0
 10
16.031805147
 20
12.050917414
 30
0.0
  0
LINE
  5
3B6
100
AcDbEntity
  8
LAYER_CUT_FEAT
100
AcDbLine
 62
7
  6
CONTINUOUS
 10
15.868821552
 20
13.5466888342
 11
15.8719959434
 21
13.5517716985
  0
SPLINE
  5
3B7
100
AcDbEntity
  8
LAYER_CUT_FEAT
100
AcDbSpline
 62
7
  6
CONTINUOUS
 70
0
 71
3
 72
11
 73
7
 74
0
 42
0.0000001
 43
0.0000001
 44
0.0000000001
 40
0.0
 40
0.0
 40
0.0
 40
0.0
 40
0.2367953046
 40
0.4825592154
 40
0.7370547225
 40
1.0
 40
1.0
 40
1.0
 40
1.0
 10
15.8719959434
 20
13.5517716985
 30
0.0
 10
15.8782717363
 20
13.539083525
 30
0.0
 10
15.890571941
 20
13.5129822883
 30
0.0
 10
15.9079743262
 20
13.4724958407
 30
0.0
 10
15.9246418716
 20
13.4300180641
 30
0.0
 10
15.935074833
 20
13.4008931196
 30
0.0
 10
15.9401702601
 20
13.3860232968
 30
0.0
  0
LINE
  5
3B8
100
AcDbEntity
  8
LAYER_CUT_FEAT
100
AcDbLine
 62
7
  6
CONTINUOUS
 10
15.9401702601
 20
13.3860232968
 11
15.9359768512
 21
13.3862841169
  0
SPLINE
  5
3B9
100
AcDbEntity
  8
LAYER_CUT_FEAT
100
AcDbSpline
 62
7
  6
CONTINUOUS
 70
0
 71
3
 72
11
 73
7
 74
0
 42
0.0000001
 43
0.0000001
 44
0.0000000001
 40
0.0
 40
0.0
 40
0.0
 40
0.0
 40
0.2625677766
 40
0.5169267799
 40
0.762812154
 40
1.0
 40
1.0
 40
1.0
 40
1.0
 10
15.9348055497
 20
13.3862656325
 30
0.0
 10
15.9298571602
 20
13.4006282859
 30
0.0
 10
15.9197329402
 20
13.4287749291
 30
0.0
 10
15.9035899189
 20
13.46985705
 30
0.0
 10
15.8867566503
 20
13.5090685861
 30
0.0
 10
15.8748785542
 20
13.5343750973
 30
0.0
 10
15.868821552
 20
13.5466888342
 30
0.0
  0
SPLINE
  5
3BA
100
AcDbEntity
  8
LAYER_CUT_FEAT
100
AcDbSpline
 62
7
  6
CONTINUOUS
 70
0
 71
3
 72
9
 73
5
 74
0
 42
0.0000001
 43
0.0000001
 44
0.0000000001
 40
0.0
 40
0.0
 40
0.0
 40
0.0
 40
0.4888430585
 40
1.0
 40
1.0
 40
1.0
 40
1.0
 10
15.0570856756
 20
12.2149744265
 30
0.0
 10
15.0579005894
 20
12.2149744122
 30
0.0
 10
15.0595731046
 20
12.2151770035
 30
0.0
 10
15.0611521119
 20
12.2157543889
 30
0.0
 10
15.0619206073
 20
12.2161225042
 30
0.0
  0
SPLINE
  5
3BB
100
AcDbEntity
  8
LAYER_CUT_FEAT
100
AcDbSpline
 62
7
  6
CONTINUOUS
 70
0
 71
3
 72
10
 73
6
 74
0
 42
0.0000001
 43
0.0000001
 44
0.0000000001
 40
0.0
 40
0.0
 40
0.0
 40
0.0
 40
0.2370151634
 40
0.4833738951
 40
1.0
 40
1.0
 40
1.0
 40
1.0
 10
15.3171896943
 20
12.6601135784
 30
0.0
 10
15.3157282677
 20
12.6552393906
 30
0.0
 10
15.3129599938
 20
12.6452340391
 30
0.0
 10
15.3080361296
 20
12.6243333807
 30
0.0
 10
15.3051496289
 20
12.6081916996
 30
0.0
 10
15.3035366444
 20
12.5972179792
 30
0.0
  0
SPLINE
  5
3BC
100
AcDbEntity
  8
LAYER_CUT_FEAT
100
AcDbSpline
 62
7
  6
CONTINUOUS
 70
0
 71
3
 72
9
 73
5
 74
0
 42
0.0000001
 43
0.0000001
 44
0.0000000001
 40
0.0
 40
0.0
 40
0.0
 40
0.0
 40
0.485834824
 40
1.0
 40
1.0
 40
1.0
 40
1.0
 10
15.4585882805
 20
12.6629389075
 30
0.0
 10
15.4562731032
 20
12.655446991
 30
0.0
 10
15.4520269317
 20
12.639863113
 30
0.0
 10
15.4486836102
 20
12.6240641325
 30
0.0
 10
15.4471724526
 20
12.6159041379
 30
0.0
  0
SPLINE
  5
3BD
100
AcDbEntity
  8
LAYER_CUT_FEAT
100
AcDbSpline
 62
7
  6
CONTINUOUS
 70
0
 71
3
 72
17
 73
13
 74
0
 42
0.0000001
 43
0.0000001
 44
0.0000000001
 40
0.0
 40
0.0
 40
0.0
 40
0.0
 40
0.1679775292
 40
0.3226688857
 40
0.463810114
 40
0.5916132511
 40
0.7069232263
 40
0.8114116595
 40
0.8604622294
 40
0.9079050695
 40
0.9542366811
 40
1.0
 40
1.0
 40
1.0
 40
1.0
 10
15.4677215869
 20
12.3330137898
 30
0.0
 10
15.4698267305
 20
12.327895672
 30
0.0
 10
15.4741860649
 20
12.3181885493
 30
0.0
 10
15.4815113405
 20
12.3047584912
 30
0.0
 10
15.48930267
 20
12.2931504709
 30
0.0
 10
15.4975020252
 20
12.28346268
 30
0.0
 10
15.5060504789
 20
12.2757806318
 30
0.0
 10
15.5135871522
 20
12.2710184552
 30
0.0
 10
15.5196759198
 20
12.2683874365
 30
0.0
 10
15.5241835784
 20
12.2670017793
 30
0.0
 10
15.5287149686
 20
12.2661681987
 30
0.0
 10
15.5317522808
 20
12.2659823123
 30
0.0
 10
15.5332599874
 20
12.2659823071
 30
0.0
  0
SPLINE
  5
3BE
100
AcDbEntity
  8
LAYER_CUT_FEAT
100
AcDbSpline
 62
7
  6
CONTINUOUS
 70
0
 71
3
 72
18
 73
14
 74
0
 42
0.0000001
 43
0.0000001
 44
0.0000000001
 40
0.0
 40
0.0
 40
0.0
 40
0.0
 40
0.1264149989
 40
0.2578361956
 40
0.3915589934
 40
0.5247949628
 40
0.6547732241
 40
0.7177141665
 40
0.7788626473
 40
0.8379242181
 40
0.8946263514
 40
0.9487227494
 40
1.0
 40
1.0
 40
1.0
 40
1.0
 10
15.4471724526
 20
12.6159041379
 30
0.0
 10
15.4449707623
 20
12.6040153843
 30
0.0
 10
15.4413751998
 20
12.5795949813
 30
0.0
 10
15.4383341791
 20
12.5422451995
 30
0.0
 10
15.4375812082
 20
12.5041255548
 30
0.0
 10
15.4391358381
 20
12.4661698013
 30
0.0
 10
15.4423544779
 20
12.4351170576
 30
0.0
 10
15.4460866228
 20
12.4111009557
 30
0.0
 10
15.449390446
 20
12.3938938274
 30
0.0
 10
15.4532077552
 20
12.3774049866
 30
0.0
 10
15.4575152283
 20
12.3617350428
 30
0.0
 10
15.4622860292
 20
12.3469803025
 30
0.0
 10
15.4658559977
 20
12.3375494924
 30
0.0
 10
15.4677215869
 20
12.3330137898
 30
0.0
  0
SPLINE
  5
3BF
100
AcDbEntity
  8
LAYER_CUT_FEAT
100
AcDbSpline
 62
7
  6
CONTINUOUS
 70
0
 71
3
 72
30
 73
26
 74
0
 42
0.0000001
 43
0.0000001
 44
0.0000000001
 40
0.0
 40
0.0
 40
0.0
 40
0.0
 40
0.0673805675
 40
0.139382856
 40
0.2149068118
 40
0.2927416346
 40
0.3716076942
 40
0.4501955447
 40
0.5272037397
 40
0.6013769169
 40
0.6715458326
 40
0.7048037653
 40
0.7366849067
 40
0.7670888283
 40
0.7959309287
 40
0.8231453629
 40
0.8486887135
 40
0.8725446634
 40
0.8947300076
 40
0.9153023039
 40
0.9343692239
 40
0.9520989441
 40
0.9687293459
 40
0.9845713671
 40
1.0
 40
1.0
 40
1.0
 40
1.0
 10
15.4671080947
 20
12.6629389075
 30
0.0
 10
15.4642287911
 20
12.6536214777
 30
0.0
 10
15.459076901
 20
12.6340937993
 30
0.0
 10
15.4532276951
 20
12.6035243883
 30
0.0
 10
15.449080044
 20
12.5711523902
 30
0.0
 10
15.4467171576
 20
12.537607744
 30
0.0
 10
15.4461860138
 20
12.503541108
 30
0.0
 10
15.4474972737
 20
12.4696152853
 30
0.0
 10
15.4506246765
 20
12.4364892361
 30
0.0
 10
15.4555061219
 20
12.404807479
 30
0.0
 10
15.4610490372
 20
12.3796843941
 30
0.0
 10
15.4663335972
 20
12.3608229237
 30
0.0
 10
15.4705944313
 20
12.3476632286
 30
0.0
 10
15.4752021515
 20
12.3353003157
 30
0.0
 10
15.4801345848
 20
12.3237938962
 30
0.0
 10
15.4853679254
 20
12.3131993905
 30
0.0
 10
15.490877323
 20
12.3035675037
 30
0.0
 10
15.4966371499
 20
12.2949440543
 30
0.0
 10
15.5026214748
 20
12.287369915
 30
0.0
 10
15.5088045245
 20
12.2808812629
 30
0.0
 10
15.5151611893
 20
12.2755103326
 30
0.0
 10
15.5216663437
 20
12.2712868059
 30
0.0
 10
15.5282944597
 20
12.2682393944
 30
0.0
 10
15.5350108764
 20
12.2663957972
 30
0.0
 10
15.5395467734
 20
12.2659823031
 30
0.0
 10
15.5417798016
 20
12.265982309
 30
0.0
  0
SPLINE
  5
3C0
100
AcDbEntity
  8
LAYER_CUT_FEAT
100
AcDbSpline
 62
7
  6
CONTINUOUS
 70
0
 71
3
 72
15
 73
11
 74
0
 42
0.0000001
 43
0.0000001
 44
0.0000000001
 40
0.0
 40
0.0
 40
0.0
 40
0.0
 40
0.1090763379
 40
0.228280796
 40
0.3551183198
 40
0.4867470874
 40
0.6201235565
 40
0.7521330706
 40
0.8797165037
 40
1.0
 40
1.0
 40
1.0
 40
1.0
 10
15.840452635
 20
13.3674871634
 30
0.0
 10
15.8415125042
 20
13.3703618526
 30
0.0
 10
15.8433939634
 20
13.3765044022
 30
0.0
 10
15.8454839771
 20
13.3862675607
 30
0.0
 10
15.846926296
 20
13.3967866981
 30
0.0
 10
15.8476799391
 20
13.4077752326
 30
0.0
 10
15.8477237307
 20
13.4189345249
 30
0.0
 10
15.847056365
 20
13.4299605506
 30
0.0
 10
15.8456968438
 20
13.4405519798
 30
0.0
 10
15.8443037112
 20
13.4473824929
 30
0.0
 10
15.8434829597
 20
13.4506599327
 30
0.0
  0
SPLINE
  5
3C1
100
AcDbEntity
  8
LAYER_CUT_FEAT
100
AcDbSpline
 62
7
  6
CONTINUOUS
 70
0
 71
3
 72
11
 73
7
 74
0
 42
0.0000001
 43
0.0000001
 44
0.0000000001
 40
0.0
 40
0.0
 40
0.0
 40
0.0
 40
0.2583505975
 40
0.5152217834
 40
0.7643990104
 40
1.0
 40
1.0
 40
1.0
 40
1.0
 10
15.4978947879
 20
12.1766467116
 30
0.0
 10
15.498088615
 20
12.1804614385
 30
0.0
 10
15.4982205422
 20
12.1880842123
 30
0.0
 10
15.4976760683
 20
12.1993805992
 30
0.0
 10
15.4964065169
 20
12.210280415
 30
0.0
 10
15.4950536198
 20
12.2173280759
 30
0.0
 10
15.4942471016
 20
12.2207167205
 30
0.0
  0
SPLINE
  5
3C2
100
AcDbEntity
  8
LAYER_CUT_FEAT
100
AcDbSpline
 62
7
  6
CONTINUOUS
 70
0
 71
3
 72
25
 73
21
 74
0
 42
0.0000001
 43
0.0000001
 44
0.0000000001
 40
0.0
 40
0.0
 40
0.0
 40
0.0
 40
0.0347482338
 40
0.0542736701
 40
0.0754011317
 40
0.0982016373
 40
0.1227004488
 40
0.1766920785
 40
0.2369747774
 40
0.3027803551
 40
0.3731053263
 40
0.4467794864
 40
0.5225200744
 40
0.5989783975
 40
0.6747833996
 40
0.7485843999
 40
0.8190944283
 40
0.8851369654
 40
0.9456992603
 40
1.0
 40
1.0
 40
1.0
 40
1.0
 10
15.3675051886
 20
12.384044947
 30
0.0
 10
15.3688506513
 20
12.3846894342
 30
0.0
 10
15.3707870932
 20
12.3860527166
 30
0.0
 10
15.3730834205
 20
12.3883362166
 30
0.0
 10
15.3748178593
 20
12.3904434897
 30
0.0
 10
15.3764856103
 20
12.3928653563
 30
0.0
 10
15.3786829697
 20
12.3966219989
 30
0.0
 10
15.3811772298
 20
12.4020487213
 30
0.0
 10
15.3836984257
 20
12.4093674122
 30
0.0
 10
15.3857859651
 20
12.4175461279
 30
0.0
 10
15.3873955529
 20
12.426415364
 30
0.0
 10
15.3884927306
 20
12.4357913178
 30
0.0
 10
15.3890538584
 20
12.4454778612
 30
0.0
 10
15.3890668122
 20
12.4552719878
 30
0.0
 10
15.3885313344
 20
12.4649681918
 30
0.0
 10
15.387458962
 20
12.4743632541
 30
0.0
 10
15.385872843
 20
12.48326058
 30
0.0
 10
15.3838067756
 20
12.4914758141
 30
0.0
 10
15.381305309
 20
12.4988382479
 30
0.0
 10
15.3792632977
 20
12.5033408306
 30
0.0
 10
15.3781613905
 20
12.5053952898
 30
0.0
  0
ENDSEC
  0
SECTION
  2
OBJECTS
  0
DICTIONARY
  5
C
100
AcDbDictionary
280
0
281
1
  3
ACAD_GROUP
350
D
  3
ACAD_MLINESTYLE
350
17
  3
ACAD_LAYOUT
350
1A
  3
ACAD_PLOTSETTINGS
350
19
  3
ACAD_PLOTSTYLENAME
350
E
  0
DICTIONARY
  5
D
102
{ACAD_REACTORS
330
C
102
}
100
AcDbDictionary
280
0
281
1
  0
ACDBDICTIONARYWDFLT
  5
E
102
{ACAD_REACTORS
330
C
102
}
100
AcDbDictionary
281
1
  3
Normal
350
F
100
AcDbDictionaryWithDefault
340
F
  0
DICTIONARY
  5
17
102
{ACAD_REACTORS
330
C
102
}
100
AcDbDictionary
280
0
281
1
  3
Standard
350
18
  0
DICTIONARY
  5
19
102
{ACAD_REACTORS
330
C
102
}
100
AcDbDictionary
281
1
  0
DICTIONARY
  5
1A
102
{ACAD_REACTORS
330
C
102
}
100
AcDbDictionary
281
1
  3
Model
350
3C3
  3
Layout1
350
3C4
  0
ACDBPLACEHOLDER
  5
F
102
{ACAD_REACTORS
330
E
102
}
  0
MLINESTYLE
  5
18
102
{ACAD_REACTORS
330
17
102
}
100
AcDbMlineStyle
  2
STANDARD
 70
0
  3

 62
256
 51
90.0
 52
90.0
 71
2
 49
0.5
 62
256
  6
BYLAYER
 49
-0.5
 62
256
  6
BYLAYER
  0
LAYOUT
  5
3C3
102
{ACAD_REACTORS
330
1A
102
}
100
AcDbPlotSettings
  1

  2
none_device
  4
ANSI_C_(22.00_x_17.00_Inches)
  6

 40
0.0
 41
0.0
 42
0.0
 43
0.0
 44
558.8
 45
431.8
 46
0.0
 47
0.0
 48
0.0
 49
0.0
140
0.0
141
0.0
142
1.0
143
1.0
 70
1024
 72
0
 73
0
 74
0
  7

 75
0
147
1.0
148
0.0
149
0.0
100
AcDbLayout
  1
Model
 70
0
 71
0
 10
0.0
 20
0.0
 11
22.0
 21
17.0
 12
0.0
 22
0.0
 32
0.0
 14
0.0
 24
0.0
 34
0.0
 15
0.0
 25
0.0
 35
0.0
146
0.0
 13
0.0
 23
0.0
 33
0.0
 16
1.0
 26
0.0
 36
0.0
 17
0.0
 27
1.0
 37
0.0
 76
0
330
222
345
0
346
0
  0
LAYOUT
  5
3C4
102
{ACAD_REACTORS
330
1A
102
}
100
AcDbPlotSettings
  1

  2
none_device
  4
ANSI_C_(22.00_x_17.00_Inches)
  6

 40
0.0
 41
0.0
 42
0.0
 43
0.0
 44
558.8
 45
431.8
 46
0.0
 47
0.0
 48
0.0
 49
0.0
140
0.0
141
0.0
142
1.0
143
1.0
 70
0
 72
0
 73
0
 74
0
  7

 75
0
147
1.0
148
0.0
149
0.0
100
AcDbLayout
  1
Layout1
 70
0
 71
1
 10
0.0
 20
0.0
 11
22.0
 21
17.0
 12
0.0
 22
0.0
 32
0.0
 14
0.0
 24
0.0
 34
0.0
 15
0.0
 25
0.0
 35
0.0
146
0.0
 13
0.0
 23
0.0
 33
0.0
 16
1.0
 26
0.0
 36
0.0
 17
0.0
 27
1.0
 37
0.0
 76
0
330
223
345
0
346
0
  0
ENDSEC
  0
EOF