999
DXF file: _cgs_temp_output.dxf
999
Pro/ENGINEER 2016360 by Parametric Technology Corporation
  0
SECTION
  2
HEADER
  9
$ACADVER
  1
AC1021
  9
$DWGCODEPAGE
  3
ANSI_1252
  9
$EXTMAX
 10
22.0
 20
17.0
 30
0.0
  9
$EXTMIN
 10
0.0
 20
0.0
 30
0.0
  9
$LIMMIN
 10
0.0
 20
0.0
  9
$LIMMAX
 10
22.0
 20
17.0
  9
$VIEWCTR
 10
11.0
 20
8.5
  9
$VIEWSIZE
 40
17.0
  9
$CLAYER
  8
0
  9
$LTSCALE
 40
1.21
  9
$CELTYPE
  6
BYLAYER
  9
$DIMSCALE
 40
1.0
  9
$DIMASZ
 40
0.1875
  9
$DIMEXO
 40
0.0625
  9
$DIMDLI
 40
0.836
  9
$DIMEXE
 40
0.125
  9
$DIMCEN
 40
0.198
  9
$DIMLFAC
 40
1.0
  9
$DIMBLK
  1
_CLOSED
  9
$DIMALT
 70
0
  9
$DIMALTF
 40
25.4
  9
$DIMTXT
 40
0.15625
  9
$DIMTOL
 70
0
  9
$DIMLIM
 70
0
  9
$DIMTFAC
 40
1.0
  9
$DIMGAP
 40
0.09
  9
$DIMDSEP
 70
46
  9
$AUNITS
 70
0
  9
$PDMODE
 70
3
  9
$PDSIZE
 40
0.3125
  9
$HANDSEED
  5
3B6
  9
$TILEMODE
 70
1
  9
$MEASUREMENT
 70
0
  9
$INSUNITS
 70
1
  0
ENDSEC
  0
SECTION
  2
CLASSES
  0
CLASS
  1
ACDBDICTIONARYWDFLT
  2
AcDbDictionaryWithDefault
  3
AutoCAD 2000
 90
0
 91
1
280
0
281
0
  0
CLASS
  1
ACDBPLACEHOLDER
  2
AcDbPlaceHolder
  3
AutoCAD 2000
 90
0
 91
1
280
0
281
0
  0
CLASS
  1
LAYOUT
  2
AcDbLayout
  3
AutoCAD 2000
 90
0
 91
0
280
0
281
0
  0
ENDSEC
  0
SECTION
  2
TABLES
  0
TABLE
  2
VPORT
  5
8
100
AcDbSymbolTable
 70
2
  0
VPORT
  5
1F4
100
AcDbSymbolTableRecord
100
AcDbViewportTableRecord
  2
*ACTIVE
 70
0
 10
0.0
 20
0.0
 11
1.0
 21
1.0
 12
11.0
 22
8.5
 13
0.0
 23
0.0
 14
1.0
 24
1.0
 15
0.0
 25
0.0
 16
0.0
 26
0.0
 36
1.0
 17
0.0
 27
0.0
 37
0.0
 40
17.0
 41
1.2941176471
 42
50.0
 43
0.0
 44
0.0
 50
0.0
 51
0.0
 71
0
 72
100
 73
1
 74
1
 75
0
 76
0
 77
0
 78
0
  0
ENDTAB
  0
TABLE
  2
LTYPE
  5
5
100
AcDbSymbolTable
 70
6
  0
LTYPE
  5
14
100
AcDbSymbolTableRecord
100
AcDbLinetypeTableRecord
  2
BYBLOCK
 70
0
  3

 72
65
 73
0
 40
0.0
  0
LTYPE
  5
15
100
AcDbSymbolTableRecord
100
AcDbLinetypeTableRecord
  2
BYLAYER
 70
0
  3

 72
65
 73
0
 40
0.0
  0
LTYPE
  5
16
100
AcDbSymbolTableRecord
100
AcDbLinetypeTableRecord
  2
CONTINUOUS
 70
64
  3
Solid line
 72
65
 73
0
 40
0.0
  0
LTYPE
  5
1F5
100
AcDbSymbolTableRecord
100
AcDbLinetypeTableRecord
  2
CENTER
 70
64
  3
____ _ ____ _ ____ _ ____ _ ____ _ ____ _ ____
 72
65
 73
4
 40
0.6
 49
0.375
 74
0
 49
-0.075
 74
0
 49
0.075
 74
0
 49
-0.075
 74
0
  0
LTYPE
  5
1F6
100
AcDbSymbolTableRecord
100
AcDbLinetypeTableRecord
  2
HIDDEN
 70
64
  3
- - - - - - - - - - - - - - - - - - - -
 72
65
 73
2
 40
0.2
 49
0.1
 74
0
 49
-0.1
 74
0
  0
LTYPE
  5
1F7
100
AcDbSymbolTableRecord
100
AcDbLinetypeTableRecord
  2
PHANTOM
 70
64
  3
_____ _ _ _____ _ _ _____ _ _ _____
 72
65
 73
6
 40
0.8
 49
0.45
 74
0
 49
-0.05
 74
0
 49
0.1
 74
0
 49
-0.05
 74
0
 49
0.1
 74
0
 49
-0.05
 74
0
  0
LTYPE
  5
1F8
100
AcDbSymbolTableRecord
100
AcDbLinetypeTableRecord
  2
DOT
 70
64
  3
. . . . . . . . . . . . . . . . . . . .
 72
65
 73
2
 40
0.2
 49
0.1
 74
0
 49
-0.1
 74
0
  0
LTYPE
  5
1F9
100
AcDbSymbolTableRecord
100
AcDbLinetypeTableRecord
  2
DASHED
 70
64
  3
- - - - - - - - - - - - - - - - - - - -
 72
65
 73
2
 40
0.2
 49
0.1
 74
0
 49
-0.1
 74
0
  0
ENDTAB
  0
TABLE
  2
LAYER
  5
2
100
AcDbSymbolTable
 70
36
  0
LAYER
  5
10
100
AcDbSymbolTableRecord
100
AcDbLayerTableRecord
  2
0
 70
0
 62
7
  6
CONTINUOUS
370
-3
390
F
  0
LAYER
  5
1FA
100
AcDbSymbolTableRecord
100
AcDbLayerTableRecord
  2
DEFAULT_1
 70
0
 62
7
  6
CENTER
370
-3
390
F
  0
LAYER
  5
1FB
100
AcDbSymbolTableRecord
100
AcDbLayerTableRecord
  2
DEFAULT_2
 70
0
 62
8
  6
HIDDEN
370
-3
390
F
  0
LAYER
  5
1FC
100
AcDbSymbolTableRecord
100
AcDbLayerTableRecord
  2
DEFAULT_3
 70
0
 62
7
  6
PHANTOM
370
-3
390
F
  0
LAYER
  5
1FD
100
AcDbSymbolTableRecord
100
AcDbLayerTableRecord
  2
01_ALL_DTM_PLN
 70
0
 62
7
  6
CONTINUOUS
370
-3
390
F
  0
LAYER
  5
1FE
100
AcDbSymbolTableRecord
100
AcDbLayerTableRecord
  2
01__ASM_ALL_DTM_PLN
 70
0
 62
7
  6
CONTINUOUS
370
-3
390
F
  0
LAYER
  5
1FF
100
AcDbSymbolTableRecord
100
AcDbLayerTableRecord
  2
01__ASM_DEF_DTM_PLN
 70
0
 62
7
  6
CONTINUOUS
370
-3
390
F
  0
LAYER
  5
200
100
AcDbSymbolTableRecord
100
AcDbLayerTableRecord
  2
01___PRT_ALL_DTM_PLN
 70
0
 62
7
  6
CONTINUOUS
370
-3
390
F
  0
LAYER
  5
201
100
AcDbSymbolTableRecord
100
AcDbLayerTableRecord
  2
01___PRT_DEF_DTM_PLN
 70
0
 62
7
  6
CONTINUOUS
370
-3
390
F
  0
LAYER
  5
202
100
AcDbSymbolTableRecord
100
AcDbLayerTableRecord
  2
02_ALL_AXES
 70
0
 62
7
  6
CONTINUOUS
370
-3
390
F
  0
LAYER
  5
203
100
AcDbSymbolTableRecord
100
AcDbLayerTableRecord
  2
02__ASM_ALL_AXES
 70
0
 62
7
  6
CONTINUOUS
370
-3
390
F
  0
LAYER
  5
204
100
AcDbSymbolTableRecord
100
AcDbLayerTableRecord
  2
02___PRT_ALL_AXES
 70
0
 62
7
  6
CONTINUOUS
370
-3
390
F
  0
LAYER
  5
205
100
AcDbSymbolTableRecord
100
AcDbLayerTableRecord
  2
03_ALL_CURVES
 70
0
 62
7
  6
CONTINUOUS
370
-3
390
F
  0
LAYER
  5
206
100
AcDbSymbolTableRecord
100
AcDbLayerTableRecord
  2
03__ASM_ALL_CURVES
 70
0
 62
7
  6
CONTINUOUS
370
-3
390
F
  0
LAYER
  5
207
100
AcDbSymbolTableRecord
100
AcDbLayerTableRecord
  2
03___PRT_ALL_CURVES
 70
0
 62
7
  6
CONTINUOUS
370
-3
390
F
  0
LAYER
  5
208
100
AcDbSymbolTableRecord
100
AcDbLayerTableRecord
  2
04_ALL_DTM_PNT
 70
0
 62
7
  6
CONTINUOUS
370
-3
390
F
  0
LAYER
  5
209
100
AcDbSymbolTableRecord
100
AcDbLayerTableRecord
  2
04__ASM_ALL_DTM_PNT
 70
0
 62
7
  6
CONTINUOUS
370
-3
390
F
  0
LAYER
  5
20A
100
AcDbSymbolTableRecord
100
AcDbLayerTableRecord
  2
04___PRT_ALL_DTM_PNT
 70
0
 62
7
  6
CONTINUOUS
370
-3
390
F
  0
LAYER
  5
20B
100
AcDbSymbolTableRecord
100
AcDbLayerTableRecord
  2
05_ALL_DTM_CSYS
 70
0
 62
7
  6
CONTINUOUS
370
-3
390
F
  0
LAYER
  5
20C
100
AcDbSymbolTableRecord
100
AcDbLayerTableRecord
  2
05__ASM_ALL_DTM_CSYS
 70
0
 62
7
  6
CONTINUOUS
370
-3
390
F
  0
LAYER
  5
20D
100
AcDbSymbolTableRecord
100
AcDbLayerTableRecord
  2
05__ASM_DEF_DTM_CSYS
 70
0
 62
7
  6
CONTINUOUS
370
-3
390
F
  0
LAYER
  5
20E
100
AcDbSymbolTableRecord
100
AcDbLayerTableRecord
  2
05___PRT_ALL_DTM_CSYS
 70
0
 62
7
  6
CONTINUOUS
370
-3
390
F
  0
LAYER
  5
20F
100
AcDbSymbolTableRecord
100
AcDbLayerTableRecord
  2
05___PRT_DEF_DTM_CSYS
 70
0
 62
7
  6
CONTINUOUS
370
-3
390
F
  0
LAYER
  5
210
100
AcDbSymbolTableRecord
100
AcDbLayerTableRecord
  2
06_ALL_SURFS
 70
0
 62
7
  6
CONTINUOUS
370
-3
390
F
  0
LAYER
  5
211
100
AcDbSymbolTableRecord
100
AcDbLayerTableRecord
  2
06__ASM_ALL_SURFS
 70
0
 62
7
  6
CONTINUOUS
370
-3
390
F
  0
LAYER
  5
212
100
AcDbSymbolTableRecord
100
AcDbLayerTableRecord
  2
06___PRT_ALL_SURFS
 70
0
 62
7
  6
CONTINUOUS
370
-3
390
F
  0
LAYER
  5
213
100
AcDbSymbolTableRecord
100
AcDbLayerTableRecord
  2
07__ASM_ALL_SKELETONS
 70
0
 62
7
  6
CONTINUOUS
370
-3
390
F
  0
LAYER
  5
214
100
AcDbSymbolTableRecord
100
AcDbLayerTableRecord
  2
LAYER_AXIS
 70
0
 62
7
  6
CONTINUOUS
370
-3
390
F
  0
LAYER
  5
215
100
AcDbSymbolTableRecord
100
AcDbLayerTableRecord
  2
LAYER_CHAMFER_FEAT
 70
0
 62
7
  6
CONTINUOUS
370
-3
390
F
  0
LAYER
  5
216
100
AcDbSymbolTableRecord
100
AcDbLayerTableRecord
  2
LAYER_CUT_FEAT
 70
0
 62
7
  6
CONTINUOUS
370
-3
390
F
  0
LAYER
  5
217
100
AcDbSymbolTableRecord
100
AcDbLayerTableRecord
  2
LAYER_DATUM
 70
0
 62
7
  6
CONTINUOUS
370
-3
390
F
  0
LAYER
  5
218
100
AcDbSymbolTableRecord
100
AcDbLayerTableRecord
  2
LAYER_DIM
 70
0
 62
7
  6
CONTINUOUS
370
-3
390
F
  0
LAYER
  5
219
100
AcDbSymbolTableRecord
100
AcDbLayerTableRecord
  2
LAYER_FEATURE
 70
0
 62
7
  6
CONTINUOUS
370
-3
390
F
  0
LAYER
  5
21A
100
AcDbSymbolTableRecord
100
AcDbLayerTableRecord
  2
LAYER_GEOM_FEAT
 70
0
 62
7
  6
CONTINUOUS
370
-3
390
F
  0
LAYER
  5
21B
100
AcDbSymbolTableRecord
100
AcDbLayerTableRecord
  2
LAYER_NOGEOM_FEAT
 70
0
 62
7
  6
CONTINUOUS
370
-3
390
F
  0
LAYER
  5
21C
100
AcDbSymbolTableRecord
100
AcDbLayerTableRecord
  2
LAYER_PARAMETER_DIM
 70
0
 62
7
  6
CONTINUOUS
370
-3
390
F
  0
LAYER
  5
21D
100
AcDbSymbolTableRecord
100
AcDbLayerTableRecord
  2
LAYER_PROTRUSION_FEAT
 70
0
 62
7
  6
CONTINUOUS
370
-3
390
F
  0
LAYER
  5
21E
100
AcDbSymbolTableRecord
100
AcDbLayerTableRecord
  2
LAYER_QUILT
 70
0
 62
7
  6
CONTINUOUS
370
-3
390
F
  0
LAYER
  5
21F
100
AcDbSymbolTableRecord
100
AcDbLayerTableRecord
  2
LAYER_ROUND_FEAT
 70
0
 62
7
  6
CONTINUOUS
370
-3
390
F
  0
ENDTAB
  0
TABLE
  2
STYLE
  5
3
100
AcDbSymbolTable
 70
1
  0
STYLE
  5
11
100
AcDbSymbolTableRecord
100
AcDbTextStyleTableRecord
  2
STANDARD
 70
0
 40
0.0
 41
0.8
 50
0.0
 71
0
 42
0.2
  3
txt
  4

  0
STYLE
  5
220
100
AcDbSymbolTableRecord
100
AcDbTextStyleTableRecord
  2
TEXTSTYLE_1
 70
0
 40
0.0
 41
0.8
 50
0.0
 71
0
 42
0.2
  3
gdt
  4

  0
ENDTAB
  0
TABLE
  2
VIEW
  5
6
100
AcDbSymbolTable
 70
0
  0
ENDTAB
  0
TABLE
  2
UCS
  5
7
100
AcDbSymbolTable
 70
0
  0
ENDTAB
  0
TABLE
  2
APPID
  5
9
100
AcDbSymbolTable
 70
1
  0
APPID
  5
221
100
AcDbSymbolTableRecord
100
AcDbRegAppTableRecord
  2
ACAD
 70
0
  0
ENDTAB
  0
TABLE
  2
BLOCK_RECORD
  5
1
100
AcDbSymbolTable
 70
0
  0
BLOCK_RECORD
  5
222
100
AcDbSymbolTableRecord
100
AcDbBlockTableRecord
  2
*Model_Space
  0
BLOCK_RECORD
  5
223
100
AcDbSymbolTableRecord
100
AcDbBlockTableRecord
  2
*Paper_Space
  0
ENDTAB
  0
TABLE
  2
DIMSTYLE
  5
A
100
AcDbSymbolTable
 70
1
100
AcDbDimStyleTable
 71
0
  0
DIMSTYLE
105
224
100
AcDbSymbolTableRecord
100
AcDbDimStyleTableRecord
  2
STANDARD
 70
0
  3

  4

 40
1.0
 41
0.1875
 42
0.0625
 43
0.38
 44
0.125
 45
0.0
 46
0.0
 47
0.0001
 48
0.0001
140
0.15625
141
0.09
142
0.0
143
25.4
144
1.0
145
0.0
146
1.0
147
0.09
 71
0.0
 72
0.0
 73
1
 74
1
 75
0
 76
0
 77
0
 78
4
 79
1
170
0
171
3
172
0
173
0
174
0
175
0
176
0
177
0
178
0
270
2
179
4
271
4
272
4
273
2
274
2
275
0
280
0
281
0
282
0
283
1
284
4
285
0
286
0
287
3
288
0
340
11
278
46
  0
ENDTAB
  0
ENDSEC
  0
SECTION
  2
BLOCKS
  0
BLOCK
  5
20
100
AcDbEntity
  8
0
100
AcDbBlockBegin
  2
*Model_Space
 70
0
 10
0.0
 20
0.0
 30
0.0
  3
*Model_Space
  1

  0
ENDBLK
  5
21
100
AcDbEntity
  8
0
100
AcDbBlockEnd
  0
BLOCK
  5
1C
100
AcDbEntity
  8
0
100
AcDbBlockBegin
  2
*Paper_Space
 70
0
 10
0.0
 20
0.0
 30
0.0
  3
*Paper_Space
  1

  0
ENDBLK
  5
1D
100
AcDbEntity
  8
0
100
AcDbBlockEnd
  0
ENDSEC
  0
SECTION
  2
ENTITIES
  0
MTEXT
  5
225
100
AcDbEntity
  8
0
100
AcDbMText
 62
7
  6
CONTINUOUS
  7
STANDARD
 71
1
 72
1
 10
15.9560215477
 20
0.9479130325
 30
0.0
 11
1.0
 21
0.0
 31
0.0
 44
0.9
  1
SCALE: 1:0.091
 40
0.3
 41
3.36
  0
LINE
  5
226
100
AcDbEntity
  8
0
100
AcDbLine
 62
7
  6
CONTINUOUS
 10
0.0
 20
0.0
 11
0.0
 21
17.0
  0
LINE
  5
227
100
AcDbEntity
  8
0
100
AcDbLine
 62
7
  6
CONTINUOUS
 10
0.0
 20
0.0
 11
22.0
 21
0.0
  0
LINE
  5
228
100
AcDbEntity
  8
0
100
AcDbLine
 62
7
  6
CONTINUOUS
 10
0.0
 20
17.0
 11
22.0
 21
17.0
  0
LINE
  5
229
100
AcDbEntity
  8
0
100
AcDbLine
 62
7
  6
CONTINUOUS
 10
22.0
 20
0.0
 11
22.0
 21
17.0
  0
LINE
  5
22A
100
AcDbEntity
  8
02___PRT_ALL_AXES
100
AcDbLine
 62
7
  6
CONTINUOUS
 10
5.8912763671
 20
4.1854250954
 11
6.3694581853
 21
4.1854250954
  0
LINE
  5
22B
100
AcDbEntity
  8
LAYER_CUT_FEAT
100
AcDbLine
 62
7
  6
CONTINUOUS
 10
5.8912763671
 20
4.1854250998
 11
5.8912763671
 21
6.8548103117
  0
LINE
  5
22C
100
AcDbEntity
  8
LAYER_CUT_FEAT
100
AcDbLine
 62
7
  6
CONTINUOUS
 10
6.3694581853
 20
4.1854250998
 11
6.3694581853
 21
6.8548103117
  0
LINE
  5
22D
100
AcDbEntity
  8
LAYER_CUT_FEAT
100
AcDbLine
 62
7
  6
CONTINUOUS
 10
5.8912763671
 20
6.8441029196
 11
6.3694581853
 21
6.8441029196
  0
LINE
  5
22E
100
AcDbEntity
  8
LAYER_CUT_FEAT
100
AcDbLine
 62
7
  6
CONTINUOUS
 10
5.8912763671
 20
6.8441227912
 11
6.3694581853
 21
6.8441227912
  0
LINE
  5
22F
100
AcDbEntity
  8
LAYER_CUT_FEAT
100
AcDbLine
 62
7
  6
CONTINUOUS
 10
5.8912763671
 20
6.8487341775
 11
6.3694581853
 21
6.8487341775
  0
LINE
  5
230
100
AcDbEntity
  8
LAYER_CUT_FEAT
100
AcDbLine
 62
7
  6
CONTINUOUS
 10
5.8912763671
 20
6.8495329103
 11
6.3694581853
 21
6.8495329103
  0
LINE
  5
231
100
AcDbEntity
  8
LAYER_CUT_FEAT
100
AcDbLine
 62
7
  6
CONTINUOUS
 10
5.8912763671
 20
6.8526240187
 11
6.3694581853
 21
6.8526240187
  0
LINE
  5
232
100
AcDbEntity
  8
LAYER_CUT_FEAT
100
AcDbLine
 62
7
  6
CONTINUOUS
 10
5.8912763671
 20
6.8531037057
 11
6.3694581853
 21
6.8531037057
  0
LINE
  5
233
100
AcDbEntity
  8
LAYER_CUT_FEAT
100
AcDbLine
 62
7
  6
CONTINUOUS
 10
5.8912763671
 20
6.8546503415
 11
6.3694581853
 21
6.8546503415
  0
LINE
  5
234
100
AcDbEntity
  8
0
100
AcDbLine
 62
7
  6
CONTINUOUS
 10
5.8912763671
 20
6.8548103117
 11
6.3694581853
 21
6.8548103117
  0
LINE
  5
235
100
AcDbEntity
  8
02___PRT_ALL_AXES
100
AcDbLine
 62
7
  6
CONTINUOUS
 10
5.8317811748
 20
11.2652971875
 11
6.3099629929
 21
11.2652971875
  0
LINE
  5
236
100
AcDbEntity
  8
LAYER_CUT_FEAT
100
AcDbLine
 62
7
  6
CONTINUOUS
 10
5.8317811748
 20
11.2652971968
 11
5.8317811748
 21
12.5793880966
  0
LINE
  5
237
100
AcDbEntity
  8
0
100
AcDbLine
 62
7
  6
CONTINUOUS
 10
5.8317811748
 20
12.5793880966
 11
5.8317811748
 21
12.620751733
  0
LINE
  5
238
100
AcDbEntity
  8
LAYER_CUT_FEAT
100
AcDbLine
 62
7
  6
CONTINUOUS
 10
5.8317811748
 20
12.620751733
 11
5.8317811748
 21
13.9348426056
  0
LINE
  5
239
100
AcDbEntity
  8
LAYER_CUT_FEAT
100
AcDbLine
 62
7
  6
CONTINUOUS
 10
5.8317811748
 20
12.4300889514
 11
6.3099629929
 21
12.4300889514
  0
LINE
  5
23A
100
AcDbEntity
  8
LAYER_CUT_FEAT
100
AcDbLine
 62
7
  6
CONTINUOUS
 10
6.3099629929
 20
12.4475751663
 11
5.8317811748
 21
12.4475751663
  0
LINE
  5
23B
100
AcDbEntity
  8
LAYER_CUT_FEAT
100
AcDbLine
 62
7
  6
CONTINUOUS
 10
6.3099629929
 20
12.4584156631
 11
5.8317811748
 21
12.4584156631
  0
LINE
  5
23C
100
AcDbEntity
  8
LAYER_CUT_FEAT
100
AcDbLine
 62
7
  6
CONTINUOUS
 10
5.8317811748
 20
12.4711925019
 11
6.3099629929
 21
12.4711925019
  0
LINE
  5
23D
100
AcDbEntity
  8
LAYER_CUT_FEAT
100
AcDbLine
 62
7
  6
CONTINUOUS
 10
5.8317811748
 20
12.4797102109
 11
6.3099629929
 21
12.4797102109
  0
LINE
  5
23E
100
AcDbEntity
  8
LAYER_CUT_FEAT
100
AcDbLine
 62
7
  6
CONTINUOUS
 10
6.3099629929
 20
12.4964665291
 11
5.8317811748
 21
12.4964665291
  0
LINE
  5
23F
100
AcDbEntity
  8
LAYER_CUT_FEAT
100
AcDbLine
 62
7
  6
CONTINUOUS
 10
6.3099629929
 20
12.507345116
 11
5.8317811748
 21
12.507345116
  0
LINE
  5
240
100
AcDbEntity
  8
LAYER_CUT_FEAT
100
AcDbLine
 62
7
  6
CONTINUOUS
 10
5.8317811748
 20
12.5209581862
 11
6.3099629929
 21
12.5209581862
  0
LINE
  5
241
100
AcDbEntity
  8
LAYER_CUT_FEAT
100
AcDbLine
 62
7
  6
CONTINUOUS
 10
5.8317811748
 20
12.5294998044
 11
6.3099629929
 21
12.5294998044
  0
LINE
  5
242
100
AcDbEntity
  8
LAYER_CUT_FEAT
100
AcDbLine
 62
7
  6
CONTINUOUS
 10
6.3099629929
 20
12.5455027907
 11
5.8317811748
 21
12.5455027907
  0
LINE
  5
243
100
AcDbEntity
  8
LAYER_CUT_FEAT
100
AcDbLine
 62
7
  6
CONTINUOUS
 10
6.3099629929
 20
12.5564042529
 11
5.8317811748
 21
12.5564042529
  0
LINE
  5
244
100
AcDbEntity
  8
LAYER_CUT_FEAT
100
AcDbLine
 62
7
  6
CONTINUOUS
 10
5.8317811748
 20
12.5708345154
 11
6.3099629929
 21
12.5708345154
  0
LINE
  5
245
100
AcDbEntity
  8
0
100
AcDbLine
 62
7
  6
CONTINUOUS
 10
5.8317811748
 20
12.5793880966
 11
6.3099629929
 21
12.5793880966
  0
LINE
  5
246
100
AcDbEntity
  8
0
100
AcDbLine
 62
7
  6
CONTINUOUS
 10
6.3099629929
 20
12.5946153693
 11
5.8317811748
 21
12.5946153693
  0
LINE
  5
247
100
AcDbEntity
  8
0
100
AcDbLine
 62
7
  6
CONTINUOUS
 10
6.3099629929
 20
12.6055244602
 11
5.8317811748
 21
12.6055244602
  0
LINE
  5
248
100
AcDbEntity
  8
0
100
AcDbLine
 62
7
  6
CONTINUOUS
 10
5.8317811748
 20
12.620751733
 11
6.3099629929
 21
12.620751733
  0
LINE
  5
249
100
AcDbEntity
  8
LAYER_CUT_FEAT
100
AcDbLine
 62
7
  6
CONTINUOUS
 10
6.3099629929
 20
13.9348426056
 11
6.3099629929
 21
12.620751733
  0
LINE
  5
24A
100
AcDbEntity
  8
LAYER_CUT_FEAT
100
AcDbLine
 62
7
  6
CONTINUOUS
 10
6.3099629929
 20
11.2652971968
 11
6.3099629929
 21
12.5793880966
  0
LINE
  5
24B
100
AcDbEntity
  8
0
100
AcDbLine
 62
7
  6
CONTINUOUS
 10
6.3099629929
 20
12.5793880966
 11
6.3099629929
 21
12.620751733
  0
LINE
  5
24C
100
AcDbEntity
  8
02___PRT_ALL_AXES
100
AcDbLine
 62
7
  6
CONTINUOUS
 10
5.8317811748
 20
13.9348426421
 11
6.3099629929
 21
13.9348426421
  0
LINE
  5
24D
100
AcDbEntity
  8
LAYER_CUT_FEAT
100
AcDbLine
 62
7
  6
CONTINUOUS
 10
15.4258661882
 20
6.7763144451
 11
15.428808021
 21
6.7869416498
  0
LINE
  5
24E
100
AcDbEntity
  8
LAYER_CUT_FEAT
100
AcDbLine
 62
7
  6
CONTINUOUS
 10
15.4751525482
 20
6.7804239785
 11
15.4784896876
 21
6.7909337531
  0
LINE
  5
24F
100
AcDbEntity
  8
LAYER_CUT_FEAT
100
AcDbLine
 62
7
  6
CONTINUOUS
 10
15.5245581028
 20
6.7826877623
 11
15.5282858817
 21
6.7930654078
  0
LINE
  5
250
100
AcDbEntity
  8
0
100
AcDbLine
 62
7
  6
CONTINUOUS
 10
15.574013754
 20
6.7831026304
 11
15.5781269585
 21
6.7933336327
  0
LINE
  5
251
100
AcDbEntity
  8
LAYER_CUT_FEAT
100
AcDbLine
 62
7
  6
CONTINUOUS
 10
15.3087191398
 20
4.3405968458
 11
15.3715856732
 21
5.0591646106
  0
LINE
  5
252
100
AcDbEntity
  8
LAYER_CUT_FEAT
100
AcDbLine
 62
7
  6
CONTINUOUS
 10
15.444180189
 20
5.8889237231
 11
15.5070467224
 21
6.6074914879
  0
LINE
  5
253
100
AcDbEntity
  8
LAYER_CUT_FEAT
100
AcDbLine
 62
7
  6
CONTINUOUS
 10
14.4645082007
 20
5.1185921761
 11
15.118239406
 21
5.4234320436
  0
LINE
  5
254
100
AcDbEntity
  8
LAYER_CUT_FEAT
100
AcDbLine
 62
7
  6
CONTINUOUS
 10
15.8731291344
 20
5.775442905
 11
16.5268603397
 21
6.0802827724
  0
LINE
  5
255
100
AcDbEntity
  8
LAYER_CUT_FEAT
100
AcDbLine
 62
7
  6
CONTINUOUS
 10
16.4045883295
 20
4.6827073
 11
15.8137236575
 21
5.0964351974
  0
LINE
  5
256
100
AcDbEntity
  8
LAYER_CUT_FEAT
100
AcDbLine
 62
7
  6
CONTINUOUS
 10
15.1314284449
 20
5.5741834486
 11
14.540563773
 21
5.9879113459
  0
LINE
  5
257
100
AcDbEntity
  8
LAYER_CUT_FEAT
100
AcDbLine
 62
7
  6
CONTINUOUS
 10
15.5796840056
 20
6.5940599877
 11
15.523230854
 21
5.9487975128
  0
LINE
  5
258
100
AcDbEntity
  8
LAYER_CUT_FEAT
100
AcDbLine
 62
7
  6
CONTINUOUS
 10
15.4390384065
 20
4.9864734344
 11
15.382585255
 21
4.3412109595
  0
LINE
  5
259
100
AcDbEntity
  8
LAYER_CUT_FEAT
100
AcDbLine
 62
7
  6
CONTINUOUS
 10
16.5515469609
 20
6.0106612898
 11
15.9645066898
 21
5.7369199157
  0
LINE
  5
25A
100
AcDbEntity
  8
LAYER_CUT_FEAT
100
AcDbLine
 62
7
  6
CONTINUOUS
 10
15.0890133675
 20
5.3286706749
 11
14.5019730963
 21
5.0549293008
  0
LINE
  5
25B
100
AcDbEntity
  8
LAYER_CUT_FEAT
100
AcDbLine
 62
7
  6
CONTINUOUS
 10
14.588514435
 20
6.0441013283
 11
15.1191015546
 21
5.6725802275
  0
LINE
  5
25C
100
AcDbEntity
  8
LAYER_CUT_FEAT
100
AcDbLine
 62
7
  6
CONTINUOUS
 10
15.9104024294
 20
5.1185053899
 11
16.440989549
 21
4.7469842891
  0
LINE
  5
25D
100
AcDbEntity
  8
LAYER_CUT_FEAT
100
AcDbLine
 62
7
  6
CONTINUOUS
 10
15.5410707751
 20
4.3273452732
 11
15.5975239267
 21
4.9726077481
  0
LINE
  5
25E
100
AcDbEntity
  8
LAYER_CUT_FEAT
100
AcDbLine
 62
7
  6
CONTINUOUS
 10
15.6817163742
 20
5.9349318264
 11
15.7381695257
 21
6.5801943013
  0
LINE
  5
25F
100
AcDbEntity
  8
LAYER_CUT_FEAT
100
AcDbLine
 62
7
  6
CONTINUOUS
 10
14.5692078198
 20
4.910743971
 11
15.1562480909
 21
5.1844853451
  0
LINE
  5
260
100
AcDbEntity
  8
LAYER_CUT_FEAT
100
AcDbLine
 62
7
  6
CONTINUOUS
 10
16.0317414132
 20
5.5927345859
 11
16.6187816844
 21
5.86647596
  0
LINE
  5
261
100
AcDbEntity
  8
LAYER_CUT_FEAT
100
AcDbLine
 62
7
  6
CONTINUOUS
 10
16.5322403457
 20
4.8773039325
 11
16.0016532261
 21
5.2488250334
  0
LINE
  5
262
100
AcDbEntity
  8
LAYER_CUT_FEAT
100
AcDbLine
 62
7
  6
CONTINUOUS
 10
15.2103523513
 20
5.8028998709
 11
14.6797652317
 21
6.1744209717
  0
LINE
  5
263
100
AcDbEntity
  8
LAYER_CUT_FEAT
100
AcDbLine
 62
7
  6
CONTINUOUS
 10
15.8120356409
 20
6.580808415
 11
15.7491691075
 21
5.8622406503
  0
LINE
  5
264
100
AcDbEntity
  8
LAYER_CUT_FEAT
100
AcDbLine
 62
7
  6
CONTINUOUS
 10
15.6765745917
 20
5.0324815377
 11
15.6137080583
 21
4.3139137729
  0
LINE
  5
265
100
AcDbEntity
  8
LAYER_CUT_FEAT
100
AcDbLine
 62
7
  6
CONTINUOUS
 10
16.65624658
 20
5.8028130847
 11
16.0025153747
 21
5.4979732173
  0
LINE
  5
266
100
AcDbEntity
  8
LAYER_CUT_FEAT
100
AcDbLine
 62
7
  6
CONTINUOUS
 10
15.2476256463
 20
5.1459623558
 11
14.5938944409
 21
4.8411224884
  0
LINE
  5
267
100
AcDbEntity
  8
LAYER_CUT_FEAT
100
AcDbLine
 62
7
  6
CONTINUOUS
 10
14.7161664512
 20
6.2386979608
 11
15.3070311231
 21
5.8249700634
  0
LINE
  5
268
100
AcDbEntity
  8
LAYER_CUT_FEAT
100
AcDbLine
 62
7
  6
CONTINUOUS
 10
15.9893263357
 20
5.3472218123
 11
16.5801910077
 21
4.9334939149
  0
LINE
  5
269
100
AcDbEntity
  8
LAYER_CUT_FEAT
100
AcDbLine
 62
7
  6
CONTINUOUS
 10
15.3935320957
 20
6.7829670076
 11
15.3987649461
 21
6.7732608685
  0
LINE
  5
26A
100
AcDbEntity
  8
LAYER_CUT_FEAT
100
AcDbLine
 62
7
  6
CONTINUOUS
 10
15.443089814
 20
6.7882808993
 11
15.447956081
 21
6.7783858851
  0
LINE
  5
26B
100
AcDbEntity
  8
LAYER_CUT_FEAT
100
AcDbLine
 62
7
  6
CONTINUOUS
 10
15.4928115696
 20
6.7917380527
 11
15.4973044472
 21
6.7816680025
  0
LINE
  5
26C
100
AcDbEntity
  8
0
100
AcDbLine
 62
7
  6
CONTINUOUS
 10
15.5426278221
 20
6.7933336327
 11
15.5467410267
 21
6.7831026304
  0
LINE
  5
26D
100
AcDbEntity
  8
LAYER_CUT_FEAT
100
AcDbLine
 62
7
  6
CONTINUOUS
 10
15.4078826418
 20
6.7654142065
 11
15.4187231387
 21
6.7666356372
  0
LINE
  5
26E
100
AcDbEntity
  8
LAYER_CUT_FEAT
100
AcDbLine
 62
7
  6
CONTINUOUS
 10
15.4567740047
 20
6.7702037887
 11
15.4676525916
 21
6.7710190261
  0
LINE
  5
26F
100
AcDbEntity
  8
LAYER_CUT_FEAT
100
AcDbLine
 62
7
  6
CONTINUOUS
 10
15.5058102663
 20
6.7731619151
 11
15.5167117285
 21
6.7735698191
  0
LINE
  5
270
100
AcDbEntity
  8
0
100
AcDbLine
 62
7
  6
CONTINUOUS
 10
15.5549228449
 20
6.7742844486
 11
15.5658319358
 21
6.7742844486
  0
LINE
  5
271
100
AcDbEntity
  8
02___PRT_ALL_AXES
100
AcDbLine
 62
7
  6
CONTINUOUS
 10
15.2509020598
 20
11.1761058196
 11
15.6913366806
 21
11.1761058196
  0
LINE
  5
272
100
AcDbEntity
  8
LAYER_CUT_FEAT
100
AcDbLine
 62
7
  6
CONTINUOUS
 10
14.8265262326
 20
13.2443118322
 11
14.8287551495
 21
13.25275045
  0
LINE
  5
273
100
AcDbEntity
  8
LAYER_CUT_FEAT
100
AcDbLine
 62
7
  6
CONTINUOUS
 10
14.8377568207
 20
13.2854364476
 11
14.8398526157
 21
13.2927653904
  0
LINE
  5
274
100
AcDbEntity
  8
0
100
AcDbLine
 62
7
  6
CONTINUOUS
 10
14.8496076061
 20
13.3254821937
 11
14.8515249718
 21
13.3316867914
  0
LINE
  5
275
100
AcDbEntity
  8
LAYER_CUT_FEAT
100
AcDbLine
 62
7
  6
CONTINUOUS
 10
14.8159965621
 20
13.2024470282
 11
14.8182480938
 21
13.2116979346
  0
LINE
  5
276
100
AcDbEntity
  8
LAYER_CUT_FEAT
100
AcDbLine
 62
7
  6
CONTINUOUS
 10
15.2777727874
 20
13.2839724245
 11
15.2802872365
 21
13.2927653904
  0
LINE
  5
277
100
AcDbEntity
  8
0
100
AcDbLine
 62
7
  6
CONTINUOUS
 10
15.289318869
 20
13.323141407
 11
15.2919595925
 21
13.3316867914
  0
LINE
  5
278
100
AcDbEntity
  8
LAYER_CUT_FEAT
100
AcDbLine
 62
7
  6
CONTINUOUS
 10
14.8170247439
 20
13.223309721
 11
14.8144951202
 21
13.2322201141
  0
LINE
  5
279
100
AcDbEntity
  8
LAYER_CUT_FEAT
100
AcDbLine
 62
7
  6
CONTINUOUS
 10
14.8277017321
 20
13.26447158
 11
14.82530362
 21
13.2736186317
  0
LINE
  5
27A
100
AcDbEntity
  8
LAYER_CUT_FEAT
100
AcDbLine
 62
7
  6
CONTINUOUS
 10
14.8389706043
 20
13.304579471
 11
14.8367073576
 21
13.3139503883
  0
LINE
  5
27B
100
AcDbEntity
  8
0
100
AcDbLine
 62
7
  6
CONTINUOUS
 10
14.848690384
 20
13.3531589764
 11
14.8508155998
 21
13.3435772995
  0
LINE
  5
27C
100
AcDbEntity
  8
LAYER_CUT_FEAT
100
AcDbLine
 62
7
  6
CONTINUOUS
 10
15.2564311829
 20
13.2024470282
 11
15.2586827146
 21
13.2116979346
  0
LINE
  5
27D
100
AcDbEntity
  8
LAYER_CUT_FEAT
100
AcDbLine
 62
7
  6
CONTINUOUS
 10
15.2668051122
 20
13.2437222004
 11
15.2691897702
 21
13.25275045
  0
LINE
  5
27E
100
AcDbEntity
  8
LAYER_CUT_FEAT
100
AcDbLine
 62
7
  6
CONTINUOUS
 10
15.6558339659
 20
12.1186058196
 11
15.5500794172
 21
12.1186058196
  0
LINE
  5
27F
100
AcDbEntity
  8
LAYER_CUT_FEAT
100
AcDbLine
 62
7
  6
CONTINUOUS
 10
15.3013338981
 20
12.1186058196
 11
15.2864047745
 21
12.1186058196
  0
LINE
  5
280
100
AcDbEntity
  8
LAYER_CUT_FEAT
100
AcDbLine
 62
7
  6
CONTINUOUS
 10
15.659647734
 20
12.2211060105
 11
15.6561820599
 21
12.2212325439
  0
LINE
  5
281
100
AcDbEntity
  8
LAYER_CUT_FEAT
100
AcDbLine
 62
7
  6
CONTINUOUS
 10
15.659647734
 20
12.2211060105
 11
15.653046748
 21
12.2216011073
  0
LINE
  5
282
100
AcDbEntity
  8
LAYER_CUT_FEAT
100
AcDbLine
 62
7
  6
CONTINUOUS
 10
15.2754507264
 20
11.8403379918
 11
15.3034515201
 21
12.1413721977
  0
LINE
  5
283
100
AcDbEntity
  8
LAYER_CUT_FEAT
100
AcDbLine
 62
7
  6
CONTINUOUS
 10
15.3915241183
 20
13.0882333794
 11
15.4383738599
 21
13.5919110571
  0
LINE
  5
284
100
AcDbEntity
  8
LAYER_CUT_FEAT
100
AcDbLine
 62
7
  6
CONTINUOUS
 10
15.2002829962
 20
12.5187044973
 11
15.2266657299
 21
12.5388578658
  0
LINE
  5
285
100
AcDbEntity
  8
LAYER_CUT_FEAT
100
AcDbLine
 62
7
  6
CONTINUOUS
 10
15.690199839
 20
12.8929445132
 11
15.8067924106
 21
12.9820078032
  0
LINE
  5
286
100
AcDbEntity
  8
LAYER_CUT_FEAT
100
AcDbLine
 62
7
  6
CONTINUOUS
 10
15.5555160864
 20
12.3973420789
 11
15.5556972011
 21
12.3973451721
  0
LINE
  5
287
100
AcDbEntity
  8
LAYER_CUT_FEAT
100
AcDbLine
 62
7
  6
CONTINUOUS
 10
15.6798703189
 20
11.6174789459
 11
15.5498772939
 21
11.9335237143
  0
LINE
  5
288
100
AcDbEntity
  8
LAYER_CUT_FEAT
100
AcDbLine
 62
7
  6
CONTINUOUS
 10
15.2403563562
 20
12.6860446521
 11
15.20993327
 21
12.7600105995
  0
LINE
  5
289
100
AcDbEntity
  8
LAYER_CUT_FEAT
100
AcDbLine
 62
7
  6
CONTINUOUS
 10
15.3886322253
 20
11.5177930773
 11
15.4466346383
 21
12.1413721977
  0
LINE
  5
28A
100
AcDbEntity
  8
LAYER_CUT_FEAT
100
AcDbLine
 62
7
  6
CONTINUOUS
 10
15.5219899691
 20
12.9515110961
 11
15.5872473563
 21
13.6530878413
  0
LINE
  5
28B
100
AcDbEntity
  8
LAYER_CUT_FEAT
100
AcDbLine
 62
7
  6
CONTINUOUS
 10
15.201824521
 20
12.410506641
 11
15.369848848
 21
12.5388578658
  0
LINE
  5
28C
100
AcDbEntity
  8
LAYER_CUT_FEAT
100
AcDbLine
 62
7
  6
CONTINUOUS
 10
15.7471648248
 20
12.8270837948
 11
15.9499755288
 21
12.9820078032
  0
LINE
  5
28D
100
AcDbEntity
  8
LAYER_CUT_FEAT
100
AcDbLine
 62
7
  6
CONTINUOUS
 10
15.9555085854
 20
12.9095185062
 11
15.7722191181
 21
12.7695064732
  0
LINE
  5
28E
100
AcDbEntity
  8
LAYER_CUT_FEAT
100
AcDbLine
 62
7
  6
CONTINUOUS
 10
15.3531785059
 20
12.4494077305
 11
15.2049462958
 21
12.3361754025
  0
LINE
  5
28F
100
AcDbEntity
  8
LAYER_CUT_FEAT
100
AcDbLine
 62
7
  6
CONTINUOUS
 10
15.8230534371
 20
11.6174789459
 11
15.6190780554
 21
12.1133928787
  0
LINE
  5
290
100
AcDbEntity
  8
LAYER_CUT_FEAT
100
AcDbLine
 62
7
  6
CONTINUOUS
 10
15.3835394744
 20
12.6860446521
 11
15.2432614723
 21
13.0270947098
  0
LINE
  5
291
100
AcDbEntity
  8
LAYER_CUT_FEAT
100
AcDbLine
 62
7
  6
CONTINUOUS
 10
15.2574593647
 20
13.223309721
 11
15.254929741
 21
13.2322201141
  0
LINE
  5
292
100
AcDbEntity
  8
LAYER_CUT_FEAT
100
AcDbLine
 62
7
  6
CONTINUOUS
 10
15.2681363529
 20
13.26447158
 11
15.2657382407
 21
13.2736186317
  0
LINE
  5
293
100
AcDbEntity
  8
LAYER_CUT_FEAT
100
AcDbLine
 62
7
  6
CONTINUOUS
 10
15.279405225
 20
13.304579471
 11
15.2771419784
 21
13.3139503883
  0
LINE
  5
294
100
AcDbEntity
  8
0
100
AcDbLine
 62
7
  6
CONTINUOUS
 10
15.2912502205
 20
13.3435772995
 11
15.2891250048
 21
13.3531589764
  0
LINE
  5
295
100
AcDbEntity
  8
LAYER_CUT_FEAT
100
AcDbLine
 62
7
  6
CONTINUOUS
 10
15.614460623
 20
13.6291481283
 11
15.5558605226
 21
12.99914332
  0
LINE
  5
296
100
AcDbEntity
  8
LAYER_CUT_FEAT
100
AcDbLine
 62
7
  6
CONTINUOUS
 10
15.4684661834
 20
12.0595740438
 11
15.4136916727
 21
11.470697833
  0
LINE
  5
297
100
AcDbEntity
  8
LAYER_CUT_FEAT
100
AcDbLine
 62
7
  6
CONTINUOUS
 10
15.4263255461
 20
11.4492562978
 11
15.4796565767
 21
12.0226137737
  0
LINE
  5
298
100
AcDbEntity
  8
LAYER_CUT_FEAT
100
AcDbLine
 62
7
  6
CONTINUOUS
 10
15.5670509159
 20
12.9621830499
 11
15.6256510163
 21
13.5921878582
  0
LINE
  5
299
100
AcDbEntity
  8
LAYER_CUT_FEAT
100
AcDbLine
 62
7
  6
CONTINUOUS
 10
15.4701239074
 20
11.3926089654
 11
15.5287240078
 21
12.0226137737
  0
LINE
  5
29A
100
AcDbEntity
  8
LAYER_CUT_FEAT
100
AcDbLine
 62
7
  6
CONTINUOUS
 10
15.616118347
 20
12.9621830499
 11
15.6747184474
 21
13.5921878582
  0
LINE
  5
29B
100
AcDbEntity
  8
LAYER_CUT_FEAT
100
AcDbLine
 62
7
  6
CONTINUOUS
 10
15.2140184964
 20
12.2146067726
 11
15.3217752772
 21
12.2969205366
  0
LINE
  5
29C
100
AcDbEntity
  8
LAYER_CUT_FEAT
100
AcDbLine
 62
7
  6
CONTINUOUS
 10
15.7988439861
 20
12.6613460586
 11
15.9241053567
 21
12.7570313122
  0
LINE
  5
29D
100
AcDbEntity
  8
LAYER_CUT_FEAT
100
AcDbLine
 62
7
  6
CONTINUOUS
 10
15.2174784516
 20
12.1797679162
 11
15.3708427083
 21
12.2969205366
  0
LINE
  5
29E
100
AcDbEntity
  8
LAYER_CUT_FEAT
100
AcDbLine
 62
7
  6
CONTINUOUS
 10
15.8036804691
 20
12.6275587109
 11
15.9731727878
 21
12.7570313122
  0
LINE
  5
29F
100
AcDbEntity
  8
LAYER_CUT_FEAT
100
AcDbLine
 62
7
  6
CONTINUOUS
 10
15.2564060908
 20
13.0963964
 11
15.3844109657
 21
12.7851853097
  0
LINE
  5
2A0
100
AcDbEntity
  8
LAYER_CUT_FEAT
100
AcDbLine
 62
7
  6
CONTINUOUS
 10
15.6585570482
 20
12.118669278
 11
15.8407466056
 21
11.6757220009
  0
LINE
  5
2A1
100
AcDbEntity
  8
LAYER_CUT_FEAT
100
AcDbLine
 62
7
  6
CONTINUOUS
 10
15.8342727965
 20
11.7912489248
 11
15.6943587228
 21
12.1314141837
  0
LINE
  5
2A2
100
AcDbEntity
  8
LAYER_CUT_FEAT
100
AcDbLine
 62
7
  6
CONTINUOUS
 10
15.3779371566
 20
12.9007122336
 11
15.2706512757
 21
13.1615503931
  0
LINE
  5
2A3
100
AcDbEntity
  8
LAYER_CUT_FEAT
100
AcDbLine
 62
7
  6
CONTINUOUS
 10
15.8833402276
 20
11.7912489248
 11
15.729081573
 21
12.1662893609
  0
LINE
  5
2A4
100
AcDbEntity
  8
LAYER_CUT_FEAT
100
AcDbLine
 62
7
  6
CONTINUOUS
 10
15.4270045877
 20
12.9007122336
 11
15.2893875713
 21
13.2352927857
  0
LINE
  5
2A5
100
AcDbEntity
  8
LAYER_CUT_FEAT
100
AcDbLine
 62
7
  6
CONTINUOUS
 10
15.7032072793
 20
13.5819616412
 11
15.6400675141
 21
12.9031512742
  0
LINE
  5
2A6
100
AcDbEntity
  8
LAYER_CUT_FEAT
100
AcDbLine
 62
7
  6
CONTINUOUS
 10
15.5625945612
 20
12.0702459976
 11
15.497337174
 21
11.3686692525
  0
LINE
  5
2A7
100
AcDbEntity
  8
LAYER_CUT_FEAT
100
AcDbLine
 62
7
  6
CONTINUOUS
 10
15.9839684512
 20
12.6885620403
 11
15.8096762187
 21
12.5554228579
  0
LINE
  5
2A8
100
AcDbEntity
  8
LAYER_CUT_FEAT
100
AcDbLine
 62
7
  6
CONTINUOUS
 10
15.4038417704
 20
12.2454121029
 11
15.2258078482
 21
12.1094147007
  0
LINE
  5
2A9
100
AcDbEntity
  8
LAYER_CUT_FEAT
100
AcDbLine
 62
7
  6
CONTINUOUS
 10
15.3065641426
 20
13.2947918147
 11
15.4655064749
 21
12.908364215
  0
LINE
  5
2AA
100
AcDbEntity
  8
LAYER_CUT_FEAT
100
AcDbLine
 62
7
  6
CONTINUOUS
 10
15.7538097606
 20
12.2074285676
 11
15.9050204376
 21
11.8397985089
  0
LINE
  5
2AB
100
AcDbEntity
  8
LAYER_CHAMFER_FEAT
100
AcDbLine
 62
7
  6
CONTINUOUS
 10
15.7234447652
 20
12.1590156354
 11
15.7204190949
 21
12.1553907307
  0
LINE
  5
2AC
100
AcDbEntity
  8
LAYER_CUT_FEAT
100
AcDbLine
 62
7
  6
CONTINUOUS
 10
15.6558339659
 20
12.9031512742
 11
15.5500794172
 21
12.9031512742
  0
LINE
  5
2AD
100
AcDbEntity
  8
LAYER_CHAMFER_FEAT
100
AcDbLine
 62
7
  6
CONTINUOUS
 10
15.7234447652
 20
12.8627414584
 11
15.7204190949
 21
12.8663663631
  0
LINE
  5
2AE
100
AcDbEntity
  8
LAYER_CUT_FEAT
100
AcDbLine
 62
7
  6
CONTINUOUS
 10
15.2476030597
 20
13.2021168554
 11
15.2518305354
 21
13.2001824551
  0
LINE
  5
2AF
100
AcDbEntity
  8
LAYER_CUT_FEAT
100
AcDbLine
 62
7
  6
CONTINUOUS
 10
15.257978355
 20
13.2442399178
 11
15.2621747079
 21
13.2419009562
  0
LINE
  5
2B0
100
AcDbEntity
  8
LAYER_CUT_FEAT
100
AcDbLine
 62
7
  6
CONTINUOUS
 10
15.268959741
 20
13.285337308
 11
15.2731191023
 21
13.2825970563
  0
LINE
  5
2B1
100
AcDbEntity
  8
0
100
AcDbLine
 62
7
  6
CONTINUOUS
 10
15.2805318594
 20
13.3253515475
 11
15.2846484117
 21
13.3222138383
  0
LINE
  5
2B2
100
AcDbEntity
  8
LAYER_CUT_FEAT
100
AcDbLine
 62
7
  6
CONTINUOUS
 10
14.805908911
 20
13.2006804894
 11
15.2463435317
 21
13.2006804894
  0
LINE
  5
2B3
100
AcDbEntity
  8
LAYER_CUT_FEAT
100
AcDbLine
 62
7
  6
CONTINUOUS
 10
14.8069525425
 20
13.2021658641
 11
15.2473871632
 21
13.2021658641
  0
LINE
  5
2B4
100
AcDbEntity
  8
LAYER_CUT_FEAT
100
AcDbLine
 62
7
  6
CONTINUOUS
 10
15.2564311829
 20
13.2024470282
 11
14.8159965621
 21
13.2024470282
  0
LINE
  5
2B5
100
AcDbEntity
  8
LAYER_CUT_FEAT
100
AcDbLine
 62
7
  6
CONTINUOUS
 10
15.2586827146
 20
13.2116979346
 11
14.8182480938
 21
13.2116979346
  0
LINE
  5
2B6
100
AcDbEntity
  8
LAYER_CUT_FEAT
100
AcDbLine
 62
7
  6
CONTINUOUS
 10
14.8144459688
 20
13.2357568427
 11
15.2548805895
 21
13.2357568427
  0
LINE
  5
2B7
100
AcDbEntity
  8
LAYER_CUT_FEAT
100
AcDbLine
 62
7
  6
CONTINUOUS
 10
15.2476030597
 20
13.2021168554
 11
15.2473871632
 21
13.2021658628
  0
LINE
  5
2B8
100
AcDbEntity
  8
LAYER_CUT_FEAT
100
AcDbLine
 62
7
  6
CONTINUOUS
 10
14.8162641723
 20
13.2429254937
 11
15.2566987931
 21
13.2429254937
  0
LINE
  5
2B9
100
AcDbEntity
  8
LAYER_CUT_FEAT
100
AcDbLine
 62
7
  6
CONTINUOUS
 10
15.2668051122
 20
13.2437222004
 11
15.2589071965
 21
13.2437222004
  0
LINE
  5
2BA
100
AcDbEntity
  8
LAYER_CUT_FEAT
100
AcDbLine
 62
7
  6
CONTINUOUS
 10
14.817282685
 20
13.2443118322
 11
15.2577173058
 21
13.2443118322
  0
LINE
  5
2BB
100
AcDbEntity
  8
LAYER_CUT_FEAT
100
AcDbLine
 62
7
  6
CONTINUOUS
 10
15.2691897702
 20
13.25275045
 11
14.8287551495
 21
13.25275045
  0
LINE
  5
2BC
100
AcDbEntity
  8
LAYER_CUT_FEAT
100
AcDbLine
 62
7
  6
CONTINUOUS
 10
14.8253060005
 20
13.2771576064
 11
15.2657406213
 21
13.2771576064
  0
LINE
  5
2BD
100
AcDbEntity
  8
LAYER_CUT_FEAT
100
AcDbLine
 62
7
  6
CONTINUOUS
 10
15.2777727874
 20
13.2839724245
 11
15.2710314643
 21
13.2839724245
  0
LINE
  5
2BE
100
AcDbEntity
  8
LAYER_CUT_FEAT
100
AcDbLine
 62
7
  6
CONTINUOUS
 10
14.827227314
 20
13.2841466641
 11
15.2676619348
 21
13.2841466641
  0
LINE
  5
2BF
100
AcDbEntity
  8
LAYER_CUT_FEAT
100
AcDbLine
 62
7
  6
CONTINUOUS
 10
14.8282192835
 20
13.2854364476
 11
15.2686539043
 21
13.2854364476
  0
LINE
  5
2C0
100
AcDbEntity
  8
LAYER_CUT_FEAT
100
AcDbLine
 62
7
  6
CONTINUOUS
 10
15.2802872365
 20
13.2927653904
 11
14.8398526157
 21
13.2927653904
  0
LINE
  5
2C1
100
AcDbEntity
  8
LAYER_CUT_FEAT
100
AcDbLine
 62
7
  6
CONTINUOUS
 10
14.8367612669
 20
13.3174866597
 11
15.2771958877
 21
13.3174866597
  0
LINE
  5
2C2
100
AcDbEntity
  8
0
100
AcDbLine
 62
7
  6
CONTINUOUS
 10
15.289318869
 20
13.323141407
 11
15.2834314778
 21
13.323141407
  0
LINE
  5
2C3
100
AcDbEntity
  8
0
100
AcDbLine
 62
7
  6
CONTINUOUS
 10
14.8387830032
 20
13.3242863491
 11
15.279217624
 21
13.3242863491
  0
LINE
  5
2C4
100
AcDbEntity
  8
0
100
AcDbLine
 62
7
  6
CONTINUOUS
 10
14.839747042
 20
13.3254821937
 11
15.2801816628
 21
13.3254821937
  0
LINE
  5
2C5
100
AcDbEntity
  8
0
100
AcDbLine
 62
7
  6
CONTINUOUS
 10
15.2919595925
 20
13.3316867914
 11
14.8515249718
 21
13.3316867914
  0
LINE
  5
2C6
100
AcDbEntity
  8
0
100
AcDbLine
 62
7
  6
CONTINUOUS
 10
14.8487957466
 20
13.3566875986
 11
15.2892303674
 21
13.3566875986
  0
LINE
  5
2C7
100
AcDbEntity
  8
02___PRT_ALL_AXES
100
AcDbLine
 62
7
  6
CONTINUOUS
 10
15.2509020598
 20
13.8456512742
 11
15.6913366806
 21
13.8456512742
  0
ARC
  5
2C8
100
AcDbEntity
  8
LAYER_CUT_FEAT
100
AcDbCircle
 62
7
  6
CONTINUOUS
 10
15.461828015
 20
4.3342781163
 40
0.0795454545
100
AcDbArc
 50
175.0
 51
355.0
  0
ARC
  5
2C9
100
AcDbEntity
  8
LAYER_CUT_FEAT
100
AcDbCircle
 62
7
  6
CONTINUOUS
 10
15.5182811666
 20
4.9795405912
 40
0.0795454545
100
AcDbArc
 50
355.0
 51
175.0
  0
ARC
  5
2CA
100
AcDbEntity
  8
LAYER_CUT_FEAT
100
AcDbCircle
 62
7
  6
CONTINUOUS
 10
14.5355904581
 20
4.9828366359
 40
0.0795454545
100
AcDbArc
 50
115.0
 51
295.0
  0
ARC
  5
2CB
100
AcDbEntity
  8
LAYER_CUT_FEAT
100
AcDbCircle
 62
7
  6
CONTINUOUS
 10
15.1226307292
 20
5.25657801
 40
0.0795454545
100
AcDbArc
 50
295.0
 51
115.0
  0
ARC
  5
2CC
100
AcDbEntity
  8
LAYER_CUT_FEAT
100
AcDbCircle
 62
7
  6
CONTINUOUS
 10
14.4356933192
 20
5.1803858889
 40
0.0681818182
100
AcDbArc
 50
193.9952760075
 51
295.0
  0
ARC
  5
2CD
100
AcDbEntity
  8
LAYER_CUT_FEAT
100
AcDbCircle
 62
7
  6
CONTINUOUS
 10
15.0923209606
 20
5.5183321728
 40
0.0681818182
100
AcDbArc
 50
352.9807733758
 51
55.0
  0
ARC
  5
2CE
100
AcDbEntity
  8
LAYER_CUT_FEAT
100
AcDbCircle
 62
7
  6
CONTINUOUS
 10
15.0894245245
 20
5.4852257563
 40
0.0681818182
100
AcDbArc
 50
295.0
 51
357.0192266242
  0
ARC
  5
2CF
100
AcDbEntity
  8
LAYER_CUT_FEAT
100
AcDbCircle
 62
7
  6
CONTINUOUS
 10
15.240796774
 20
4.3465392828
 40
0.0681818182
100
AcDbArc
 50
253.9952760075
 51
355.0
  0
ARC
  5
2D0
100
AcDbEntity
  8
LAYER_CUT_FEAT
100
AcDbCircle
 62
7
  6
CONTINUOUS
 10
14.6227093224
 20
4.7793287757
 40
0.0681818182
100
AcDbArc
 50
115.0
 51
216.0047239925
  0
ARC
  5
2D1
100
AcDbEntity
  8
LAYER_CUT_FEAT
100
AcDbCircle
 62
7
  6
CONTINUOUS
 10
15.2764405278
 20
5.0841686431
 40
0.0681818182
100
AcDbArc
 50
52.9807733758
 51
115.0
  0
ARC
  5
2D2
100
AcDbEntity
  8
LAYER_CUT_FEAT
100
AcDbCircle
 62
7
  6
CONTINUOUS
 10
15.3036633074
 20
5.0651070476
 40
0.0681818182
100
AcDbArc
 50
355.0
 51
57.0192266242
  0
ARC
  5
2D3
100
AcDbEntity
  8
LAYER_CUT_FEAT
100
AcDbCircle
 62
7
  6
CONTINUOUS
 10
15.5360926311
 20
5.1831265623
 40
0.0340909091
100
AcDbArc
 50
141.1124619419
 51
28.8875380581
  0
ARC
  5
2D4
100
AcDbEntity
  8
LAYER_CUT_FEAT
100
AcDbCircle
 62
7
  6
CONTINUOUS
 10
15.3633517281
 20
5.2636769682
 40
0.0340909091
100
AcDbArc
 50
124.1352673933
 51
325.8647326067
  0
ARC
  5
2D5
100
AcDbEntity
  8
LAYER_CUT_FEAT
100
AcDbCircle
 62
7
  6
CONTINUOUS
 10
14.6341398334
 20
6.10926115
 40
0.0795454545
100
AcDbArc
 50
55.0
 51
235.0
  0
ARC
  5
2D6
100
AcDbEntity
  8
LAYER_CUT_FEAT
100
AcDbCircle
 62
7
  6
CONTINUOUS
 10
15.164726953
 20
5.7377400492
 40
0.0795454545
100
AcDbArc
 50
235.0
 51
55.0
  0
ARC
  5
2D7
100
AcDbEntity
  8
LAYER_CUT_FEAT
100
AcDbCircle
 62
7
  6
CONTINUOUS
 10
14.5014562887
 20
5.9320600702
 40
0.0681818182
100
AcDbArc
 50
55.0
 51
156.0047239925
  0
ARC
  5
2D8
100
AcDbEntity
  8
LAYER_CUT_FEAT
100
AcDbCircle
 62
7
  6
CONTINUOUS
 10
15.3461386074
 20
5.8808213392
 40
0.0681818182
100
AcDbArc
 50
235.0
 51
297.0192266242
  0
ARC
  5
2D9
100
AcDbEntity
  8
LAYER_CUT_FEAT
100
AcDbCircle
 62
7
  6
CONTINUOUS
 10
15.3762578232
 20
5.8948661601
 40
0.0681818182
100
AcDbArc
 50
292.9807733758
 51
355.0
  0
ARC
  5
2DA
100
AcDbEntity
  8
LAYER_CUT_FEAT
100
AcDbCircle
 62
7
  6
CONTINUOUS
 10
15.4391243566
 20
6.6134339249
 40
0.0681818182
100
AcDbArc
 50
355.0
 51
96.0047239925
  0
ARC
  5
2DB
100
AcDbEntity
  8
LAYER_CUT_FEAT
100
AcDbCircle
 62
7
  6
CONTINUOUS
 10
14.7552739355
 20
6.2945492365
 40
0.0681818182
100
AcDbArc
 50
133.9952760075
 51
235.0
  0
ARC
  5
2DC
100
AcDbEntity
  8
LAYER_CUT_FEAT
100
AcDbCircle
 62
7
  6
CONTINUOUS
 10
15.3321318435
 20
5.6205218829
 40
0.0340909091
100
AcDbArc
 50
21.1124619419
 51
268.8875380581
  0
ARC
  5
2DD
100
AcDbEntity
  8
0
100
AcDbCircle
 62
7
  6
CONTINUOUS
 10
15.5584094294
 20
6.7893760899
 40
0.0168181818
100
AcDbArc
 50
296.189295886
 51
338.0982258445
  0
ARC
  5
2DE
100
AcDbEntity
  8
LAYER_CUT_FEAT
100
AcDbCircle
 62
7
  6
CONTINUOUS
 10
15.5087301181
 20
6.7883733705
 40
0.0168181818
100
AcDbArc
 50
298.3321530288
 51
340.2410829873
  0
ARC
  5
2DF
100
AcDbEntity
  8
LAYER_CUT_FEAT
100
AcDbCircle
 62
7
  6
CONTINUOUS
 10
15.5126632876
 20
6.7885205394
 40
0.0168181818
100
AcDbArc
 50
204.0446312984
 51
245.9535612569
  0
ARC
  5
2E0
100
AcDbEntity
  8
LAYER_CUT_FEAT
100
AcDbCircle
 62
7
  6
CONTINUOUS
 10
15.4591230403
 20
6.7855137836
 40
0.0168181818
100
AcDbArc
 50
300.4750101717
 51
342.3839401302
  0
ARC
  5
2E1
100
AcDbEntity
  8
LAYER_CUT_FEAT
100
AcDbCircle
 62
7
  6
CONTINUOUS
 10
15.4630479565
 20
6.7858079154
 40
0.0168181818
100
AcDbArc
 50
206.1874884412
 51
248.0964183997
  0
ARC
  5
2E2
100
AcDbEntity
  8
LAYER_CUT_FEAT
100
AcDbCircle
 62
7
  6
CONTINUOUS
 10
15.4096575757
 20
6.7808013284
 40
0.0168181818
100
AcDbArc
 50
302.6178673146
 51
344.5267972731
  0
ARC
  5
2E3
100
AcDbEntity
  8
LAYER_CUT_FEAT
100
AcDbCircle
 62
7
  6
CONTINUOUS
 10
15.4135687493
 20
6.7812420118
 40
0.0168181818
100
AcDbArc
 50
208.3303455841
 51
250.2392755426
  0
ARC
  5
2E4
100
AcDbEntity
  8
0
100
AcDbCircle
 62
7
  6
CONTINUOUS
 10
15.5396955722
 20
6.7921547703
 40
0.0031603491
100
AcDbArc
 50
21.9017741555
 51
90.0000000001
  0
ARC
  5
2E5
100
AcDbEntity
  8
LAYER_CUT_FEAT
100
AcDbCircle
 62
7
  6
CONTINUOUS
 10
15.5312601602
 20
6.7919970101
 40
0.0031603491
100
AcDbArc
 50
92.1428571428
 51
160.2410829874
  0
ARC
  5
2E6
100
AcDbEntity
  8
LAYER_CUT_FEAT
100
AcDbCircle
 62
7
  6
CONTINUOUS
 10
15.4899254492
 20
6.7904503743
 40
0.0031603491
100
AcDbArc
 50
24.0446312984
 51
92.142857143
  0
ARC
  5
2E7
100
AcDbEntity
  8
LAYER_CUT_FEAT
100
AcDbCircle
 62
7
  6
CONTINUOUS
 10
15.4815018349
 20
6.7899773143
 40
0.0031603491
100
AcDbArc
 50
94.2857142857
 51
162.3839401302
  0
ARC
  5
2E8
100
AcDbEntity
  8
LAYER_CUT_FEAT
100
AcDbCircle
 62
7
  6
CONTINUOUS
 10
15.4402538597
 20
6.7868862059
 40
0.0031603491
100
AcDbArc
 50
26.1874884412
 51
94.2857142856
  0
ARC
  5
2E9
100
AcDbEntity
  8
LAYER_CUT_FEAT
100
AcDbCircle
 62
7
  6
CONTINUOUS
 10
15.4318538243
 20
6.7860985077
 40
0.0031603491
100
AcDbArc
 50
96.4285714286
 51
164.526797273
  0
ARC
  5
2EA
100
AcDbEntity
  8
LAYER_CUT_FEAT
100
AcDbCircle
 62
7
  6
CONTINUOUS
 10
15.3907502738
 20
6.7814672498
 40
0.0031603491
100
AcDbArc
 50
28.3303455841
 51
96.4285714286
  0
ARC
  5
2EB
100
AcDbEntity
  8
LAYER_CUT_FEAT
100
AcDbCircle
 62
7
  6
CONTINUOUS
 10
15.6816304241
 20
4.3079713359
 40
0.0681818182
100
AcDbArc
 50
175.0
 51
276.0047239925
  0
ARC
  5
2EC
100
AcDbEntity
  8
LAYER_CUT_FEAT
100
AcDbCircle
 62
7
  6
CONTINUOUS
 10
15.7746161732
 20
5.0405839217
 40
0.0681818182
100
AcDbArc
 50
55.0
 51
117.0192266242
  0
ARC
  5
2ED
100
AcDbEntity
  8
LAYER_CUT_FEAT
100
AcDbCircle
 62
7
  6
CONTINUOUS
 10
15.7444969575
 20
5.0265391007
 40
0.0681818182
100
AcDbArc
 50
112.9807733758
 51
175.0
  0
ARC
  5
2EE
100
AcDbEntity
  8
LAYER_CUT_FEAT
100
AcDbCircle
 62
7
  6
CONTINUOUS
 10
15.5603773903
 20
5.4607026304
 40
1.3347727273
100
AcDbArc
 50
90.8878128023
 51
91.2550443406
  0
ARC
  5
2EF
100
AcDbEntity
  8
LAYER_CUT_FEAT
100
AcDbCircle
 62
7
  6
CONTINUOUS
 10
15.5603773903
 20
5.4607026304
 40
1.3347727273
100
AcDbArc
 50
93.0306699451
 51
93.3979014835
  0
ARC
  5
2F0
100
AcDbEntity
  8
LAYER_CUT_FEAT
100
AcDbCircle
 62
7
  6
CONTINUOUS
 10
15.5603773903
 20
5.4607026304
 40
1.3347727273
100
AcDbArc
 50
95.173527088
 51
95.5407586263
  0
ARC
  5
2F1
100
AcDbEntity
  8
LAYER_CUT_FEAT
100
AcDbCircle
 62
7
  6
CONTINUOUS
 10
15.5603773903
 20
5.4607026304
 40
1.3347727273
100
AcDbArc
 50
97.3163842308
 51
89.1121871977
  0
CIRCLE
  5
2F2
100
AcDbEntity
  8
LAYER_CUT_FEAT
100
AcDbCircle
 62
7
  6
CONTINUOUS
 10
15.5603773903
 20
5.4607026304
 40
1.2612727273
  0
CIRCLE
  5
2F3
100
AcDbEntity
  8
LAYER_CUT_FEAT
100
AcDbCircle
 62
7
  6
CONTINUOUS
 10
15.5603773903
 20
5.4607026304
 40
1.2572727273
  0
ARC
  5
2F4
100
AcDbEntity
  8
LAYER_CUT_FEAT
100
AcDbCircle
 62
7
  6
CONTINUOUS
 10
15.5603773903
 20
5.4607026304
 40
1.2272727273
100
AcDbArc
 50
156.0047239925
 51
193.9952760075
  0
ARC
  5
2F5
100
AcDbEntity
  8
LAYER_CUT_FEAT
100
AcDbCircle
 62
7
  6
CONTINUOUS
 10
15.5603773903
 20
5.4607026304
 40
1.2272727273
100
AcDbArc
 50
216.0047239925
 51
253.9952760075
  0
ARC
  5
2F6
100
AcDbEntity
  8
LAYER_CUT_FEAT
100
AcDbCircle
 62
7
  6
CONTINUOUS
 10
15.5603773903
 20
5.4607026304
 40
1.2272727273
100
AcDbArc
 50
96.0047239925
 51
133.9952760075
  0
ARC
  5
2F7
100
AcDbEntity
  8
LAYER_CUT_FEAT
100
AcDbCircle
 62
7
  6
CONTINUOUS
 10
15.5603773903
 20
5.4607026304
 40
1.2272727273
100
AcDbArc
 50
36.0047239925
 51
73.9952760075
  0
ARC
  5
2F8
100
AcDbEntity
  8
LAYER_CUT_FEAT
100
AcDbCircle
 62
7
  6
CONTINUOUS
 10
15.5603773903
 20
5.4607026304
 40
1.2272727273
100
AcDbArc
 50
336.0047239925
 51
13.9952760075
  0
ARC
  5
2F9
100
AcDbEntity
  8
LAYER_CUT_FEAT
100
AcDbCircle
 62
7
  6
CONTINUOUS
 10
15.5603773903
 20
5.4607026304
 40
1.2272727273
100
AcDbArc
 50
276.0047239925
 51
313.9952760075
  0
ARC
  5
2FA
100
AcDbEntity
  8
LAYER_CUT_FEAT
100
AcDbCircle
 62
7
  6
CONTINUOUS
 10
15.5603773903
 20
5.4607026304
 40
0.4034090909
100
AcDbArc
 50
172.9807733758
 51
177.0192266242
  0
ARC
  5
2FB
100
AcDbEntity
  8
LAYER_CUT_FEAT
100
AcDbCircle
 62
7
  6
CONTINUOUS
 10
15.5603773903
 20
5.4607026304
 40
0.4034090909
100
AcDbArc
 50
232.9807733758
 51
237.0192266242
  0
ARC
  5
2FC
100
AcDbEntity
  8
LAYER_CUT_FEAT
100
AcDbCircle
 62
7
  6
CONTINUOUS
 10
15.5603773903
 20
5.4607026304
 40
0.4034090909
100
AcDbArc
 50
112.9807733758
 51
117.0192266242
  0
ARC
  5
2FD
100
AcDbEntity
  8
LAYER_CUT_FEAT
100
AcDbCircle
 62
7
  6
CONTINUOUS
 10
15.5603773903
 20
5.4607026304
 40
0.4034090909
100
AcDbArc
 50
52.9807733758
 51
57.0192266242
  0
ARC
  5
2FE
100
AcDbEntity
  8
LAYER_CUT_FEAT
100
AcDbCircle
 62
7
  6
CONTINUOUS
 10
15.5603773903
 20
5.4607026304
 40
0.4034090909
100
AcDbArc
 50
352.9807733758
 51
357.0192266242
  0
ARC
  5
2FF
100
AcDbEntity
  8
LAYER_CUT_FEAT
100
AcDbCircle
 62
7
  6
CONTINUOUS
 10
15.5603773903
 20
5.4607026304
 40
0.4034090909
100
AcDbArc
 50
292.9807733758
 51
297.0192266242
  0
CIRCLE
  5
300
100
AcDbEntity
  8
LAYER_CHAMFER_FEAT
100
AcDbCircle
 62
7
  6
CONTINUOUS
 10
15.5603773903
 20
5.4607026304
 40
0.3922727273
  0
CIRCLE
  5
301
100
AcDbEntity
  8
LAYER_CHAMFER_FEAT
100
AcDbCircle
 62
7
  6
CONTINUOUS
 10
15.5603773903
 20
5.4607026304
 40
0.3882727273
  0
ARC
  5
302
100
AcDbEntity
  8
LAYER_CUT_FEAT
100
AcDbCircle
 62
7
  6
CONTINUOUS
 10
15.5603773903
 20
5.4607026304
 40
0.2897727273
100
AcDbArc
 50
23.5004358716
 51
50.4995641284
  0
ARC
  5
303
100
AcDbEntity
  8
LAYER_CUT_FEAT
100
AcDbCircle
 62
7
  6
CONTINUOUS
 10
15.5603773903
 20
5.4607026304
 40
0.2897727273
100
AcDbArc
 50
271.5004358716
 51
10.4995641284
  0
ARC
  5
304
100
AcDbEntity
  8
LAYER_CUT_FEAT
100
AcDbCircle
 62
7
  6
CONTINUOUS
 10
15.5603773903
 20
5.4607026304
 40
0.2897727273
100
AcDbArc
 50
231.5004358716
 51
258.4995641284
  0
ARC
  5
305
100
AcDbEntity
  8
LAYER_CUT_FEAT
100
AcDbCircle
 62
7
  6
CONTINUOUS
 10
15.5603773903
 20
5.4607026304
 40
0.2897727273
100
AcDbArc
 50
151.5004358716
 51
218.4995641284
  0
ARC
  5
306
100
AcDbEntity
  8
LAYER_CUT_FEAT
100
AcDbCircle
 62
7
  6
CONTINUOUS
 10
15.5603773903
 20
5.4607026304
 40
0.2897727273
100
AcDbArc
 50
63.5004358716
 51
138.4995641284
  0
ARC
  5
307
100
AcDbEntity
  8
02___PRT_ALL_AXES
100
AcDbCircle
 62
7
  6
CONTINUOUS
 10
15.5603773903
 20
5.4607026304
 40
0.274261689
100
AcDbArc
 50
217.9882688816
 51
232.0117311184
  0
ARC
  5
308
100
AcDbEntity
  8
02___PRT_ALL_AXES
100
AcDbCircle
 62
7
  6
CONTINUOUS
 10
15.5603773903
 20
5.4607026304
 40
0.274261689
100
AcDbArc
 50
49.9882688816
 51
64.0117311184
  0
ARC
  5
309
100
AcDbEntity
  8
LAYER_CUT_FEAT
100
AcDbCircle
 62
7
  6
CONTINUOUS
 10
15.5603773903
 20
5.4607026304
 40
0.2611663042
100
AcDbArc
 50
151.2207914583
 51
258.7792085417
  0
ARC
  5
30A
100
AcDbEntity
  8
LAYER_CUT_FEAT
100
AcDbCircle
 62
7
  6
CONTINUOUS
 10
15.5603773903
 20
5.4607026304
 40
0.2611663042
100
AcDbArc
 50
271.2207914583
 51
10.7792085417
  0
ARC
  5
30B
100
AcDbEntity
  8
LAYER_CUT_FEAT
100
AcDbCircle
 62
7
  6
CONTINUOUS
 10
15.5603773903
 20
5.4607026304
 40
0.2611663042
100
AcDbArc
 50
23.2207914583
 51
138.7792085417
  0
ARC
  5
30C
100
AcDbEntity
  8
LAYER_CUT_FEAT
100
AcDbCircle
 62
7
  6
CONTINUOUS
 10
15.9560278277
 20
5.1836652116
 40
0.0795454545
100
AcDbArc
 50
55.0
 51
235.0
  0
ARC
  5
30D
100
AcDbEntity
  8
LAYER_CUT_FEAT
100
AcDbCircle
 62
7
  6
CONTINUOUS
 10
16.0313302562
 20
5.4361795045
 40
0.0681818182
100
AcDbArc
 50
115.0
 51
177.0192266242
  0
ARC
  5
30E
100
AcDbEntity
  8
LAYER_CUT_FEAT
100
AcDbCircle
 62
7
  6
CONTINUOUS
 10
16.02843382
 20
5.403073088
 40
0.0681818182
100
AcDbArc
 50
172.9807733758
 51
235.0
  0
ARC
  5
30F
100
AcDbEntity
  8
LAYER_CUT_FEAT
100
AcDbCircle
 62
7
  6
CONTINUOUS
 10
15.8268386701
 20
5.542168019
 40
0.0340909091
100
AcDbArc
 50
253.1124619419
 51
140.8875380581
  0
ARC
  5
310
100
AcDbEntity
  8
LAYER_CUT_FEAT
100
AcDbCircle
 62
7
  6
CONTINUOUS
 10
16.4866149473
 20
4.8121441108
 40
0.0795454545
100
AcDbArc
 50
235.0
 51
55.0
  0
ARC
  5
311
100
AcDbEntity
  8
LAYER_CUT_FEAT
100
AcDbCircle
 62
7
  6
CONTINUOUS
 10
16.3654808452
 20
4.6268560243
 40
0.0681818182
100
AcDbArc
 50
313.9952760075
 51
55.0
  0
ARC
  5
312
100
AcDbEntity
  8
LAYER_CUT_FEAT
100
AcDbCircle
 62
7
  6
CONTINUOUS
 10
16.619298492
 20
4.9893451906
 40
0.0681818182
100
AcDbArc
 50
235.0
 51
336.0047239925
  0
ARC
  5
313
100
AcDbEntity
  8
LAYER_CUT_FEAT
100
AcDbCircle
 62
7
  6
CONTINUOUS
 10
15.6589267656
 20
6.5871271445
 40
0.0795454545
100
AcDbArc
 50
355.0
 51
175.0
  0
ARC
  5
314
100
AcDbEntity
  8
LAYER_CUT_FEAT
100
AcDbCircle
 62
7
  6
CONTINUOUS
 10
15.6024736141
 20
5.9418646696
 40
0.0795454545
100
AcDbArc
 50
175.0
 51
355.0
  0
ARC
  5
315
100
AcDbEntity
  8
LAYER_CUT_FEAT
100
AcDbCircle
 62
7
  6
CONTINUOUS
 10
16.5851643226
 20
5.9385686249
 40
0.0795454545
100
AcDbArc
 50
295.0
 51
115.0
  0
ARC
  5
316
100
AcDbEntity
  8
LAYER_CUT_FEAT
100
AcDbCircle
 62
7
  6
CONTINUOUS
 10
15.9981240515
 20
5.6648272508
 40
0.0795454545
100
AcDbArc
 50
115.0
 51
295.0
  0
ARC
  5
317
100
AcDbEntity
  8
LAYER_CUT_FEAT
100
AcDbCircle
 62
7
  6
CONTINUOUS
 10
15.8170914733
 20
5.8562982132
 40
0.0681818182
100
AcDbArc
 50
175.0
 51
237.0192266242
  0
ARC
  5
318
100
AcDbEntity
  8
LAYER_CUT_FEAT
100
AcDbCircle
 62
7
  6
CONTINUOUS
 10
15.8443142529
 20
5.8372366177
 40
0.0681818182
100
AcDbArc
 50
232.9807733758
 51
295.0
  0
ARC
  5
319
100
AcDbEntity
  8
LAYER_CUT_FEAT
100
AcDbCircle
 62
7
  6
CONTINUOUS
 10
16.4980454583
 20
6.1420764852
 40
0.0681818182
100
AcDbArc
 50
295.0
 51
36.0047239925
  0
ARC
  5
31A
100
AcDbEntity
  8
LAYER_CUT_FEAT
100
AcDbCircle
 62
7
  6
CONTINUOUS
 10
15.8799580067
 20
6.574865978
 40
0.0681818182
100
AcDbArc
 50
73.9952760075
 51
175.0
  0
ARC
  5
31B
100
AcDbEntity
  8
LAYER_CUT_FEAT
100
AcDbCircle
 62
7
  6
CONTINUOUS
 10
16.6850614615
 20
5.7410193719
 40
0.0681818182
100
AcDbArc
 50
13.9952760075
 51
115.0
  0
ARC
  5
31C
100
AcDbEntity
  8
LAYER_CUT_FEAT
100
AcDbCircle
 62
7
  6
CONTINUOUS
 10
15.7121336306
 20
5.6943867477
 40
0.0340909091
100
AcDbArc
 50
316.1352673933
 51
157.8647326067
  0
ARC
  5
31D
100
AcDbEntity
  8
0
100
AcDbCircle
 62
7
  6
CONTINUOUS
 10
15.5623453513
 20
6.7893760899
 40
0.0168181818
100
AcDbArc
 50
201.9017741555
 51
243.810704114
  0
ARC
  5
31E
100
AcDbEntity
  8
0
100
AcDbCircle
 62
7
  6
CONTINUOUS
 10
15.5810592085
 20
6.7921547703
 40
0.0031603491
100
AcDbArc
 50
89.9999999999
 51
158.0982258445
  0
ARC
  5
31F
100
AcDbEntity
  8
LAYER_CUT_FEAT
100
AcDbCircle
 62
7
  6
CONTINUOUS
 10
14.0161977118
 20
-8.279329066
 40
20.5757262903
100
AcDbArc
 50
85.3478093238
 51
85.5089008092
  0
ARC
  5
320
100
AcDbEntity
  8
LAYER_CUT_FEAT
100
AcDbCircle
 62
7
  6
CONTINUOUS
 10
16.8830607623
 20
-5.8182327942
 40
18.6473924926
100
AcDbArc
 50
93.6726101631
 51
93.9074895639
  0
ARC
  5
321
100
AcDbEntity
  8
LAYER_CUT_FEAT
100
AcDbCircle
 62
7
  6
CONTINUOUS
 10
14.8336244942
 20
23.5739179304
 40
10.8426976997
100
AcDbArc
 50
274.0581016882
 51
274.6486845911
  0
ARC
  5
322
100
AcDbEntity
  8
LAYER_CUT_FEAT
100
AcDbCircle
 62
7
  6
CONTINUOUS
 10
16.0573712623
 20
20.9803886048
 40
8.6973574963
100
AcDbArc
 50
266.8784278166
 51
267.8570417849
  0
ARC
  5
323
100
AcDbEntity
  8
LAYER_CUT_FEAT
100
AcDbCircle
 62
7
  6
CONTINUOUS
 10
15.2601693125
 20
5.2135040096
 40
7.1400565931
100
AcDbArc
 50
86.0685097604
 51
87.5404816966
  0
ARC
  5
324
100
AcDbEntity
  8
LAYER_CUT_FEAT
100
AcDbCircle
 62
7
  6
CONTINUOUS
 10
16.9635163898
 20
12.6944974401
 40
2.2161826223
100
AcDbArc
 50
165.6724342704
 51
165.8636364223
  0
ARC
  5
325
100
AcDbEntity
  8
LAYER_CUT_FEAT
100
AcDbCircle
 62
7
  6
CONTINUOUS
 10
17.4003800598
 20
12.6954031496
 40
2.2124986081
100
AcDbArc
 50
165.6722750856
 51
165.863795607
  0
ARC
  5
326
100
AcDbEntity
  8
LAYER_CUT_FEAT
100
AcDbCircle
 62
7
  6
CONTINUOUS
 10
16.8381363238
 20
12.7275829564
 40
2.0865086164
100
AcDbArc
 50
164.5293911281
 51
164.7284314085
  0
ARC
  5
327
100
AcDbEntity
  8
LAYER_CUT_FEAT
100
AcDbCircle
 62
7
  6
CONTINUOUS
 10
17.2749841868
 20
12.7285689672
 40
2.0827888036
100
AcDbArc
 50
164.5292133873
 51
164.7286091493
  0
ARC
  5
328
100
AcDbEntity
  8
LAYER_CUT_FEAT
100
AcDbCircle
 62
7
  6
CONTINUOUS
 10
16.7127168458
 20
12.7634134191
 40
1.9560691424
100
AcDbArc
 50
163.3374311632
 51
163.5452202657
  0
ARC
  5
329
100
AcDbEntity
  8
LAYER_CUT_FEAT
100
AcDbCircle
 62
7
  6
CONTINUOUS
 10
17.1495789922
 20
12.7644756149
 40
1.9523421077
100
AcDbArc
 50
163.3372328276
 51
163.5454186014
  0
ARC
  5
32A
100
AcDbEntity
  8
LAYER_CUT_FEAT
100
AcDbCircle
 62
7
  6
CONTINUOUS
 10
16.347218393
 20
12.5154669711
 40
0.9618618027
100
AcDbArc
 50
173.8587905955
 51
175.5130193596
  0
ARC
  5
32B
100
AcDbEntity
  8
LAYER_CUT_FEAT
100
AcDbCircle
 62
7
  6
CONTINUOUS
 10
16.2040352748
 20
12.5154669711
 40
0.9618618027
100
AcDbArc
 50
173.8587905955
 51
175.5130193597
  0
ARC
  5
32C
100
AcDbEntity
  8
LAYER_CUT_FEAT
100
AcDbCircle
 62
7
  6
CONTINUOUS
 10
15.8330212797
 20
12.3820938058
 40
0.4312024259
100
AcDbArc
 50
200.9537656632
 51
203.7621475817
  0
ARC
  5
32D
100
AcDbEntity
  8
LAYER_CUT_FEAT
100
AcDbCircle
 62
7
  6
CONTINUOUS
 10
15.2871138686
 20
11.40957825
 40
0.1837950786
100
AcDbArc
 50
352.5590362301
 51
354.7024967152
  0
ARC
  5
32E
100
AcDbEntity
  8
LAYER_CUT_FEAT
100
AcDbCircle
 62
7
  6
CONTINUOUS
 10
15.1308360793
 20
12.1572289811
 40
0.1733422279
100
AcDbArc
 50
354.7514309437
 51
3.8850585183
  0
ARC
  5
32F
100
AcDbEntity
  8
LAYER_CUT_FEAT
100
AcDbCircle
 62
7
  6
CONTINUOUS
 10
15.6668697975
 20
11.3529616171
 40
0.170258745
100
AcDbArc
 50
174.7065108635
 51
179.8624989279
  0
ARC
  5
330
100
AcDbEntity
  8
LAYER_CHAMFER_FEAT
100
AcDbCircle
 62
7
  6
CONTINUOUS
 10
15.599369978
 20
12.2625611191
 40
0.1616051299
100
AcDbArc
 50
318.4706798901
 51
320.1536226604
  0
ARC
  5
331
100
AcDbEntity
  8
LAYER_CHAMFER_FEAT
100
AcDbCircle
 62
7
  6
CONTINUOUS
 10
15.6008933715
 20
12.7605055862
 40
0.1595964175
100
AcDbArc
 50
39.835827645
 51
41.5457961146
  0
ARC
  5
332
100
AcDbEntity
  8
LAYER_CUT_FEAT
100
AcDbCircle
 62
7
  6
CONTINUOUS
 10
14.8076963515
 20
13.2076537452
 40
0.0097981324
100
AcDbArc
 50
325.8129292788
 51
327.8999766554
  0
ARC
  5
333
100
AcDbEntity
  8
LAYER_CUT_FEAT
100
AcDbCircle
 62
7
  6
CONTINUOUS
 10
15.5555162827
 20
12.4025098306
 40
0.0051678272
100
AcDbArc
 50
269.4468814342
 51
269.9978239564
  0
SPLINE
  5
334
100
AcDbEntity
  8
LAYER_CUT_FEAT
100
AcDbSpline
 62
7
  6
CONTINUOUS
 70
0
 71
3
 72
26
 73
22
 74
0
 42
0.0000001
 43
0.0000001
 44
0.0000000001
 40
0.0
 40
0.0
 40
0.0
 40
0.0
 40
0.0877723807
 40
0.1722621929
 40
0.2533247283
 40
0.3308399142
 40
0.4047171395
 40
0.4748995968
 40
0.5413699533
 40
0.6041570958
 40
0.663344487
 40
0.719079878
 40
0.7715863428
 40
0.8211736719
 40
0.8682480034
 40
0.8910086518
 40
0.9133396672
 40
0.935319307
 40
0.9570307237
 40
0.9785610032
 40
1.0
 40
1.0
 40
1.0
 40
1.0
 10
14.8487957466
 20
13.3566875986
 30
0.0
 10
14.854757131
 20
13.3753764615
 30
0.0
 10
14.8670450462
 20
13.4118714888
 30
0.0
 10
14.8869838398
 20
13.4648737931
 30
0.0
 10
14.9080306156
 20
13.5149707018
 30
0.0
 10
14.9301215529
 20
13.5620101708
 30
0.0
 10
14.953190261
 20
13.6058505994
 30
0.0
 10
14.9771679872
 20
13.6463602168
 30
0.0
 10
15.0019840572
 20
13.6834177074
 30
0.0
 10
15.0275665287
 20
13.7169121991
 30
0.0
 10
15.0538428388
 20
13.7467432835
 30
0.0
 10
15.0807398956
 20
13.7728202719
 30
0.0
 10
15.1081861928
 20
13.7950616752
 30
0.0
 10
15.1361046353
 20
13.8133918004
 30
0.0
 10
15.1599741279
 20
13.8254864187
 30
0.0
 10
15.1791489493
 20
13.8330442112
 30
0.0
 10
15.1934292315
 20
13.8376382659
 30
0.0
 10
15.2077559502
 20
13.841215837
 30
0.0
 10
15.2221183517
 20
13.8437738227
 30
0.0
 10
15.2365037171
 20
13.8453096309
 30
0.0
 10
15.2461105684
 20
13.8456512635
 30
0.0
 10
15.2509020598
 20
13.8456512669
 30
0.0
  0
LINE
  5
335
100
AcDbEntity
  8
LAYER_CUT_FEAT
100
AcDbLine
 62
7
  6
CONTINUOUS
 10
15.6359301912
 20
12.7942497048
 11
15.6136658711
 21
12.7927034356
  0
SPLINE
  5
336
100
AcDbEntity
  8
LAYER_CUT_FEAT
100
AcDbSpline
 62
7
  6
CONTINUOUS
 70
0
 71
3
 72
16
 73
12
 74
0
 42
0.0000001
 43
0.0000001
 44
0.0000000001
 40
0.0
 40
0.0
 40
0.0
 40
0.0
 40
0.0827319664
 40
0.1289161913
 40
0.1784515045
 40
0.2875901331
 40
0.4097837383
 40
0.5439061884
 40
0.6883411516
 40
0.8411148098
 40
1.0
 40
1.0
 40
1.0
 40
1.0
 10
15.2266657299
 20
12.5388578658
 30
0.0
 10
15.2278991333
 20
12.5398000439
 30
0.0
 10
15.2296375248
 20
12.5415136745
 30
0.0
 10
15.2317047364
 20
12.5441480444
 30
0.0
 10
15.2338399671
 20
12.5473483422
 30
0.0
 10
15.2363051782
 20
12.5520206451
 30
0.0
 10
15.2388655949
 20
12.5583905072
 30
0.0
 10
15.241072648
 20
12.56558559
 30
0.0
 10
15.2428863755
 20
12.5734778597
 30
0.0
 10
15.2442734778
 20
12.5819262222
 30
0.0
 10
15.2448878105
 20
12.5877442963
 30
0.0
 10
15.2451214475
 20
12.5907158856
 30
0.0
  0
SPLINE
  5
337
100
AcDbEntity
  8
LAYER_CUT_FEAT
100
AcDbSpline
 62
7
  6
CONTINUOUS
 70
0
 71
3
 72
21
 73
17
 74
0
 42
0.0000001
 43
0.0000001
 44
0.0000000001
 40
0.0
 40
0.0
 40
0.0
 40
0.0
 40
0.0358426058
 40
0.0730369079
 40
0.112762406
 40
0.1559291713
 40
0.2031651584
 40
0.25485153
 40
0.3111706366
 40
0.3721492534
 40
0.43769249
 40
0.5076091371
 40
0.5816305075
 40
0.6594247963
 40
0.8247214389
 40
1.0
 40
1.0
 40
1.0
 40
1.0
 10
15.4985950956
 20
12.1206393551
 30
0.0
 10
15.4977287608
 20
12.1206393509
 30
0.0
 10
15.495958024
 20
12.1204457712
 30
0.0
 10
15.4933532132
 20
12.119587366
 30
0.0
 10
15.4908001327
 20
12.1181759352
 30
0.0
 10
15.488315354
 20
12.116229667
 30
0.0
 10
15.4859107748
 20
12.1137658074
 30
0.0
 10
15.4835991371
 20
12.110802085
 30
0.0
 10
15.4813937643
 20
12.1073583678
 30
0.0
 10
15.4793084416
 20
12.1034575301
 30
0.0
 10
15.4773568293
 20
12.0991257019
 30
0.0
 10
15.4755521293
 20
12.0943922142
 30
0.0
 10
15.4739066089
 20
12.0892893562
 30
0.0
 10
15.4718998701
 20
12.0818894865
 30
0.0
 10
15.4698930682
 20
12.0719665893
 30
0.0
 10
15.4688585561
 20
12.0637924104
 30
0.0
 10
15.4684661834
 20
12.0595740438
 30
0.0
  0
SPLINE
  5
338
100
AcDbEntity
  8
LAYER_CUT_FEAT
100
AcDbSpline
 62
7
  6
CONTINUOUS
 70
0
 71
3
 72
15
 73
11
 74
0
 42
0.0000001
 43
0.0000001
 44
0.0000000001
 40
0.0
 40
0.0
 40
0.0
 40
0.0
 40
0.1318987377
 40
0.2658550671
 40
0.399798156
 40
0.5316547175
 40
0.6594085292
 40
0.781157828
 40
0.8951784437
 40
1.0
 40
1.0
 40
1.0
 40
1.0
 10
15.2476933493
 20
12.618366188
 30
0.0
 10
15.2480165719
 20
12.6213686784
 30
0.0
 10
15.2484970347
 20
12.6274400608
 30
0.0
 10
15.2487334832
 20
12.6365944115
 30
0.0
 10
15.2484906291
 20
12.6457479338
 30
0.0
 10
15.2477729368
 20
12.6547341899
 30
0.0
 10
15.246593804
 20
12.6633903152
 30
0.0
 10
15.2449749955
 20
12.6715601589
 30
0.0
 10
15.2429467172
 20
12.6790959318
 30
0.0
 10
15.2412692596
 20
12.6838251613
 30
0.0
 10
15.2403563562
 20
12.6860446521
 30
0.0
  0
SPLINE
  5
339
100
AcDbEntity
  8
LAYER_CUT_FEAT
100
AcDbSpline
 62
7
  6
CONTINUOUS
 70
0
 71
3
 72
11
 73
7
 74
0
 42
0.0000001
 43
0.0000001
 44
0.0000000001
 40
0.0
 40
0.0
 40
0.0
 40
0.0
 40
0.234246155
 40
0.4751621994
 40
0.7287735063
 40
1.0
 40
1.0
 40
1.0
 40
1.0
 10
15.3620106071
 20
12.4527095812
 30
0.0
 10
15.361261683
 20
12.4527095783
 30
0.0
 10
15.3597389628
 20
12.4525662193
 30
0.0
 10
15.3574863128
 20
12.4519274718
 30
0.0
 10
15.355265905
 20
12.4508726831
 30
0.0
 10
15.3538676113
 20
12.4499341277
 30
0.0
 10
15.3531785059
 20
12.4494077305
 30
0.0
  0
SPLINE
  5
33A
100
AcDbEntity
  8
LAYER_CUT_FEAT
100
AcDbSpline
 62
7
  6
CONTINUOUS
 70
0
 71
3
 72
15
 73
11
 74
0
 42
0.0000001
 43
0.0000001
 44
0.0000000001
 40
0.0
 40
0.0
 40
0.0
 40
0.0
 40
0.1389850119
 40
0.2744852263
 40
0.4062186546
 40
0.5339214723
 40
0.6573525206
 40
0.7762956676
 40
0.890563248
 40
1.0
 40
1.0
 40
1.0
 40
1.0
 10
15.8227580906
 20
13.0789171584
 30
0.0
 10
15.8188784014
 20
13.0979977744
 30
0.0
 10
15.8107446188
 20
13.1355867794
 30
0.0
 10
15.797235391
 20
13.1908760861
 30
0.0
 10
15.782601594
 20
13.2442422427
 30
0.0
 10
15.766884712
 20
13.2955343216
 30
0.0
 10
15.7501292827
 20
13.3446077366
 30
0.0
 10
15.73238246
 20
13.3913246506
 30
0.0
 10
15.7136947871
 20
13.4355526296
 30
0.0
 10
15.7003499033
 20
13.4639212777
 30
0.0
 10
15.6935156996
 20
13.4776452919
 30
0.0
  0
SPLINE
  5
33B
100
AcDbEntity
  8
LAYER_CUT_FEAT
100
AcDbSpline
 62
7
  6
CONTINUOUS
 70
0
 71
3
 72
20
 73
16
 74
0
 42
0.0000001
 43
0.0000001
 44
0.0000000001
 40
0.0
 40
0.0
 40
0.0
 40
0.0
 40
0.0368471282
 40
0.0783576104
 40
0.1248073014
 40
0.1761877366
 40
0.2322852936
 40
0.292733936
 40
0.3570512302
 40
0.4246649961
 40
0.4949340606
 40
0.5671652852
 40
0.7145395096
 40
0.8607998216
 40
1.0
 40
1.0
 40
1.0
 40
1.0
 10
15.8067924106
 20
12.9820078032
 30
0.0
 10
15.807783408
 20
12.9827648111
 30
0.0
 10
15.80972767
 20
12.9845916777
 30
0.0
 10
15.8123408859
 20
12.9879243926
 30
0.0
 10
15.8147927105
 20
12.9919636953
 30
0.0
 10
15.8170559741
 20
12.9966631128
 30
0.0
 10
15.8191059484
 20
13.0019693472
 30
0.0
 10
15.820918282
 20
13.0078203237
 30
0.0
 10
15.822471259
 20
13.0141468303
 30
0.0
 10
15.8237459541
 20
13.020873294
 30
0.0
 10
15.8247269104
 20
13.0279191766
 30
0.0
 10
15.8256325129
 20
13.0376905071
 30
0.0
 10
15.825961997
 20
13.0500854681
 30
0.0
 10
15.8251143039
 20
13.0647257495
 30
0.0
 10
15.823696793
 20
13.0743005462
 30
0.0
 10
15.8227580906
 20
13.0789171584
 30
0.0
  0
SPLINE
  5
33C
100
AcDbEntity
  8
LAYER_CUT_FEAT
100
AcDbSpline
 62
7
  6
CONTINUOUS
 70
0
 71
3
 72
21
 73
17
 74
0
 42
0.0000001
 43
0.0000001
 44
0.0000000001
 40
0.0
 40
0.0
 40
0.0
 40
0.0
 40
0.0358426058
 40
0.0730369079
 40
0.112762406
 40
0.1559291713
 40
0.2031651584
 40
0.25485153
 40
0.3111706366
 40
0.3721492534
 40
0.43769249
 40
0.5076091371
 40
0.5816305075
 40
0.6594247963
 40
0.8247214389
 40
1.0
 40
1.0
 40
1.0
 40
1.0
 10
15.6445895352
 20
13.6902134396
 30
0.0
 10
15.6437232004
 20
13.6902134354
 30
0.0
 10
15.6419524637
 20
13.6900198556
 30
0.0
 10
15.6393476528
 20
13.6891614504
 30
0.0
 10
15.6367945724
 20
13.6877500197
 30
0.0
 10
15.6343097936
 20
13.6858037514
 30
0.0
 10
15.6319052144
 20
13.6833398919
 30
0.0
 10
15.6295935767
 20
13.6803761695
 30
0.0
 10
15.6273882039
 20
13.6769324522
 30
0.0
 10
15.6253028812
 20
13.6730316145
 30
0.0
 10
15.6233512689
 20
13.6686997864
 30
0.0
 10
15.621546569
 20
13.6639662987
 30
0.0
 10
15.6199010486
 20
13.6588634406
 30
0.0
 10
15.6178943097
 20
13.6514635709
 30
0.0
 10
15.6158875078
 20
13.6415406738
 30
0.0
 10
15.6148529957
 20
13.6333664949
 30
0.0
 10
15.614460623
 20
13.6291481283
 30
0.0
  0
SPLINE
  5
33D
100
AcDbEntity
  8
LAYER_CUT_FEAT
100
AcDbSpline
 62
7
  6
CONTINUOUS
 70
0
 71
3
 72
11
 73
7
 74
0
 42
0.0000001
 43
0.0000001
 44
0.0000000001
 40
0.0
 40
0.0
 40
0.0
 40
0.0
 40
0.234246155
 40
0.4751621994
 40
0.7287735063
 40
1.0
 40
1.0
 40
1.0
 40
1.0
 10
15.9643406866
 20
12.9128203569
 30
0.0
 10
15.9635917625
 20
12.9128203539
 30
0.0
 10
15.9620690423
 20
12.9126769949
 30
0.0
 10
15.9598163923
 20
12.9120382475
 30
0.0
 10
15.9575959845
 20
12.9109834587
 30
0.0
 10
15.9561976909
 20
12.9100449034
 30
0.0
 10
15.9555085854
 20
12.9095185062
 30
0.0
  0
SPLINE
  5
33E
100
AcDbEntity
  8
LAYER_CUT_FEAT
100
AcDbSpline
 62
7
  6
CONTINUOUS
 70
0
 71
3
 72
15
 73
11
 74
0
 42
0.0000001
 43
0.0000001
 44
0.0000000001
 40
0.0
 40
0.0
 40
0.0
 40
0.0
 40
0.1195910615
 40
0.2415248776
 40
0.3654147784
 40
0.4908624649
 40
0.6174605787
 40
0.7447951377
 40
0.872448041
 40
1.0
 40
1.0
 40
1.0
 40
1.0
 10
15.8353080687
 20
12.0093722798
 30
0.0
 10
15.8394073976
 20
12.0328841801
 30
0.0
 10
15.8470092987
 20
12.0804890452
 30
0.0
 10
15.8565586808
 20
12.1527944711
 30
0.0
 10
15.8643401703
 20
12.2264870784
 30
0.0
 10
15.8703233809
 20
12.3012808382
 30
0.0
 10
15.8744850285
 20
12.3768863285
 30
0.0
 10
15.8768089112
 20
12.4530108802
 30
0.0
 10
15.8772860004
 20
12.5293592369
 30
0.0
 10
15.8763701911
 20
12.5802877359
 30
0.0
 10
15.8756021098
 20
12.6057314747
 30
0.0
  0
SPLINE
  5
33F
100
AcDbEntity
  8
LAYER_CUT_FEAT
100
AcDbSpline
 62
7
  6
CONTINUOUS
 70
0
 71
3
 72
20
 73
16
 74
0
 42
0.0000001
 43
0.0000001
 44
0.0000000001
 40
0.0
 40
0.0
 40
0.0
 40
0.0
 40
0.0485450239
 40
0.1015396504
 40
0.1586385256
 40
0.2193848992
 40
0.2832379456
 40
0.349591892
 40
0.4871160267
 40
0.6264232184
 40
0.7618117704
 40
0.8263411784
 40
0.8879081664
 40
0.9459536371
 40
1.0
 40
1.0
 40
1.0
 40
1.0
 10
15.6770574838
 20
11.512502046
 30
0.0
 10
15.6778900022
 20
11.514030424
 30
0.0
 10
15.6794695107
 20
11.5173166333
 30
0.0
 10
15.6815171873
 20
11.5226275941
 30
0.0
 10
15.6833273634
 20
11.5284833073
 30
0.0
 10
15.6848778557
 20
11.5348136992
 30
0.0
 10
15.6861500965
 20
11.5415435256
 30
0.0
 10
15.6874694945
 20
11.5510540583
 30
0.0
 10
15.6883163574
 20
11.5633462887
 30
0.0
 10
15.6880820102
 20
11.5781392476
 30
0.0
 10
15.6868453471
 20
11.590256717
 30
0.0
 10
15.6852188087
 20
11.5994925852
 30
0.0
 10
15.6837352666
 20
11.6059290642
 30
0.0
 10
15.6819875049
 20
11.611908338
 30
0.0
 10
15.6806073817
 20
11.6156869665
 30
0.0
 10
15.6798703189
 20
11.6174789459
 30
0.0
  0
SPLINE
  5
340
100
AcDbEntity
  8
LAYER_CUT_FEAT
100
AcDbSpline
 62
7
  6
CONTINUOUS
 70
0
 71
3
 72
20
 73
16
 74
0
 42
0.0000001
 43
0.0000001
 44
0.0000000001
 40
0.0
 40
0.0
 40
0.0
 40
0.0
 40
0.0358441287
 40
0.0730400145
 40
0.1127672039
 40
0.155935807
 40
0.2031738046
 40
0.2548623754
 40
0.3111838773
 40
0.3721650868
 40
0.4377111095
 40
0.5076307282
 40
0.6594103206
 40
0.8247139992
 40
1.0
 40
1.0
 40
1.0
 40
1.0
 10
15.7290320612
 20
13.6343033382
 30
0.0
 10
15.7282894886
 20
13.6343033319
 30
0.0
 10
15.7267717142
 20
13.6341374096
 30
0.0
 10
15.7245390192
 20
13.633401632
 30
0.0
 10
15.7223506646
 20
13.6321918343
 30
0.0
 10
15.7202208543
 20
13.6305236039
 30
0.0
 10
15.7181597861
 20
13.6284117241
 30
0.0
 10
15.7161783837
 20
13.6258713905
 30
0.0
 10
15.7142880589
 20
13.6229196325
 30
0.0
 10
15.7125006618
 20
13.6195760585
 30
0.0
 10
15.7108277584
 20
13.6158630579
 30
0.0
 10
15.7087072482
 20
13.6102998996
 30
0.0
 10
15.7064549893
 20
13.6025911957
 30
0.0
 10
15.7044302013
 20
13.5925844335
 30
0.0
 10
15.7035435988
 20
13.5855773837
 30
0.0
 10
15.7032072793
 20
13.5819616412
 30
0.0
  0
SPLINE
  5
341
100
AcDbEntity
  8
LAYER_CUT_FEAT
100
AcDbSpline
 62
7
  6
CONTINUOUS
 70
0
 71
3
 72
11
 73
7
 74
0
 42
0.0000001
 43
0.0000001
 44
0.0000000001
 40
0.0
 40
0.0
 40
0.0
 40
0.0
 40
0.2342461098
 40
0.4751622876
 40
0.7287733283
 40
1.0
 40
1.0
 40
1.0
 40
1.0
 10
15.9915388237
 20
12.6913921983
 30
0.0
 10
15.9908968888
 20
12.6913921953
 30
0.0
 10
15.9895916997
 20
12.6912693175
 30
0.0
 10
15.9876608576
 20
12.6907218183
 30
0.0
 10
15.9857576504
 20
12.6898177146
 30
0.0
 10
15.9845591134
 20
12.6890132382
 30
0.0
 10
15.9839684512
 20
12.6885620403
 30
0.0
  0
SPLINE
  5
342
100
AcDbEntity
  8
LAYER_CUT_FEAT
100
AcDbSpline
 62
7
  6
CONTINUOUS
 70
0
 71
3
 72
15
 73
11
 74
0
 42
0.0000001
 43
0.0000001
 44
0.0000000001
 40
0.0
 40
0.0
 40
0.0
 40
0.0
 40
0.1052926259
 40
0.2157113077
 40
0.3316088397
 40
0.453249931
 40
0.5808210628
 40
0.714440248
 40
0.8541645412
 40
1.0
 40
1.0
 40
1.0
 40
1.0
 10
15.5239015095
 20
11.3261824745
 30
0.0
 10
15.530913448
 20
11.3310531099
 30
0.0
 10
15.5448610306
 20
11.3416435553
 30
0.0
 10
15.5650064848
 20
11.3594844975
 30
0.0
 10
15.5848146861
 20
11.3796043406
 30
0.0
 10
15.6042469964
 20
11.4019613503
 30
0.0
 10
15.6232677333
 20
11.4265117498
 30
0.0
 10
15.641840786
 20
11.4532073749
 30
0.0
 10
15.6599304155
 20
11.4819954024
 30
0.0
 10
15.6714010515
 20
11.5021176913
 30
0.0
 10
15.6770574838
 20
11.512502046
 30
0.0
  0
SPLINE
  5
343
100
AcDbEntity
  8
LAYER_CUT_FEAT
100
AcDbSpline
 62
7
  6
CONTINUOUS
 70
0
 71
3
 72
11
 73
7
 74
0
 42
0.0000001
 43
0.0000001
 44
0.0000000001
 40
0.0
 40
0.0
 40
0.0
 40
0.0
 40
0.2342464462
 40
0.4751616034
 40
0.7287747515
 40
1.0
 40
1.0
 40
1.0
 40
1.0
 10
15.4114121429
 20
12.2482422594
 30
0.0
 10
15.4107702072
 20
12.2482422608
 30
0.0
 10
15.409465021
 20
12.2481193714
 30
0.0
 10
15.407534173
 20
12.2475718829
 30
0.0
 10
15.4056309699
 20
12.2466677716
 30
0.0
 10
15.4044324295
 20
12.2458632983
 30
0.0
 10
15.4038417704
 20
12.2454121029
 30
0.0
  0
SPLINE
  5
344
100
AcDbEntity
  8
LAYER_CHAMFER_FEAT
100
AcDbSpline
 62
7
  6
CONTINUOUS
 70
0
 71
3
 72
15
 73
11
 74
0
 42
0.0000001
 43
0.0000001
 44
0.0000000001
 40
0.0
 40
0.0
 40
0.0
 40
0.0
 40
0.1491304828
 40
0.2896679826
 40
0.4221802044
 40
0.5474482087
 40
0.6664892054
 40
0.7805665794
 40
0.8911762769
 40
1.0
 40
1.0
 40
1.0
 40
1.0
 10
15.7204190935
 20
12.1553907387
 30
0.0
 10
15.7179744481
 20
12.1524619356
 30
0.0
 10
15.7130307962
 20
12.146931294
 30
0.0
 10
15.705214468
 20
12.1394609207
 30
0.0
 10
15.6972426533
 20
12.1330903022
 30
0.0
 10
15.6891365121
 20
12.1278408568
 30
0.0
 10
15.6809176705
 20
12.1237317448
 30
0.0
 10
15.6726089431
 20
12.120780682
 30
0.0
 10
15.6642390141
 20
12.1190028513
 30
0.0
 10
15.658617849
 20
12.1186058194
 30
0.0
 10
15.6558339659
 20
12.118605827
 30
0.0
  0
SPLINE
  5
345
100
AcDbEntity
  8
LAYER_CHAMFER_FEAT
100
AcDbSpline
 62
7
  6
CONTINUOUS
 70
0
 71
3
 72
27
 73
23
 74
0
 42
0.0000001
 43
0.0000001
 44
0.0000000001
 40
0.0
 40
0.0
 40
0.0
 40
0.0
 40
0.0202803416
 40
0.0417796336
 40
0.0645089072
 40
0.0884630631
 40
0.1136233026
 40
0.1399591137
 40
0.1674298943
 40
0.1959862901
 40
0.256114047
 40
0.3198194212
 40
0.386487746
 40
0.4554416194
 40
0.5259581011
 40
0.5972843221
 40
0.6686522485
 40
0.7392930713
 40
0.808451578
 40
0.8754008576
 40
0.9394577939
 40
1.0
 40
1.0
 40
1.0
 40
1.0
 10
15.7234447643
 20
12.8627414536
 30
0.0
 10
15.7260992803
 20
12.8595611994
 30
0.0
 10
15.7313255052
 20
12.8528046024
 30
0.0
 10
15.7387078061
 20
12.84188103
 30
0.0
 10
15.7458379888
 20
12.8299093644
 30
0.0
 10
15.7526935946
 20
12.8169276633
 30
0.0
 10
15.7592535702
 20
12.8029762772
 30
0.0
 10
15.7654972963
 20
12.7880990361
 30
0.0
 10
15.7714053341
 20
12.7723426241
 30
0.0
 10
15.7789392566
 20
12.7498400135
 30
0.0
 10
15.7873311075
 20
12.71984191
 30
0.0
 10
15.7956337647
 20
12.6818066605
 30
0.0
 10
15.802228511
 20
12.6416115169
 30
0.0
 10
15.8070307903
 20
12.5997643245
 30
0.0
 10
15.8099788339
 20
12.5567929377
 30
0.0
 10
15.811034713
 20
12.5132407425
 30
0.0
 10
15.8101848381
 20
12.4696586646
 30
0.0
 10
15.8074401371
 20
12.426598005
 30
0.0
 10
15.8028359733
 20
12.3846033904
 30
0.0
 10
15.7964313948
 20
12.3442044341
 30
0.0
 10
15.7883091735
 20
12.3059124409
 30
0.0
 10
15.7816088306
 20
12.2813395825
 30
0.0
 10
15.7779576474
 20
12.2695243492
 30
0.0
  0
SPLINE
  5
346
100
AcDbEntity
  8
LAYER_CUT_FEAT
100
AcDbSpline
 62
7
  6
CONTINUOUS
 70
0
 71
3
 72
18
 73
14
 74
0
 42
0.0000001
 43
0.0000001
 44
0.0000000001
 40
0.0
 40
0.0
 40
0.0
 40
0.0
 40
0.1485940064
 40
0.2887548402
 40
0.4210543119
 40
0.4845110811
 40
0.5463134276
 40
0.6654523164
 40
0.7797546433
 40
0.8355715699
 40
0.8907440112
 40
0.9454815427
 40
1.0
 40
1.0
 40
1.0
 40
1.0
 10
15.4837313676
 20
11.3678476751
 30
0.0
 10
15.4914701183
 20
11.3587434726
 30
0.0
 10
15.5071156104
 20
11.3415525021
 30
0.0
 10
15.5318220046
 20
11.3183490593
 30
0.0
 10
15.553098155
 20
11.3016352437
 30
0.0
 10
15.570306553
 20
11.2900954873
 30
0.0
 10
15.5871843624
 20
11.2800127664
 30
0.0
 10
15.6085376928
 20
11.2695116321
 30
0.0
 10
15.6305594596
 20
11.2618188805
 30
0.0
 10
15.648176682
 20
11.2575473089
 30
0.0
 10
15.6613185875
 20
11.2552740546
 30
0.0
 10
15.6744798874
 20
11.2539094003
 30
0.0
 10
15.6832684623
 20
11.2536058232
 30
0.0
 10
15.6876524366
 20
11.2536058201
 30
0.0
  0
SPLINE
  5
347
100
AcDbEntity
  8
LAYER_CUT_FEAT
100
AcDbSpline
 62
7
  6
CONTINUOUS
 70
0
 71
3
 72
35
 73
31
 74
0
 42
0.0000001
 43
0.0000001
 44
0.0000000001
 40
0.0
 40
0.0
 40
0.0
 40
0.0
 40
0.0202794
 40
0.0417776896
 40
0.0645059088
 40
0.0884589498
 40
0.1136180194
 40
0.1399526077
 40
0.1674221092
 40
0.1959771799
 40
0.2255608254
 40
0.2561093753
 40
0.2875532879
 40
0.3198178708
 40
0.3528239425
 40
0.3864884047
 40
0.42072481
 40
0.4554438703
 40
0.5259570749
 40
0.597279981
 40
0.6686445907
 40
0.7392821297
 40
0.7740936548
 40
0.8084421738
 40
0.8422378523
 40
0.8753935785
 40
0.9078254937
 40
0.9394535167
 40
0.9702018517
 40
1.0
 40
1.0
 40
1.0
 40
1.0
 10
15.4836764076
 20
11.3678801807
 30
0.0
 10
15.4750534149
 20
11.3782109725
 30
0.0
 10
15.4580764647
 20
11.40015925
 30
0.0
 10
15.4340956347
 20
11.4356435831
 30
0.0
 10
15.4109338232
 20
11.4745325816
 30
0.0
 10
15.3886639254
 20
11.5167025921
 30
0.0
 10
15.367354397
 20
11.5620225371
 30
0.0
 10
15.3470720578
 20
11.6103501023
 30
0.0
 10
15.3278806697
 20
11.6615333678
 30
0.0
 10
15.3098409461
 20
11.7154109906
 30
0.0
 10
15.2930100444
 20
11.7718128187
 30
0.0
 10
15.277441459
 20
11.8305604723
 30
0.0
 10
15.2631847229
 20
11.89146794
 30
0.0
 10
15.2502852247
 20
11.9543421913
 30
0.0
 10
15.2387840893
 20
12.0189838676
 30
0.0
 10
15.2287180156
 20
12.0851877651
 30
0.0
 10
15.2201188999
 20
12.152744129
 30
0.0
 10
15.2105982971
 20
12.2448063236
 30
0.0
 10
15.2025775904
 20
12.3617303291
 30
0.0
 10
15.199147422
 20
12.5032051373
 30
0.0
 10
15.2019084066
 20
12.6447770528
 30
0.0
 10
15.2093736305
 20
12.7619094528
 30
0.0
 10
15.2184537976
 20
12.8542353699
 30
0.0
 10
15.2267316281
 20
12.9220562714
 30
0.0
 10
15.236482737
 20
12.9885707775
 30
0.0
 10
15.2476762797
 20
13.0535681493
 30
0.0
 10
15.2602764575
 20
13.1168419773
 30
0.0
 10
15.2742432067
 20
13.178191794
 30
0.0
 10
15.2895317862
 20
13.2374223707
 30
0.0
 10
15.3007577892
 20
13.2760067816
 30
0.0
 10
15.3065956935
 20
13.2948982469
 30
0.0
  0
SPLINE
  5
348
100
AcDbEntity
  8
LAYER_CUT_FEAT
100
AcDbSpline
 62
7
  6
CONTINUOUS
 70
0
 71
3
 72
15
 73
11
 74
0
 42
0.0000001
 43
0.0000001
 44
0.0000000001
 40
0.0
 40
0.0
 40
0.0
 40
0.0
 40
0.1680302771
 40
0.3227682996
 40
0.4639539244
 40
0.5917965179
 40
0.7071422878
 40
0.8116632016
 40
0.9080424028
 40
1.0
 40
1.0
 40
1.0
 40
1.0
 10
15.4655064749
 20
12.908364215
 30
0.0
 10
15.4660928228
 20
12.9069386602
 30
0.0
 10
15.467307026
 20
12.9042349371
 30
0.0
 10
15.4693473285
 20
12.9004942763
 30
0.0
 10
15.4715174955
 20
12.8972610777
 30
0.0
 10
15.4738010777
 20
12.8945627981
 30
0.0
 10
15.4761826872
 20
12.8924229194
 30
0.0
 10
15.478649212
 20
12.8908637915
 30
0.0
 10
15.4811830018
 20
12.8899102807
 30
0.0
 10
15.4829173083
 20
12.8896939301
 30
0.0
 10
15.4837608844
 20
12.8896939365
 30
0.0
  0
SPLINE
  5
349
100
AcDbEntity
  8
LAYER_CUT_FEAT
100
AcDbSpline
 62
7
  6
CONTINUOUS
 70
0
 71
3
 72
15
 73
11
 74
0
 42
0.0000001
 43
0.0000001
 44
0.0000000001
 40
0.0
 40
0.0
 40
0.0
 40
0.0
 40
0.1680303585
 40
0.3227683042
 40
0.4639539113
 40
0.5917966145
 40
0.7071424032
 40
0.8116632671
 40
0.9080424
 40
1.0
 40
1.0
 40
1.0
 40
1.0
 10
15.9050204376
 20
11.8397985089
 30
0.0
 10
15.9056067858
 20
11.8383729533
 30
0.0
 10
15.9068209891
 20
11.8356692304
 30
0.0
 10
15.908861292
 20
11.8319285699
 30
0.0
 10
15.9110314587
 20
11.8286953711
 30
0.0
 10
15.9133150391
 20
11.8259970888
 30
0.0
 10
15.9156966479
 20
11.823857208
 30
0.0
 10
15.9181631737
 20
11.8222980832
 30
0.0
 10
15.9206969654
 20
11.8213445779
 30
0.0
 10
15.922431271
 20
11.8211282349
 30
0.0
 10
15.9232748471
 20
11.8211282367
 30
0.0
  0
SPLINE
  5
34A
100
AcDbEntity
  8
LAYER_CUT_FEAT
100
AcDbSpline
 62
7
  6
CONTINUOUS
 70
0
 71
3
 72
15
 73
11
 74
0
 42
0.0000001
 43
0.0000001
 44
0.0000000001
 40
0.0
 40
0.0
 40
0.0
 40
0.0
 40
0.0863493277
 40
0.1847359818
 40
0.2953688619
 40
0.4177542886
 40
0.5508996458
 40
0.6934449743
 40
0.8437559686
 40
1.0
 40
1.0
 40
1.0
 40
1.0
 10
15.5794939945
 20
12.1186199635
 30
0.0
 10
15.5783872244
 20
12.1176055493
 30
0.0
 10
15.5762418435
 20
12.1151898622
 30
0.0
 10
15.5734237208
 20
12.1108820777
 30
0.0
 10
15.5708348952
 20
12.1057226376
 30
0.0
 10
15.5685132481
 20
12.0997869357
 30
0.0
 10
15.5664923414
 20
12.0931612519
 30
0.0
 10
15.5648031961
 20
12.0859447963
 30
0.0
 10
15.5634719127
 20
12.0782468149
 30
0.0
 10
15.5628461568
 20
12.0729508805
 30
0.0
 10
15.5625945612
 20
12.0702459976
 30
0.0
  0
SPLINE
  5
34B
100
AcDbEntity
  8
LAYER_CUT_FEAT
100
AcDbSpline
 62
7
  6
CONTINUOUS
 70
0
 71
3
 72
20
 73
16
 74
0
 42
0.0000001
 43
0.0000001
 44
0.0000000001
 40
0.0
 40
0.0
 40
0.0
 40
0.0
 40
0.15231494
 40
0.3055733853
 40
0.4547211011
 40
0.5262491427
 40
0.5949821246
 40
0.660408383
 40
0.7220741649
 40
0.7795987656
 40
0.83269361
 40
0.8811880381
 40
0.9250655181
 40
0.9645150354
 40
1.0
 40
1.0
 40
1.0
 40
1.0
 10
15.5558605226
 20
12.99914332
 30
0.0
 10
15.5553794894
 20
12.9939717719
 30
0.0
 10
15.5548351489
 20
12.9835533786
 30
0.0
 10
15.5552052233
 20
12.9680384905
 30
0.0
 10
15.5564970027
 20
12.9553372198
 30
0.0
 10
15.5581284691
 20
12.9456014625
 30
0.0
 10
15.5596048051
 20
12.9387419343
 30
0.0
 10
15.5613359181
 20
12.9322895013
 30
0.0
 10
15.5633050543
 20
12.9263061624
 30
0.0
 10
15.5654931093
 20
12.9208491252
 30
0.0
 10
15.5678793822
 20
12.9159699294
 30
0.0
 10
15.5704417946
 20
12.9117140707
 30
0.0
 10
15.5731591142
 20
12.9081201727
 30
0.0
 10
15.5760085304
 20
12.9052223094
 30
0.0
 10
15.578083662
 20
12.9037027896
 30
0.0
 10
15.5791289019
 20
12.9030931786
 30
0.0
  0
SPLINE
  5
34C
100
AcDbEntity
  8
LAYER_CUT_FEAT
100
AcDbSpline
 62
7
  6
CONTINUOUS
 70
0
 71
3
 72
15
 73
11
 74
0
 42
0.0000001
 43
0.0000001
 44
0.0000000001
 40
0.0
 40
0.0
 40
0.0
 40
0.0
 40
0.1680303513
 40
0.3227682976
 40
0.4639539081
 40
0.5917965953
 40
0.7071423866
 40
0.8116632663
 40
0.9080424027
 40
1.0
 40
1.0
 40
1.0
 40
1.0
 10
15.3844109657
 20
12.7851853097
 30
0.0
 10
15.3850950385
 20
12.7835221617
 30
0.0
 10
15.386511609
 20
12.7803678182
 30
0.0
 10
15.3888919623
 20
12.7760037144
 30
0.0
 10
15.3914238236
 20
12.7722316492
 30
0.0
 10
15.394088001
 20
12.7690836535
 30
0.0
 10
15.3968665448
 20
12.7665871262
 30
0.0
 10
15.3997441576
 20
12.7647681455
 30
0.0
 10
15.402700248
 20
12.7636557235
 30
0.0
 10
15.4047236046
 20
12.7634033205
 30
0.0
 10
15.4057077767
 20
12.7634033253
 30
0.0
  0
SPLINE
  5
34D
100
AcDbEntity
  8
LAYER_CUT_FEAT
100
AcDbSpline
 62
7
  6
CONTINUOUS
 70
0
 71
3
 72
15
 73
11
 74
0
 42
0.0000001
 43
0.0000001
 44
0.0000000001
 40
0.0
 40
0.0
 40
0.0
 40
0.0
 40
0.1680303513
 40
0.3227682976
 40
0.4639539081
 40
0.5917965953
 40
0.7071423866
 40
0.8116632663
 40
0.9080424027
 40
1.0
 40
1.0
 40
1.0
 40
1.0
 10
15.8407466056
 20
11.6757220009
 30
0.0
 10
15.8414306785
 20
11.6740588528
 30
0.0
 10
15.8428472489
 20
11.6709045094
 30
0.0
 10
15.8452276023
 20
11.6665404056
 30
0.0
 10
15.8477594635
 20
11.6627683404
 30
0.0
 10
15.850423641
 20
11.6596203447
 30
0.0
 10
15.8532021847
 20
11.6571238174
 30
0.0
 10
15.8560797975
 20
11.6553048367
 30
0.0
 10
15.8590358879
 20
11.6541924147
 30
0.0
 10
15.8610592446
 20
11.6539400117
 30
0.0
 10
15.8620434166
 20
11.6539400165
 30
0.0
  0
SPLINE
  5
34E
100
AcDbEntity
  8
LAYER_CUT_FEAT
100
AcDbSpline
 62
7
  6
CONTINUOUS
 70
0
 71
3
 72
21
 73
17
 74
0
 42
0.0000001
 43
0.0000001
 44
0.0000000001
 40
0.0
 40
0.0
 40
0.0
 40
0.0
 40
0.1449834227
 40
0.2902100599
 40
0.3618951925
 40
0.4324168963
 40
0.5013849282
 40
0.5684250607
 40
0.6331837814
 40
0.6953332013
 40
0.7545768476
 40
0.8106561193
 40
0.8633583837
 40
0.9125270082
 40
0.9580742888
 40
1.0
 40
1.0
 40
1.0
 40
1.0
 10
15.5484122955
 20
12.4602325179
 30
0.0
 10
15.5473276781
 20
12.4759229732
 30
0.0
 10
15.5461865164
 20
12.5074092425
 30
0.0
 10
15.5472423286
 20
12.5466813629
 30
0.0
 10
15.5495948666
 20
12.5777783428
 30
0.0
 10
15.5520832096
 20
12.6005557439
 30
0.0
 10
15.5552855579
 20
12.6227348913
 30
0.0
 10
15.5591805851
 20
12.6441682784
 30
0.0
 10
15.5637420323
 20
12.6647132751
 30
0.0
 10
15.5689393466
 20
12.6842334674
 30
0.0
 10
15.5747377129
 20
12.7025995538
 30
0.0
 10
15.5810985908
 20
12.719690394
 30
0.0
 10
15.5879798476
 20
12.73539366
 30
0.0
 10
15.5953371589
 20
12.7496076231
 30
0.0
 10
15.6031223066
 20
12.7622387388
 30
0.0
 10
15.6087997743
 20
12.7698639558
 30
0.0
 10
15.611709863
 20
12.7733592185
 30
0.0
  0
SPLINE
  5
34F
100
AcDbEntity
  8
LAYER_CUT_FEAT
100
AcDbSpline
 62
7
  6
CONTINUOUS
 70
0
 71
3
 72
25
 73
21
 74
0
 42
0.0000001
 43
0.0000001
 44
0.0000000001
 40
0.0
 40
0.0
 40
0.0
 40
0.0
 40
0.0539606002
 40
0.11534883
 40
0.1832762156
 40
0.2564995965
 40
0.3335350554
 40
0.41274241
 40
0.49239704
 40
0.5707574843
 40
0.6461315887
 40
0.7169459373
 40
0.7818223258
 40
0.8396733595
 40
0.8898381494
 40
0.9323041353
 40
0.9509609796
 40
0.9681961537
 40
0.9843832377
 40
1.0
 40
1.0
 40
1.0
 40
1.0
 10
15.5484122955
 20
12.4602325179
 30
0.0
 10
15.5477650076
 20
12.4591796637
 30
0.0
 10
15.5465687134
 20
12.4568129016
 30
0.0
 10
15.5451202098
 20
12.4528662558
 30
0.0
 10
15.5439312417
 20
12.4483762
 30
0.0
 10
15.5430331589
 20
12.4434557882
 30
0.0
 10
15.5424492521
 20
12.4382287212
 30
0.0
 10
15.5421950211
 20
12.4328281507
 30
0.0
 10
15.5422771459
 20
12.4273919217
 30
0.0
 10
15.5426934672
 20
12.422058923
 30
0.0
 10
15.5434329831
 20
12.4169651658
 30
0.0
 10
15.5444762731
 20
12.4122397756
 30
0.0
 10
15.5457959588
 20
12.4080014854
 30
0.0
 10
15.5473594858
 20
12.4043531304
 30
0.0
 10
15.5491285495
 20
12.4013820055
 30
0.0
 10
15.5508195362
 20
12.3994430282
 30
0.0
 10
15.5522510878
 20
12.3983508226
 30
0.0
 10
15.5533051436
 20
12.3977803378
 30
0.0
 10
15.5543790039
 20
12.3974295187
 30
0.0
 10
15.5551087248
 20
12.397345697
 30
0.0
 10
15.5554663946
 20
12.3973422442
 30
0.0
  0
SPLINE
  5
350
100
AcDbEntity
  8
LAYER_CUT_FEAT
100
AcDbSpline
 62
7
  6
CONTINUOUS
 70
0
 71
3
 72
17
 73
13
 74
0
 42
0.0000001
 43
0.0000001
 44
0.0000000001
 40
0.0
 40
0.0
 40
0.0
 40
0.0
 40
0.1762717389
 40
0.340475289
 40
0.4900995057
 40
0.6232885893
 40
0.7391370892
 40
0.7907114561
 40
0.8383104201
 40
0.9232024878
 40
0.9621623015
 40
1.0
 40
1.0
 40
1.0
 40
1.0
 10
15.659647734
 20
12.2211060105
 30
0.0
 10
15.6598891107
 20
12.2195984883
 30
0.0
 10
15.660447548
 20
12.2167001494
 30
0.0
 10
15.6615535421
 20
12.2125976513
 30
0.0
 10
15.6628793291
 20
12.2089536573
 30
0.0
 10
15.6643969325
 20
12.2058442061
 30
0.0
 10
15.6658499863
 20
12.2036688272
 30
0.0
 10
15.667097369
 20
12.2022809119
 30
0.0
 10
15.6682863826
 20
12.2012171067
 30
0.0
 10
15.6695798361
 20
12.2004345175
 30
0.0
 10
15.6709314622
 20
12.200043209
 30
0.0
 10
15.6715982883
 20
12.1999790194
 30
0.0
 10
15.671926008
 20
12.1999790245
 30
0.0
  0
SPLINE
  5
351
100
AcDbEntity
  8
LAYER_CUT_FEAT
100
AcDbSpline
 62
7
  6
CONTINUOUS
 70
0
 71
3
 72
11
 73
7
 74
0
 42
0.0000001
 43
0.0000001
 44
0.0000000001
 40
0.0
 40
0.0
 40
0.0
 40
0.0
 40
0.2955772702
 40
0.55495388
 40
0.7856190849
 40
1.0
 40
1.0
 40
1.0
 40
1.0
 10
15.7321513467
 20
12.2891137026
 30
0.0
 10
15.7325946361
 20
12.2885173469
 30
0.0
 10
15.7335015335
 20
12.2874486091
 30
0.0
 10
15.7350385155
 20
12.2861867655
 30
0.0
 10
15.7366480151
 20
12.2854022311
 30
0.0
 10
15.7377730676
 20
12.285220695
 30
0.0
 10
15.7383120095
 20
12.2852206841
 30
0.0
  0
SPLINE
  5
352
100
AcDbEntity
  8
LAYER_CUT_FEAT
100
AcDbSpline
 62
7
  6
CONTINUOUS
 70
0
 71
3
 72
11
 73
7
 74
0
 42
0.0000001
 43
0.0000001
 44
0.0000000001
 40
0.0
 40
0.0
 40
0.0
 40
0.0
 40
0.2614246153
 40
0.5137077269
 40
0.7590711991
 40
1.0
 40
1.0
 40
1.0
 40
1.0
 10
15.6359301912
 20
12.7942497048
 30
0.0
 10
15.6375614733
 20
12.7951451357
 30
0.0
 10
15.6408501299
 20
12.7967592214
 30
0.0
 10
15.6459252229
 20
12.7986414097
 30
0.0
 10
15.6510326269
 20
12.7999307499
 30
0.0
 10
15.6544719977
 20
12.8003947188
 30
0.0
 10
15.6561820593
 20
12.8005246019
 30
0.0
  0
LINE
  5
353
100
AcDbEntity
  8
LAYER_CUT_FEAT
100
AcDbLine
 62
7
  6
CONTINUOUS
 10
15.2518305354
 20
13.2001824551
 11
15.2529794547
 21
13.1999216487
  0
LINE
  5
354
100
AcDbEntity
  8
LAYER_CUT_FEAT
100
AcDbLine
 62
7
  6
CONTINUOUS
 10
15.257978355
 20
13.2442399178
 11
15.2577173058
 21
13.2443118339
  0
LINE
  5
355
100
AcDbEntity
  8
LAYER_CUT_FEAT
100
AcDbLine
 62
7
  6
CONTINUOUS
 10
15.2621747079
 20
13.2419009562
 11
15.2635639127
 21
13.2415182553
  0
LINE
  5
356
100
AcDbEntity
  8
LAYER_CUT_FEAT
100
AcDbLine
 62
7
  6
CONTINUOUS
 10
15.268959741
 20
13.285337308
 11
15.2686539043
 21
13.2854364478
  0
SPLINE
  5
357
100
AcDbEntity
  8
LAYER_CUT_FEAT
100
AcDbSpline
 62
7
  6
CONTINUOUS
 70
0
 71
3
 72
9
 73
5
 74
0
 42
0.0000001
 43
0.0000001
 44
0.0000000001
 40
0.0
 40
0.0
 40
0.0
 40
0.0
 40
0.519661919
 40
1.0
 40
1.0
 40
1.0
 40
1.0
 10
15.2731191023
 20
13.2825970563
 30
0.0
 10
15.2733693027
 20
13.2824322204
 30
0.0
 10
15.2738900405
 20
13.2821670547
 30
0.0
 10
15.274469704
 20
13.2820694767
 30
0.0
 10
15.2747466497
 20
13.2820694802
 30
0.0
  0
LINE
  5
358
100
AcDbEntity
  8
0
100
AcDbLine
 62
7
  6
CONTINUOUS
 10
15.2805318594
 20
13.3253515475
 11
15.2801816628
 21
13.325482194
  0
SPLINE
  5
359
100
AcDbEntity
  8
0
100
AcDbSpline
 62
7
  6
CONTINUOUS
 70
0
 71
3
 72
9
 73
5
 74
0
 42
0.0000001
 43
0.0000001
 44
0.0000000001
 40
0.0
 40
0.0
 40
0.0
 40
0.0
 40
0.525088564
 40
1.0
 40
1.0
 40
1.0
 40
1.0
 10
15.2846484117
 20
13.3222138383
 30
0.0
 10
15.2849291108
 20
13.3219998845
 30
0.0
 10
15.2855164208
 20
13.3216512388
 30
0.0
 10
15.2861928101
 20
13.3215186034
 30
0.0
 10
15.2865120254
 20
13.3215185932
 30
0.0
  0
SPLINE
  5
35A
100
AcDbEntity
  8
LAYER_CUT_FEAT
100
AcDbSpline
 62
7
  6
CONTINUOUS
 70
0
 71
3
 72
15
 73
11
 74
0
 42
0.0000001
 43
0.0000001
 44
0.0000000001
 40
0.0
 40
0.0
 40
0.0
 40
0.0
 40
0.1460586244
 40
0.2865095727
 40
0.4210819304
 40
0.5495505779
 40
0.6717451375
 40
0.7875586264
 40
0.8969584757
 40
1.0
 40
1.0
 40
1.0
 40
1.0
 10
15.3065956935
 20
13.2948982469
 30
0.0
 10
15.3123843354
 20
13.313630299
 30
0.0
 10
15.3243446748
 20
13.350192213
 30
0.0
 10
15.3438488438
 20
13.4032577229
 30
0.0
 10
15.36451444
 20
13.453339138
 30
0.0
 10
15.3862727001
 20
13.5002697336
 30
0.0
 10
15.4090516995
 20
13.543894275
 30
0.0
 10
15.4327776347
 20
13.5840697576
 30
0.0
 10
15.4573717515
 20
13.6206616064
 30
0.0
 10
15.4748130705
 20
13.643258184
 30
0.0
 10
15.4836764085
 20
13.653876908
 30
0.0
  0
SPLINE
  5
35B
100
AcDbEntity
  8
LAYER_CHAMFER_FEAT
100
AcDbSpline
 62
7
  6
CONTINUOUS
 70
0
 71
3
 72
15
 73
11
 74
0
 42
0.0000001
 43
0.0000001
 44
0.0000000001
 40
0.0
 40
0.0
 40
0.0
 40
0.0
 40
0.1460585502
 40
0.2865094894
 40
0.4210819879
 40
0.5495505712
 40
0.6717451423
 40
0.7875586289
 40
0.8969584661
 40
1.0
 40
1.0
 40
1.0
 40
1.0
 10
15.7779576474
 20
12.2695243492
 30
0.0
 10
15.7761756612
 20
12.2637578398
 30
0.0
 10
15.7724937696
 20
12.2525025498
 30
0.0
 10
15.7664895623
 20
12.2361667567
 30
0.0
 10
15.7601278272
 20
12.2207495896
 30
0.0
 10
15.7534297158
 20
12.2063023796
 30
0.0
 10
15.7464173837
 20
12.1928729162
 30
0.0
 10
15.7391135459
 20
12.1805052145
 30
0.0
 10
15.7315424388
 20
12.1692407108
 30
0.0
 10
15.7261732743
 20
12.1622845306
 30
0.0
 10
15.7234447637
 20
12.1590156433
 30
0.0
  0
SPLINE
  5
35C
100
AcDbEntity
  8
LAYER_CHAMFER_FEAT
100
AcDbSpline
 62
7
  6
CONTINUOUS
 70
0
 71
3
 72
11
 73
7
 74
0
 42
0.0000001
 43
0.0000001
 44
0.0000000001
 40
0.0
 40
0.0
 40
0.0
 40
0.0
 40
0.2394973909
 40
0.48335798
 40
0.7356634727
 40
1.0
 40
1.0
 40
1.0
 40
1.0
 10
15.2864047745
 20
12.118605827
 30
0.0
 10
15.2834686306
 20
12.1186058349
 30
0.0
 10
15.2775338839
 20
12.1190482055
 30
0.0
 10
15.2687048711
 20
12.1210280565
 30
0.0
 10
15.2599500075
 20
12.1243115881
 30
0.0
 10
15.2543338113
 20
12.1272784944
 30
0.0
 10
15.2515570156
 20
12.1289492114
 30
0.0
  0
SPLINE
  5
35D
100
AcDbEntity
  8
0
100
AcDbSpline
 62
7
  6
CONTINUOUS
 70
0
 71
3
 72
11
 73
7
 74
0
 42
0.0000001
 43
0.0000001
 44
0.0000000001
 40
0.0
 40
0.0
 40
0.0
 40
0.0
 40
0.2332642467
 40
0.4902698403
 40
0.7523067551
 40
1.0
 40
1.0
 40
1.0
 40
1.0
 10
14.8487957466
 20
13.3566875986
 30
0.0
 10
14.848713961
 20
13.3564229403
 30
0.0
 10
14.8485917131
 20
13.3558511414
 30
0.0
 10
14.8485151196
 20
13.3549592437
 30
0.0
 10
14.8485398417
 20
13.3540472379
 30
0.0
 10
14.8486266913
 20
13.3534461394
 30
0.0
 10
14.848690384
 20
13.3531589764
 30
0.0
  0
SPLINE
  5
35E
100
AcDbEntity
  8
0
100
AcDbSpline
 62
7
  6
CONTINUOUS
 70
0
 71
3
 72
11
 73
7
 74
0
 42
0.0000001
 43
0.0000001
 44
0.0000000001
 40
0.0
 40
0.0
 40
0.0
 40
0.0
 40
0.2553265308
 40
0.511876777
 40
0.7624139533
 40
1.0
 40
1.0
 40
1.0
 40
1.0
 10
14.8515249718
 20
13.3316867914
 30
0.0
 10
14.8516106348
 20
13.3327004123
 30
0.0
 10
14.8517068371
 20
13.3347395609
 30
0.0
 10
14.8516360344
 20
13.337778681
 30
0.0
 10
14.8513543266
 20
13.3407346289
 30
0.0
 10
14.8510205646
 20
13.342653202
 30
0.0
 10
14.8508155998
 20
13.3435772995
 30
0.0
  0
SPLINE
  5
35F
100
AcDbEntity
  8
LAYER_CUT_FEAT
100
AcDbSpline
 62
7
  6
CONTINUOUS
 70
0
 71
3
 72
18
 73
14
 74
0
 42
0.0000001
 43
0.0000001
 44
0.0000000001
 40
0.0
 40
0.0
 40
0.0
 40
0.0
 40
0.1485953038
 40
0.2887570125
 40
0.4210569634
 40
0.4845138179
 40
0.5463161623
 40
0.6654547449
 40
0.7797564546
 40
0.8355729823
 40
0.8907449808
 40
0.9454820345
 40
1.0
 40
1.0
 40
1.0
 40
1.0
 10
15.4837236036
 20
13.6539002839
 30
0.0
 10
15.4914625954
 20
13.6630051973
 30
0.0
 10
15.5071085937
 20
13.6801975053
 30
0.0
 10
15.5318158624
 20
13.7034027879
 30
0.0
 10
15.5530928067
 20
13.7201179582
 30
0.0
 10
15.5703018725
 20
13.7316586481
 30
0.0
 10
15.5871803126
 20
13.7417421828
 30
0.0
 10
15.6085344693
 20
13.7522441531
 30
0.0
 10
15.6305571327
 20
13.7599375404
 30
0.0
 10
15.6481750766
 20
13.7642094614
 30
0.0
 10
15.6613175141
 20
13.7664829098
 30
0.0
 10
15.6744793509
 20
13.76784766
 30
0.0
 10
15.6832682842
 20
13.7681512768
 30
0.0
 10
15.6876524366
 20
13.7681512737
 30
0.0
  0
SPLINE
  5
360
100
AcDbEntity
  8
LAYER_CHAMFER_FEAT
100
AcDbSpline
 62
7
  6
CONTINUOUS
 70
0
 71
3
 72
15
 73
11
 74
0
 42
0.0000001
 43
0.0000001
 44
0.0000000001
 40
0.0
 40
0.0
 40
0.0
 40
0.0
 40
0.1088237241
 40
0.2194334221
 40
0.3335107962
 40
0.4525517926
 40
0.5778197965
 40
0.7103320179
 40
0.8508695174
 40
1.0
 40
1.0
 40
1.0
 40
1.0
 10
15.6558339659
 20
12.9031512668
 30
0.0
 10
15.658617849
 20
12.9031512593
 30
0.0
 10
15.6642390141
 20
12.90275425
 30
0.0
 10
15.6726089432
 20
12.9009764107
 30
0.0
 10
15.6809176705
 20
12.8980253509
 30
0.0
 10
15.6891365123
 20
12.8939162386
 30
0.0
 10
15.6972426533
 20
12.8886667936
 30
0.0
 10
15.7052144691
 20
12.8822961763
 30
0.0
 10
15.7130307935
 20
12.8748258
 30
0.0
 10
15.717974456
 20
12.8692951674
 30
0.0
 10
15.7204190941
 20
12.8663663583
 30
0.0
  0
SPLINE
  5
361
100
AcDbEntity
  8
LAYER_CUT_FEAT
100
AcDbSpline
 62
7
  6
CONTINUOUS
 70
0
 71
3
 72
11
 73
7
 74
0
 42
0.0000001
 43
0.0000001
 44
0.0000000001
 40
0.0
 40
0.0
 40
0.0
 40
0.0
 40
0.2367768995
 40
0.4950281408
 40
0.755850023
 40
1.0
 40
1.0
 40
1.0
 40
1.0
 10
14.8367612669
 20
13.3174866597
 30
0.0
 10
14.836683823
 20
13.3172158402
 30
0.0
 10
14.8365701106
 20
13.3166356123
 30
0.0
 10
14.836506063
 20
13.3157369182
 30
0.0
 10
14.8365435688
 20
13.3148279345
 30
0.0
 10
14.8366391702
 20
13.3142327169
 30
0.0
 10
14.8367073576
 20
13.3139503883
 30
0.0
  0
SPLINE
  5
362
100
AcDbEntity
  8
LAYER_CUT_FEAT
100
AcDbSpline
 62
7
  6
CONTINUOUS
 70
0
 71
3
 72
11
 73
7
 74
0
 42
0.0000001
 43
0.0000001
 44
0.0000000001
 40
0.0
 40
0.0
 40
0.0
 40
0.0
 40
0.2575477218
 40
0.5148302262
 40
0.7646036583
 40
1.0
 40
1.0
 40
1.0
 40
1.0
 10
14.8398526157
 20
13.2927653904
 30
0.0
 10
14.8399232519
 20
13.2937835325
 30
0.0
 10
14.8399899277
 20
13.2958246129
 30
0.0
 10
14.8398755438
 20
13.2988548404
 30
0.0
 10
14.8395516562
 20
13.3017816744
 30
0.0
 10
14.8391895982
 20
13.303672732
 30
0.0
 10
14.8389706043
 20
13.304579471
 30
0.0
  0
SPLINE
  5
363
100
AcDbEntity
  8
LAYER_CUT_FEAT
100
AcDbSpline
 62
7
  6
CONTINUOUS
 70
0
 71
3
 72
11
 73
7
 74
0
 42
0.0000001
 43
0.0000001
 44
0.0000000001
 40
0.0
 40
0.0
 40
0.0
 40
0.0
 40
0.2402953448
 40
0.499780552
 40
0.7593792186
 40
1.0
 40
1.0
 40
1.0
 40
1.0
 10
14.8253060005
 20
13.2771576064
 30
0.0
 10
14.8252329535
 20
13.2768810522
 30
0.0
 10
14.8251278584
 20
13.27629321
 30
0.0
 10
14.8250764537
 20
13.2753889313
 30
0.0
 10
14.8251266864
 20
13.2744841982
 30
0.0
 10
14.8252309816
 20
13.2738956941
 30
0.0
 10
14.82530362
 20
13.2736186317
 30
0.0
  0
SPLINE
  5
364
100
AcDbEntity
  8
LAYER_CUT_FEAT
100
AcDbSpline
 62
7
  6
CONTINUOUS
 70
0
 71
3
 72
11
 73
7
 74
0
 42
0.0000001
 43
0.0000001
 44
0.0000000001
 40
0.0
 40
0.0
 40
0.0
 40
0.0
 40
0.2597880159
 40
0.5178042494
 40
0.7668044938
 40
1.0
 40
1.0
 40
1.0
 40
1.0
 10
14.8287551495
 20
13.25275045
 30
0.0
 10
14.8288107485
 20
13.2537716739
 30
0.0
 10
14.8288479715
 20
13.2558118493
 30
0.0
 10
14.828690171
 20
13.2588290026
 30
0.0
 10
14.8283245707
 20
13.2617226996
 30
0.0
 10
14.827934551
 20
13.2635835456
 30
0.0
 10
14.8277017321
 20
13.26447158
 30
0.0
  0
SPLINE
  5
365
100
AcDbEntity
  8
LAYER_CUT_FEAT
100
AcDbSpline
 62
7
  6
CONTINUOUS
 70
0
 71
3
 72
11
 73
7
 74
0
 42
0.0000001
 43
0.0000001
 44
0.0000000001
 40
0.0
 40
0.0
 40
0.0
 40
0.0
 40
0.2409357669
 40
0.4883750827
 40
0.7416353435
 40
1.0
 40
1.0
 40
1.0
 40
1.0
 10
15.6662608607
 20
13.1840388881
 30
0.0
 10
15.6715469997
 20
13.1625303451
 30
0.0
 10
15.6815864369
 20
13.1187641255
 30
0.0
 10
15.6949063838
 20
13.0518926173
 30
0.0
 10
15.7066540855
 20
12.9831015119
 30
0.0
 10
15.7133495618
 20
12.9365419807
 30
0.0
 10
15.7164342793
 20
12.9129923542
 30
0.0
  0
SPLINE
  5
366
100
AcDbEntity
  8
LAYER_CUT_FEAT
100
AcDbSpline
 62
7
  6
CONTINUOUS
 70
0
 71
3
 72
11
 73
7
 74
0
 42
0.0000001
 43
0.0000001
 44
0.0000000001
 40
0.0
 40
0.0
 40
0.0
 40
0.0
 40
0.243823447
 40
0.5045327028
 40
0.762898391
 40
1.0
 40
1.0
 40
1.0
 40
1.0
 10
14.8144459688
 20
13.2357568427
 30
0.0
 10
14.8143773682
 20
13.2354749825
 30
0.0
 10
14.8142809612
 20
13.2348803502
 30
0.0
 10
14.8142422771
 20
13.2339717078
 30
0.0
 10
14.8143051605
 20
13.2330724469
 30
0.0
 10
14.8144180802
 20
13.2324914813
 30
0.0
 10
14.8144951202
 20
13.2322201141
 30
0.0
  0
SPLINE
  5
367
100
AcDbEntity
  8
LAYER_CUT_FEAT
100
AcDbSpline
 62
7
  6
CONTINUOUS
 70
0
 71
3
 72
11
 73
7
 74
0
 42
0.0000001
 43
0.0000001
 44
0.0000000001
 40
0.0
 40
0.0
 40
0.0
 40
0.0
 40
0.2620506212
 40
0.5208027721
 40
0.7690189814
 40
1.0
 40
1.0
 40
1.0
 40
1.0
 10
14.8182480938
 20
13.2116979346
 30
0.0
 10
14.8182886659
 20
13.212720801
 30
0.0
 10
14.8182965518
 20
13.2147572425
 30
0.0
 10
14.818095562
 20
13.2177571604
 30
0.0
 10
14.8176887756
 20
13.2206137491
 30
0.0
 10
14.8172711654
 20
13.2224417213
 30
0.0
 10
14.8170247439
 20
13.223309721
 30
0.0
  0
SPLINE
  5
368
100
AcDbEntity
  8
LAYER_CUT_FEAT
100
AcDbSpline
 62
7
  6
CONTINUOUS
 70
0
 71
3
 72
15
 73
11
 74
0
 42
0.0000001
 43
0.0000001
 44
0.0000000001
 40
0.0
 40
0.0
 40
0.0
 40
0.0
 40
0.140421919
 40
0.2767126346
 40
0.4087081676
 40
0.5362625143
 40
0.6592527393
 40
0.7775805612
 40
0.8911758061
 40
1.0
 40
1.0
 40
1.0
 40
1.0
 10
15.6353164976
 20
11.7258032924
 30
0.0
 10
15.6307926874
 20
11.7111963362
 30
0.0
 10
15.6215074987
 20
11.6825251152
 30
0.0
 10
15.6066289365
 20
11.6405727664
 30
0.0
 10
15.591031048
 20
11.6003810518
 30
0.0
 10
15.5747453359
 20
11.5620312102
 30
0.0
 10
15.5578046356
 20
11.5256004219
 30
0.0
 10
15.5402427562
 20
11.4911616174
 30
0.0
 10
15.5220953963
 20
11.458784819
 30
0.0
 10
15.509356092
 20
11.4381736903
 30
0.0
 10
15.5028869434
 20
11.4282446487
 30
0.0
  0
SPLINE
  5
369
100
AcDbEntity
  8
LAYER_CUT_FEAT
100
AcDbSpline
 62
7
  6
CONTINUOUS
 70
0
 71
3
 72
19
 73
15
 74
0
 42
0.0000001
 43
0.0000001
 44
0.0000000001
 40
0.0
 40
0.0
 40
0.0
 40
0.0
 40
0.0332736823
 40
0.0683617085
 40
0.1067566008
 40
0.1494907778
 40
0.1971659374
 40
0.2500437198
 40
0.308132148
 40
0.3712505106
 40
0.5111118629
 40
0.6659155097
 40
0.8307376016
 40
1.0
 40
1.0
 40
1.0
 40
1.0
 10
15.6249698456
 20
12.809104578
 30
0.0
 10
15.6245189727
 20
12.8091045711
 30
0.0
 10
15.6235886938
 20
12.8089801839
 30
0.0
 10
15.6222357322
 20
12.8084341901
 30
0.0
 10
15.6209244189
 20
12.8075446543
 30
0.0
 10
15.6196643971
 20
12.8063271844
 30
0.0
 10
15.6184631935
 20
12.804795549
 30
0.0
 10
15.6173301161
 20
12.802964577
 30
0.0
 10
15.6162749457
 20
12.8008517511
 30
0.0
 10
15.6149400154
 20
12.7975727244
 30
0.0
 10
15.6135671441
 20
12.7929102812
 30
0.0
 10
15.6124159168
 20
12.7867831506
 30
0.0
 10
15.6117578913
 20
12.7801838923
 30
0.0
 10
15.611666474
 20
12.7756523876
 30
0.0
 10
15.611709863
 20
12.7733592185
 30
0.0
  0
SPLINE
  5
36A
100
AcDbEntity
  8
LAYER_CUT_FEAT
100
AcDbSpline
 62
7
  6
CONTINUOUS
 70
0
 71
3
 72
15
 73
11
 74
0
 42
0.0000001
 43
0.0000001
 44
0.0000000001
 40
0.0
 40
0.0
 40
0.0
 40
0.0
 40
0.0850209921
 40
0.1759600219
 40
0.2774371512
 40
0.3923483242
 40
0.5221066047
 40
0.6670347948
 40
0.8266706017
 40
1.0
 40
1.0
 40
1.0
 40
1.0
 10
15.699169158
 20
12.8043354396
 30
0.0
 10
15.6986551735
 20
12.8043354499
 30
0.0
 10
15.6975858781
 20
12.8041713416
 30
0.0
 10
15.6960483599
 20
12.8034588297
 30
0.0
 10
15.6945735099
 20
12.802308113
 30
0.0
 10
15.6931721761
 20
12.8007427898
 30
0.0
 10
15.6918545738
 20
12.7987835162
 30
0.0
 10
15.6906343021
 20
12.7964539001
 30
0.0
 10
15.689525698
 20
12.7937827021
 30
0.0
 10
15.6888944944
 20
12.7918693557
 30
0.0
 10
15.6885972907
 20
12.7908645453
 30
0.0
  0
SPLINE
  5
36B
100
AcDbEntity
  8
LAYER_CUT_FEAT
100
AcDbSpline
 62
7
  6
CONTINUOUS
 70
0
 71
3
 72
22
 73
18
 74
0
 42
0.0000001
 43
0.0000001
 44
0.0000000001
 40
0.0
 40
0.0
 40
0.0
 40
0.0
 40
0.0379159672
 40
0.0772777586
 40
0.1189627362
 40
0.1636686149
 40
0.2119077049
 40
0.2640247267
 40
0.3202231429
 40
0.3805912015
 40
0.4451239949
 40
0.5137408983
 40
0.5862990898
 40
0.6626041849
 40
0.7424185543
 40
0.8254680812
 40
1.0
 40
1.0
 40
1.0
 40
1.0
 10
15.6561820594
 20
12.2212325039
 30
0.0
 10
15.6534819987
 20
12.2214375798
 30
0.0
 10
15.6480063257
 20
12.2223674594
 30
0.0
 10
15.6399698819
 20
12.2252361544
 30
0.0
 10
15.6320610969
 20
12.2295610171
 30
0.0
 10
15.6243190564
 20
12.2353061801
 30
0.0
 10
15.6167738447
 20
12.2424354592
 30
0.0
 10
15.6094564982
 20
12.2509106271
 30
0.0
 10
15.6023983863
 20
12.2606893531
 30
0.0
 10
15.5956315767
 20
12.2717237809
 30
0.0
 10
15.589188048
 20
12.2839599262
 30
0.0
 10
15.5830991032
 20
12.2973375609
 30
0.0
 10
15.5773948036
 20
12.3117904266
 30
0.0
 10
15.5721037118
 20
12.3272464591
 30
0.0
 10
15.5672522055
 20
12.3436286869
 30
0.0
 10
15.5613048412
 20
12.3669833097
 30
0.0
 10
15.5577363803
 20
12.3850485937
 30
0.0
 10
15.5556972011
 20
12.3973451721
 30
0.0
  0
SPLINE
  5
36C
100
AcDbEntity
  8
LAYER_CUT_FEAT
100
AcDbSpline
 62
7
  6
CONTINUOUS
 70
0
 71
3
 72
13
 73
9
 74
0
 42
0.0000001
 43
0.0000001
 44
0.0000000001
 40
0.0
 40
0.0
 40
0.0
 40
0.0
 40
0.0817538006
 40
0.1702888836
 40
0.270667209
 40
0.3857853555
 40
0.6632288453
 40
1.0
 40
1.0
 40
1.0
 40
1.0
 10
14.8069525425
 20
13.2021658651
 30
0.0
 10
14.8069000948
 20
13.2021658701
 30
0.0
 10
14.8067901966
 20
13.2021471891
 30
0.0
 10
14.8066339161
 20
13.2020669359
 30
0.0
 10
14.8064853226
 20
13.2019384162
 30
0.0
 10
14.8062867018
 20
13.2016907098
 30
0.0
 10
14.8060755907
 20
13.2012682604
 30
0.0
 10
14.8059600027
 20
13.2008904109
 30
0.0
 10
14.805908911
 20
13.2006804894
 30
0.0
  0
SPLINE
  5
36D
100
AcDbEntity
  8
LAYER_CUT_FEAT
100
AcDbSpline
 62
7
  6
CONTINUOUS
 70
0
 71
3
 72
13
 73
9
 74
0
 42
0.0000001
 43
0.0000001
 44
0.0000000001
 40
0.0
 40
0.0
 40
0.0
 40
0.0
 40
0.0830684184
 40
0.172569914
 40
0.27338398
 40
0.3884187136
 40
0.6646376152
 40
1.0
 40
1.0
 40
1.0
 40
1.0
 10
14.817282685
 20
13.2443118339
 30
0.0
 10
14.8172322165
 20
13.2443118323
 30
0.0
 10
14.8171267763
 20
13.2442946369
 30
0.0
 10
14.8169761249
 20
13.24422039
 30
0.0
 10
14.816832338
 20
13.2441010847
 30
0.0
 10
14.8166395877
 20
13.2438709975
 30
0.0
 10
14.8164321
 20
13.2434766271
 30
0.0
 10
14.8163162051
 20
13.2431224883
 30
0.0
 10
14.8162641723
 20
13.2429254937
 30
0.0
  0
SPLINE
  5
36E
100
AcDbEntity
  8
LAYER_CUT_FEAT
100
AcDbSpline
 62
7
  6
CONTINUOUS
 70
0
 71
3
 72
13
 73
9
 74
0
 42
0.0000001
 43
0.0000001
 44
0.0000000001
 40
0.0
 40
0.0
 40
0.0
 40
0.0
 40
0.0844515964
 40
0.1749846327
 40
0.276296013
 40
0.3912900405
 40
0.6662634142
 40
1.0
 40
1.0
 40
1.0
 40
1.0
 10
14.8282192835
 20
13.2854364478
 30
0.0
 10
14.8281707871
 20
13.2854364468
 30
0.0
 10
14.8280697647
 20
13.2854206464
 30
0.0
 10
14.8279247734
 20
13.2853521787
 30
0.0
 10
14.8277858821
 20
13.2852417666
 30
0.0
 10
14.8275992072
 20
13.2850287444
 30
0.0
 10
14.8273957813
 20
13.2846618211
 30
0.0
 10
14.827280006
 20
13.2843309265
 30
0.0
 10
14.827227314
 20
13.2841466641
 30
0.0
  0
SPLINE
  5
36F
100
AcDbEntity
  8
0
100
AcDbSpline
 62
7
  6
CONTINUOUS
 70
0
 71
3
 72
11
 73
7
 74
0
 42
0.0000001
 43
0.0000001
 44
0.0000000001
 40
0.0
 40
0.0
 40
0.0
 40
0.0
 40
0.1763729144
 40
0.392906309
 40
0.6672915025
 40
1.0
 40
1.0
 40
1.0
 40
1.0
 10
14.839747042
 20
13.325482194
 30
0.0
 10
14.8396517444
 20
13.3254821959
 30
0.0
 10
14.8394386568
 20
13.3254119597
 30
0.0
 10
14.839178178
 20
13.3251527511
 30
0.0
 10
14.8389513025
 20
13.3247667785
 30
0.0
 10
14.8388360795
 20
13.324458104
 30
0.0
 10
14.8387830032
 20
13.3242863491
 30
0.0
  0
SPLINE
  5
370
100
AcDbEntity
  8
LAYER_CUT_FEAT
100
AcDbSpline
 62
7
  6
CONTINUOUS
 70
0
 71
3
 72
69
 73
65
 74
0
 42
0.0000001
 43
0.0000001
 44
0.0000000001
 40
0.0
 40
0.0
 40
0.0
 40
0.0
 40
0.0041772041
 40
0.0083684425
 40
0.0125875762
 40
0.0168481283
 40
0.0255413355
 40
0.0345484368
 40
0.0391979554
 40
0.0439562534
 40
0.0538291907
 40
0.064226711
 40
0.0751925975
 40
0.086759129
 40
0.0989484675
 40
0.1117739963
 40
0.1252415164
 40
0.1393502759
 40
0.1540938443
 40
0.1694608514
 40
0.1854356027
 40
0.2019985919
 40
0.2191269401
 40
0.2367947758
 40
0.2549735601
 40
0.2736323699
 40
0.2927381553
 40
0.3122559743
 40
0.3321492054
 40
0.3729059003
 40
0.41469134
 40
0.457170904
 40
0.5
 40
0.5428290961
 40
0.5853086599
 40
0.6270940998
 40
0.6678507944
 40
0.6877440248
 40
0.707261845
 40
0.7263676311
 40
0.7450264394
 40
0.7632052231
 40
0.7808730605
 40
0.7980014093
 40
0.8145643966
 40
0.8305391474
 40
0.8459061566
 40
0.8606497254
 40
0.8747584827
 40
0.8882260026
 40
0.9010515335
 40
0.9132408722
 40
0.9248074015
 40
0.9357732881
 40
0.9461708102
 40
0.9560437475
 40
0.960802045
 40
0.9654515626
 40
0.9744586641
 40
0.9831518722
 40
0.9874124234
 40
0.9916315576
 40
0.9958227961
 40
1.0
 40
1.0
 40
1.0
 40
1.0
 10
15.6913366806
 20
11.1761058199
 30
0.0
 10
15.6955908457
 20
11.1761058223
 30
0.0
 10
15.7041159127
 20
11.1763749232
 30
0.0
 10
15.7168861171
 20
11.1775847956
 30
0.0
 10
15.729640803
 20
11.1796004449
 30
0.0
 10
15.7467253677
 20
11.1833841624
 30
0.0
 10
15.7680875489
 20
11.190191343
 30
0.0
 10
15.7889003179
 20
11.1995201404
 30
0.0
 10
15.8053776165
 20
11.2084902034
 30
0.0
 10
15.8221424147
 20
11.2187273271
 30
0.0
 10
15.8429175914
 20
11.233562333
 30
0.0
 10
15.8671573707
 20
11.254215682
 30
0.0
 10
15.8909586882
 20
11.277884598
 30
0.0
 10
15.9142674325
 20
11.3045100333
 30
0.0
 10
15.9370321022
 20
11.3340285223
 30
0.0
 10
15.9592008162
 20
11.3663698672
 30
0.0
 10
15.9807224874
 20
11.4014574807
 30
0.0
 10
16.0015468751
 20
11.4392081715
 30
0.0
 10
16.0216249464
 20
11.479532273
 30
0.0
 10
16.0409090891
 20
11.5223338055
 30
0.0
 10
16.0593533365
 20
11.5675106896
 30
0.0
 10
16.0769135714
 20
11.6149549806
 30
0.0
 10
16.0935476843
 20
11.6645531422
 30
0.0
 10
16.109215703
 20
11.7161863459
 30
0.0
 10
16.1238799122
 20
11.7697307632
 30
0.0
 10
16.1375050046
 20
11.8250578972
 30
0.0
 10
16.1500580886
 20
11.8820348013
 30
0.0
 10
16.1615090917
 20
11.9405248318
 30
0.0
 10
16.1753814766
 20
12.0209882478
 30
0.0
 10
16.1897187182
 20
12.1243556272
 30
0.0
 10
16.2020308428
 20
12.2511171759
 30
0.0
 10
16.2094662292
 20
12.3803719967
 30
0.0
 10
16.2119527695
 20
12.5108785467
 30
0.0
 10
16.2094662297
 20
12.6413850967
 30
0.0
 10
16.2020308419
 20
12.7706399176
 30
0.0
 10
16.1897187189
 20
12.897401466
 30
0.0
 10
16.1753814781
 20
13.0007688449
 30
0.0
 10
16.161509087
 20
13.08123226
 30
0.0
 10
16.1500580899
 20
13.139722293
 30
0.0
 10
16.1375050095
 20
13.1966991983
 30
0.0
 10
16.1238799104
 20
13.2520263293
 30
0.0
 10
16.1092156986
 20
13.3055707453
 30
0.0
 10
16.0935476861
 20
13.3572039527
 30
0.0
 10
16.0769135764
 20
13.4068021159
 30
0.0
 10
16.059353334
 20
13.4542464022
 30
0.0
 10
16.0409090848
 20
13.499423285
 30
0.0
 10
16.0216249489
 20
13.5422248228
 30
0.0
 10
16.00154688
 20
13.582548926
 30
0.0
 10
15.9807224842
 20
13.62029961
 30
0.0
 10
15.9592008121
 20
13.6553872223
 30
0.0
 10
15.9370321053
 20
13.6877285747
 30
0.0
 10
15.9142674371
 20
13.7172470656
 30
0.0
 10
15.8909586843
 20
13.7438724909
 30
0.0
 10
15.8671573672
 20
13.7675414062
 30
0.0
 10
15.8429175951
 20
13.7881947668
 30
0.0
 10
15.8221424164
 20
13.8030297726
 30
0.0
 10
15.8053776173
 20
13.8132668917
 30
0.0
 10
15.7889003146
 20
13.8222369449
 30
0.0
 10
15.7680875466
 20
13.8315657396
 30
0.0
 10
15.7467253727
 20
13.8383729517
 30
0.0
 10
15.7296407997
 20
13.8421566324
 30
0.0
 10
15.7168861187
 20
13.8441723084
 30
0.0
 10
15.7041159125
 20
13.8453821713
 30
0.0
 10
15.6955908455
 20
13.8456512699
 30
0.0
 10
15.6913366806
 20
13.8456512669
 30
0.0
  0
SPLINE
  5
371
100
AcDbEntity
  8
LAYER_CUT_FEAT
100
AcDbSpline
 62
7
  6
CONTINUOUS
 70
0
 71
3
 72
43
 73
39
 74
0
 42
0.0000001
 43
0.0000001
 44
0.0000000001
 40
0.0
 40
0.0
 40
0.0
 40
0.0
 40
0.0077288423
 40
0.0155045976
 40
0.0233731383
 40
0.0313783461
 40
0.0395613266
 40
0.0479598289
 40
0.0655261729
 40
0.0747598224
 40
0.0843218395
 40
0.1044968423
 40
0.1261709199
 40
0.1494109294
 40
0.1742464286
 40
0.2006763545
 40
0.22867439
 40
0.2581932179
 40
0.2891678916
 40
0.3215185097
 40
0.3551523968
 40
0.3899659359
 40
0.4258461203
 40
0.4626719129
 40
0.5003154858
 40
0.5386433476
 40
0.5775173983
 40
0.6167959453
 40
0.6563346776
 40
0.6959876163
 40
0.7356080566
 40
0.7750494999
 40
0.8141665887
 40
0.8528160537
 40
0.8908576713
 40
0.9281552498
 40
0.9645776475
 40
1.0
 40
1.0
 40
1.0
 40
1.0
 10
15.2509020598
 20
11.1761058199
 30
0.0
 10
15.2451751841
 20
11.1761058167
 30
0.0
 10
15.2336807685
 20
11.1765947268
 30
0.0
 10
15.2164822913
 20
11.1787913915
 30
0.0
 10
15.199324184
 20
11.1824487184
 30
0.0
 10
15.1822284536
 20
11.1875610735
 30
0.0
 10
15.1652133485
 20
11.1941216511
 30
0.0
 10
15.1423226917
 20
11.2049467024
 30
0.0
 10
15.1199826343
 20
11.2185790238
 30
0.0
 10
15.0983387145
 20
11.2346416013
 30
0.0
 10
15.0761617263
 20
11.2531588159
 30
0.0
 10
15.0489505416
 20
11.2799174634
 30
0.0
 10
15.0177808301
 20
11.3167947575
 30
0.0
 10
14.9876443562
 20
11.3588411224
 30
0.0
 10
14.958664209
 20
11.4058752517
 30
0.0
 10
14.9309585922
 20
11.4576988697
 30
0.0
 10
14.9046441816
 20
11.514091148
 30
0.0
 10
14.879833086
 20
11.5748109217
 30
0.0
 10
14.8566321558
 20
11.6395972429
 30
0.0
 10
14.835141903
 20
11.7081707224
 30
0.0
 10
14.8154557944
 20
11.7802348244
 30
0.0
 10
14.7976596914
 20
11.8554773036
 30
0.0
 10
14.7818313506
 20
11.933571661
 30
0.0
 10
14.7680399815
 20
12.0141786477
 30
0.0
 10
14.7563459417
 20
12.0969478231
 30
0.0
 10
14.7468004458
 20
12.1815191379
 30
0.0
 10
14.7394452885
 20
12.2675245435
 30
0.0
 10
14.7343126838
 20
12.3545896383
 30
0.0
 10
14.7314251292
 20
12.4423353318
 30
0.0
 10
14.7307952706
 20
12.5303795224
 30
0.0
 10
14.7324258587
 20
12.6183387879
 30
0.0
 10
14.7363097601
 20
12.7058300839
 30
0.0
 10
14.7424299604
 20
12.7924724268
 30
0.0
 10
14.7507596427
 20
12.8778886219
 30
0.0
 10
14.7612623083
 20
12.9617067828
 30
0.0
 10
14.7738920413
 20
13.0435625104
 30
0.0
 10
14.7885932854
 20
13.1230986736
 30
0.0
 10
14.7999026396
 20
13.1751298923
 30
0.0
 10
14.805908911
 20
13.2006804894
 30
0.0
  0
SPLINE
  5
372
100
AcDbEntity
  8
LAYER_CUT_FEAT
100
AcDbSpline
 62
7
  6
CONTINUOUS
 70
0
 71
3
 72
22
 73
18
 74
0
 42
0.0000001
 43
0.0000001
 44
0.0000000001
 40
0.0
 40
0.0
 40
0.0
 40
0.0
 40
0.1625485798
 40
0.3253721987
 40
0.4047180812
 40
0.4815497909
 40
0.5550825847
 40
0.6246007844
 40
0.6894804199
 40
0.7492169365
 40
0.8034617953
 40
0.8520755816
 40
0.8952053769
 40
0.9333978536
 40
0.9677361589
 40
0.9840082036
 40
1.0
 40
1.0
 40
1.0
 40
1.0
 10
15.6747184474
 20
13.5921878582
 30
0.0
 10
15.6752679587
 20
13.5980956081
 30
0.0
 10
15.6758211713
 20
13.6099771019
 30
0.0
 10
15.6752338557
 20
13.6247581397
 30
0.0
 10
15.6739777656
 20
13.6363379425
 30
0.0
 10
15.6726739419
 20
13.6446242838
 30
0.0
 10
15.6710177682
 20
13.6524815515
 30
0.0
 10
15.6690302455
 20
13.6598112431
 30
0.0
 10
15.6667366518
 20
13.6665219354
 30
0.0
 10
15.6641657067
 20
13.6725309138
 30
0.0
 10
15.6613483689
 20
13.6777654143
 30
0.0
 10
15.6583167149
 20
13.6821637438
 30
0.0
 10
15.6550991882
 20
13.6856745951
 30
0.0
 10
15.6517226376
 20
13.6882531581
 30
0.0
 10
15.6487341345
 20
13.6896044079
 30
0.0
 10
15.6463527195
 20
13.6901271635
 30
0.0
 10
15.6451732582
 20
13.6902134424
 30
0.0
 10
15.6445895352
 20
13.6902134396
 30
0.0
  0
SPLINE
  5
373
100
AcDbEntity
  8
LAYER_CUT_FEAT
100
AcDbSpline
 62
7
  6
CONTINUOUS
 70
0
 71
3
 72
33
 73
29
 74
0
 42
0.0000001
 43
0.0000001
 44
0.0000000001
 40
0.0
 40
0.0
 40
0.0
 40
0.0
 40
0.0202497815
 40
0.0425576186
 40
0.0670589566
 40
0.0937945524
 40
0.1227334384
 40
0.1537885791
 40
0.1868288185
 40
0.2216875682
 40
0.2960393342
 40
0.3750475465
 40
0.4566551249
 40
0.5386805388
 40
0.6189227494
 40
0.6952648968
 40
0.7313707245
 40
0.7658034298
 40
0.798374165
 40
0.828924292
 40
0.8573325032
 40
0.8835241891
 40
0.9074841619
 40
0.9292741141
 40
0.9490558401
 40
0.9671188146
 40
0.983903541
 40
1.0
 40
1.0
 40
1.0
 40
1.0
 10
15.3708427083
 20
12.2969205366
 30
0.0
 10
15.3717676452
 20
12.2976270817
 30
0.0
 10
15.3735910093
 20
12.2992727542
 30
0.0
 10
15.3761016991
 20
12.3022076797
 30
0.0
 10
15.3784979539
 20
12.3056983587
 30
0.0
 10
15.3807622726
 20
12.3097177811
 30
0.0
 10
15.382878518
 20
12.3142357923
 30
0.0
 10
15.3848304467
 20
12.3192177164
 30
0.0
 10
15.3866030587
 20
12.3246250465
 30
0.0
 10
15.3887545292
 20
12.3325161834
 30
0.0
 10
15.3908697745
 20
12.343140599
 30
0.0
 10
15.3924701154
 20
12.3565626913
 30
0.0
 10
15.3931314174
 20
12.3705050236
 30
0.0
 10
15.3928324618
 20
12.3845305672
 30
0.0
 10
15.3915826735
 20
12.3981996389
 30
0.0
 10
15.3897508308
 20
12.4091360347
 30
0.0
 10
15.387815955
 20
12.4173563662
 30
0.0
 10
15.3861884383
 20
12.4230575957
 30
0.0
 10
15.3843708901
 20
12.4283650128
 30
0.0
 10
15.3823774679
 20
12.433237329
 30
0.0
 10
15.3802236452
 20
12.4376368992
 30
0.0
 10
15.3779256544
 20
12.4415301389
 30
0.0
 10
15.3755000488
 20
12.4448876971
 30
0.0
 10
15.3729628828
 20
12.4476842921
 30
0.0
 10
15.3703293132
 20
12.4498977263
 30
0.0
 10
15.3676128761
 20
12.4515066109
 30
0.0
 10
15.364832242
 20
12.4524876934
 30
0.0
 10
15.3629358033
 20
12.4527095848
 30
0.0
 10
15.3620106071
 20
12.4527095812
 30
0.0
  0
SPLINE
  5
374
100
AcDbEntity
  8
LAYER_CUT_FEAT
100
AcDbSpline
 62
7
  6
CONTINUOUS
 70
0
 71
3
 72
22
 73
18
 74
0
 42
0.0000001
 43
0.0000001
 44
0.0000000001
 40
0.0
 40
0.0
 40
0.0
 40
0.0
 40
0.1625485798
 40
0.3253721987
 40
0.4047180812
 40
0.4815497909
 40
0.5550825847
 40
0.6246007844
 40
0.6894804199
 40
0.7492169365
 40
0.8034617953
 40
0.8520755816
 40
0.8952053769
 40
0.9333978536
 40
0.9677361589
 40
0.9840082036
 40
1.0
 40
1.0
 40
1.0
 40
1.0
 10
15.5287240078
 20
12.0226137737
 30
0.0
 10
15.5292735191
 20
12.0285215236
 30
0.0
 10
15.5298267317
 20
12.0404030175
 30
0.0
 10
15.5292394161
 20
12.0551840553
 30
0.0
 10
15.527983326
 20
12.066763858
 30
0.0
 10
15.5266795023
 20
12.0750501993
 30
0.0
 10
15.5250233286
 20
12.0829074671
 30
0.0
 10
15.5230358059
 20
12.0902371586
 30
0.0
 10
15.5207422122
 20
12.0969478509
 30
0.0
 10
15.5181712671
 20
12.1029568294
 30
0.0
 10
15.5153539293
 20
12.1081913299
 30
0.0
 10
15.5123222752
 20
12.1125896593
 30
0.0
 10
15.5091047486
 20
12.1161005107
 30
0.0
 10
15.505728198
 20
12.1186790736
 30
0.0
 10
15.5027396949
 20
12.1200303234
 30
0.0
 10
15.5003582799
 20
12.120553079
 30
0.0
 10
15.4991788186
 20
12.120639358
 30
0.0
 10
15.4985950956
 20
12.1206393551
 30
0.0
  0
SPLINE
  5
375
100
AcDbEntity
  8
LAYER_CUT_FEAT
100
AcDbSpline
 62
7
  6
CONTINUOUS
 70
0
 71
3
 72
43
 73
39
 74
0
 42
0.0000001
 43
0.0000001
 44
0.0000000001
 40
0.0
 40
0.0
 40
0.0
 40
0.0
 40
0.0354223525
 40
0.0718447502
 40
0.1091423287
 40
0.1471839463
 40
0.1858334113
 40
0.2249505001
 40
0.2643919434
 40
0.3040123837
 40
0.3436653224
 40
0.3832040547
 40
0.4224826017
 40
0.4613566524
 40
0.4996845142
 40
0.5373280871
 40
0.5741538797
 40
0.6100340641
 40
0.6448476032
 40
0.6784814903
 40
0.7108321084
 40
0.7418067821
 40
0.77132561
 40
0.7993236455
 40
0.8257535714
 40
0.8505890706
 40
0.8738290801
 40
0.8955031577
 40
0.9156781605
 40
0.9252401776
 40
0.9344738271
 40
0.9520401711
 40
0.9604386734
 40
0.9686216539
 40
0.9766268617
 40
0.9844954024
 40
0.9922711577
 40
1.0
 40
1.0
 40
1.0
 40
1.0
 10
15.2463435317
 20
13.2006804894
 30
0.0
 10
15.2403372604
 20
13.1751298923
 30
0.0
 10
15.2290279062
 20
13.1230986736
 30
0.0
 10
15.214326662
 20
13.0435625104
 30
0.0
 10
15.201696929
 20
12.9617067828
 30
0.0
 10
15.1911942635
 20
12.8778886219
 30
0.0
 10
15.1828645812
 20
12.7924724268
 30
0.0
 10
15.1767443809
 20
12.7058300839
 30
0.0
 10
15.1728604794
 20
12.6183387879
 30
0.0
 10
15.1712298913
 20
12.5303795224
 30
0.0
 10
15.1718597499
 20
12.4423353318
 30
0.0
 10
15.1747473046
 20
12.3545896383
 30
0.0
 10
15.1798799093
 20
12.2675245435
 30
0.0
 10
15.1872350665
 20
12.1815191379
 30
0.0
 10
15.1967805625
 20
12.0969478231
 30
0.0
 10
15.2084746023
 20
12.0141786477
 30
0.0
 10
15.2222659714
 20
11.933571661
 30
0.0
 10
15.2380943121
 20
11.8554773036
 30
0.0
 10
15.2558904152
 20
11.7802348244
 30
0.0
 10
15.2755765238
 20
11.7081707224
 30
0.0
 10
15.2970667766
 20
11.6395972429
 30
0.0
 10
15.3202677067
 20
11.5748109217
 30
0.0
 10
15.3450788023
 20
11.514091148
 30
0.0
 10
15.3713932129
 20
11.4576988697
 30
0.0
 10
15.3990988297
 20
11.4058752517
 30
0.0
 10
15.4280789769
 20
11.3588411224
 30
0.0
 10
15.4582154509
 20
11.3167947575
 30
0.0
 10
15.4893851624
 20
11.2799174634
 30
0.0
 10
15.5165963471
 20
11.2531588159
 30
0.0
 10
15.5387733353
 20
11.2346416013
 30
0.0
 10
15.5604172551
 20
11.2185790238
 30
0.0
 10
15.5827573124
 20
11.2049467024
 30
0.0
 10
15.6056479693
 20
11.1941216511
 30
0.0
 10
15.6226630744
 20
11.1875610735
 30
0.0
 10
15.6397588048
 20
11.1824487184
 30
0.0
 10
15.6569169121
 20
11.1787913915
 30
0.0
 10
15.6741153892
 20
11.1765947268
 30
0.0
 10
15.6856098049
 20
11.1761058167
 30
0.0
 10
15.6913366806
 20
11.1761058199
 30
0.0
  0
SPLINE
  5
376
100
AcDbEntity
  8
LAYER_CHAMFER_FEAT
100
AcDbSpline
 62
7
  6
CONTINUOUS
 70
0
 71
3
 72
37
 73
33
 74
0
 42
0.0000001
 43
0.0000001
 44
0.0000000001
 40
0.0
 40
0.0
 40
0.0
 40
0.0
 40
0.0076951575
 40
0.0154428033
 40
0.0232941138
 40
0.0312977889
 40
0.047926882
 40
0.0656552073
 40
0.0847206197
 40
0.105291287
 40
0.1274748878
 40
0.1513289666
 40
0.1768703065
 40
0.2040825965
 40
0.2329224284
 40
0.2633239521
 40
0.2952025742
 40
0.3284578863
 40
0.3629760354
 40
0.3986317383
 40
0.4352900518
 40
0.4728079229
 40
0.5498100501
 40
0.6283917106
 40
0.7072515584
 40
0.7850802493
 40
0.8232099152
 40
0.8606066429
 40
0.8971216011
 40
0.9326129155
 40
0.9669467625
 40
1.0
 40
1.0
 40
1.0
 40
1.0
 10
15.6558339659
 20
12.118605827
 30
0.0
 10
15.654049082
 20
12.1186058318
 30
0.0
 10
15.6504650639
 20
12.1187675272
 30
0.0
 10
15.6451043021
 20
12.119493936
 30
0.0
 10
15.6397576735
 20
12.1207032773
 30
0.0
 10
15.6325686221
 20
12.1229846387
 30
0.0
 10
15.623601595
 20
12.1271063579
 30
0.0
 10
15.6131785958
 20
12.1338742077
 30
0.0
 10
15.6029917889
 20
12.1424810605
 30
0.0
 10
15.5930837153
 20
12.1528789369
 30
0.0
 10
15.5834939474
 20
12.1650163236
 30
0.0
 10
15.5742639787
 20
12.1788351971
 30
0.0
 10
15.5654352985
 20
12.1942700645
 30
0.0
 10
15.5570489928
 20
12.2112475054
 30
0.0
 10
15.5491449046
 20
12.2296862606
 30
0.0
 10
15.5417610891
 20
12.2494975493
 30
0.0
 10
15.5349334149
 20
12.2705855481
 30
0.0
 10
15.5286952451
 20
12.2928479041
 30
0.0
 10
15.5230771446
 20
12.3161762997
 30
0.0
 10
15.5181067462
 20
12.34045695
 30
0.0
 10
15.5138083182
 20
12.3655715304
 30
0.0
 10
15.5089603091
 20
12.400305045
 30
0.0
 10
15.5047486156
 20
12.444923342
 30
0.0
 10
15.5026471668
 20
12.4992880875
 30
0.0
 10
15.5034985008
 20
12.5538783381
 30
0.0
 10
15.5066748457
 20
12.5989804342
 30
0.0
 10
15.5107058163
 20
12.634326173
 30
0.0
 10
15.5144175486
 20
12.6600518027
 30
0.0
 10
15.5188194277
 20
12.6850472888
 30
0.0
 10
15.5238899871
 20
12.7091908225
 30
0.0
 10
15.5296040792
 20
12.7323640658
 30
0.0
 10
15.5339107984
 20
12.7473942934
 30
0.0
 10
15.5361743609
 20
12.7547191844
 30
0.0
  0
SPLINE
  5
377
100
AcDbEntity
  8
LAYER_CUT_FEAT
100
AcDbSpline
 62
7
  6
CONTINUOUS
 70
0
 71
3
 72
26
 73
22
 74
0
 42
0.0000001
 43
0.0000001
 44
0.0000000001
 40
0.0
 40
0.0
 40
0.0
 40
0.0
 40
0.0212794961
 40
0.042652784
 40
0.0642121381
 40
0.0860469006
 40
0.108242227
 40
0.1308780972
 40
0.1777406447
 40
0.2271730198
 40
0.2795845528
 40
0.3352845352
 40
0.394492822
 40
0.457352
 40
0.5239388824
 40
0.594274748
 40
0.6683338517
 40
0.7460503986
 40
0.8273243625
 40
0.9120257965
 40
1.0
 40
1.0
 40
1.0
 40
1.0
 10
15.6876524366
 20
11.2536058201
 30
0.0
 10
15.6922448708
 20
11.2536058168
 30
0.0
 10
15.7014534203
 20
11.2539390759
 30
0.0
 10
15.715241494
 20
11.2554370367
 30
0.0
 10
15.729006726
 20
11.2579319144
 30
0.0
 10
15.742736469
 20
11.2614211209
 30
0.0
 10
15.7564200476
 20
11.2659014473
 30
0.0
 10
15.7747970003
 20
11.2732740915
 30
0.0
 10
15.7976672625
 20
11.2850731917
 30
0.0
 10
15.8243942648
 20
11.3029448953
 30
0.0
 10
15.850653125
 20
11.3246244278
 30
0.0
 10
15.8763678639
 20
11.3500357408
 30
0.0
 10
15.9014678505
 20
11.3790969955
 30
0.0
 10
15.9258807628
 20
11.4117170021
 30
0.0
 10
15.9495349047
 20
11.4477946361
 30
0.0
 10
15.9723591442
 20
11.4872182495
 30
0.0
 10
15.9942837682
 20
11.5298656169
 30
0.0
 10
16.0152410522
 20
11.5756040231
 30
0.0
 10
16.0351657008
 20
11.6242908879
 30
0.0
 10
16.0539951501
 20
11.6757732241
 30
0.0
 10
16.0655676448
 20
11.7112055216
 30
0.0
 10
16.0711732562
 20
11.7293452868
 30
0.0
  0
SPLINE
  5
378
100
AcDbEntity
  8
LAYER_CUT_FEAT
100
AcDbSpline
 62
7
  6
CONTINUOUS
 70
0
 71
3
 72
15
 73
11
 74
0
 42
0.0000001
 43
0.0000001
 44
0.0000000001
 40
0.0
 40
0.0
 40
0.0
 40
0.0
 40
0.1086102426
 40
0.2220466324
 40
0.3402751916
 40
0.4632289009
 40
0.5908114964
 40
0.7229010869
 40
0.8593517072
 40
1.0
 40
1.0
 40
1.0
 40
1.0
 10
15.5027827949
 20
11.4271270247
 30
0.0
 10
15.5092997882
 20
11.4369689539
 30
0.0
 10
15.5221349745
 20
11.4574169578
 30
0.0
 10
15.540418518
 20
11.4895745905
 30
0.0
 10
15.5581165761
 20
11.5238224515
 30
0.0
 10
15.5751927511
 20
11.560090057
 30
0.0
 10
15.5916125764
 20
11.5983039505
 30
0.0
 10
15.607342548
 20
11.6383862964
 30
0.0
 10
15.622350571
 20
11.680255202
 30
0.0
 10
15.6317166995
 20
11.7088820532
 30
0.0
 10
15.6362806018
 20
11.7234708209
 30
0.0
  0
SPLINE
  5
379
100
AcDbEntity
  8
LAYER_CUT_FEAT
100
AcDbSpline
 62
7
  6
CONTINUOUS
 70
0
 71
3
 72
14
 73
10
 74
0
 42
0.0000001
 43
0.0000001
 44
0.0000000001
 40
0.0
 40
0.0
 40
0.0
 40
0.0
 40
0.151893003
 40
0.2959919159
 40
0.4322084586
 40
0.5605541988
 40
0.6811642974
 40
0.7943194416
 40
1.0
 40
1.0
 40
1.0
 40
1.0
 10
15.7321513467
 20
12.2891137026
 30
0.0
 10
15.730497732
 20
12.2855422605
 30
0.0
 10
15.7271204736
 20
12.2786526543
 30
0.0
 10
15.7216896442
 20
12.2688529744
 30
0.0
 10
15.7160427523
 20
12.2598879741
 30
0.0
 10
15.7101993475
 20
12.2517890115
 30
0.0
 10
15.7041754205
 20
12.2445809923
 30
0.0
 10
15.6961912275
 20
12.2364570841
 30
0.0
 10
15.6896081379
 20
12.2313371447
 30
0.0
 10
15.6850301802
 20
12.2286086793
 30
0.0
  0
SPLINE
  5
37A
100
AcDbEntity
  8
LAYER_CUT_FEAT
100
AcDbSpline
 62
7
  6
CONTINUOUS
 70
0
 71
3
 72
25
 73
21
 74
0
 42
0.0000001
 43
0.0000001
 44
0.0000000001
 40
0.0
 40
0.0
 40
0.0
 40
0.0
 40
0.0211185303
 40
0.043401074
 40
0.0668448939
 40
0.091435494
 40
0.1439373739
 40
0.2006142263
 40
0.2610491945
 40
0.3247387223
 40
0.3911119545
 40
0.4595467109
 40
0.5293834612
 40
0.5999381582
 40
0.6705144512
 40
0.7404156237
 40
0.8089565204
 40
0.8754757284
 40
0.9393483395
 40
1.0
 40
1.0
 40
1.0
 40
1.0
 10
15.7123803047
 20
12.7668886609
 30
0.0
 10
15.7142249772
 20
12.7643769266
 30
0.0
 10
15.7178520383
 20
12.7590931385
 30
0.0
 10
15.7229762744
 20
12.7506597144
 30
0.0
 10
15.7279159526
 20
12.7415299907
 30
0.0
 10
15.7343778465
 20
12.7281709625
 30
0.0
 10
15.7418437991
 20
12.7098745319
 30
0.0
 10
15.7496714783
 20
12.6860838281
 30
0.0
 10
15.7564634978
 20
12.6602677187
 30
0.0
 10
15.7621405713
 20
12.6327236742
 30
0.0
 10
15.7666361891
 20
12.6037683935
 30
0.0
 10
15.7698974844
 20
12.5737366178
 30
0.0
 10
15.771886064
 20
12.5429760264
 30
0.0
 10
15.7725785011
 20
12.5118431888
 30
0.0
 10
15.7719666392
 20
12.4806991695
 30
0.0
 10
15.7700576816
 20
12.4499051316
 30
0.0
 10
15.7668741434
 20
12.4198181531
 30
0.0
 10
15.7624534145
 20
12.3907862211
 30
0.0
 10
15.7568478028
 20
12.3631462976
 30
0.0
 10
15.752231904
 20
12.3453477985
 30
0.0
 10
15.7497174109
 20
12.3367582388
 30
0.0
  0
SPLINE
  5
37B
100
AcDbEntity
  8
LAYER_CUT_FEAT
100
AcDbSpline
 62
7
  6
CONTINUOUS
 70
0
 71
3
 72
20
 73
16
 74
0
 42
0.0000001
 43
0.0000001
 44
0.0000000001
 40
0.0
 40
0.0
 40
0.0
 40
0.0
 40
0.167654324
 40
0.3320601861
 40
0.4872663989
 40
0.5597458842
 40
0.6280090459
 40
0.6915724553
 40
0.7500660362
 40
0.8032664466
 40
0.8511445418
 40
0.8939338518
 40
0.9322240733
 40
0.9670635191
 40
1.0
 40
1.0
 40
1.0
 40
1.0
 10
15.7123803047
 20
12.7668886609
 30
0.0
 10
15.7124714151
 20
12.7692538705
 30
0.0
 10
15.7124611591
 20
12.7739480762
 30
0.0
 10
15.7118899043
 20
12.7808106757
 30
0.0
 10
15.7109524138
 20
12.7862757926
 30
0.0
 10
15.70992617
 20
12.7903279434
 30
0.0
 10
15.7090583293
 20
12.7930806148
 30
0.0
 10
15.7080844364
 20
12.7955872138
 30
0.0
 10
15.7070146908
 20
12.7978214293
 30
0.0
 10
15.7058600158
 20
12.7997601919
 30
0.0
 10
15.7046312449
 20
12.8013838915
 30
0.0
 10
15.7033385113
 20
12.8026759976
 30
0.0
 10
15.7019898738
 20
12.8036213586
 30
0.0
 10
15.7005953131
 20
12.804202701
 30
0.0
 10
15.6996341591
 20
12.8043354303
 30
0.0
 10
15.699169158
 20
12.8043354396
 30
0.0
  0
SPLINE
  5
37C
100
AcDbEntity
  8
LAYER_CUT_FEAT
100
AcDbSpline
 62
7
  6
CONTINUOUS
 70
0
 71
3
 72
15
 73
11
 74
0
 42
0.0000001
 43
0.0000001
 44
0.0000000001
 40
0.0
 40
0.0
 40
0.0
 40
0.0
 40
0.1744002749
 40
0.3352182133
 40
0.4811768273
 40
0.6115731094
 40
0.7265258377
 40
0.8273173823
 40
0.9168538032
 40
1.0
 40
1.0
 40
1.0
 40
1.0
 10
15.6359301912
 20
12.7942497048
 30
0.0
 10
15.6356375691
 20
12.7953491736
 30
0.0
 10
15.6350093352
 20
12.7974459695
 30
0.0
 10
15.6338869582
 20
12.800381031
 30
0.0
 10
15.6326353759
 20
12.8029487463
 30
0.0
 10
15.631271191
 20
12.8051138686
 30
0.0
 10
15.6298103344
 20
12.8068476722
 30
0.0
 10
15.6282646047
 20
12.8081257268
 30
0.0
 10
15.6266451455
 20
12.8089204941
 30
0.0
 10
15.6255122703
 20
12.8091045863
 30
0.0
 10
15.6249698456
 20
12.809104578
 30
0.0
  0
SPLINE
  5
37D
100
AcDbEntity
  8
LAYER_CUT_FEAT
100
AcDbSpline
 62
7
  6
CONTINUOUS
 70
0
 71
3
 72
28
 73
24
 74
0
 42
0.0000001
 43
0.0000001
 44
0.0000000001
 40
0.0
 40
0.0
 40
0.0
 40
0.0
 40
0.015446559
 40
0.0313596077
 40
0.0481571964
 40
0.0661782094
 40
0.0856737305
 40
0.1068134786
 40
0.1296983566
 40
0.1543734337
 40
0.1808390402
 40
0.2090595285
 40
0.2704638025
 40
0.337823536
 40
0.4100786604
 40
0.4859777359
 40
0.5641401476
 40
0.643109478
 40
0.7214030035
 40
0.7975600235
 40
0.8701911247
 40
0.9380310064
 40
1.0
 40
1.0
 40
1.0
 40
1.0
 10
15.4057077767
 20
12.7634033253
 30
0.0
 10
15.4064796719
 20
12.763403329
 30
0.0
 10
15.4080506597
 20
12.7635558741
 30
0.0
 10
15.410372273
 20
12.7642349564
 30
0.0
 10
15.4126586173
 20
12.765355691
 30
0.0
 10
15.4148966837
 20
12.7669065062
 30
0.0
 10
15.4170770291
 20
12.7688757748
 30
0.0
 10
15.4191901424
 20
12.7712515544
 30
0.0
 10
15.4212263739
 20
12.774020765
 30
0.0
 10
15.4231757247
 20
12.777168597
 30
0.0
 10
15.4250283415
 20
12.7806782341
 30
0.0
 10
15.427423633
 20
12.7859650697
 30
0.0
 10
15.4300733853
 20
12.7933632811
 30
0.0
 10
15.4326441016
 20
12.803083928
 30
0.0
 10
15.4346323927
 20
12.8136772531
 30
0.0
 10
15.4359937158
 20
12.8249117919
 30
0.0
 10
15.4366973243
 20
12.8365422658
 30
0.0
 10
15.4367273192
 20
12.8483133912
 30
0.0
 10
15.4360830112
 20
12.8599667448
 30
0.0
 10
15.4347790093
 20
12.8712464762
 30
0.0
 10
15.4328446157
 20
12.8819063093
 30
0.0
 10
15.4303237296
 20
12.8917128346
 30
0.0
 10
15.4281825522
 20
12.8978483143
 30
0.0
 10
15.4270045877
 20
12.9007122336
 30
0.0
  0
SPLINE
  5
37E
100
AcDbEntity
  8
LAYER_CUT_FEAT
100
AcDbSpline
 62
7
  6
CONTINUOUS
 70
0
 71
3
 72
11
 73
7
 74
0
 42
0.0000001
 43
0.0000001
 44
0.0000000001
 40
0.0
 40
0.0
 40
0.0
 40
0.0
 40
0.2620506212
 40
0.5208027721
 40
0.7690189814
 40
1.0
 40
1.0
 40
1.0
 40
1.0
 10
15.2586827146
 20
13.2116979346
 30
0.0
 10
15.2587232867
 20
13.212720801
 30
0.0
 10
15.2587311725
 20
13.2147572425
 30
0.0
 10
15.2585301827
 20
13.2177571604
 30
0.0
 10
15.2581233964
 20
13.2206137491
 30
0.0
 10
15.2577057862
 20
13.2224417213
 30
0.0
 10
15.2574593647
 20
13.223309721
 30
0.0
  0
SPLINE
  5
37F
100
AcDbEntity
  8
LAYER_CUT_FEAT
100
AcDbSpline
 62
7
  6
CONTINUOUS
 70
0
 71
3
 72
11
 73
7
 74
0
 42
0.0000001
 43
0.0000001
 44
0.0000000001
 40
0.0
 40
0.0
 40
0.0
 40
0.0
 40
0.243823447
 40
0.5045327028
 40
0.762898391
 40
1.0
 40
1.0
 40
1.0
 40
1.0
 10
15.2548805895
 20
13.2357568427
 30
0.0
 10
15.254811989
 20
13.2354749825
 30
0.0
 10
15.254715582
 20
13.2348803502
 30
0.0
 10
15.2546768979
 20
13.2339717078
 30
0.0
 10
15.2547397813
 20
13.2330724469
 30
0.0
 10
15.254852701
 20
13.2324914813
 30
0.0
 10
15.254929741
 20
13.2322201141
 30
0.0
  0
SPLINE
  5
380
100
AcDbEntity
  8
LAYER_CUT_FEAT
100
AcDbSpline
 62
7
  6
CONTINUOUS
 70
0
 71
3
 72
17
 73
13
 74
0
 42
0.0000001
 43
0.0000001
 44
0.0000000001
 40
0.0
 40
0.0
 40
0.0
 40
0.0
 40
0.1169060114
 40
0.2434640533
 40
0.3762090204
 40
0.5113470349
 40
0.6449626985
 40
0.7732175869
 40
0.8342209563
 40
0.8925862199
 40
0.9479498364
 40
1.0
 40
1.0
 40
1.0
 40
1.0
 10
15.3809418706
 20
12.7936219455
 30
0.0
 10
15.3821896056
 20
12.7976755603
 30
0.0
 10
15.3843214941
 20
12.8062641371
 30
0.0
 10
15.3864530818
 20
12.8197589344
 30
0.0
 10
15.3875970307
 20
12.8340367295
 30
0.0
 10
15.3877127696
 20
12.8486148951
 30
0.0
 10
15.3867960367
 20
12.8630012127
 30
0.0
 10
15.385173263
 20
12.8746160198
 30
0.0
 10
15.3833596704
 20
12.8834173592
 30
0.0
 10
15.3817950147
 20
12.8895631004
 30
0.0
 10
15.3800172073
 20
12.8953114814
 30
0.0
 10
15.3786554726
 20
12.898965832
 30
0.0
 10
15.3779371566
 20
12.9007122336
 30
0.0
  0
SPLINE
  5
381
100
AcDbEntity
  8
LAYER_CHAMFER_FEAT
100
AcDbSpline
 62
7
  6
CONTINUOUS
 70
0
 71
3
 72
47
 73
43
 74
0
 42
0.0000001
 43
0.0000001
 44
0.0000000001
 40
0.0
 40
0.0
 40
0.0
 40
0.0
 40
0.0217809093
 40
0.0319637461
 40
0.0417123395
 40
0.0600585419
 40
0.0687780974
 40
0.0772728778
 40
0.0856141189
 40
0.0938781046
 40
0.1021437893
 40
0.1104900701
 40
0.1189930584
 40
0.1277237241
 40
0.1460996479
 40
0.155866069
 40
0.1660682667
 40
0.1767383781
 40
0.1879014993
 40
0.1995763675
 40
0.2117760569
 40
0.2377718105
 40
0.2659106836
 40
0.2961511233
 40
0.3284074958
 40
0.362558613
 40
0.3984543538
 40
0.4359207151
 40
0.4747640729
 40
0.5147746756
 40
0.5557298485
 40
0.5973968163
 40
0.6395354366
 40
0.681900755
 40
0.724245539
 40
0.7663227636
 40
0.8078880938
 40
0.8487024331
 40
0.8885344879
 40
0.9271635224
 40
0.9643821112
 40
1.0
 40
1.0
 40
1.0
 40
1.0
 10
15.720350251
 20
12.1554163966
 30
0.0
 10
15.7166908962
 20
12.1512867556
 30
0.0
 10
15.7109886706
 20
12.1454998593
 30
0.0
 10
15.7028358008
 20
12.1387648052
 30
0.0
 10
15.6949247151
 20
12.1331478036
 30
0.0
 10
15.6866923149
 20
12.1286488234
 30
0.0
 10
15.6782457528
 20
12.1254828327
 30
0.0
 10
15.6719789115
 20
12.1238141041
 30
0.0
 10
15.6656874016
 20
12.1228169361
 30
0.0
 10
15.6593832348
 20
12.1224938202
 30
0.0
 10
15.6530793429
 20
12.1228458164
 30
0.0
 10
15.6467886539
 20
12.1238718025
 30
0.0
 10
15.6405231535
 20
12.1255691902
 30
0.0
 10
15.6320780625
 20
12.1287741042
 30
0.0
 10
15.6238494396
 20
12.1333106139
 30
0.0
 10
15.6159432869
 20
12.1389630314
 30
0.0
 10
15.6099685794
 20
12.1439285658
 30
0.0
 10
15.6040828419
 20
12.1495234824
 30
0.0
 10
15.5982942104
 20
12.1557386378
 30
0.0
 10
15.5926122998
 20
12.1625631522
 30
0.0
 10
15.5850306108
 20
12.1726744325
 30
0.0
 10
15.5759182676
 20
12.1868211321
 30
0.0
 10
15.5657812814
 20
12.2056589724
 30
0.0
 10
15.5562855185
 20
12.2265807865
 30
0.0
 10
15.5474949785
 20
12.2494450702
 30
0.0
 10
15.5394689497
 20
12.2740982117
 30
0.0
 10
15.5322624393
 20
12.3003729027
 30
0.0
 10
15.5259249613
 20
12.3280902625
 30
0.0
 10
15.5205003023
 20
12.3570610026
 30
0.0
 10
15.5160259283
 20
12.387086895
 30
0.0
 10
15.5125328526
 20
12.4179622237
 30
0.0
 10
15.5100452275
 20
12.4494752611
 30
0.0
 10
15.5085803293
 20
12.4814097858
 30
0.0
 10
15.508148268
 20
12.5135466067
 30
0.0
 10
15.508752079
 20
12.5456651114
 30
0.0
 10
15.5103875364
 20
12.5775448175
 30
0.0
 10
15.5130433487
 20
12.6089669145
 30
0.0
 10
15.5167010779
 20
12.6397158416
 30
0.0
 10
15.5213354176
 20
12.6695806927
 30
0.0
 10
15.5269143108
 20
12.698357113
 30
0.0
 10
15.5333989983
 20
12.7258474345
 30
0.0
 10
15.5384147685
 20
12.7436120248
 30
0.0
 10
15.5410787724
 20
12.7522327446
 30
0.0
  0
SPLINE
  5
382
100
AcDbEntity
  8
LAYER_CUT_FEAT
100
AcDbSpline
 62
7
  6
CONTINUOUS
 70
0
 71
3
 72
11
 73
7
 74
0
 42
0.0000001
 43
0.0000001
 44
0.0000000001
 40
0.0
 40
0.0
 40
0.0
 40
0.0
 40
0.2597880159
 40
0.5178042494
 40
0.7668044938
 40
1.0
 40
1.0
 40
1.0
 40
1.0
 10
15.2691897702
 20
13.25275045
 30
0.0
 10
15.2692453693
 20
13.2537716739
 30
0.0
 10
15.2692825923
 20
13.2558118493
 30
0.0
 10
15.2691247918
 20
13.2588290026
 30
0.0
 10
15.2687591914
 20
13.2617226996
 30
0.0
 10
15.2683691717
 20
13.2635835456
 30
0.0
 10
15.2681363529
 20
13.26447158
 30
0.0
  0
SPLINE
  5
383
100
AcDbEntity
  8
LAYER_CUT_FEAT
100
AcDbSpline
 62
7
  6
CONTINUOUS
 70
0
 71
3
 72
11
 73
7
 74
0
 42
0.0000001
 43
0.0000001
 44
0.0000000001
 40
0.0
 40
0.0
 40
0.0
 40
0.0
 40
0.2402953448
 40
0.499780552
 40
0.7593792186
 40
1.0
 40
1.0
 40
1.0
 40
1.0
 10
15.2657406213
 20
13.2771576064
 30
0.0
 10
15.2656675742
 20
13.2768810522
 30
0.0
 10
15.2655624792
 20
13.27629321
 30
0.0
 10
15.2655110745
 20
13.2753889313
 30
0.0
 10
15.2655613071
 20
13.2744841982
 30
0.0
 10
15.2656656024
 20
13.2738956941
 30
0.0
 10
15.2657382407
 20
13.2736186317
 30
0.0
  0
SPLINE
  5
384
100
AcDbEntity
  8
LAYER_CUT_FEAT
100
AcDbSpline
 62
7
  6
CONTINUOUS
 70
0
 71
3
 72
11
 73
7
 74
0
 42
0.0000001
 43
0.0000001
 44
0.0000000001
 40
0.0
 40
0.0
 40
0.0
 40
0.0
 40
0.2575477218
 40
0.5148302262
 40
0.7646036583
 40
1.0
 40
1.0
 40
1.0
 40
1.0
 10
15.2802872365
 20
13.2927653904
 30
0.0
 10
15.2803578726
 20
13.2937835325
 30
0.0
 10
15.2804245485
 20
13.2958246129
 30
0.0
 10
15.2803101646
 20
13.2988548404
 30
0.0
 10
15.279986277
 20
13.3017816744
 30
0.0
 10
15.279624219
 20
13.303672732
 30
0.0
 10
15.279405225
 20
13.304579471
 30
0.0
  0
SPLINE
  5
385
100
AcDbEntity
  8
LAYER_CUT_FEAT
100
AcDbSpline
 62
7
  6
CONTINUOUS
 70
0
 71
3
 72
11
 73
7
 74
0
 42
0.0000001
 43
0.0000001
 44
0.0000000001
 40
0.0
 40
0.0
 40
0.0
 40
0.0
 40
0.2367768995
 40
0.4950281408
 40
0.755850023
 40
1.0
 40
1.0
 40
1.0
 40
1.0
 10
15.2771958877
 20
13.3174866597
 30
0.0
 10
15.2771184437
 20
13.3172158402
 30
0.0
 10
15.2770047313
 20
13.3166356123
 30
0.0
 10
15.2769406838
 20
13.3157369182
 30
0.0
 10
15.2769781896
 20
13.3148279345
 30
0.0
 10
15.2770737909
 20
13.3142327169
 30
0.0
 10
15.2771419784
 20
13.3139503883
 30
0.0
  0
SPLINE
  5
386
100
AcDbEntity
  8
LAYER_CUT_FEAT
100
AcDbSpline
 62
7
  6
CONTINUOUS
 70
0
 71
3
 72
17
 73
13
 74
0
 42
0.0000001
 43
0.0000001
 44
0.0000000001
 40
0.0
 40
0.0
 40
0.0
 40
0.0
 40
0.0799187474
 40
0.1246714995
 40
0.172886598
 40
0.2246691015
 40
0.2800417021
 40
0.4012823528
 40
0.5357004152
 40
0.6817041614
 40
0.8372559424
 40
1.0
 40
1.0
 40
1.0
 40
1.0
 10
15.5928815159
 20
12.9031116185
 30
0.0
 10
15.5943812488
 20
12.9039905383
 30
0.0
 10
15.5965206515
 20
12.9057128163
 30
0.0
 10
15.5990658887
 20
12.9084825088
 30
0.0
 10
15.6009839278
 20
12.910985154
 30
0.0
 10
15.6028278347
 20
12.9138203653
 30
0.0
 10
15.6052514669
 20
12.9181605099
 30
0.0
 10
15.6080078934
 20
12.9243542212
 30
0.0
 10
15.6108073172
 20
12.9326400904
 30
0.0
 10
15.6131389876
 20
12.9418405012
 30
0.0
 10
15.6149577972
 20
12.9517808291
 30
0.0
 10
15.615790504
 20
12.9586584371
 30
0.0
 10
15.616118347
 20
12.9621830499
 30
0.0
  0
SPLINE
  5
387
100
AcDbEntity
  8
LAYER_CUT_FEAT
100
AcDbSpline
 62
7
  6
CONTINUOUS
 70
0
 71
3
 72
10
 73
6
 74
0
 42
0.0000001
 43
0.0000001
 44
0.0000000001
 40
0.0
 40
0.0
 40
0.0
 40
0.0
 40
0.2334710881
 40
0.4794122112
 40
1.0
 40
1.0
 40
1.0
 40
1.0
 10
15.5614607921
 20
12.9321171131
 30
0.0
 10
15.5621456237
 20
12.9343998034
 30
0.0
 10
15.5634080182
 20
12.9391312642
 30
0.0
 10
15.5655116938
 20
12.9491229883
 30
0.0
 10
15.5665587559
 20
12.9568918794
 30
0.0
 10
15.5670509159
 20
12.9621830499
 30
0.0
  0
SPLINE
  5
388
100
AcDbEntity
  8
0
100
AcDbSpline
 62
7
  6
CONTINUOUS
 70
0
 71
3
 72
11
 73
7
 74
0
 42
0.0000001
 43
0.0000001
 44
0.0000000001
 40
0.0
 40
0.0
 40
0.0
 40
0.0
 40
0.2553265308
 40
0.511876777
 40
0.7624139533
 40
1.0
 40
1.0
 40
1.0
 40
1.0
 10
15.2919595925
 20
13.3316867914
 30
0.0
 10
15.2920452556
 20
13.3327004123
 30
0.0
 10
15.2921414579
 20
13.3347395609
 30
0.0
 10
15.2920706552
 20
13.337778681
 30
0.0
 10
15.2917889474
 20
13.3407346289
 30
0.0
 10
15.2914551854
 20
13.342653202
 30
0.0
 10
15.2912502205
 20
13.3435772995
 30
0.0
  0
SPLINE
  5
389
100
AcDbEntity
  8
0
100
AcDbSpline
 62
7
  6
CONTINUOUS
 70
0
 71
3
 72
11
 73
7
 74
0
 42
0.0000001
 43
0.0000001
 44
0.0000000001
 40
0.0
 40
0.0
 40
0.0
 40
0.0
 40
0.2332642467
 40
0.4902698403
 40
0.7523067551
 40
1.0
 40
1.0
 40
1.0
 40
1.0
 10
15.2892303674
 20
13.3566875986
 30
0.0
 10
15.2891485818
 20
13.3564229403
 30
0.0
 10
15.2890263339
 20
13.3558511414
 30
0.0
 10
15.2889497404
 20
13.3549592437
 30
0.0
 10
15.2889744625
 20
13.3540472379
 30
0.0
 10
15.289061312
 20
13.3534461394
 30
0.0
 10
15.2891250048
 20
13.3531589764
 30
0.0
  0
SPLINE
  5
38A
100
AcDbEntity
  8
LAYER_CUT_FEAT
100
AcDbSpline
 62
7
  6
CONTINUOUS
 70
0
 71
3
 72
16
 73
12
 74
0
 42
0.0000001
 43
0.0000001
 44
0.0000000001
 40
0.0
 40
0.0
 40
0.0
 40
0.0
 40
0.0827319664
 40
0.1289161913
 40
0.1784515045
 40
0.2875901331
 40
0.4097837383
 40
0.5439061884
 40
0.6883411516
 40
0.8411148098
 40
1.0
 40
1.0
 40
1.0
 40
1.0
 10
15.369848848
 20
12.5388578658
 30
0.0
 10
15.3710822514
 20
12.5398000439
 30
0.0
 10
15.3728206429
 20
12.5415136745
 30
0.0
 10
15.3748878546
 20
12.5441480444
 30
0.0
 10
15.3770230853
 20
12.5473483422
 30
0.0
 10
15.3794882964
 20
12.5520206451
 30
0.0
 10
15.382048713
 20
12.5583905072
 30
0.0
 10
15.3842557662
 20
12.56558559
 30
0.0
 10
15.3860694937
 20
12.5734778597
 30
0.0
 10
15.387456596
 20
12.5819262222
 30
0.0
 10
15.3880709286
 20
12.5877442963
 30
0.0
 10
15.3883045656
 20
12.5907158856
 30
0.0
  0
SPLINE
  5
38B
100
AcDbEntity
  8
LAYER_CUT_FEAT
100
AcDbSpline
 62
7
  6
CONTINUOUS
 70
0
 71
3
 72
38
 73
34
 74
0
 42
0.0000001
 43
0.0000001
 44
0.0000000001
 40
0.0
 40
0.0
 40
0.0
 40
0.0
 40
0.0938156997
 40
0.1387434772
 40
0.1822888108
 40
0.2244140415
 40
0.2650879423
 40
0.304286526
 40
0.3419938816
 40
0.3782031787
 40
0.412917826
 40
0.4461528156
 40
0.4779362666
 40
0.5083111665
 40
0.5373372834
 40
0.56509317
 40
0.5916781068
 40
0.6172137303
 40
0.6418449756
 40
0.6657398663
 40
0.6890876694
 40
0.7120950773
 40
0.7349804126
 40
0.7579663262
 40
0.7812718968
 40
0.8051052253
 40
0.8296574663
 40
0.8550988105
 40
0.8815764606
 40
0.9092142826
 40
0.9381136579
 40
0.9683550641
 40
1.0
 40
1.0
 40
1.0
 40
1.0
 10
16.0760776676
 20
11.7268588469
 30
0.0
 10
16.0678018852
 20
11.7000784053
 30
0.0
 10
16.0546309561
 20
11.6607475765
 30
0.0
 10
16.0352349417
 20
11.6098488786
 30
0.0
 10
16.02029867
 20
11.573794454
 30
0.0
 10
16.0047900035
 20
11.53937172
 30
0.0
 10
15.9887354463
 20
11.5066398775
 30
0.0
 10
15.9721627875
 20
11.4756556382
 30
0.0
 10
15.9551004892
 20
11.4464724907
 30
0.0
 10
15.9375777373
 20
11.4191407825
 30
0.0
 10
15.919624308
 20
11.3937076168
 30
0.0
 10
15.9012704733
 20
11.3702168284
 30
0.0
 10
15.8825468917
 20
11.348708982
 30
0.0
 10
15.8634845124
 20
11.3292214224
 30
0.0
 10
15.8441145115
 20
11.311788381
 30
0.0
 10
15.8244682975
 20
11.2964411418
 30
0.0
 10
15.804577636
 20
11.2832082435
 30
0.0
 10
15.7844749447
 20
11.2721156576
 30
0.0
 10
15.7641937797
 20
11.2631868248
 30
0.0
 10
15.7437694488
 20
11.2564423947
 30
0.0
 10
15.7232395552
 20
11.2518995404
 30
0.0
 10
15.7026441593
 20
11.2495708794
 30
0.0
 10
15.6820252842
 20
11.2494632881
 30
0.0
 10
15.661425754
 20
11.2515770918
 30
0.0
 10
15.6408877288
 20
11.2559060233
 30
0.0
 10
15.6204514927
 20
11.2624379711
 30
0.0
 10
15.6001548879
 20
11.2711561521
 30
0.0
 10
15.5800334269
 20
11.2820402133
 30
0.0
 10
15.5601207976
 20
11.2950669786
 30
0.0
 10
15.540449544
 20
11.3102106718
 30
0.0
 10
15.5210513185
 20
11.3274432003
 30
0.0
 10
15.5019581973
 20
11.3467327923
 30
0.0
 10
15.4897350174
 20
11.3606216525
 30
0.0
 10
15.4836764076
 20
11.3678801807
 30
0.0
  0
SPLINE
  5
38C
100
AcDbEntity
  8
LAYER_CHAMFER_FEAT
100
AcDbSpline
 62
7
  6
CONTINUOUS
 70
0
 71
3
 72
27
 73
23
 74
0
 42
0.0000001
 43
0.0000001
 44
0.0000000001
 40
0.0
 40
0.0
 40
0.0
 40
0.0
 40
0.0939246761
 40
0.182589615
 40
0.26567984
 40
0.3429775524
 40
0.414387376
 40
0.4799683205
 40
0.5399758121
 40
0.5949152159
 40
0.6455989719
 40
0.6697208439
 40
0.6932426887
 40
0.7163594211
 40
0.7392790802
 40
0.7622163912
 40
0.7853854763
 40
0.8089926275
 40
0.8332300925
 40
0.8842233916
 40
0.9395515705
 40
1.0
 40
1.0
 40
1.0
 40
1.0
 10
15.5410787724
 20
12.7522327446
 30
0.0
 10
15.5435846243
 20
12.7603416844
 30
0.0
 10
15.548820761
 20
12.7759965271
 30
0.0
 10
15.5576292472
 20
12.7983426983
 30
0.0
 10
15.5671195692
 20
12.8187657089
 30
0.0
 10
15.5772297504
 20
12.8371313853
 30
0.0
 10
15.5878961826
 20
12.853320949
 30
0.0
 10
15.5990543296
 20
12.8672302149
 30
0.0
 10
15.6106435379
 20
12.878768761
 30
0.0
 10
15.622600583
 20
12.8878543611
 30
0.0
 10
15.6330007351
 20
12.8934061544
 30
0.0
 10
15.6413605997
 20
12.896451729
 30
0.0
 10
15.6475640556
 20
12.8980459836
 30
0.0
 10
15.6537907474
 20
12.8989824678
 30
0.0
 10
15.6600288962
 20
12.8992588698
 30
0.0
 10
15.6662660253
 20
12.8988743139
 30
0.0
 10
15.6724896869
 20
12.8978299628
 30
0.0
 10
15.6786881892
 20
12.8961284268
 30
0.0
 10
15.6870426835
 20
12.8929370722
 30
0.0
 10
15.6974274245
 20
12.8872044663
 30
0.0
 10
15.709355192
 20
12.8779164521
 30
0.0
 10
15.7167163945
 20
12.8704406678
 30
0.0
 10
15.7203394566
 20
12.8663528782
 30
0.0
  0
SPLINE
  5
38D
100
AcDbEntity
  8
LAYER_CHAMFER_FEAT
100
AcDbSpline
 62
7
  6
CONTINUOUS
 70
0
 71
3
 72
23
 73
19
 74
0
 42
0.0000001
 43
0.0000001
 44
0.0000000001
 40
0.0
 40
0.0
 40
0.0
 40
0.0
 40
0.0879808761
 40
0.1726890079
 40
0.2539692804
 40
0.3316918315
 40
0.4057566678
 40
0.4760979808
 40
0.5426900197
 40
0.6055540563
 40
0.6647669335
 40
0.7204712232
 40
0.7728868118
 40
0.8223230172
 40
0.8691891871
 40
0.9140001399
 40
0.9573714593
 40
1.0
 40
1.0
 40
1.0
 40
1.0
 10
15.5361743609
 20
12.7547191844
 30
0.0
 10
15.5379233251
 20
12.7603788347
 30
0.0
 10
15.5415339766
 20
12.771433814
 30
0.0
 10
15.5474088183
 20
12.7874964533
 30
0.0
 10
15.5536253708
 20
12.8026869042
 30
0.0
 10
15.5601641025
 20
12.8169574199
 30
0.0
 10
15.5670046505
 20
12.8302635197
 30
0.0
 10
15.5741258787
 20
12.8425638017
 30
0.0
 10
15.5815060367
 20
12.8538201276
 30
0.0
 10
15.5891229447
 20
12.8639976629
 30
0.0
 10
15.5969541908
 20
12.8730648549
 30
0.0
 10
15.6049773302
 20
12.8809932751
 30
0.0
 10
15.6131699508
 20
12.8877572858
 30
0.0
 10
15.6215096049
 20
12.8933335325
 30
0.0
 10
15.6299728399
 20
12.8977004135
 30
0.0
 10
15.6385350605
 20
12.9008379694
 30
0.0
 10
15.6471650215
 20
12.9027288386
 30
0.0
 10
15.6529637996
 20
12.9031512745
 30
0.0
 10
15.6558339659
 20
12.9031512668
 30
0.0
  0
SPLINE
  5
38E
100
AcDbEntity
  8
LAYER_CUT_FEAT
100
AcDbSpline
 62
7
  6
CONTINUOUS
 70
0
 71
3
 72
15
 73
11
 74
0
 42
0.0000001
 43
0.0000001
 44
0.0000000001
 40
0.0
 40
0.0
 40
0.0
 40
0.0
 40
0.1318987377
 40
0.2658550671
 40
0.399798156
 40
0.5316547175
 40
0.6594085292
 40
0.781157828
 40
0.8951784437
 40
1.0
 40
1.0
 40
1.0
 40
1.0
 10
15.3908764674
 20
12.618366188
 30
0.0
 10
15.39119969
 20
12.6213686784
 30
0.0
 10
15.3916801528
 20
12.6274400608
 30
0.0
 10
15.3919166013
 20
12.6365944115
 30
0.0
 10
15.3916737473
 20
12.6457479338
 30
0.0
 10
15.390956055
 20
12.6547341899
 30
0.0
 10
15.3897769221
 20
12.6633903152
 30
0.0
 10
15.3881581137
 20
12.6715601589
 30
0.0
 10
15.3861298353
 20
12.6790959318
 30
0.0
 10
15.3844523777
 20
12.6838251613
 30
0.0
 10
15.3835394744
 20
12.6860446521
 30
0.0
  0
SPLINE
  5
38F
100
AcDbEntity
  8
LAYER_CUT_FEAT
100
AcDbSpline
 62
7
  6
CONTINUOUS
 70
0
 71
3
 72
28
 73
24
 74
0
 42
0.0000001
 43
0.0000001
 44
0.0000000001
 40
0.0
 40
0.0
 40
0.0
 40
0.0
 40
0.015446559
 40
0.0313596077
 40
0.0481571964
 40
0.0661782094
 40
0.0856737305
 40
0.1068134786
 40
0.1296983566
 40
0.1543734337
 40
0.1808390402
 40
0.2090595285
 40
0.2704638025
 40
0.337823536
 40
0.4100786604
 40
0.4859777359
 40
0.5641401476
 40
0.643109478
 40
0.7214030035
 40
0.7975600235
 40
0.8701911247
 40
0.9380310064
 40
1.0
 40
1.0
 40
1.0
 40
1.0
 10
15.8620434166
 20
11.6539400165
 30
0.0
 10
15.8628153118
 20
11.6539400202
 30
0.0
 10
15.8643862996
 20
11.6540925653
 30
0.0
 10
15.8667079129
 20
11.6547716475
 30
0.0
 10
15.8689942573
 20
11.6558923822
 30
0.0
 10
15.8712323237
 20
11.6574431974
 30
0.0
 10
15.873412669
 20
11.659412466
 30
0.0
 10
15.8755257823
 20
11.6617882456
 30
0.0
 10
15.8775620138
 20
11.6645574562
 30
0.0
 10
15.8795113646
 20
11.6677052881
 30
0.0
 10
15.8813639815
 20
11.6712149253
 30
0.0
 10
15.8837592729
 20
11.6765017609
 30
0.0
 10
15.8864090252
 20
11.6838999723
 30
0.0
 10
15.8889797416
 20
11.6936206192
 30
0.0
 10
15.8909680326
 20
11.7042139442
 30
0.0
 10
15.8923293557
 20
11.7154484831
 30
0.0
 10
15.8930329642
 20
11.727078957
 30
0.0
 10
15.8930629591
 20
11.7388500824
 30
0.0
 10
15.8924186511
 20
11.750503436
 30
0.0
 10
15.8911146493
 20
11.7617831674
 30
0.0
 10
15.8891802556
 20
11.7724430004
 30
0.0
 10
15.8866593695
 20
11.7822495258
 30
0.0
 10
15.8845181922
 20
11.7883850055
 30
0.0
 10
15.8833402276
 20
11.7912489248
 30
0.0
  0
SPLINE
  5
390
100
AcDbEntity
  8
LAYER_CUT_FEAT
100
AcDbSpline
 62
7
  6
CONTINUOUS
 70
0
 71
3
 72
17
 73
13
 74
0
 42
0.0000001
 43
0.0000001
 44
0.0000000001
 40
0.0
 40
0.0
 40
0.0
 40
0.0
 40
0.1169060114
 40
0.2434640533
 40
0.3762090204
 40
0.5113470349
 40
0.6449626985
 40
0.7732175869
 40
0.8342209563
 40
0.8925862199
 40
0.9479498364
 40
1.0
 40
1.0
 40
1.0
 40
1.0
 10
15.8372775105
 20
11.6841586367
 30
0.0
 10
15.8385252455
 20
11.6882122514
 30
0.0
 10
15.8406571341
 20
11.6968008283
 30
0.0
 10
15.8427887217
 20
11.7102956256
 30
0.0
 10
15.8439326706
 20
11.7245734207
 30
0.0
 10
15.8440484095
 20
11.7391515862
 30
0.0
 10
15.8431316766
 20
11.7535379039
 30
0.0
 10
15.8415089029
 20
11.7651527109
 30
0.0
 10
15.8396953104
 20
11.7739540504
 30
0.0
 10
15.8381306546
 20
11.7800997916
 30
0.0
 10
15.8363528472
 20
11.7858481726
 30
0.0
 10
15.8349911125
 20
11.7895025232
 30
0.0
 10
15.8342727965
 20
11.7912489248
 30
0.0
  0
SPLINE
  5
391
100
AcDbEntity
  8
LAYER_CUT_FEAT
100
AcDbSpline
 62
7
  6
CONTINUOUS
 70
0
 71
3
 72
9
 73
5
 74
0
 42
0.0000001
 43
0.0000001
 44
0.0000000001
 40
0.0
 40
0.0
 40
0.0
 40
0.0
 40
0.2432056955
 40
1.0
 40
1.0
 40
1.0
 40
1.0
 10
15.5028341624
 20
12.9013551639
 30
0.0
 10
15.50193303
 20
12.9007546861
 30
0.0
 10
15.4982695758
 20
12.8982232407
 30
0.0
 10
15.4947736621
 20
12.8954518734
 30
0.0
 10
15.4922232527
 20
12.8932496516
 30
0.0
  0
SPLINE
  5
392
100
AcDbEntity
  8
LAYER_CUT_FEAT
100
AcDbSpline
 62
7
  6
CONTINUOUS
 70
0
 71
3
 72
16
 73
12
 74
0
 42
0.0000001
 43
0.0000001
 44
0.0000000001
 40
0.0
 40
0.0
 40
0.0
 40
0.0
 40
0.0814400329
 40
0.1269255883
 40
0.1757915855
 40
0.2838217368
 40
0.4053976407
 40
0.5395280782
 40
0.6846755188
 40
0.8389054687
 40
1.0
 40
1.0
 40
1.0
 40
1.0
 10
15.5028341624
 20
12.9013551639
 30
0.0
 10
15.5040773787
 20
12.9021835925
 30
0.0
 10
15.5058416433
 20
12.9037412843
 30
0.0
 10
15.5079439088
 20
12.9061877835
 30
0.0
 10
15.5101248754
 20
12.9091976486
 30
0.0
 10
15.5126555263
 20
12.9136523601
 30
0.0
 10
15.515300804
 20
12.9197887164
 30
0.0
 10
15.5176039972
 20
12.926780699
 30
0.0
 10
15.5195236577
 20
12.9345043757
 30
0.0
 10
15.5210246808
 20
12.9428221313
 30
0.0
 10
15.5217162771
 20
12.9485686554
 30
0.0
 10
15.5219899691
 20
12.9515110961
 30
0.0
  0
SPLINE
  5
393
100
AcDbEntity
  8
LAYER_CUT_FEAT
100
AcDbSpline
 62
7
  6
CONTINUOUS
 70
0
 71
3
 72
18
 73
14
 74
0
 42
0.0000001
 43
0.0000001
 44
0.0000000001
 40
0.0
 40
0.0
 40
0.0
 40
0.0
 40
0.1453052291
 40
0.2918668975
 40
0.435788655
 40
0.5732977015
 40
0.7009332478
 40
0.7601251154
 40
0.8158082315
 40
0.8677461975
 40
0.9157790401
 40
0.9598433673
 40
1.0
 40
1.0
 40
1.0
 40
1.0
 10
15.5872473563
 20
13.6530878413
 30
0.0
 10
15.5876168798
 20
13.6570605569
 30
0.0
 10
15.5880686455
 20
13.665069877
 30
0.0
 10
15.5879231242
 20
13.6770438411
 30
0.0
 10
15.586968184
 20
13.6887672482
 30
0.0
 10
15.5852343266
 20
13.69987551
 30
0.0
 10
15.5831377642
 20
13.7085452597
 30
0.0
 10
15.581083736
 20
13.714882504
 30
0.0
 10
15.5794286411
 20
13.7191564167
 30
0.0
 10
15.5776334108
 20
13.7230387205
 30
0.0
 10
15.5757112503
 20
13.726500162
 30
0.0
 10
15.5736767741
 20
13.729514159
 30
0.0
 10
15.572186915
 20
13.7312909449
 30
0.0
 10
15.5714242896
 20
13.7320873241
 30
0.0
  0
SPLINE
  5
394
100
AcDbEntity
  8
LAYER_CUT_FEAT
100
AcDbSpline
 62
7
  6
CONTINUOUS
 70
0
 71
3
 72
55
 73
51
 74
0
 42
0.0000001
 43
0.0000001
 44
0.0000000001
 40
0.0
 40
0.0
 40
0.0
 40
0.0
 40
0.0114385761
 40
0.0223688773
 40
0.0328132374
 40
0.0428008927
 40
0.0523686823
 40
0.0615616231
 40
0.0704332163
 40
0.0790453158
 40
0.0874673815
 40
0.0957750059
 40
0.10404773
 40
0.1123663391
 40
0.1208099862
 40
0.1294535417
 40
0.1383654982
 40
0.147606599
 40
0.1572291846
 40
0.1672771306
 40
0.1777862016
 40
0.1887846495
 40
0.2002939239
 40
0.2123294007
 40
0.2249010772
 40
0.2380142033
 40
0.2516698406
 40
0.265865349
 40
0.280594806
 40
0.2958493675
 40
0.3116175786
 40
0.3278856411
 40
0.3446376463
 40
0.3618557789
 40
0.3976083241
 40
0.4349716494
 40
0.4737506601
 40
0.5137333099
 40
0.5546939018
 40
0.5963960898
 40
0.638595687
 40
0.6810433503
 40
0.7234871946
 40
0.7656753737
 40
0.8073586622
 40
0.8482930706
 40
0.8882425337
 40
0.926981723
 40
0.9642990585
 40
1.0
 40
1.0
 40
1.0
 40
1.0
 10
15.4836764085
 20
13.653876908
 30
0.0
 10
15.4897462467
 20
13.6611488791
 30
0.0
 10
15.5019922467
 20
13.6750623282
 30
0.0
 10
15.5211224624
 20
13.6943828591
 30
0.0
 10
15.5405588509
 20
13.7116384269
 30
0.0
 10
15.5602691647
 20
13.726797085
 30
0.0
 10
15.5802215763
 20
13.7398305916
 30
0.0
 10
15.6003833568
 20
13.7507130329
 30
0.0
 10
15.6207206156
 20
13.7594211119
 30
0.0
 10
15.6411976107
 20
13.7659343782
 30
0.0
 10
15.6617762399
 20
13.7702359904
 30
0.0
 10
15.6824159348
 20
13.7723138362
 30
0.0
 10
15.7030742465
 20
13.7721617175
 30
0.0
 10
15.7237080819
 20
13.7697800964
 30
0.0
 10
15.7442751874
 20
13.7651760365
 30
0.0
 10
15.7647353134
 20
13.7583623679
 30
0.0
 10
15.7850506982
 20
13.7493564844
 30
0.0
 10
15.8051858894
 20
13.7381792573
 30
0.0
 10
15.8251071875
 20
13.7248543536
 30
0.0
 10
15.8447820254
 20
13.7094079831
 30
0.0
 10
15.8641784816
 20
13.6918689426
 30
0.0
 10
15.8832649871
 20
13.6722687985
 30
0.0
 10
15.902010204
 20
13.6506420919
 30
0.0
 10
15.9203830231
 20
13.6270265039
 30
0.0
 10
15.9383526304
 20
13.6014629627
 30
0.0
 10
15.9558886047
 20
13.5739956911
 30
0.0
 10
15.9729610263
 20
13.5446722065
 30
0.0
 10
15.9895405815
 20
13.5135432845
 30
0.0
 10
16.0055986621
 20
13.4806628946
 30
0.0
 10
16.0211074476
 20
13.446088122
 30
0.0
 10
16.0360400067
 20
13.4098790559
 30
0.0
 10
16.0503702795
 20
13.372098746
 30
0.0
 10
16.0640734872
 20
13.3328128443
 30
0.0
 10
16.0816967628
 20
13.2778252728
 30
0.0
 10
16.1019154152
 20
13.2057732984
 30
0.0
 10
16.1230317889
 20
13.1155244257
 30
0.0
 10
16.1411490344
 20
13.0210581495
 30
0.0
 10
16.1561397176
 20
12.9230334772
 30
0.0
 10
16.1678983234
 20
12.8221327595
 30
0.0
 10
16.1763420192
 20
12.7190597177
 30
0.0
 10
16.1814113061
 20
12.6145334768
 30
0.0
 10
16.1830704559
 20
12.5092836215
 30
0.0
 10
16.1813077746
 20
12.4040449013
 30
0.0
 10
16.1761356851
 20
12.2995519836
 30
0.0
 10
16.1675906446
 20
12.1965342211
 30
0.0
 10
16.1557328496
 20
12.0957103183
 30
0.0
 10
16.1406458888
 20
11.9977835303
 30
0.0
 10
16.1224357425
 20
11.9034351884
 30
0.0
 10
16.1012312324
 20
11.813324551
 30
0.0
 10
16.0848063616
 20
11.7551049108
 30
0.0
 10
16.0760776676
 20
11.7268588469
 30
0.0
  0
SPLINE
  5
395
100
AcDbEntity
  8
LAYER_CUT_FEAT
100
AcDbSpline
 62
7
  6
CONTINUOUS
 70
0
 71
3
 72
20
 73
16
 74
0
 42
0.0000001
 43
0.0000001
 44
0.0000000001
 40
0.0
 40
0.0
 40
0.0
 40
0.0
 40
0.0368471282
 40
0.0783576104
 40
0.1248073014
 40
0.1761877366
 40
0.2322852936
 40
0.292733936
 40
0.3570512302
 40
0.4246649961
 40
0.4949340606
 40
0.5671652852
 40
0.7145395096
 40
0.8607998216
 40
1.0
 40
1.0
 40
1.0
 40
1.0
 10
15.9499755288
 20
12.9820078032
 30
0.0
 10
15.9509665262
 20
12.9827648111
 30
0.0
 10
15.9529107882
 20
12.9845916777
 30
0.0
 10
15.9555240041
 20
12.9879243926
 30
0.0
 10
15.9579758286
 20
12.9919636953
 30
0.0
 10
15.9602390923
 20
12.9966631128
 30
0.0
 10
15.9622890666
 20
13.0019693472
 30
0.0
 10
15.9641014001
 20
13.0078203237
 30
0.0
 10
15.9656543772
 20
13.0141468303
 30
0.0
 10
15.9669290723
 20
13.020873294
 30
0.0
 10
15.9679100285
 20
13.0279191766
 30
0.0
 10
15.9688156311
 20
13.0376905071
 30
0.0
 10
15.9691451151
 20
13.0500854681
 30
0.0
 10
15.9682974221
 20
13.0647257495
 30
0.0
 10
15.9668799111
 20
13.0743005462
 30
0.0
 10
15.9659412087
 20
13.0789171584
 30
0.0
  0
SPLINE
  5
396
100
AcDbEntity
  8
LAYER_CUT_FEAT
100
AcDbSpline
 62
7
  6
CONTINUOUS
 70
0
 71
3
 72
21
 73
17
 74
0
 42
0.0000001
 43
0.0000001
 44
0.0000000001
 40
0.0
 40
0.0
 40
0.0
 40
0.0
 40
0.1506003208
 40
0.2950137083
 40
0.3646816409
 40
0.4325458277
 40
0.4985328948
 40
0.562576474
 40
0.6246179458
 40
0.6846072672
 40
0.7425039212
 40
0.7982780207
 40
0.8519115537
 40
0.9033999417
 40
0.9527535207
 40
1.0
 40
1.0
 40
1.0
 40
1.0
 10
15.9659412087
 20
13.0789171584
 30
0.0
 10
15.9599433304
 20
13.1084151953
 30
0.0
 10
15.9470769775
 20
13.1659798581
 30
0.0
 10
15.9281683501
 20
13.236403022
 30
0.0
 10
15.9116419177
 20
13.2902849407
 30
0.0
 10
15.8987622204
 20
13.328875709
 30
0.0
 10
15.8852718678
 20
13.3660638289
 30
0.0
 10
15.8711937691
 20
13.4017858512
 30
0.0
 10
15.8565520442
 20
13.4359807396
 30
0.0
 10
15.8413716652
 20
13.4685901627
 30
0.0
 10
15.825678482
 20
13.4995585419
 30
0.0
 10
15.8094991016
 20
13.5288331865
 30
0.0
 10
15.7928609278
 20
13.5563642692
 30
0.0
 10
15.7757916975
 20
13.5821052861
 30
0.0
 10
15.7583206994
 20
13.6060116662
 30
0.0
 10
15.7461616586
 20
13.6210238573
 30
0.0
 10
15.7400167551
 20
13.6281946419
 30
0.0
  0
SPLINE
  5
397
100
AcDbEntity
  8
LAYER_CUT_FEAT
100
AcDbSpline
 62
7
  6
CONTINUOUS
 70
0
 71
3
 72
12
 73
8
 74
0
 42
0.0000001
 43
0.0000001
 44
0.0000000001
 40
0.0
 40
0.0
 40
0.0
 40
0.0
 40
0.2884762409
 40
0.5458682301
 40
0.7793135534
 40
0.8905150333
 40
1.0
 40
1.0
 40
1.0
 40
1.0
 10
15.7400167551
 20
13.6281946419
 30
0.0
 10
15.7392062178
 20
13.6291404969
 30
0.0
 10
15.7375516349
 20
13.6308347549
 30
0.0
 10
15.7348021022
 20
13.6328091765
 30
0.0
 10
15.7323841337
 20
13.6338385322
 30
0.0
 10
15.7304590436
 20
13.6342374244
 30
0.0
 10
15.7295048161
 20
13.6343033422
 30
0.0
 10
15.7290320612
 20
13.6343033382
 30
0.0
  0
SPLINE
  5
398
100
AcDbEntity
  8
LAYER_CUT_FEAT
100
AcDbSpline
 62
7
  6
CONTINUOUS
 70
0
 71
3
 72
47
 73
43
 74
0
 42
0.0000001
 43
0.0000001
 44
0.0000000001
 40
0.0
 40
0.0
 40
0.0
 40
0.0
 40
0.0076946036
 40
0.0154416902
 40
0.0232924367
 40
0.0312955365
 40
0.0394962471
 40
0.047935718
 40
0.0566505997
 40
0.0656729038
 40
0.0847369462
 40
0.0948288077
 40
0.1053126308
 40
0.1162001078
 40
0.127499806
 40
0.1392174755
 40
0.1513563278
 40
0.1639172892
 40
0.176899226
 40
0.2041095588
 40
0.2329473073
 40
0.2633466416
 40
0.2952229728
 40
0.328475889
 40
0.3629915485
 40
0.3986446851
 40
0.4353003612
 40
0.4728155285
 40
0.5110404477
 40
0.5498200168
 40
0.5889950418
 40
0.6284034575
 40
0.6678815194
 40
0.7072649859
 40
0.7463902926
 40
0.7850957309
 40
0.82322265
 40
0.8606166829
 40
0.8971290161
 40
0.9326177343
 40
0.9669492485
 40
1.0
 40
1.0
 40
1.0
 40
1.0
 10
15.6876524366
 20
13.7681512737
 30
0.0
 10
15.6933731655
 20
13.7681512696
 30
0.0
 10
15.7048602646
 20
13.7676329816
 30
0.0
 10
15.7220421713
 20
13.7653047333
 30
0.0
 10
15.7391781531
 20
13.7614290265
 30
0.0
 10
15.7562436257
 20
13.756012586
 30
0.0
 10
15.7732172809
 20
13.7490642634
 30
0.0
 10
15.7900777999
 20
13.7405948407
 30
0.0
 10
15.8068056308
 20
13.7306162512
 30
0.0
 10
15.8293156886
 20
13.7150333497
 30
0.0
 10
15.8510574233
 20
13.6966645984
 30
0.0
 10
15.8719921168
 20
13.6759108091
 30
0.0
 10
15.8877643234
 20
13.6586218404
 30
0.0
 10
15.9032877868
 20
13.639929527
 30
0.0
 10
15.918545552
 20
13.6198551441
 30
0.0
 10
15.9335190295
 20
13.5984235544
 30
0.0
 10
15.9481903254
 20
13.5756607286
 30
0.0
 10
15.9625419827
 20
13.5515942902
 30
0.0
 10
15.9815254543
 20
13.5172673775
 30
0.0
 10
16.0042682483
 20
13.4712245777
 30
0.0
 10
16.0296013249
 20
13.4121278148
 30
0.0
 10
16.0532672728
 20
13.3486303186
 30
0.0
 10
16.0751505984
 20
13.2810413033
 30
0.0
 10
16.0951445652
 20
13.2096882236
 30
0.0
 10
16.113151117
 20
13.1349184585
 30
0.0
 10
16.1290818226
 20
13.0570964714
 30
0.0
 10
16.1428583275
 20
12.9766021769
 30
0.0
 10
16.1544128072
 20
12.8938288911
 30
0.0
 10
16.1636883418
 20
12.8091813519
 30
0.0
 10
16.1706392426
 20
12.7230736677
 30
0.0
 10
16.1752312569
 20
12.6359272321
 30
0.0
 10
16.1774417426
 20
12.5481686156
 30
0.0
 10
16.1772598073
 20
12.4602274394
 30
0.0
 10
16.1746863562
 20
12.3725342332
 30
0.0
 10
16.1697340696
 20
12.2855182929
 30
0.0
 10
16.1624273435
 20
12.199605538
 30
0.0
 10
16.1528021984
 20
12.1152163984
 30
0.0
 10
16.1409060482
 20
12.0327636533
 30
0.0
 10
16.1267975104
 20
11.9526505735
 30
0.0
 10
16.1105459043
 20
11.8752681156
 30
0.0
 10
16.0922316298
 20
11.8009955945
 30
0.0
 10
16.0784281739
 20
11.7528222091
 30
0.0
 10
16.0711732562
 20
11.7293452868
 30
0.0
  0
SPLINE
  5
399
100
AcDbEntity
  8
LAYER_CUT_FEAT
100
AcDbSpline
 62
7
  6
CONTINUOUS
 70
0
 71
3
 72
11
 73
7
 74
0
 42
0.0000001
 43
0.0000001
 44
0.0000000001
 40
0.0
 40
0.0
 40
0.0
 40
0.0
 40
0.2308320041
 40
0.4698857645
 40
0.7243914419
 40
1.0
 40
1.0
 40
1.0
 40
1.0
 10
15.4837608844
 20
12.8896939365
 30
0.0
 10
15.4844816962
 20
12.889693942
 30
0.0
 10
15.4859532317
 20
12.8898499503
 30
0.0
 10
15.4881208411
 20
12.8905426416
 30
0.0
 10
15.4902479199
 20
12.8916825052
 30
0.0
 10
15.4915718538
 20
12.8926871832
 30
0.0
 10
15.4922232527
 20
12.8932496516
 30
0.0
  0
SPLINE
  5
39A
100
AcDbEntity
  8
LAYER_CUT_FEAT
100
AcDbSpline
 62
7
  6
CONTINUOUS
 70
0
 71
3
 72
11
 73
7
 74
0
 42
0.0000001
 43
0.0000001
 44
0.0000000001
 40
0.0
 40
0.0
 40
0.0
 40
0.0
 40
0.2406459581
 40
0.4880063312
 40
0.7413726679
 40
1.0
 40
1.0
 40
1.0
 40
1.0
 10
15.6667655561
 20
13.1894222118
 30
0.0
 10
15.6722044657
 20
13.1676357288
 30
0.0
 10
15.6825302881
 20
13.1232765015
 30
0.0
 10
15.6962144062
 20
13.0554552538
 30
0.0
 10
15.7082710746
 20
12.9856229771
 30
0.0
 10
15.7151305363
 20
12.938336324
 30
0.0
 10
15.7182879728
 20
12.9144107675
 30
0.0
  0
SPLINE
  5
39B
100
AcDbEntity
  8
LAYER_CUT_FEAT
100
AcDbSpline
 62
7
  6
CONTINUOUS
 70
0
 71
3
 72
15
 73
11
 74
0
 42
0.0000001
 43
0.0000001
 44
0.0000000001
 40
0.0
 40
0.0
 40
0.0
 40
0.0
 40
0.115253254
 40
0.2346616515
 40
0.3575798516
 40
0.4833239179
 40
0.6111799176
 40
0.7404121124
 40
0.8702708263
 40
1.0
 40
1.0
 40
1.0
 40
1.0
 10
15.9456855872
 20
11.8527471948
 30
0.0
 10
15.9529086185
 20
11.8819418139
 30
0.0
 10
15.9663260298
 20
11.9417087227
 30
0.0
 10
15.9831702467
 20
12.0335062227
 30
0.0
 10
15.9970086207
 20
12.1285719239
 30
0.0
 10
16.0077451137
 20
12.226253808
 30
0.0
 10
16.0153056926
 20
12.3258842443
 30
0.0
 10
16.0196380594
 20
12.4267815562
 30
0.0
 10
16.0207123237
 20
12.5282535843
 30
0.0
 10
16.019247798
 20
12.5959901457
 30
0.0
 10
16.0179650918
 20
12.629818141
 30
0.0
  0
SPLINE
  5
39C
100
AcDbEntity
  8
LAYER_CUT_FEAT
100
AcDbSpline
 62
7
  6
CONTINUOUS
 70
0
 71
3
 72
21
 73
17
 74
0
 42
0.0000001
 43
0.0000001
 44
0.0000000001
 40
0.0
 40
0.0
 40
0.0
 40
0.0
 40
0.1730096829
 40
0.3384632988
 40
0.4169440601
 40
0.4918941305
 40
0.5628613332
 40
0.6294600332
 40
0.6913872738
 40
0.7484438197
 40
0.8005628695
 40
0.8478498751
 40
0.8906365512
 40
0.9295470805
 40
0.9655577563
 40
1.0
 40
1.0
 40
1.0
 40
1.0
 10
16.0179650918
 20
12.629818141
 30
0.0
 10
16.01780907
 20
12.6339328054
 30
0.0
 10
16.0172181403
 20
12.6419746082
 30
0.0
 10
16.0157437094
 20
12.6517994065
 30
0.0
 10
16.0141296087
 20
12.6592175857
 30
0.0
 10
16.0127503634
 20
12.6643793372
 30
0.0
 10
16.0111932034
 20
12.6691941708
 30
0.0
 10
16.0094711154
 20
12.6736220445
 30
0.0
 10
16.0075984248
 20
12.677626399
 30
0.0
 10
16.0055902781
 20
12.6811745769
 30
0.0
 10
16.0034622191
 20
12.684238047
 30
0.0
 10
16.0012293721
 20
12.6867923221
 30
0.0
 10
15.9989059475
 20
12.6888160862
 30
0.0
 10
15.99650433
 20
12.6902889446
 30
0.0
 10
15.9940414161
 20
12.6911884297
 30
0.0
 10
15.9923585473
 20
12.6913922022
 30
0.0
 10
15.9915388237
 20
12.6913921983
 30
0.0
  0
LINE
  5
39D
100
AcDbEntity
  8
LAYER_CUT_FEAT
100
AcDbLine
 62
7
  6
CONTINUOUS
 10
15.6190780554
 20
12.1133928787
 11
15.6166364472
 21
12.1186526505
  0
SPLINE
  5
39E
100
AcDbEntity
  8
LAYER_CUT_FEAT
100
AcDbSpline
 62
7
  6
CONTINUOUS
 70
0
 71
3
 72
19
 73
15
 74
0
 42
0.0000001
 43
0.0000001
 44
0.0000000001
 40
0.0
 40
0.0
 40
0.0
 40
0.0
 40
0.0350585787
 40
0.0715833413
 40
0.1108353041
 40
0.153761721
 40
0.2009907964
 40
0.2528793565
 40
0.3095704549
 40
0.3710424377
 40
0.5075724796
 40
0.6602631763
 40
0.8257564311
 40
1.0
 40
1.0
 40
1.0
 40
1.0
 10
15.671926008
 20
12.1999790245
 30
0.0
 10
15.672317937
 20
12.1999790306
 30
0.0
 10
15.6731208772
 20
12.2000718415
 30
0.0
 10
15.6742989058
 20
12.200482489
 30
0.0
 10
15.6754504487
 20
12.2011562398
 30
0.0
 10
15.6765676609
 20
12.2020835547
 30
0.0
 10
15.6776448789
 20
12.2032556016
 30
0.0
 10
15.6786757787
 20
12.2046632448
 30
0.0
 10
15.67965382
 20
12.2062960803
 30
0.0
 10
15.6809224315
 20
12.2088477382
 30
0.0
 10
15.6823019975
 20
12.2125284846
 30
0.0
 10
15.6835947376
 20
12.2174514637
 30
0.0
 10
15.684537785
 20
12.2228808593
 30
0.0
 10
15.6849073177
 20
12.2266646437
 30
0.0
 10
15.6850301802
 20
12.2286086793
 30
0.0
  0
SPLINE
  5
39F
100
AcDbEntity
  8
LAYER_CUT_FEAT
100
AcDbSpline
 62
7
  6
CONTINUOUS
 70
0
 71
3
 72
22
 73
18
 74
0
 42
0.0000001
 43
0.0000001
 44
0.0000000001
 40
0.0
 40
0.0
 40
0.0
 40
0.0
 40
0.0155026452
 40
0.0313736202
 40
0.0654375004
 40
0.1043367746
 40
0.1491888823
 40
0.2003904696
 40
0.2578421497
 40
0.3211046541
 40
0.3894970717
 40
0.4621618774
 40
0.5381126922
 40
0.6954504732
 40
0.8524277875
 40
0.9279358559
 40
1.0
 40
1.0
 40
1.0
 40
1.0
 10
15.7383120095
 20
12.2852206841
 30
0.0
 10
15.7386043556
 20
12.2852206782
 30
0.0
 10
15.7391971779
 20
12.2852714879
 30
0.0
 10
15.7403969797
 20
12.2855802919
 30
0.0
 10
15.7418960975
 20
12.2863817426
 30
0.0
 10
15.743553572
 20
12.287883867
 30
0.0
 10
15.7451078347
 20
12.2899122897
 30
0.0
 10
15.7465407328
 20
12.2924354569
 30
0.0
 10
15.7478329406
 20
12.2954141602
 30
0.0
 10
15.7489634274
 20
12.2988003161
 30
0.0
 10
15.7499130526
 20
12.3025375457
 30
0.0
 10
15.7506654578
 20
12.3065626951
 30
0.0
 10
15.7513959884
 20
12.3122885321
 30
0.0
 10
15.7517352016
 20
12.3196541286
 30
0.0
 10
15.7513386369
 20
12.3270088009
 30
0.0
 10
15.7505621531
 20
12.3327017191
 30
0.0
 10
15.7500244995
 20
12.335434417
 30
0.0
 10
15.7497174109
 20
12.3367582388
 30
0.0
  0
SPLINE
  5
3A0
100
AcDbEntity
  8
LAYER_CUT_FEAT
100
AcDbSpline
 62
7
  6
CONTINUOUS
 70
0
 71
3
 72
20
 73
16
 74
0
 42
0.0000001
 43
0.0000001
 44
0.0000000001
 40
0.0
 40
0.0
 40
0.0
 40
0.0
 40
0.0485450239
 40
0.1015396504
 40
0.1586385256
 40
0.2193848992
 40
0.2832379456
 40
0.349591892
 40
0.4871160267
 40
0.6264232184
 40
0.7618117704
 40
0.8263411784
 40
0.8879081664
 40
0.9459536371
 40
1.0
 40
1.0
 40
1.0
 40
1.0
 10
15.8202406019
 20
11.512502046
 30
0.0
 10
15.8210731203
 20
11.514030424
 30
0.0
 10
15.8226526288
 20
11.5173166333
 30
0.0
 10
15.8247003055
 20
11.5226275941
 30
0.0
 10
15.8265104815
 20
11.5284833073
 30
0.0
 10
15.8280609739
 20
11.5348136992
 30
0.0
 10
15.8293332146
 20
11.5415435256
 30
0.0
 10
15.8306526127
 20
11.5510540583
 30
0.0
 10
15.8314994756
 20
11.5633462887
 30
0.0
 10
15.8312651284
 20
11.5781392476
 30
0.0
 10
15.8300284653
 20
11.590256717
 30
0.0
 10
15.8284019269
 20
11.5994925852
 30
0.0
 10
15.8269183847
 20
11.6059290642
 30
0.0
 10
15.8251706231
 20
11.611908338
 30
0.0
 10
15.8237904998
 20
11.6156869665
 30
0.0
 10
15.8230534371
 20
11.6174789459
 30
0.0
  0
SPLINE
  5
3A1
100
AcDbEntity
  8
LAYER_CUT_FEAT
100
AcDbSpline
 62
7
  6
CONTINUOUS
 70
0
 71
3
 72
11
 73
7
 74
0
 42
0.0000001
 43
0.0000001
 44
0.0000000001
 40
0.0
 40
0.0
 40
0.0
 40
0.0
 40
0.2375844851
 40
0.4792687353
 40
0.7315612555
 40
1.0
 40
1.0
 40
1.0
 40
1.0
 10
15.6561820593
 20
12.8005246019
 30
0.0
 10
15.6589029315
 20
12.8007312586
 30
0.0
 10
15.6644445967
 20
12.8006347964
 30
0.0
 10
15.6727157494
 20
12.7989223679
 30
0.0
 10
15.6808880774
 20
12.7956693958
 30
0.0
 10
15.6860535935
 20
12.7926066609
 30
0.0
 10
15.6885972907
 20
12.7908645453
 30
0.0
  0
SPLINE
  5
3A2
100
AcDbEntity
  8
LAYER_CUT_FEAT
100
AcDbSpline
 62
7
  6
CONTINUOUS
 70
0
 71
3
 72
11
 73
7
 74
0
 42
0.0000001
 43
0.0000001
 44
0.0000000001
 40
0.0
 40
0.0
 40
0.0
 40
0.0
 40
0.2068304792
 40
0.4340170642
 40
0.6959356493
 40
1.0
 40
1.0
 40
1.0
 40
1.0
 10
15.2529794547
 20
13.1999216487
 30
0.0
 10
15.2532862186
 20
13.1999216475
 30
0.0
 10
15.2539341963
 20
13.2000435486
 30
0.0
 10
15.2548434775
 20
13.2005603321
 30
0.0
 10
15.255698646
 20
13.2013806282
 30
0.0
 10
15.25619136
 20
13.2020651042
 30
0.0
 10
15.2564311829
 20
13.2024470282
 30
0.0
  0
SPLINE
  5
3A3
100
AcDbEntity
  8
LAYER_CUT_FEAT
100
AcDbSpline
 62
7
  6
CONTINUOUS
 70
0
 71
3
 72
13
 73
9
 74
0
 42
0.0000001
 43
0.0000001
 44
0.0000000001
 40
0.0
 40
0.0
 40
0.0
 40
0.0
 40
0.0817538006
 40
0.1702888836
 40
0.270667209
 40
0.3857853555
 40
0.6632288453
 40
1.0
 40
1.0
 40
1.0
 40
1.0
 10
15.2473871632
 20
13.2021658651
 30
0.0
 10
15.2473347156
 20
13.2021658701
 30
0.0
 10
15.2472248174
 20
13.2021471891
 30
0.0
 10
15.2470685369
 20
13.2020669359
 30
0.0
 10
15.2469199434
 20
13.2019384162
 30
0.0
 10
15.2467213226
 20
13.2016907098
 30
0.0
 10
15.2465102115
 20
13.2012682604
 30
0.0
 10
15.2463946235
 20
13.2008904109
 30
0.0
 10
15.2463435317
 20
13.2006804894
 30
0.0
  0
SPLINE
  5
3A4
100
AcDbEntity
  8
LAYER_CUT_FEAT
100
AcDbSpline
 62
7
  6
CONTINUOUS
 70
0
 71
3
 72
15
 73
11
 74
0
 42
0.0000001
 43
0.0000001
 44
0.0000000001
 40
0.0
 40
0.0
 40
0.0
 40
0.0
 40
0.1337560754
 40
0.2690457403
 40
0.4037753202
 40
0.535863293
 40
0.6633006776
 40
0.7842098642
 40
0.896910418
 40
1.0
 40
1.0
 40
1.0
 40
1.0
 10
15.4466346383
 20
12.1413721977
 30
0.0
 10
15.4469158783
 20
12.1443957862
 30
0.0
 10
15.4473126104
 20
12.1504945016
 30
0.0
 10
15.4474242749
 20
12.1596646259
 30
0.0
 10
15.4470569525
 20
12.1687905137
 30
0.0
 10
15.4462174244
 20
12.177706278
 30
0.0
 10
15.4449213525
 20
12.1862504115
 30
0.0
 10
15.4431926318
 20
12.1942690017
 30
0.0
 10
15.4410634889
 20
12.2016171927
 30
0.0
 10
15.439318815
 20
12.2062037267
 30
0.0
 10
15.4383735781
 20
12.2083447809
 30
0.0
  0
SPLINE
  5
3A5
100
AcDbEntity
  8
LAYER_CUT_FEAT
100
AcDbSpline
 62
7
  6
CONTINUOUS
 70
0
 71
3
 72
11
 73
7
 74
0
 42
0.0000001
 43
0.0000001
 44
0.0000000001
 40
0.0
 40
0.0
 40
0.0
 40
0.0
 40
0.210698148
 40
0.4396337719
 40
0.7002256472
 40
1.0
 40
1.0
 40
1.0
 40
1.0
 10
15.2635639127
 20
13.2415182553
 30
0.0
 10
15.2638495535
 20
13.2415182627
 30
0.0
 10
15.2644492012
 20
13.2416227165
 30
0.0
 10
15.2652994717
 20
13.2420702182
 30
0.0
 10
15.2661055717
 20
13.2427854738
 30
0.0
 10
15.2665757277
 20
13.2433867248
 30
0.0
 10
15.2668051122
 20
13.2437222004
 30
0.0
  0
SPLINE
  5
3A6
100
AcDbEntity
  8
LAYER_CUT_FEAT
100
AcDbSpline
 62
7
  6
CONTINUOUS
 70
0
 71
3
 72
13
 73
9
 74
0
 42
0.0000001
 43
0.0000001
 44
0.0000000001
 40
0.0
 40
0.0
 40
0.0
 40
0.0
 40
0.0830684184
 40
0.172569914
 40
0.27338398
 40
0.3884187136
 40
0.6646376152
 40
1.0
 40
1.0
 40
1.0
 40
1.0
 10
15.2577173058
 20
13.2443118339
 30
0.0
 10
15.2576668373
 20
13.2443118323
 30
0.0
 10
15.257561397
 20
13.2442946369
 30
0.0
 10
15.2574107457
 20
13.24422039
 30
0.0
 10
15.2572669588
 20
13.2441010847
 30
0.0
 10
15.2570742085
 20
13.2438709975
 30
0.0
 10
15.2568667208
 20
13.2434766271
 30
0.0
 10
15.2567508258
 20
13.2431224883
 30
0.0
 10
15.2566987931
 20
13.2429254937
 30
0.0
  0
SPLINE
  5
3A7
100
AcDbEntity
  8
LAYER_CUT_FEAT
100
AcDbSpline
 62
7
  6
CONTINUOUS
 70
0
 71
3
 72
15
 73
11
 74
0
 42
0.0000001
 43
0.0000001
 44
0.0000000001
 40
0.0
 40
0.0
 40
0.0
 40
0.0
 40
0.1694189415
 40
0.3253540832
 40
0.4673970665
 40
0.5956289506
 40
0.7108025882
 40
0.814558007
 40
0.9096483167
 40
1.0
 40
1.0
 40
1.0
 40
1.0
 10
15.4303345702
 20
12.227889571
 30
0.0
 10
15.4297417737
 20
12.2294360972
 30
0.0
 10
15.4285087779
 20
12.2323714165
 30
0.0
 10
15.4264194652
 20
12.2364407916
 30
0.0
 10
15.4241827107
 20
12.2399644293
 30
0.0
 10
15.4218172606
 20
12.2429097683
 30
0.0
 10
15.4193406162
 20
12.245249254
 30
0.0
 10
15.4167671888
 20
12.246957056
 30
0.0
 10
15.4141157812
 20
12.2480040432
 30
0.0
 10
15.4122954244
 20
12.2482422576
 30
0.0
 10
15.4114121429
 20
12.2482422594
 30
0.0
  0
SPLINE
  5
3A8
100
AcDbEntity
  8
LAYER_CUT_FEAT
100
AcDbSpline
 62
7
  6
CONTINUOUS
 70
0
 71
3
 72
18
 73
14
 74
0
 42
0.0000001
 43
0.0000001
 44
0.0000000001
 40
0.0
 40
0.0
 40
0.0
 40
0.0
 40
0.040640597
 40
0.0821604839
 40
0.1253722125
 40
0.1709732108
 40
0.2195236654
 40
0.2714463985
 40
0.3864013263
 40
0.5171578602
 40
0.6636883048
 40
0.8251242069
 40
1.0
 40
1.0
 40
1.0
 40
1.0
 10
15.9232748471
 20
11.8211282367
 30
0.0
 10
15.923832093
 20
11.8211282379
 30
0.0
 10
15.9249606682
 20
11.8212202183
 30
0.0
 10
15.9266365548
 20
11.8216312727
 30
0.0
 10
15.9282954118
 20
11.8223122418
 30
0.0
 10
15.9299298893
 20
11.8232582636
 30
0.0
 10
15.9315345354
 20
11.824463963
 30
0.0
 10
15.9337003035
 20
11.826479233
 30
0.0
 10
15.9362815947
 20
11.829665861
 30
0.0
 10
15.9390674917
 20
11.8342800791
 30
0.0
 10
15.941607242
 20
11.8397440248
 30
0.0
 10
15.9438629361
 20
11.8459755343
 30
0.0
 10
15.9451097069
 20
11.8504195563
 30
0.0
 10
15.9456855872
 20
11.8527471948
 30
0.0
  0
SPLINE
  5
3A9
100
AcDbEntity
  8
LAYER_CUT_FEAT
100
AcDbSpline
 62
7
  6
CONTINUOUS
 70
0
 71
3
 72
11
 73
7
 74
0
 42
0.0000001
 43
0.0000001
 44
0.0000000001
 40
0.0
 40
0.0
 40
0.0
 40
0.0
 40
0.2146197194
 40
0.4453985337
 40
0.7046980487
 40
1.0
 40
1.0
 40
1.0
 40
1.0
 10
15.2747466497
 20
13.2820694802
 30
0.0
 10
15.2750112598
 20
13.2820694836
 30
0.0
 10
15.2755634427
 20
13.2821581251
 30
0.0
 10
15.2763538193
 20
13.2825414304
 30
0.0
 10
15.2771089285
 20
13.283158173
 30
0.0
 10
15.277554815
 20
13.2836807978
 30
0.0
 10
15.2777727874
 20
13.2839724245
 30
0.0
  0
SPLINE
  5
3AA
100
AcDbEntity
  8
LAYER_CUT_FEAT
100
AcDbSpline
 62
7
  6
CONTINUOUS
 70
0
 71
3
 72
24
 73
20
 74
0
 42
0.0000001
 43
0.0000001
 44
0.0000000001
 40
0.0
 40
0.0
 40
0.0
 40
0.0
 40
0.037572554
 40
0.0585329304
 40
0.0810057357
 40
0.1304978464
 40
0.1858913514
 40
0.2466866338
 40
0.3121638135
 40
0.3814423376
 40
0.4535257055
 40
0.5273380542
 40
0.601756639
 40
0.6756427044
 40
0.7478715435
 40
0.8173633092
 40
0.8831152575
 40
0.9442381299
 40
1.0
 40
1.0
 40
1.0
 40
1.0
 10
15.9241053567
 20
12.7570313122
 30
0.0
 10
15.9255346136
 20
12.7581230998
 30
0.0
 10
15.9275499847
 20
12.7601065154
 30
0.0
 10
15.9299484165
 20
12.7631545913
 30
0.0
 10
15.9324257122
 20
12.7668546347
 30
0.0
 10
15.9352882962
 20
12.7722549492
 30
0.0
 10
15.9382656274
 20
12.7796171147
 30
0.0
 10
15.9408370461
 20
12.7879336543
 30
0.0
 10
15.9429565965
 20
12.7970583674
 30
0.0
 10
15.9445858707
 20
12.8068305236
 30
0.0
 10
15.9456950794
 20
12.8170760229
 30
0.0
 10
15.946263859
 20
12.8276117537
 30
0.0
 10
15.94628179
 20
12.8382489877
 30
0.0
 10
15.9457485383
 20
12.8487970609
 30
0.0
 10
15.9446738701
 20
12.8590670506
 30
0.0
 10
15.9430775618
 20
12.868875217
 30
0.0
 10
15.940988645
 20
12.8780473003
 30
0.0
 10
15.9384455239
 20
12.8864197839
 30
0.0
 10
15.9363755065
 20
12.8916284112
 30
0.0
 10
15.9352576219
 20
12.8940522946
 30
0.0
  0
SPLINE
  5
3AB
100
AcDbEntity
  8
LAYER_CUT_FEAT
100
AcDbSpline
 62
7
  6
CONTINUOUS
 70
0
 71
3
 72
13
 73
9
 74
0
 42
0.0000001
 43
0.0000001
 44
0.0000000001
 40
0.0
 40
0.0
 40
0.0
 40
0.0
 40
0.0844515964
 40
0.1749846327
 40
0.276296013
 40
0.3912900405
 40
0.6662634142
 40
1.0
 40
1.0
 40
1.0
 40
1.0
 10
15.2686539043
 20
13.2854364478
 30
0.0
 10
15.2686054079
 20
13.2854364468
 30
0.0
 10
15.2685043855
 20
13.2854206464
 30
0.0
 10
15.2683593942
 20
13.2853521787
 30
0.0
 10
15.2682205029
 20
13.2852417666
 30
0.0
 10
15.2680338279
 20
13.2850287444
 30
0.0
 10
15.267830402
 20
13.2846618211
 30
0.0
 10
15.2677146267
 20
13.2843309265
 30
0.0
 10
15.2676619348
 20
13.2841466641
 30
0.0
  0
SPLINE
  5
3AC
100
AcDbEntity
  8
LAYER_CUT_FEAT
100
AcDbSpline
 62
7
  6
CONTINUOUS
 70
0
 71
3
 72
21
 73
17
 74
0
 42
0.0000001
 43
0.0000001
 44
0.0000000001
 40
0.0
 40
0.0
 40
0.0
 40
0.0
 40
0.0488830779
 40
0.0986998306
 40
0.1497210071
 40
0.2021932266
 40
0.3122835769
 40
0.3703219726
 40
0.4305311063
 40
0.4930269331
 40
0.5579029479
 40
0.6252321289
 40
0.6950687727
 40
0.7674504843
 40
0.8423992122
 40
1.0
 40
1.0
 40
1.0
 40
1.0
 10
15.5762959566
 20
11.2867160969
 30
0.0
 10
15.5817929514
 20
11.2877229741
 30
0.0
 10
15.5928092569
 20
11.2902375534
 30
0.0
 10
15.6091392094
 20
11.2954256841
 30
0.0
 10
15.625385199
 20
11.3020518058
 30
0.0
 10
15.6472506903
 20
11.312961789
 30
0.0
 10
15.6685423542
 20
11.326645324
 30
0.0
 10
15.6891279071
 20
11.3427119722
 30
0.0
 10
15.7046655342
 20
11.3563517443
 30
0.0
 10
15.7200066168
 20
11.3713491108
 30
0.0
 10
15.7351358242
 20
11.3876874946
 30
0.0
 10
15.7500354779
 20
11.4053472795
 30
0.0
 10
15.7646886686
 20
11.424307755
 30
0.0
 10
15.7790789043
 20
11.4445470077
 30
0.0
 10
15.7982127835
 20
11.4736942411
 30
0.0
 10
15.8116220678
 20
11.49667972
 30
0.0
 10
15.8202406019
 20
11.512502046
 30
0.0
  0
SPLINE
  5
3AD
100
AcDbEntity
  8
0
100
AcDbSpline
 62
7
  6
CONTINUOUS
 70
0
 71
3
 72
11
 73
7
 74
0
 42
0.0000001
 43
0.0000001
 44
0.0000000001
 40
0.0
 40
0.0
 40
0.0
 40
0.0
 40
0.218567832
 40
0.4512684462
 40
0.7093204576
 40
1.0
 40
1.0
 40
1.0
 40
1.0
 10
15.2865120254
 20
13.3215185932
 30
0.0
 10
15.2867556924
 20
13.3215185854
 30
0.0
 10
15.2872612531
 20
13.321592977
 30
0.0
 10
15.2879910155
 20
13.321917207
 30
0.0
 10
15.2886933219
 20
13.3224421964
 30
0.0
 10
15.2891132447
 20
13.3228909409
 30
0.0
 10
15.289318869
 20
13.323141407
 30
0.0
  0
SPLINE
  5
3AE
100
AcDbEntity
  8
LAYER_CUT_FEAT
100
AcDbSpline
 62
7
  6
CONTINUOUS
 70
0
 71
3
 72
13
 73
9
 74
0
 42
0.0000001
 43
0.0000001
 44
0.0000000001
 40
0.0
 40
0.0
 40
0.0
 40
0.0
 40
0.2597343111
 40
0.5200528351
 40
0.6470557759
 40
0.7701822333
 40
0.8882048246
 40
1.0
 40
1.0
 40
1.0
 40
1.0
 10
15.6256510163
 20
13.5921878582
 30
0.0
 10
15.6261930298
 20
13.5980150004
 30
0.0
 10
15.6267460668
 20
13.6097368491
 30
0.0
 10
15.6261918092
 20
13.6243248023
 30
0.0
 10
15.6249833052
 20
13.6357660301
 30
0.0
 10
15.6237234376
 20
13.6439684356
 30
0.0
 10
15.6221191653
 20
13.6517609076
 30
0.0
 10
15.6207933007
 20
13.6567702882
 30
0.0
 10
15.6200701443
 20
13.659183205
 30
0.0
  0
SPLINE
  5
3AF
100
AcDbEntity
  8
0
100
AcDbSpline
 62
7
  6
CONTINUOUS
 70
0
 71
3
 72
11
 73
7
 74
0
 42
0.0000001
 43
0.0000001
 44
0.0000000001
 40
0.0
 40
0.0
 40
0.0
 40
0.0
 40
0.1763729144
 40
0.392906309
 40
0.6672915025
 40
1.0
 40
1.0
 40
1.0
 40
1.0
 10
15.2801816628
 20
13.325482194
 30
0.0
 10
15.2800863651
 20
13.3254821959
 30
0.0
 10
15.2798732776
 20
13.3254119597
 30
0.0
 10
15.2796127987
 20
13.3251527511
 30
0.0
 10
15.2793859232
 20
13.3247667785
 30
0.0
 10
15.2792707003
 20
13.324458104
 30
0.0
 10
15.279217624
 20
13.3242863491
 30
0.0
  0
SPLINE
  5
3B0
100
AcDbEntity
  8
LAYER_CUT_FEAT
100
AcDbSpline
 62
7
  6
CONTINUOUS
 70
0
 71
3
 72
33
 73
29
 74
0
 42
0.0000001
 43
0.0000001
 44
0.0000000001
 40
0.0
 40
0.0
 40
0.0
 40
0.0
 40
0.0202497815
 40
0.0425576186
 40
0.0670589566
 40
0.0937945524
 40
0.1227334384
 40
0.1537885791
 40
0.1868288185
 40
0.2216875682
 40
0.2960393342
 40
0.3750475465
 40
0.4566551249
 40
0.5386805388
 40
0.6189227494
 40
0.6952648968
 40
0.7313707245
 40
0.7658034298
 40
0.798374165
 40
0.828924292
 40
0.8573325032
 40
0.8835241891
 40
0.9074841619
 40
0.9292741141
 40
0.9490558401
 40
0.9671188146
 40
0.983903541
 40
1.0
 40
1.0
 40
1.0
 40
1.0
 10
15.9731727878
 20
12.7570313122
 30
0.0
 10
15.9740977247
 20
12.7577378574
 30
0.0
 10
15.9759210889
 20
12.7593835299
 30
0.0
 10
15.9784317787
 20
12.7623184553
 30
0.0
 10
15.9808280334
 20
12.7658091343
 30
0.0
 10
15.9830923522
 20
12.7698285567
 30
0.0
 10
15.9852085975
 20
12.7743465679
 30
0.0
 10
15.9871605263
 20
12.7793284921
 30
0.0
 10
15.9889331383
 20
12.7847358222
 30
0.0
 10
15.9910846088
 20
12.792626959
 30
0.0
 10
15.9931998541
 20
12.8032513747
 30
0.0
 10
15.9948001949
 20
12.816673467
 30
0.0
 10
15.995461497
 20
12.8306157992
 30
0.0
 10
15.9951625413
 20
12.8446413428
 30
0.0
 10
15.993912753
 20
12.8583104146
 30
0.0
 10
15.9920809104
 20
12.8692468103
 30
0.0
 10
15.9901460345
 20
12.8774671418
 30
0.0
 10
15.9885185179
 20
12.8831683713
 30
0.0
 10
15.9867009696
 20
12.8884757884
 30
0.0
 10
15.9847075475
 20
12.8933481047
 30
0.0
 10
15.9825537247
 20
12.8977476749
 30
0.0
 10
15.9802557339
 20
12.9016409146
 30
0.0
 10
15.9778301283
 20
12.9049984727
 30
0.0
 10
15.9752929623
 20
12.9077950678
 30
0.0
 10
15.9726593928
 20
12.9100085019
 30
0.0
 10
15.9699429557
 20
12.9116173866
 30
0.0
 10
15.9671623216
 20
12.912598469
 30
0.0
 10
15.9652658829
 20
12.9128203605
 30
0.0
 10
15.9643406866
 20
12.9128203569
 30
0.0
  0
SPLINE
  5
3B1
100
AcDbEntity
  8
LAYER_CUT_FEAT
100
AcDbSpline
 62
7
  6
CONTINUOUS
 70
0
 71
3
 72
26
 73
22
 74
0
 42
0.0000001
 43
0.0000001
 44
0.0000000001
 40
0.0
 40
0.0
 40
0.0
 40
0.0
 40
0.0214389968
 40
0.0429692763
 40
0.064680693
 40
0.0866603328
 40
0.1089913482
 40
0.1317519966
 40
0.1788263281
 40
0.2284136572
 40
0.280920122
 40
0.336655513
 40
0.3958429042
 40
0.4586300467
 40
0.5251004032
 40
0.5952828605
 40
0.6691600858
 40
0.7466752717
 40
0.8277378071
 40
0.9122276193
 40
1.0
 40
1.0
 40
1.0
 40
1.0
 10
15.6913366806
 20
13.8456512669
 30
0.0
 10
15.6865451891
 20
13.8456512635
 30
0.0
 10
15.6769383378
 20
13.8453096309
 30
0.0
 10
15.6625529725
 20
13.8437738227
 30
0.0
 10
15.648190571
 20
13.841215837
 30
0.0
 10
15.6338638523
 20
13.8376382659
 30
0.0
 10
15.6195835701
 20
13.8330442112
 30
0.0
 10
15.6004087486
 20
13.8254864187
 30
0.0
 10
15.5765392561
 20
13.8133918004
 30
0.0
 10
15.5486208136
 20
13.7950616752
 30
0.0
 10
15.5211745164
 20
13.7728202719
 30
0.0
 10
15.4942774595
 20
13.7467432835
 30
0.0
 10
15.4680011494
 20
13.7169121991
 30
0.0
 10
15.442418678
 20
13.6834177074
 30
0.0
 10
15.417602608
 20
13.6463602168
 30
0.0
 10
15.3936248818
 20
13.6058505994
 30
0.0
 10
15.3705561737
 20
13.5620101708
 30
0.0
 10
15.3484652364
 20
13.5149707018
 30
0.0
 10
15.3274184606
 20
13.4648737931
 30
0.0
 10
15.3074796669
 20
13.4118714888
 30
0.0
 10
15.2951917517
 20
13.3753764615
 30
0.0
 10
15.2892303674
 20
13.3566875986
 30
0.0
  0
SPLINE
  5
3B2
100
AcDbEntity
  8
LAYER_CUT_FEAT
100
AcDbSpline
 62
7
  6
CONTINUOUS
 70
0
 71
3
 72
24
 73
20
 74
0
 42
0.0000001
 43
0.0000001
 44
0.0000000001
 40
0.0
 40
0.0
 40
0.0
 40
0.0
 40
0.037572554
 40
0.0585329304
 40
0.0810057357
 40
0.1304978464
 40
0.1858913514
 40
0.2466866338
 40
0.3121638135
 40
0.3814423376
 40
0.4535257055
 40
0.5273380542
 40
0.601756639
 40
0.6756427044
 40
0.7478715435
 40
0.8173633092
 40
0.8831152575
 40
0.9442381299
 40
1.0
 40
1.0
 40
1.0
 40
1.0
 10
15.3217752772
 20
12.2969205366
 30
0.0
 10
15.323204534
 20
12.2980123241
 30
0.0
 10
15.3252199052
 20
12.2999957398
 30
0.0
 10
15.327618337
 20
12.3030438156
 30
0.0
 10
15.3300956327
 20
12.306743859
 30
0.0
 10
15.3329582167
 20
12.3121441735
 30
0.0
 10
15.3359355478
 20
12.3195063391
 30
0.0
 10
15.3385069666
 20
12.3278228787
 30
0.0
 10
15.340626517
 20
12.3369475918
 30
0.0
 10
15.3422557912
 20
12.346719748
 30
0.0
 10
15.3433649999
 20
12.3569652472
 30
0.0
 10
15.3439337795
 20
12.3675009781
 30
0.0
 10
15.3439517105
 20
12.3781382121
 30
0.0
 10
15.3434184588
 20
12.3886862852
 30
0.0
 10
15.3423437906
 20
12.3989562749
 30
0.0
 10
15.3407474822
 20
12.4087644413
 30
0.0
 10
15.3386585655
 20
12.4179365246
 30
0.0
 10
15.3361154444
 20
12.4263090083
 30
0.0
 10
15.3340454269
 20
12.4315176356
 30
0.0
 10
15.3329275424
 20
12.4339415189
 30
0.0
  0
SPLINE
  5
3B3
100
AcDbEntity
  8
LAYER_CUT_FEAT
100
AcDbSpline
 62
7
  6
CONTINUOUS
 70
0
 71
3
 72
13
 73
9
 74
0
 42
0.0000001
 43
0.0000001
 44
0.0000000001
 40
0.0
 40
0.0
 40
0.0
 40
0.0
 40
0.2597343111
 40
0.5200528351
 40
0.6470557759
 40
0.7701822333
 40
0.8882048246
 40
1.0
 40
1.0
 40
1.0
 40
1.0
 10
15.4796565767
 20
12.0226137737
 30
0.0
 10
15.4801985902
 20
12.0284409159
 30
0.0
 10
15.4807516272
 20
12.0401627647
 30
0.0
 10
15.4801973696
 20
12.0547507179
 30
0.0
 10
15.4789888656
 20
12.0661919456
 30
0.0
 10
15.477728998
 20
12.0743943511
 30
0.0
 10
15.4761247257
 20
12.0821868232
 30
0.0
 10
15.474798861
 20
12.0871962037
 30
0.0
 10
15.4740757047
 20
12.0896091205
 30
0.0
  0
ENDSEC
  0
SECTION
  2
OBJECTS
  0
DICTIONARY
  5
C
100
AcDbDictionary
280
0
281
1
  3
ACAD_GROUP
350
D
  3
ACAD_MLINESTYLE
350
17
  3
ACAD_LAYOUT
350
1A
  3
ACAD_PLOTSETTINGS
350
19
  3
ACAD_PLOTSTYLENAME
350
E
  0
DICTIONARY
  5
D
102
{ACAD_REACTORS
330
C
102
}
100
AcDbDictionary
280
0
281
1
  0
ACDBDICTIONARYWDFLT
  5
E
102
{ACAD_REACTORS
330
C
102
}
100
AcDbDictionary
281
1
  3
Normal
350
F
100
AcDbDictionaryWithDefault
340
F
  0
DICTIONARY
  5
17
102
{ACAD_REACTORS
330
C
102
}
100
AcDbDictionary
280
0
281
1
  3
Standard
350
18
  0
DICTIONARY
  5
19
102
{ACAD_REACTORS
330
C
102
}
100
AcDbDictionary
281
1
  0
DICTIONARY
  5
1A
102
{ACAD_REACTORS
330
C
102
}
100
AcDbDictionary
281
1
  3
Model
350
3B4
  3
Layout1
350
3B5
  0
ACDBPLACEHOLDER
  5
F
102
{ACAD_REACTORS
330
E
102
}
  0
MLINESTYLE
  5
18
102
{ACAD_REACTORS
330
17
102
}
100
AcDbMlineStyle
  2
STANDARD
 70
0
  3

 62
256
 51
90.0
 52
90.0
 71
2
 49
0.5
 62
256
  6
BYLAYER
 49
-0.5
 62
256
  6
BYLAYER
  0
LAYOUT
  5
3B4
102
{ACAD_REACTORS
330
1A
102
}
100
AcDbPlotSettings
  1

  2
none_device
  4
ANSI_C_(22.00_x_17.00_Inches)
  6

 40
0.0
 41
0.0
 42
0.0
 43
0.0
 44
558.8
 45
431.8
 46
0.0
 47
0.0
 48
0.0
 49
0.0
140
0.0
141
0.0
142
1.0
143
1.0
 70
1024
 72
0
 73
0
 74
0
  7

 75
0
147
1.0
148
0.0
149
0.0
100
AcDbLayout
  1
Model
 70
0
 71
0
 10
0.0
 20
0.0
 11
22.0
 21
17.0
 12
0.0
 22
0.0
 32
0.0
 14
0.0
 24
0.0
 34
0.0
 15
0.0
 25
0.0
 35
0.0
146
0.0
 13
0.0
 23
0.0
 33
0.0
 16
1.0
 26
0.0
 36
0.0
 17
0.0
 27
1.0
 37
0.0
 76
0
330
222
345
0
346
0
  0
LAYOUT
  5
3B5
102
{ACAD_REACTORS
330
1A
102
}
100
AcDbPlotSettings
  1

  2
none_device
  4
ANSI_C_(22.00_x_17.00_Inches)
  6

 40
0.0
 41
0.0
 42
0.0
 43
0.0
 44
558.8
 45
431.8
 46
0.0
 47
0.0
 48
0.0
 49
0.0
140
0.0
141
0.0
142
1.0
143
1.0
 70
0
 72
0
 73
0
 74
0
  7

 75
0
147
1.0
148
0.0
149
0.0
100
AcDbLayout
  1
Layout1
 70
0
 71
1
 10
0.0
 20
0.0
 11
22.0
 21
17.0
 12
0.0
 22
0.0
 32
0.0
 14
0.0
 24
0.0
 34
0.0
 15
0.0
 25
0.0
 35
0.0
146
0.0
 13
0.0
 23
0.0
 33
0.0
 16
1.0
 26
0.0
 36
0.0
 17
0.0
 27
1.0
 37
0.0
 76
0
330
223
345
0
346
0
  0
ENDSEC
  0
EOF