999
DXF file: _cgs_temp_output.dxf
999
Pro/ENGINEER 2016360 by Parametric Technology Corporation
  0
SECTION
  2
HEADER
  9
$ACADVER
  1
AC1021
  9
$DWGCODEPAGE
  3
ANSI_1252
  9
$EXTMAX
 10
22.0
 20
17.0
 30
0.0
  9
$EXTMIN
 10
0.0
 20
0.0
 30
0.0
  9
$LIMMIN
 10
0.0
 20
0.0
  9
$LIMMAX
 10
22.0
 20
17.0
  9
$VIEWCTR
 10
11.0
 20
8.5
  9
$VIEWSIZE
 40
17.0
  9
$CLAYER
  8
0
  9
$LTSCALE
 40
1.21
  9
$CELTYPE
  6
BYLAYER
  9
$DIMSCALE
 40
1.0
  9
$DIMASZ
 40
0.1875
  9
$DIMEXO
 40
0.0625
  9
$DIMDLI
 40
0.836
  9
$DIMEXE
 40
0.125
  9
$DIMCEN
 40
0.198
  9
$DIMLFAC
 40
1.0
  9
$DIMBLK
  1
_CLOSED
  9
$DIMALT
 70
0
  9
$DIMALTF
 40
25.4
  9
$DIMTXT
 40
0.15625
  9
$DIMTOL
 70
0
  9
$DIMLIM
 70
0
  9
$DIMTFAC
 40
1.0
  9
$DIMGAP
 40
0.09
  9
$DIMDSEP
 70
46
  9
$AUNITS
 70
0
  9
$PDMODE
 70
3
  9
$PDSIZE
 40
0.3125
  9
$HANDSEED
  5
301
  9
$TILEMODE
 70
1
  9
$MEASUREMENT
 70
0
  9
$INSUNITS
 70
1
  0
ENDSEC
  0
SECTION
  2
CLASSES
  0
CLASS
  1
ACDBDICTIONARYWDFLT
  2
AcDbDictionaryWithDefault
  3
AutoCAD 2000
 90
0
 91
1
280
0
281
0
  0
CLASS
  1
ACDBPLACEHOLDER
  2
AcDbPlaceHolder
  3
AutoCAD 2000
 90
0
 91
1
280
0
281
0
  0
CLASS
  1
LAYOUT
  2
AcDbLayout
  3
AutoCAD 2000
 90
0
 91
0
280
0
281
0
  0
ENDSEC
  0
SECTION
  2
TABLES
  0
TABLE
  2
VPORT
  5
8
100
AcDbSymbolTable
 70
2
  0
VPORT
  5
1F4
100
AcDbSymbolTableRecord
100
AcDbViewportTableRecord
  2
*ACTIVE
 70
0
 10
0.0
 20
0.0
 11
1.0
 21
1.0
 12
11.0
 22
8.5
 13
0.0
 23
0.0
 14
1.0
 24
1.0
 15
0.0
 25
0.0
 16
0.0
 26
0.0
 36
1.0
 17
0.0
 27
0.0
 37
0.0
 40
17.0
 41
1.2941176471
 42
50.0
 43
0.0
 44
0.0
 50
0.0
 51
0.0
 71
0
 72
100
 73
1
 74
1
 75
0
 76
0
 77
0
 78
0
  0
ENDTAB
  0
TABLE
  2
LTYPE
  5
5
100
AcDbSymbolTable
 70
6
  0
LTYPE
  5
14
100
AcDbSymbolTableRecord
100
AcDbLinetypeTableRecord
  2
BYBLOCK
 70
0
  3

 72
65
 73
0
 40
0.0
  0
LTYPE
  5
15
100
AcDbSymbolTableRecord
100
AcDbLinetypeTableRecord
  2
BYLAYER
 70
0
  3

 72
65
 73
0
 40
0.0
  0
LTYPE
  5
16
100
AcDbSymbolTableRecord
100
AcDbLinetypeTableRecord
  2
CONTINUOUS
 70
64
  3
Solid line
 72
65
 73
0
 40
0.0
  0
LTYPE
  5
1F5
100
AcDbSymbolTableRecord
100
AcDbLinetypeTableRecord
  2
CENTER
 70
64
  3
____ _ ____ _ ____ _ ____ _ ____ _ ____ _ ____
 72
65
 73
4
 40
0.6
 49
0.375
 74
0
 49
-0.075
 74
0
 49
0.075
 74
0
 49
-0.075
 74
0
  0
LTYPE
  5
1F6
100
AcDbSymbolTableRecord
100
AcDbLinetypeTableRecord
  2
HIDDEN
 70
64
  3
- - - - - - - - - - - - - - - - - - - -
 72
65
 73
2
 40
0.2
 49
0.1
 74
0
 49
-0.1
 74
0
  0
LTYPE
  5
1F7
100
AcDbSymbolTableRecord
100
AcDbLinetypeTableRecord
  2
PHANTOM
 70
64
  3
_____ _ _ _____ _ _ _____ _ _ _____
 72
65
 73
6
 40
0.8
 49
0.45
 74
0
 49
-0.05
 74
0
 49
0.1
 74
0
 49
-0.05
 74
0
 49
0.1
 74
0
 49
-0.05
 74
0
  0
LTYPE
  5
1F8
100
AcDbSymbolTableRecord
100
AcDbLinetypeTableRecord
  2
DOT
 70
64
  3
. . . . . . . . . . . . . . . . . . . .
 72
65
 73
2
 40
0.2
 49
0.1
 74
0
 49
-0.1
 74
0
  0
LTYPE
  5
1F9
100
AcDbSymbolTableRecord
100
AcDbLinetypeTableRecord
  2
DASHED
 70
64
  3
- - - - - - - - - - - - - - - - - - - -
 72
65
 73
2
 40
0.2
 49
0.1
 74
0
 49
-0.1
 74
0
  0
ENDTAB
  0
TABLE
  2
LAYER
  5
2
100
AcDbSymbolTable
 70
36
  0
LAYER
  5
10
100
AcDbSymbolTableRecord
100
AcDbLayerTableRecord
  2
0
 70
0
 62
7
  6
CONTINUOUS
370
-3
390
F
  0
LAYER
  5
1FA
100
AcDbSymbolTableRecord
100
AcDbLayerTableRecord
  2
DEFAULT_1
 70
0
 62
7
  6
CENTER
370
-3
390
F
  0
LAYER
  5
1FB
100
AcDbSymbolTableRecord
100
AcDbLayerTableRecord
  2
DEFAULT_2
 70
0
 62
8
  6
HIDDEN
370
-3
390
F
  0
LAYER
  5
1FC
100
AcDbSymbolTableRecord
100
AcDbLayerTableRecord
  2
DEFAULT_3
 70
0
 62
7
  6
PHANTOM
370
-3
390
F
  0
LAYER
  5
1FD
100
AcDbSymbolTableRecord
100
AcDbLayerTableRecord
  2
01_ALL_DTM_PLN
 70
0
 62
7
  6
CONTINUOUS
370
-3
390
F
  0
LAYER
  5
1FE
100
AcDbSymbolTableRecord
100
AcDbLayerTableRecord
  2
01__ASM_ALL_DTM_PLN
 70
0
 62
7
  6
CONTINUOUS
370
-3
390
F
  0
LAYER
  5
1FF
100
AcDbSymbolTableRecord
100
AcDbLayerTableRecord
  2
01__ASM_DEF_DTM_PLN
 70
0
 62
7
  6
CONTINUOUS
370
-3
390
F
  0
LAYER
  5
200
100
AcDbSymbolTableRecord
100
AcDbLayerTableRecord
  2
01___PRT_ALL_DTM_PLN
 70
0
 62
7
  6
CONTINUOUS
370
-3
390
F
  0
LAYER
  5
201
100
AcDbSymbolTableRecord
100
AcDbLayerTableRecord
  2
01___PRT_DEF_DTM_PLN
 70
0
 62
7
  6
CONTINUOUS
370
-3
390
F
  0
LAYER
  5
202
100
AcDbSymbolTableRecord
100
AcDbLayerTableRecord
  2
02_ALL_AXES
 70
0
 62
7
  6
CONTINUOUS
370
-3
390
F
  0
LAYER
  5
203
100
AcDbSymbolTableRecord
100
AcDbLayerTableRecord
  2
02__ASM_ALL_AXES
 70
0
 62
7
  6
CONTINUOUS
370
-3
390
F
  0
LAYER
  5
204
100
AcDbSymbolTableRecord
100
AcDbLayerTableRecord
  2
02___PRT_ALL_AXES
 70
0
 62
7
  6
CONTINUOUS
370
-3
390
F
  0
LAYER
  5
205
100
AcDbSymbolTableRecord
100
AcDbLayerTableRecord
  2
03_ALL_CURVES
 70
0
 62
7
  6
CONTINUOUS
370
-3
390
F
  0
LAYER
  5
206
100
AcDbSymbolTableRecord
100
AcDbLayerTableRecord
  2
03__ASM_ALL_CURVES
 70
0
 62
7
  6
CONTINUOUS
370
-3
390
F
  0
LAYER
  5
207
100
AcDbSymbolTableRecord
100
AcDbLayerTableRecord
  2
03___PRT_ALL_CURVES
 70
0
 62
7
  6
CONTINUOUS
370
-3
390
F
  0
LAYER
  5
208
100
AcDbSymbolTableRecord
100
AcDbLayerTableRecord
  2
04_ALL_DTM_PNT
 70
0
 62
7
  6
CONTINUOUS
370
-3
390
F
  0
LAYER
  5
209
100
AcDbSymbolTableRecord
100
AcDbLayerTableRecord
  2
04__ASM_ALL_DTM_PNT
 70
0
 62
7
  6
CONTINUOUS
370
-3
390
F
  0
LAYER
  5
20A
100
AcDbSymbolTableRecord
100
AcDbLayerTableRecord
  2
04___PRT_ALL_DTM_PNT
 70
0
 62
7
  6
CONTINUOUS
370
-3
390
F
  0
LAYER
  5
20B
100
AcDbSymbolTableRecord
100
AcDbLayerTableRecord
  2
05_ALL_DTM_CSYS
 70
0
 62
7
  6
CONTINUOUS
370
-3
390
F
  0
LAYER
  5
20C
100
AcDbSymbolTableRecord
100
AcDbLayerTableRecord
  2
05__ASM_ALL_DTM_CSYS
 70
0
 62
7
  6
CONTINUOUS
370
-3
390
F
  0
LAYER
  5
20D
100
AcDbSymbolTableRecord
100
AcDbLayerTableRecord
  2
05__ASM_DEF_DTM_CSYS
 70
0
 62
7
  6
CONTINUOUS
370
-3
390
F
  0
LAYER
  5
20E
100
AcDbSymbolTableRecord
100
AcDbLayerTableRecord
  2
05___PRT_ALL_DTM_CSYS
 70
0
 62
7
  6
CONTINUOUS
370
-3
390
F
  0
LAYER
  5
20F
100
AcDbSymbolTableRecord
100
AcDbLayerTableRecord
  2
05___PRT_DEF_DTM_CSYS
 70
0
 62
7
  6
CONTINUOUS
370
-3
390
F
  0
LAYER
  5
210
100
AcDbSymbolTableRecord
100
AcDbLayerTableRecord
  2
06_ALL_SURFS
 70
0
 62
7
  6
CONTINUOUS
370
-3
390
F
  0
LAYER
  5
211
100
AcDbSymbolTableRecord
100
AcDbLayerTableRecord
  2
06__ASM_ALL_SURFS
 70
0
 62
7
  6
CONTINUOUS
370
-3
390
F
  0
LAYER
  5
212
100
AcDbSymbolTableRecord
100
AcDbLayerTableRecord
  2
06___PRT_ALL_SURFS
 70
0
 62
7
  6
CONTINUOUS
370
-3
390
F
  0
LAYER
  5
213
100
AcDbSymbolTableRecord
100
AcDbLayerTableRecord
  2
07__ASM_ALL_SKELETONS
 70
0
 62
7
  6
CONTINUOUS
370
-3
390
F
  0
LAYER
  5
214
100
AcDbSymbolTableRecord
100
AcDbLayerTableRecord
  2
LAYER_AXIS
 70
0
 62
7
  6
CONTINUOUS
370
-3
390
F
  0
LAYER
  5
215
100
AcDbSymbolTableRecord
100
AcDbLayerTableRecord
  2
LAYER_CHAMFER_FEAT
 70
0
 62
7
  6
CONTINUOUS
370
-3
390
F
  0
LAYER
  5
216
100
AcDbSymbolTableRecord
100
AcDbLayerTableRecord
  2
LAYER_CUT_FEAT
 70
0
 62
7
  6
CONTINUOUS
370
-3
390
F
  0
LAYER
  5
217
100
AcDbSymbolTableRecord
100
AcDbLayerTableRecord
  2
LAYER_DATUM
 70
0
 62
7
  6
CONTINUOUS
370
-3
390
F
  0
LAYER
  5
218
100
AcDbSymbolTableRecord
100
AcDbLayerTableRecord
  2
LAYER_DIM
 70
0
 62
7
  6
CONTINUOUS
370
-3
390
F
  0
LAYER
  5
219
100
AcDbSymbolTableRecord
100
AcDbLayerTableRecord
  2
LAYER_FEATURE
 70
0
 62
7
  6
CONTINUOUS
370
-3
390
F
  0
LAYER
  5
21A
100
AcDbSymbolTableRecord
100
AcDbLayerTableRecord
  2
LAYER_GEOM_FEAT
 70
0
 62
7
  6
CONTINUOUS
370
-3
390
F
  0
LAYER
  5
21B
100
AcDbSymbolTableRecord
100
AcDbLayerTableRecord
  2
LAYER_NOGEOM_FEAT
 70
0
 62
7
  6
CONTINUOUS
370
-3
390
F
  0
LAYER
  5
21C
100
AcDbSymbolTableRecord
100
AcDbLayerTableRecord
  2
LAYER_PARAMETER_DIM
 70
0
 62
7
  6
CONTINUOUS
370
-3
390
F
  0
LAYER
  5
21D
100
AcDbSymbolTableRecord
100
AcDbLayerTableRecord
  2
LAYER_PROTRUSION_FEAT
 70
0
 62
7
  6
CONTINUOUS
370
-3
390
F
  0
LAYER
  5
21E
100
AcDbSymbolTableRecord
100
AcDbLayerTableRecord
  2
LAYER_ROUND_FEAT
 70
0
 62
7
  6
CONTINUOUS
370
-3
390
F
  0
ENDTAB
  0
TABLE
  2
STYLE
  5
3
100
AcDbSymbolTable
 70
1
  0
STYLE
  5
11
100
AcDbSymbolTableRecord
100
AcDbTextStyleTableRecord
  2
STANDARD
 70
0
 40
0.0
 41
0.8
 50
0.0
 71
0
 42
0.2
  3
txt
  4

  0
STYLE
  5
21F
100
AcDbSymbolTableRecord
100
AcDbTextStyleTableRecord
  2
TEXTSTYLE_1
 70
0
 40
0.0
 41
0.8
 50
0.0
 71
0
 42
0.2
  3
gdt
  4

  0
ENDTAB
  0
TABLE
  2
VIEW
  5
6
100
AcDbSymbolTable
 70
0
  0
ENDTAB
  0
TABLE
  2
UCS
  5
7
100
AcDbSymbolTable
 70
0
  0
ENDTAB
  0
TABLE
  2
APPID
  5
9
100
AcDbSymbolTable
 70
1
  0
APPID
  5
220
100
AcDbSymbolTableRecord
100
AcDbRegAppTableRecord
  2
ACAD
 70
0
  0
ENDTAB
  0
TABLE
  2
BLOCK_RECORD
  5
1
100
AcDbSymbolTable
 70
0
  0
BLOCK_RECORD
  5
221
100
AcDbSymbolTableRecord
100
AcDbBlockTableRecord
  2
*Model_Space
  0
BLOCK_RECORD
  5
222
100
AcDbSymbolTableRecord
100
AcDbBlockTableRecord
  2
*Paper_Space
  0
ENDTAB
  0
TABLE
  2
DIMSTYLE
  5
A
100
AcDbSymbolTable
 70
1
100
AcDbDimStyleTable
 71
0
  0
DIMSTYLE
105
223
100
AcDbSymbolTableRecord
100
AcDbDimStyleTableRecord
  2
STANDARD
 70
0
  3

  4

 40
1.0
 41
0.1875
 42
0.0625
 43
0.38
 44
0.125
 45
0.0
 46
0.0
 47
0.0001
 48
0.0001
140
0.15625
141
0.09
142
0.0
143
25.4
144
1.0
145
0.0
146
1.0
147
0.09
 71
0.0
 72
0.0
 73
1
 74
1
 75
0
 76
0
 77
0
 78
4
 79
1
170
0
171
3
172
0
173
0
174
0
175
0
176
0
177
0
178
0
270
2
179
4
271
4
272
4
273
2
274
2
275
0
280
0
281
0
282
0
283
1
284
4
285
0
286
0
287
3
288
0
340
11
278
46
  0
ENDTAB
  0
ENDSEC
  0
SECTION
  2
BLOCKS
  0
BLOCK
  5
20
100
AcDbEntity
  8
0
100
AcDbBlockBegin
  2
*Model_Space
 70
0
 10
0.0
 20
0.0
 30
0.0
  3
*Model_Space
  1

  0
ENDBLK
  5
21
100
AcDbEntity
  8
0
100
AcDbBlockEnd
  0
BLOCK
  5
1C
100
AcDbEntity
  8
0
100
AcDbBlockBegin
  2
*Paper_Space
 70
0
 10
0.0
 20
0.0
 30
0.0
  3
*Paper_Space
  1

  0
ENDBLK
  5
1D
100
AcDbEntity
  8
0
100
AcDbBlockEnd
  0
ENDSEC
  0
SECTION
  2
ENTITIES
  0
MTEXT
  5
224
100
AcDbEntity
  8
0
100
AcDbMText
 62
7
  6
CONTINUOUS
  7
STANDARD
 71
1
 72
1
 10
15.9560215477
 20
0.9479130325
 30
0.0
 11
1.0
 21
0.0
 31
0.0
 44
0.9
  1
SCALE: 1:3.000
 40
0.3
 41
3.36
  0
LINE
  5
225
100
AcDbEntity
  8
0
100
AcDbLine
 62
7
  6
CONTINUOUS
 10
0.0
 20
0.0
 11
0.0
 21
17.0
  0
LINE
  5
226
100
AcDbEntity
  8
0
100
AcDbLine
 62
7
  6
CONTINUOUS
 10
0.0
 20
0.0
 11
22.0
 21
0.0
  0
LINE
  5
227
100
AcDbEntity
  8
0
100
AcDbLine
 62
7
  6
CONTINUOUS
 10
0.0
 20
17.0
 11
22.0
 21
17.0
  0
LINE
  5
228
100
AcDbEntity
  8
0
100
AcDbLine
 62
7
  6
CONTINUOUS
 10
22.0
 20
0.0
 11
22.0
 21
17.0
  0
LINE
  5
229
100
AcDbEntity
  8
LAYER_FEATURE
100
AcDbLine
 62
7
  6
CONTINUOUS
 10
5.9647672762
 20
6.5476198968
 11
5.948477334
 21
6.5313299546
  0
LINE
  5
22A
100
AcDbEntity
  8
LAYER_FEATURE
100
AcDbLine
 62
7
  6
CONTINUOUS
 10
7.1578672762
 20
5.3545198968
 11
7.1415378742
 21
5.3381904948
  0
LINE
  5
22B
100
AcDbEntity
  8
LAYER_FEATURE
100
AcDbLine
 62
7
  6
CONTINUOUS
 10
6.2959672762
 20
6.5476198968
 11
6.3122572183
 21
6.5313299546
  0
LINE
  5
22C
100
AcDbEntity
  8
LAYER_FEATURE
100
AcDbLine
 62
7
  6
CONTINUOUS
 10
7.1578672762
 20
5.6857198968
 11
7.1415378742
 21
5.7020492987
  0
LINE
  5
22D
100
AcDbEntity
  8
LAYER_FEATURE
100
AcDbLine
 62
7
  6
CONTINUOUS
 10
7.1578672762
 20
5.6857198968
 11
7.1578672762
 21
5.3545198968
  0
LINE
  5
22E
100
AcDbEntity
  8
LAYER_FEATURE
100
AcDbLine
 62
7
  6
CONTINUOUS
 10
5.9647672762
 20
6.5476198968
 11
6.2959672762
 21
6.5476198968
  0
LINE
  5
22F
100
AcDbEntity
  8
02___PRT_ALL_AXES
100
AcDbLine
 62
7
  6
CONTINUOUS
 10
5.0433720839
 20
11.5635477814
 11
5.0433720839
 21
12.1642977814
  0
LINE
  5
230
100
AcDbEntity
  8
LAYER_FEATURE
100
AcDbLine
 62
7
  6
CONTINUOUS
 10
5.0433720839
 20
13.5405477814
 11
5.0433720839
 21
13.6365477814
  0
LINE
  5
231
100
AcDbEntity
  8
02___PRT_ALL_AXES
100
AcDbLine
 62
7
  6
CONTINUOUS
 10
5.0433721005
 20
11.5635477814
 11
7.0983720672
 21
11.5635477814
  0
LINE
  5
232
100
AcDbEntity
  8
LAYER_CUT_FEAT
100
AcDbLine
 62
7
  6
CONTINUOUS
 10
5.2718335128
 20
13.4775477814
 11
5.2718335128
 21
12.2775477814
  0
LINE
  5
233
100
AcDbEntity
  8
LAYER_CUT_FEAT
100
AcDbLine
 62
7
  6
CONTINUOUS
 10
6.011116331
 20
11.8110477814
 11
6.1306278367
 21
11.8110477814
  0
LINE
  5
234
100
AcDbEntity
  8
LAYER_CUT_FEAT
100
AcDbLine
 62
7
  6
CONTINUOUS
 10
5.3606749123
 20
13.4775477814
 11
5.3606749123
 21
12.2775477814
  0
LINE
  5
235
100
AcDbEntity
  8
LAYER_CUT_FEAT
100
AcDbLine
 62
7
  6
CONTINUOUS
 10
6.1306278367
 20
12.0180477814
 11
6.011116331
 21
12.0180477814
  0
LINE
  5
236
100
AcDbEntity
  8
LAYER_CUT_FEAT
100
AcDbLine
 62
7
  6
CONTINUOUS
 10
5.5671285822
 20
13.4775477814
 11
5.5671285822
 21
12.2775477814
  0
LINE
  5
237
100
AcDbEntity
  8
LAYER_CHAMFER_FEAT
100
AcDbLine
 62
7
  6
CONTINUOUS
 10
5.0433720839
 20
12.1642977814
 11
5.1566220839
 21
12.2775477814
  0
LINE
  5
238
100
AcDbEntity
  8
LAYER_FEATURE
100
AcDbLine
 62
7
  6
CONTINUOUS
 10
6.9558720839
 20
13.4775477814
 11
7.0983720839
 21
13.5405477814
  0
LINE
  5
239
100
AcDbEntity
  8
LAYER_CHAMFER_FEAT
100
AcDbLine
 62
7
  6
CONTINUOUS
 10
5.0433720839
 20
12.1642977814
 11
7.0983720839
 21
12.1642977814
  0
LINE
  5
23A
100
AcDbEntity
  8
LAYER_CUT_FEAT
100
AcDbLine
 62
7
  6
CONTINUOUS
 10
5.9513605781
 20
11.9145477814
 11
6.011116331
 21
11.8110477814
  0
LINE
  5
23B
100
AcDbEntity
  8
LAYER_CHAMFER_FEAT
100
AcDbLine
 62
7
  6
CONTINUOUS
 10
5.1566220839
 20
12.2775477814
 11
6.9851220839
 21
12.2775477814
  0
LINE
  5
23C
100
AcDbEntity
  8
LAYER_CUT_FEAT
100
AcDbLine
 62
7
  6
CONTINUOUS
 10
5.8554968074
 20
13.4775477814
 11
5.8554968074
 21
12.2775477814
  0
LINE
  5
23D
100
AcDbEntity
  8
LAYER_CUT_FEAT
100
AcDbLine
 62
7
  6
CONTINUOUS
 10
6.1903835896
 20
11.9145477814
 11
6.1306278367
 21
12.0180477814
  0
LINE
  5
23E
100
AcDbEntity
  8
LAYER_CUT_FEAT
100
AcDbLine
 62
7
  6
CONTINUOUS
 10
5.9657071857
 20
13.4775477814
 11
5.9657071857
 21
12.2775477814
  0
LINE
  5
23F
100
AcDbEntity
  8
LAYER_CUT_FEAT
100
AcDbLine
 62
7
  6
CONTINUOUS
 10
6.1759181019
 20
13.4775477814
 11
6.1759181019
 21
12.2775477814
  0
LINE
  5
240
100
AcDbEntity
  8
LAYER_CUT_FEAT
100
AcDbLine
 62
7
  6
CONTINUOUS
 10
6.2854422879
 20
13.4775477814
 11
6.2854422879
 21
12.2775477814
  0
LINE
  5
241
100
AcDbEntity
  8
LAYER_CUT_FEAT
100
AcDbLine
 62
7
  6
CONTINUOUS
 10
6.011116331
 20
12.0180477814
 11
5.9513605781
 21
11.9145477814
  0
LINE
  5
242
100
AcDbEntity
  8
LAYER_FEATURE
100
AcDbLine
 62
7
  6
CONTINUOUS
 10
7.0919125034
 20
12.0866073618
 11
7.0983720839
 21
12.0801477814
  0
LINE
  5
243
100
AcDbEntity
  8
LAYER_CUT_FEAT
100
AcDbLine
 62
7
  6
CONTINUOUS
 10
6.1306278367
 20
11.8110477814
 11
6.1903835896
 21
11.9145477814
  0
LINE
  5
244
100
AcDbEntity
  8
LAYER_FEATURE
100
AcDbLine
 62
7
  6
CONTINUOUS
 10
5.1858720839
 20
13.4775477814
 11
5.0433720839
 21
13.5405477814
  0
LINE
  5
245
100
AcDbEntity
  8
LAYER_CHAMFER_FEAT
100
AcDbLine
 62
7
  6
CONTINUOUS
 10
7.0983720839
 20
12.1642977814
 11
6.9851220839
 21
12.2775477814
  0
LINE
  5
246
100
AcDbEntity
  8
LAYER_CUT_FEAT
100
AcDbLine
 62
7
  6
CONTINUOUS
 10
6.5735610437
 20
13.4775477814
 11
6.5735610437
 21
12.2775477814
  0
LINE
  5
247
100
AcDbEntity
  8
LAYER_CUT_FEAT
100
AcDbLine
 62
7
  6
CONTINUOUS
 10
6.7802451027
 20
13.4775477814
 11
6.7802451027
 21
12.2775477814
  0
LINE
  5
248
100
AcDbEntity
  8
LAYER_CUT_FEAT
100
AcDbLine
 62
7
  6
CONTINUOUS
 10
6.8697569136
 20
13.4775477814
 11
6.8697569136
 21
12.2775477814
  0
LINE
  5
249
100
AcDbEntity
  8
LAYER_FEATURE
100
AcDbLine
 62
7
  6
CONTINUOUS
 10
5.1858720839
 20
13.4775477814
 11
6.9558720839
 21
13.4775477814
  0
LINE
  5
24A
100
AcDbEntity
  8
LAYER_FEATURE
100
AcDbLine
 62
7
  6
CONTINUOUS
 10
5.0433720839
 20
13.5405477814
 11
7.0983720839
 21
13.5405477814
  0
LINE
  5
24B
100
AcDbEntity
  8
02___PRT_ALL_AXES
100
AcDbLine
 62
7
  6
CONTINUOUS
 10
7.0983720839
 20
11.5635477814
 11
7.0983720839
 21
11.7075477814
  0
LINE
  5
24C
100
AcDbEntity
  8
LAYER_FEATURE
100
AcDbLine
 62
7
  6
CONTINUOUS
 10
7.0983720839
 20
11.7489478588
 11
7.0983720839
 21
12.0801477039
  0
LINE
  5
24D
100
AcDbEntity
  8
02___PRT_ALL_AXES
100
AcDbLine
 62
7
  6
CONTINUOUS
 10
7.0983720839
 20
12.1215477814
 11
7.0983720839
 21
12.1642977814
  0
LINE
  5
24E
100
AcDbEntity
  8
LAYER_FEATURE
100
AcDbLine
 62
7
  6
CONTINUOUS
 10
7.0983720839
 20
13.5405477814
 11
7.0983720839
 21
13.6365477814
  0
LINE
  5
24F
100
AcDbEntity
  8
LAYER_FEATURE
100
AcDbLine
 62
7
  6
CONTINUOUS
 10
5.0433720839
 20
13.6365477814
 11
7.0983720839
 21
13.6365477814
  0
LINE
  5
250
100
AcDbEntity
  8
LAYER_FEATURE
100
AcDbLine
 62
7
  6
CONTINUOUS
 10
7.0919125037
 20
11.7424882012
 11
7.0983720839
 21
11.7489477814
  0
LINE
  5
251
100
AcDbEntity
  8
LAYER_FEATURE
100
AcDbLine
 62
7
  6
CONTINUOUS
 10
14.7027956776
 20
6.4816651252
 11
14.7092552569
 21
6.4881247044
  0
LINE
  5
252
100
AcDbEntity
  8
02___PRT_ALL_AXES
100
AcDbLine
 62
7
  6
CONTINUOUS
 10
14.5238552569
 20
6.4881247044
 11
14.5238552569
 21
4.4331247044
  0
LINE
  5
253
100
AcDbEntity
  8
LAYER_FEATURE
100
AcDbLine
 62
7
  6
CONTINUOUS
 10
16.5968552569
 20
4.4331247044
 11
16.5008552569
 21
4.4331247044
  0
LINE
  5
254
100
AcDbEntity
  8
LAYER_CHAMFER_FEAT
100
AcDbLine
 62
7
  6
CONTINUOUS
 10
15.1246052569
 20
4.4331247044
 11
14.5238552569
 21
4.4331247044
  0
LINE
  5
255
100
AcDbEntity
  8
LAYER_CUT_FEAT
100
AcDbLine
 62
7
  6
CONTINUOUS
 10
14.7713552569
 20
5.5203804573
 11
14.7713552569
 21
5.4008689516
  0
LINE
  5
256
100
AcDbEntity
  8
02___PRT_ALL_AXES
100
AcDbLine
 62
7
  6
CONTINUOUS
 10
15.2378552569
 20
4.6596247044
 11
16.4378552569
 21
4.6596247044
  0
LINE
  5
257
100
AcDbEntity
  8
LAYER_CUT_FEAT
100
AcDbLine
 62
7
  6
CONTINUOUS
 10
16.4378552569
 20
4.716903806
 11
15.2378552569
 21
4.716903806
  0
LINE
  5
258
100
AcDbEntity
  8
LAYER_CUT_FEAT
100
AcDbLine
 62
7
  6
CONTINUOUS
 10
14.9783552569
 20
5.4008689516
 11
14.9783552569
 21
5.5203804573
  0
LINE
  5
259
100
AcDbEntity
  8
LAYER_CUT_FEAT
100
AcDbLine
 62
7
  6
CONTINUOUS
 10
16.4378552569
 20
4.8969353325
 11
15.2378552569
 21
4.8969353325
  0
LINE
  5
25A
100
AcDbEntity
  8
LAYER_CHAMFER_FEAT
100
AcDbLine
 62
7
  6
CONTINUOUS
 10
15.1246052569
 20
6.4881247044
 11
15.1246052569
 21
4.4331247044
  0
LINE
  5
25B
100
AcDbEntity
  8
LAYER_CUT_FEAT
100
AcDbLine
 62
7
  6
CONTINUOUS
 10
14.8748552569
 20
5.5801362102
 11
14.7713552569
 21
5.5203804573
  0
LINE
  5
25C
100
AcDbEntity
  8
LAYER_CUT_FEAT
100
AcDbLine
 62
7
  6
CONTINUOUS
 10
14.7713552569
 20
5.4008689516
 11
14.8748552569
 21
5.3411131987
  0
LINE
  5
25D
100
AcDbEntity
  8
LAYER_CHAMFER_FEAT
100
AcDbLine
 62
7
  6
CONTINUOUS
 10
15.2378552569
 20
6.3748747044
 11
15.2378552569
 21
4.5463747044
  0
LINE
  5
25E
100
AcDbEntity
  8
LAYER_CUT_FEAT
100
AcDbLine
 62
7
  6
CONTINUOUS
 10
16.4378552569
 20
5.1689490812
 11
15.2378552569
 21
5.1689490812
  0
LINE
  5
25F
100
AcDbEntity
  8
LAYER_CUT_FEAT
100
AcDbLine
 62
7
  6
CONTINUOUS
 10
14.8748552569
 20
5.3411131987
 11
14.9783552569
 21
5.4008689516
  0
LINE
  5
260
100
AcDbEntity
  8
LAYER_CUT_FEAT
100
AcDbLine
 62
7
  6
CONTINUOUS
 10
14.9783552569
 20
5.5203804573
 11
14.8748552569
 21
5.5801362102
  0
LINE
  5
261
100
AcDbEntity
  8
LAYER_CUT_FEAT
100
AcDbLine
 62
7
  6
CONTINUOUS
 10
16.4378552569
 20
5.4859114037
 11
15.2378552569
 21
5.4859114037
  0
LINE
  5
262
100
AcDbEntity
  8
LAYER_CUT_FEAT
100
AcDbLine
 62
7
  6
CONTINUOUS
 10
16.4378552569
 20
5.5967571584
 11
15.2378552569
 21
5.5967571584
  0
LINE
  5
263
100
AcDbEntity
  8
LAYER_FEATURE
100
AcDbLine
 62
7
  6
CONTINUOUS
 10
15.0469148362
 20
6.4816651252
 11
15.0404552569
 21
6.4881247044
  0
LINE
  5
264
100
AcDbEntity
  8
LAYER_FEATURE
100
AcDbLine
 62
7
  6
CONTINUOUS
 10
16.5008552569
 20
6.4881247044
 11
16.4378552569
 21
6.3456247044
  0
LINE
  5
265
100
AcDbEntity
  8
LAYER_CHAMFER_FEAT
100
AcDbLine
 62
7
  6
CONTINUOUS
 10
15.1246052569
 20
4.4331247044
 11
15.2378552569
 21
4.5463747044
  0
LINE
  5
266
100
AcDbEntity
  8
LAYER_CUT_FEAT
100
AcDbLine
 62
7
  6
CONTINUOUS
 10
16.4378552569
 20
5.8981901121
 11
15.2378552569
 21
5.8981901121
  0
LINE
  5
267
100
AcDbEntity
  8
LAYER_CHAMFER_FEAT
100
AcDbLine
 62
7
  6
CONTINUOUS
 10
15.1246052569
 20
6.4881247044
 11
15.2378552569
 21
6.3748747044
  0
LINE
  5
268
100
AcDbEntity
  8
LAYER_FEATURE
100
AcDbLine
 62
7
  6
CONTINUOUS
 10
16.5008552569
 20
4.4331247044
 11
16.4378552569
 21
4.5756247044
  0
LINE
  5
269
100
AcDbEntity
  8
LAYER_CUT_FEAT
100
AcDbLine
 62
7
  6
CONTINUOUS
 10
16.4378552569
 20
6.1291513043
 11
15.2378552569
 21
6.1291513043
  0
LINE
  5
26A
100
AcDbEntity
  8
LAYER_CUT_FEAT
100
AcDbLine
 62
7
  6
CONTINUOUS
 10
16.4378552569
 20
6.2497054465
 11
15.2378552569
 21
6.2497054465
  0
LINE
  5
26B
100
AcDbEntity
  8
LAYER_FEATURE
100
AcDbLine
 62
7
  6
CONTINUOUS
 10
16.4378552569
 20
6.3456247044
 11
16.4378552569
 21
4.5756247044
  0
LINE
  5
26C
100
AcDbEntity
  8
LAYER_FEATURE
100
AcDbLine
 62
7
  6
CONTINUOUS
 10
16.5008552569
 20
6.4881247044
 11
16.5008552569
 21
4.4331247044
  0
LINE
  5
26D
100
AcDbEntity
  8
LAYER_FEATURE
100
AcDbLine
 62
7
  6
CONTINUOUS
 10
16.5968552569
 20
6.4881247044
 11
16.5968552569
 21
4.4331247044
  0
LINE
  5
26E
100
AcDbEntity
  8
LAYER_FEATURE
100
AcDbLine
 62
7
  6
CONTINUOUS
 10
16.5968552569
 20
6.4881247044
 11
16.5008552569
 21
6.4881247044
  0
LINE
  5
26F
100
AcDbEntity
  8
02___PRT_ALL_AXES
100
AcDbLine
 62
7
  6
CONTINUOUS
 10
15.1246052569
 20
6.4881247044
 11
15.0818552569
 21
6.4881247044
  0
LINE
  5
270
100
AcDbEntity
  8
02___PRT_ALL_AXES
100
AcDbLine
 62
7
  6
CONTINUOUS
 10
14.6678552569
 20
6.4881247044
 11
14.5238552569
 21
6.4881247044
  0
LINE
  5
271
100
AcDbEntity
  8
LAYER_FEATURE
100
AcDbLine
 62
7
  6
CONTINUOUS
 10
14.7092553344
 20
6.4881247044
 11
15.0404551795
 21
6.4881247044
  0
LINE
  5
272
100
AcDbEntity
  8
02___PRT_ALL_AXES
100
AcDbLine
 62
7
  6
CONTINUOUS
 10
14.2385799202
 20
12.0022533253
 11
14.3840012639
 21
12.4728369662
  0
LINE
  5
273
100
AcDbEntity
  8
LAYER_FEATURE
100
AcDbLine
 62
7
  6
CONTINUOUS
 10
14.7171450415
 20
13.5508906256
 11
14.7403834086
 21
13.6260900089
  0
LINE
  5
274
100
AcDbEntity
  8
02___PRT_ALL_AXES
100
AcDbLine
 62
7
  6
CONTINUOUS
 10
14.7091300723
 20
12.7578008599
 11
14.9182976844
 21
13.4346675007
  0
LINE
  5
275
100
AcDbEntity
  8
LAYER_CUT_FEAT
100
AcDbLine
 62
7
  6
CONTINUOUS
 10
15.0330287415
 20
13.5851464956
 11
14.7839154485
 21
12.7790155842
  0
LINE
  5
276
100
AcDbEntity
  8
LAYER_CUT_FEAT
100
AcDbLine
 62
7
  6
CONTINUOUS
 10
15.2558970936
 20
13.6722340654
 11
14.9925614864
 21
12.8200797282
  0
LINE
  5
277
100
AcDbEntity
  8
LAYER_CUT_FEAT
100
AcDbLine
 62
7
  6
CONTINUOUS
 10
14.710534723
 20
11.8821521923
 11
14.7032727333
 21
11.858652385
  0
LINE
  5
278
100
AcDbEntity
  8
LAYER_CUT_FEAT
100
AcDbLine
 62
7
  6
CONTINUOUS
 10
16.2880863013
 20
11.8995448531
 11
16.2232469318
 21
11.8995448531
  0
LINE
  5
279
100
AcDbEntity
  8
LAYER_CUT_FEAT
100
AcDbLine
 62
7
  6
CONTINUOUS
 10
14.8817322129
 20
12.6125386388
 11
14.9117170416
 21
12.5314643036
  0
LINE
  5
27A
100
AcDbEntity
  8
LAYER_CUT_FEAT
100
AcDbLine
 62
7
  6
CONTINUOUS
 10
14.9618247705
 20
12.6936129739
 11
14.8817322129
 21
12.6125386388
  0
LINE
  5
27B
100
AcDbEntity
  8
LAYER_CUT_FEAT
100
AcDbLine
 62
7
  6
CONTINUOUS
 10
16.2949121594
 20
12.0177639599
 11
16.2134213195
 21
12.0177639599
  0
LINE
  5
27C
100
AcDbEntity
  8
LAYER_CUT_FEAT
100
AcDbLine
 62
7
  6
CONTINUOUS
 10
14.8817322129
 20
12.6125386388
 11
14.921517718
 21
12.5314643036
  0
LINE
  5
27D
100
AcDbEntity
  8
LAYER_CUT_FEAT
100
AcDbLine
 62
7
  6
CONTINUOUS
 10
14.9618247705
 20
12.6936129739
 11
15.0249684369
 21
12.5649397105
  0
LINE
  5
27E
100
AcDbEntity
  8
LAYER_CUT_FEAT
100
AcDbLine
 62
7
  6
CONTINUOUS
 10
15.5477613685
 20
13.6788839332
 11
15.2810466652
 21
12.8157948371
  0
LINE
  5
27F
100
AcDbEntity
  8
LAYER_CUT_FEAT
100
AcDbLine
 62
7
  6
CONTINUOUS
 10
15.0249684369
 20
12.5649397105
 11
14.9918984038
 21
12.5314643036
  0
LINE
  5
280
100
AcDbEntity
  8
LAYER_CUT_FEAT
100
AcDbLine
 62
7
  6
CONTINUOUS
 10
15.0217944278
 20
12.5314643036
 11
15.1018869854
 21
12.6125386388
  0
LINE
  5
281
100
AcDbEntity
  8
LAYER_CUT_FEAT
100
AcDbLine
 62
7
  6
CONTINUOUS
 10
15.1018869854
 20
12.6125386388
 11
15.0719021568
 21
12.6936129739
  0
LINE
  5
282
100
AcDbEntity
  8
LAYER_CUT_FEAT
100
AcDbLine
 62
7
  6
CONTINUOUS
 10
15.8581555815
 20
13.6039462767
 11
15.5923014588
 21
12.7436420205
  0
LINE
  5
283
100
AcDbEntity
  8
LAYER_CUT_FEAT
100
AcDbLine
 62
7
  6
CONTINUOUS
 10
14.9117170416
 20
12.5314643036
 11
15.0217944278
 21
12.5314643036
  0
LINE
  5
284
100
AcDbEntity
  8
LAYER_CUT_FEAT
100
AcDbLine
 62
7
  6
CONTINUOUS
 10
15.054864461
 20
12.5649397105
 11
15.0249684369
 21
12.5649397105
  0
LINE
  5
285
100
AcDbEntity
  8
LAYER_CUT_FEAT
100
AcDbLine
 62
7
  6
CONTINUOUS
 10
15.9621422924
 20
13.5669090514
 11
15.6955767677
 21
12.7043026972
  0
LINE
  5
286
100
AcDbEntity
  8
LAYER_CUT_FEAT
100
AcDbLine
 62
7
  6
CONTINUOUS
 10
15.0719021568
 20
12.6936129739
 11
14.9618247705
 21
12.6936129739
  0
LINE
  5
287
100
AcDbEntity
  8
LAYER_FEATURE
100
AcDbLine
 62
7
  6
CONTINUOUS
 10
16.2475795543
 20
12.1614232162
 11
16.2788952412
 21
12.1239054522
  0
LINE
  5
288
100
AcDbEntity
  8
LAYER_CUT_FEAT
100
AcDbLine
 62
7
  6
CONTINUOUS
 10
16.2269859299
 20
13.4151449322
 11
15.9619354833
 21
12.5574413729
  0
LINE
  5
289
100
AcDbEntity
  8
LAYER_CHAMFER_FEAT
100
AcDbLine
 62
7
  6
CONTINUOUS
 10
14.7843104812
 20
12.7791152808
 11
14.87580423
 21
12.8006326056
  0
LINE
  5
28A
100
AcDbEntity
  8
LAYER_CHAMFER_FEAT
100
AcDbLine
 62
7
  6
CONTINUOUS
 10
16.1896659382
 20
12.3448275978
 11
16.1262628447
 21
12.4142116673
  0
LINE
  5
28B
100
AcDbEntity
  8
LAYER_CUT_FEAT
100
AcDbLine
 62
7
  6
CONTINUOUS
 10
16.2083484176
 20
11.9299048329
 11
16.2448044304
 21
11.8556152896
  0
LINE
  5
28C
100
AcDbEntity
  8
LAYER_CUT_FEAT
100
AcDbLine
 62
7
  6
CONTINUOUS
 10
16.2949121594
 20
12.0177639599
 11
16.2584561466
 21
12.0920535031
  0
LINE
  5
28D
100
AcDbEntity
  8
LAYER_CUT_FEAT
100
AcDbLine
 62
7
  6
CONTINUOUS
 10
15.7445389317
 20
11.5626207245
 11
15.737276942
 21
11.5391209172
  0
LINE
  5
28E
100
AcDbEntity
  8
LAYER_CUT_FEAT
100
AcDbLine
 62
7
  6
CONTINUOUS
 10
16.2151742757
 20
12.0481239396
 11
16.2083484176
 21
11.9299048329
  0
LINE
  5
28F
100
AcDbEntity
  8
LAYER_CUT_FEAT
100
AcDbLine
 62
7
  6
CONTINUOUS
 10
16.4031117204
 20
13.2242452592
 11
16.1460880368
 21
12.3925163142
  0
LINE
  5
290
100
AcDbEntity
  8
LAYER_CUT_FEAT
100
AcDbLine
 62
7
  6
CONTINUOUS
 10
16.2880863013
 20
11.8995448531
 11
16.2949121594
 21
12.0177639599
  0
LINE
  5
291
100
AcDbEntity
  8
LAYER_CUT_FEAT
100
AcDbLine
 62
7
  6
CONTINUOUS
 10
16.4600659147
 20
13.0272183199
 11
16.2332354377
 21
12.2931946274
  0
LINE
  5
292
100
AcDbEntity
  8
LAYER_CUT_FEAT
100
AcDbLine
 62
7
  6
CONTINUOUS
 10
16.2584561466
 20
12.0920535031
 11
16.2151742757
 21
12.0481239396
  0
LINE
  5
293
100
AcDbEntity
  8
02___PRT_ALL_AXES
100
AcDbLine
 62
7
  6
CONTINUOUS
 10
16.2019697551
 20
11.3955199769
 11
16.3473910989
 21
11.8661036178
  0
LINE
  5
294
100
AcDbEntity
  8
LAYER_FEATURE
100
AcDbLine
 62
7
  6
CONTINUOUS
 10
16.6805348765
 20
12.9441572772
 11
16.7037732435
 21
13.0193566605
  0
LINE
  5
295
100
AcDbEntity
  8
LAYER_CUT_FEAT
100
AcDbLine
 62
7
  6
CONTINUOUS
 10
16.2448044304
 20
11.8556152896
 11
16.2880863013
 21
11.8995448531
  0
LINE
  5
296
100
AcDbEntity
  8
LAYER_FEATURE
100
AcDbLine
 62
7
  6
CONTINUOUS
 10
16.2475795543
 20
11.7862455765
 11
16.2788952412
 21
11.8237633405
  0
CIRCLE
  5
297
100
AcDbEntity
  8
02___PRT_ALL_AXES
100
AcDbCircle
 62
7
  6
CONTINUOUS
 10
6.1303672762
 20
5.5201198968
 40
1.0275
  0
CIRCLE
  5
298
100
AcDbEntity
  8
LAYER_CUT_FEAT
100
AcDbCircle
 62
7
  6
CONTINUOUS
 10
6.1303672762
 20
5.5201198968
 40
0.547125
  0
CIRCLE
  5
299
100
AcDbEntity
  8
LAYER_CUT_FEAT
100
AcDbCircle
 62
7
  6
CONTINUOUS
 10
6.1303672762
 20
5.5201198968
 40
0.541125
  0
CIRCLE
  5
29A
100
AcDbEntity
  8
LAYER_CHAMFER_FEAT
100
AcDbCircle
 62
7
  6
CONTINUOUS
 10
6.1303672762
 20
5.5201198968
 40
0.3234375
  0
CIRCLE
  5
29B
100
AcDbEntity
  8
LAYER_CHAMFER_FEAT
100
AcDbCircle
 62
7
  6
CONTINUOUS
 10
6.1303672762
 20
5.5201198968
 40
0.28125
  0
CIRCLE
  5
29C
100
AcDbEntity
  8
02___PRT_ALL_AXES
100
AcDbCircle
 62
7
  6
CONTINUOUS
 10
6.0708720839
 20
11.9145477814
 40
0.207
  0
CIRCLE
  5
29D
100
AcDbEntity
  8
LAYER_FEATURE
100
AcDbCircle
 62
7
  6
CONTINUOUS
 10
6.0708720839
 20
11.9145477814
 40
0.1656
  0
CIRCLE
  5
29E
100
AcDbEntity
  8
02___PRT_ALL_AXES
100
AcDbCircle
 62
7
  6
CONTINUOUS
 10
14.8748552569
 20
5.4606247044
 40
0.207
  0
CIRCLE
  5
29F
100
AcDbEntity
  8
LAYER_FEATURE
100
AcDbCircle
 62
7
  6
CONTINUOUS
 10
14.8748552569
 20
5.4606247044
 40
0.1656
  0
ARC
  5
2A0
100
AcDbEntity
  8
LAYER_FEATURE
100
AcDbCircle
 62
7
  6
CONTINUOUS
 10
15.4143382961
 20
12.3227821425
 40
1.374436083
100
AcDbArc
 50
67.4205756084
 51
69.542275411
  0
ARC
  5
2A1
100
AcDbEntity
  8
LAYER_FEATURE
100
AcDbCircle
 62
7
  6
CONTINUOUS
 10
15.4270557066
 20
12.409225638
 40
1.2873752896
100
AcDbArc
 50
81.3077164602
 51
83.5240361454
  0
ARC
  5
2A2
100
AcDbEntity
  8
LAYER_FEATURE
100
AcDbCircle
 62
7
  6
CONTINUOUS
 10
15.5855771114
 20
12.6197459956
 40
1.0307792145
100
AcDbArc
 50
52.1657154229
 51
54.736113397
  0
ARC
  5
2A3
100
AcDbEntity
  8
LAYER_FEATURE
100
AcDbCircle
 62
7
  6
CONTINUOUS
 10
15.4209286387
 20
12.8455666261
 40
0.8495998267
100
AcDbArc
 50
97.3749835763
 51
100.2989753026
  0
ARC
  5
2A4
100
AcDbEntity
  8
02___PRT_ALL_AXES
100
AcDbCircle
 62
7
  6
CONTINUOUS
 10
15.6938350383
 20
12.026341929
 40
0.6282995495
100
AcDbArc
 50
345.7162719137
 51
346.9956215318
  0
ARC
  5
2A5
100
AcDbEntity
  8
LAYER_FEATURE
100
AcDbCircle
 62
7
  6
CONTINUOUS
 10
15.9218827502
 20
12.9466554049
 40
0.5594215845
100
AcDbArc
 50
31.0350246095
 51
34.8985306705
  0
ARC
  5
2A6
100
AcDbEntity
  8
LAYER_FEATURE
100
AcDbCircle
 62
7
  6
CONTINUOUS
 10
15.2837571643
 20
13.2427711823
 40
0.4265097256
100
AcDbArc
 50
120.6379021978
 51
125.2674622123
  0
ARC
  5
2A7
100
AcDbEntity
  8
LAYER_FEATURE
100
AcDbCircle
 62
7
  6
CONTINUOUS
 10
16.1711280836
 20
13.0417050257
 40
0.2896388263
100
AcDbArc
 50
357.6682032195
 51
3.6608645165
  0
ARC
  5
2A8
100
AcDbEntity
  8
LAYER_FEATURE
100
AcDbCircle
 62
7
  6
CONTINUOUS
 10
15.1699458104
 20
13.3568832146
 40
0.2633954708
100
AcDbArc
 50
156.9095054954
 51
162.8236520454
  0
ARC
  5
2A9
100
AcDbEntity
  8
LAYER_FEATURE
100
AcDbCircle
 62
7
  6
CONTINUOUS
 10
15.0513141039
 20
13.6316389587
 40
0.1859243689
100
AcDbArc
 50
244.248971094
 51
251.6735602221
  0
ARC
  5
2AA
100
AcDbEntity
  8
LAYER_CUT_FEAT
100
AcDbCircle
 62
7
  6
CONTINUOUS
 10
14.8815353343
 20
11.8292386749
 40
0.1790006005
100
AcDbArc
 50
152.7637458817
 51
162.8061198133
  0
ARC
  5
2AB
100
AcDbEntity
  8
LAYER_CUT_FEAT
100
AcDbCircle
 62
7
  6
CONTINUOUS
 10
15.5735929215
 20
11.6153829285
 40
0.1789037024
100
AcDbArc
 50
342.8472447808
 51
352.5871814589
  0
SPLINE
  5
2AC
100
AcDbEntity
  8
02___PRT_ALL_AXES
100
AcDbSpline
 62
7
  6
CONTINUOUS
 70
0
 71
3
 72
27
 73
23
 74
0
 42
0.0000001
 43
0.0000001
 44
0.0000000001
 40
0.0
 40
0.0
 40
0.0
 40
0.0
 40
0.0386338323
 40
0.0852496796
 40
0.1476348116
 40
0.2233220368
 40
0.2652797609
 40
0.3094678632
 40
0.355475024
 40
0.4028688052
 40
0.4511985699
 40
0.5000000001
 40
0.5488014304
 40
0.597131195
 40
0.6445249762
 40
0.6905321374
 40
0.7347202397
 40
0.7766779638
 40
0.8523651889
 40
0.9147503208
 40
0.961366168
 40
1.0
 40
1.0
 40
1.0
 40
1.0
 10
7.0983720839
 20
11.7075477814
 30
0.0
 10
7.0973119595
 20
11.7128098919
 30
0.0
 10
7.0950549852
 20
11.7244379447
 30
0.0
 10
7.091466981
 20
11.744635232
 30
0.0
 10
7.0875030396
 20
11.7699903205
 30
0.0
 10
7.0843045045
 20
11.7948026379
 30
0.0
 10
7.0819532361
 20
11.8171654503
 30
0.0
 10
7.0803502157
 20
11.8354577858
 30
0.0
 10
7.0790307777
 20
11.8545300268
 30
0.0
 10
7.0780478498
 20
11.8741988893
 30
0.0
 10
7.077441434
 20
11.8942714608
 30
0.0
 10
7.0772364881
 20
11.9145477814
 30
0.0
 10
7.077441434
 20
11.9348241021
 30
0.0
 10
7.0780478498
 20
11.9548966736
 30
0.0
 10
7.0790307777
 20
11.9745655361
 30
0.0
 10
7.0803502157
 20
11.9936377771
 30
0.0
 10
7.0819532361
 20
12.0119301127
 30
0.0
 10
7.0843045045
 20
12.0342929251
 30
0.0
 10
7.0875030396
 20
12.0591052424
 30
0.0
 10
7.091466981
 20
12.0844603309
 30
0.0
 10
7.0950549852
 20
12.1046576181
 30
0.0
 10
7.0973119595
 20
12.1162856708
 30
0.0
 10
7.0983720839
 20
12.1215477814
 30
0.0
  0
SPLINE
  5
2AD
100
AcDbEntity
  8
02___PRT_ALL_AXES
100
AcDbSpline
 62
7
  6
CONTINUOUS
 70
0
 71
3
 72
27
 73
23
 74
0
 42
0.0000001
 43
0.0000001
 44
0.0000000001
 40
0.0
 40
0.0
 40
0.0
 40
0.0
 40
0.0386338329
 40
0.0852496806
 40
0.1476348131
 40
0.2233220388
 40
0.2652797632
 40
0.3094678654
 40
0.3554750228
 40
0.402868804
 40
0.4511985697
 40
0.5
 40
0.5488014303
 40
0.597131196
 40
0.6445249771
 40
0.6905321348
 40
0.7347202371
 40
0.7766779615
 40
0.8523651871
 40
0.9147503195
 40
0.9613661672
 40
1.0
 40
1.0
 40
1.0
 40
1.0
 10
15.0818552569
 20
6.4881247044
 30
0.0
 10
15.0765931463
 20
6.48706458
 30
0.0
 10
15.0649650933
 20
6.4848076057
 30
0.0
 10
15.0447678058
 20
6.4812196015
 30
0.0
 10
15.0194127171
 20
6.4772556601
 30
0.0
 10
14.9946003996
 20
6.474057125
 30
0.0
 10
14.9722375871
 20
6.4717058566
 30
0.0
 10
14.9539452521
 20
6.4701028363
 30
0.0
 10
14.9348730115
 20
6.4687833983
 30
0.0
 10
14.9152041494
 20
6.4678004704
 30
0.0
 10
14.8951315778
 20
6.4671940545
 30
0.0
 10
14.8748552569
 20
6.4669891086
 30
0.0
 10
14.8545789361
 20
6.4671940545
 30
0.0
 10
14.8345063645
 20
6.4678004704
 30
0.0
 10
14.8148375023
 20
6.4687833983
 30
0.0
 10
14.7957652618
 20
6.4701028363
 30
0.0
 10
14.7774729267
 20
6.4717058566
 30
0.0
 10
14.7551101142
 20
6.474057125
 30
0.0
 10
14.7302977966
 20
6.4772556601
 30
0.0
 10
14.704942708
 20
6.4812196015
 30
0.0
 10
14.6847454205
 20
6.4848076057
 30
0.0
 10
14.6731173676
 20
6.48706458
 30
0.0
 10
14.6678552569
 20
6.4881247044
 30
0.0
  0
SPLINE
  5
2AE
100
AcDbEntity
  8
LAYER_CUT_FEAT
100
AcDbSpline
 62
7
  6
CONTINUOUS
 70
0
 71
3
 72
81
 73
77
 74
0
 42
0.0000001
 43
0.0000001
 44
0.0000000001
 40
0.0
 40
0.0
 40
0.0
 40
0.0
 40
0.0131061518
 40
0.02653422
 40
0.0402891799
 40
0.0543741279
 40
0.0687894119
 40
0.0835333125
 40
0.0986020083
 40
0.1139897763
 40
0.1296891249
 40
0.1456909312
 40
0.1619845701
 40
0.1785580341
 40
0.195398048
 40
0.2124901752
 40
0.2298189208
 40
0.2473678305
 40
0.2651195844
 40
0.2830560857
 40
0.3011585472
 40
0.3194075733
 40
0.3377832402
 40
0.3562651766
 40
0.3748326399
 40
0.3934645924
 40
0.412139775
 40
0.4308367809
 40
0.4495341287
 40
0.4682103363
 40
0.4868439937
 40
0.505413836
 40
0.523898817
 40
0.5422781831
 40
0.5605315496
 40
0.5786389785
 40
0.5965810566
 40
0.6143389755
 40
0.6318946149
 40
0.649230628
 40
0.6663305309
 40
0.6831787982
 40
0.6997609593
 40
0.7160636996
 40
0.7320749692
 40
0.7477840959
 40
0.7631819065
 40
0.7782608565
 40
0.793015165
 40
0.8074409559
 40
0.8215364059
 40
0.8353018998
 40
0.8487401885
 40
0.8553386409
 40
0.8618574988
 40
0.8746598927
 40
0.8809471498
 40
0.8871602027
 40
0.8993699711
 40
0.9113070788
 40
0.9171801368
 40
0.9229927535
 40
0.9287478919
 40
0.9344487184
 40
0.9400985718
 40
0.9457009794
 40
0.9512596374
 40
0.9567784035
 40
0.9622612948
 40
0.9677124613
 40
0.9731361886
 40
0.9785368688
 40
0.9839189931
 40
0.9892871309
 40
0.9946459099
 40
1.0
 40
1.0
 40
1.0
 40
1.0
 10
14.7218657073
 20
11.6988866511
 30
0.0
 10
14.7241686776
 20
11.6941936909
 30
0.0
 10
14.7290692943
 20
11.6848075941
 30
0.0
 10
14.7371709183
 20
11.6709231892
 30
0.0
 10
14.746097851
 20
11.6570874503
 30
0.0
 10
14.755834405
 20
11.6433243275
 30
0.0
 10
14.7663640465
 20
11.629656988
 30
0.0
 10
14.7776687032
 20
11.6161086673
 30
0.0
 10
14.7897290806
 20
11.6027023581
 30
0.0
 10
14.8025245761
 20
11.5894608413
 30
0.0
 10
14.8160333469
 20
11.5764066293
 30
0.0
 10
14.8302323386
 20
11.5635619325
 30
0.0
 10
14.8450973229
 20
11.5509486178
 30
0.0
 10
14.8606029368
 20
11.5385881702
 30
0.0
 10
14.8767227241
 20
11.526501655
 30
0.0
 10
14.8934291766
 20
11.5147096787
 30
0.0
 10
14.910693779
 20
11.5032323486
 30
0.0
 10
14.9284870621
 20
11.4920892431
 30
0.0
 10
14.9467786521
 20
11.4812993757
 30
0.0
 10
14.9655373229
 20
11.4708811619
 30
0.0
 10
14.9847310484
 20
11.4608523872
 30
0.0
 10
15.0043270571
 20
11.451230176
 30
0.0
 10
15.024291885
 20
11.4420309557
 30
0.0
 10
15.044591437
 20
11.4332704337
 30
0.0
 10
15.0651910451
 20
11.4249635702
 30
0.0
 10
15.0860555285
 20
11.4171245523
 30
0.0
 10
15.1071492528
 20
11.4097667696
 30
0.0
 10
15.1284361919
 20
11.4029027921
 30
0.0
 10
15.1498799874
 20
11.3965443428
 30
0.0
 10
15.1714440128
 20
11.3907022789
 30
0.0
 10
15.1930914376
 20
11.3853865775
 30
0.0
 10
15.2147852899
 20
11.380606317
 30
0.0
 10
15.2364885196
 20
11.3763696626
 30
0.0
 10
15.2581640622
 20
11.3726838523
 30
0.0
 10
15.2797749023
 20
11.3695551828
 30
0.0
 10
15.3012841372
 20
11.3669889941
 30
0.0
 10
15.3226550419
 20
11.3649896683
 30
0.0
 10
15.3438511313
 20
11.3635606209
 30
0.0
 10
15.3648362224
 20
11.3627042967
 30
0.0
 10
15.3855744969
 20
11.3624221653
 30
0.0
 10
15.4060305629
 20
11.3627147207
 30
0.0
 10
15.4261695169
 20
11.3635814731
 30
0.0
 10
15.4459570037
 20
11.3650209581
 30
0.0
 10
15.4653592747
 20
11.3670307416
 30
0.0
 10
15.4843432445
 20
11.3696074255
 30
0.0
 10
15.5028765471
 20
11.3727466555
 30
0.0
 10
15.5209275912
 20
11.3764431328
 30
0.0
 10
15.5384656126
 20
11.3806906185
 30
0.0
 10
15.5554607333
 20
11.3854819525
 30
0.0
 10
15.5718839794
 20
11.3908090607
 30
0.0
 10
15.587707426
 20
11.3966630182
 30
0.0
 10
15.602903876
 20
11.4030338998
 30
0.0
 10
15.6150970584
 20
11.4087996271
 30
0.0
 10
15.6245069785
 20
11.4136643134
 30
0.0
 10
15.6335745618
 20
11.4186319963
 30
0.0
 10
15.6423507173
 20
11.4238681399
 30
0.0
 10
15.6508101287
 20
11.4293739029
 30
0.0
 10
15.6589260977
 20
11.4349677408
 30
0.0
 10
15.6686158825
 20
11.4422413349
 30
0.0
 10
15.6777738651
 20
11.4499666112
 30
0.0
 10
15.6846976386
 20
11.4563590816
 30
0.0
 10
15.6896642402
 20
11.4612316259
 30
0.0
 10
15.6944301286
 20
11.4662059278
 30
0.0
 10
15.6989933512
 20
11.471279855
 30
0.0
 10
15.7033518862
 20
11.4764512747
 30
0.0
 10
15.7075038795
 20
11.4817179594
 30
0.0
 10
15.7114475409
 20
11.4870776574
 30
0.0
 10
15.7151811341
 20
11.4925280989
 30
0.0
 10
15.7187030978
 20
11.4980669134
 30
0.0
 10
15.7220118429
 20
11.5036917695
 30
0.0
 10
15.7251059953
 20
11.5094002167
 30
0.0
 10
15.7279841766
 20
11.5151898291
 30
0.0
 10
15.7306451457
 20
11.5210581041
 30
0.0
 10
15.7330877843
 20
11.527002536
 30
0.0
 10
15.7353109489
 20
11.5330204821
 30
0.0
 10
15.736646422
 20
11.5370805641
 30
0.0
 10
15.7372769413
 20
11.5391209174
 30
0.0
  0
SPLINE
  5
2AF
100
AcDbEntity
  8
LAYER_CUT_FEAT
100
AcDbSpline
 62
7
  6
CONTINUOUS
 70
0
 71
3
 72
81
 73
77
 74
0
 42
0.0000001
 43
0.0000001
 44
0.0000000001
 40
0.0
 40
0.0
 40
0.0
 40
0.0
 40
0.0131061612
 40
0.0265342122
 40
0.0402891786
 40
0.0543741239
 40
0.0687894074
 40
0.083533307
 40
0.0986020007
 40
0.1139897672
 40
0.1296891148
 40
0.1456909208
 40
0.1619845592
 40
0.1785580223
 40
0.1953980341
 40
0.2124901589
 40
0.2298189032
 40
0.2473678123
 40
0.2651195657
 40
0.2830560663
 40
0.3011585261
 40
0.3194075499
 40
0.3377832151
 40
0.3562651505
 40
0.374832613
 40
0.3934645644
 40
0.4121397455
 40
0.4308367496
 40
0.4495340961
 40
0.4682103028
 40
0.4868439591
 40
0.5054137998
 40
0.5238987786
 40
0.5422781429
 40
0.5605315088
 40
0.5786389377
 40
0.5965810152
 40
0.6143389322
 40
0.6318945688
 40
0.6492305792
 40
0.6663304813
 40
0.6831787493
 40
0.6997609109
 40
0.7160636503
 40
0.732074917
 40
0.7477840402
 40
0.7631818491
 40
0.7782607994
 40
0.7930151091
 40
0.8074409004
 40
0.8215363487
 40
0.8353018392
 40
0.8487401252
 40
0.8618564856
 40
0.868296826
 40
0.8746599013
 40
0.8809471569
 40
0.8871602118
 40
0.8993699799
 40
0.9113070858
 40
0.9171801429
 40
0.9229927581
 40
0.9287478981
 40
0.9344487219
 40
0.9400985771
 40
0.9457009828
 40
0.951259641
 40
0.9567784068
 40
0.962261297
 40
0.9677124641
 40
0.9731361901
 40
0.9785368706
 40
0.9839189942
 40
0.9892871317
 40
0.9946459103
 40
1.0
 40
1.0
 40
1.0
 40
1.0
 10
15.724210334
 20
11.6988866511
 30
0.0
 10
15.7218818264
 20
11.7036316506
 30
0.0
 10
15.7169268742
 20
11.7131218193
 30
0.0
 10
15.7087354166
 20
11.7271601737
 30
0.0
 10
15.6997095064
 20
11.7411493212
 30
0.0
 10
15.6898649901
 20
11.7550650506
 30
0.0
 10
15.6792185957
 20
11.768883933
 30
0.0
 10
15.6677885927
 20
11.7825824773
 30
0.0
 10
15.6555944917
 20
11.796137437
 30
0.0
 10
15.6426571208
 20
11.8095257764
 30
0.0
 10
15.6289985642
 20
11.8227247336
 30
0.0
 10
15.6146421324
 20
11.8357118518
 30
0.0
 10
15.5996123233
 20
11.8484650221
 30
0.0
 10
15.5839347822
 20
11.8609625216
 30
0.0
 10
15.5676362601
 20
11.8731830531
 30
0.0
 10
15.5507445692
 20
11.8851057816
 30
0.0
 10
15.5332885371
 20
11.8967103728
 30
0.0
 10
15.5152979606
 20
11.9079770322
 30
0.0
 10
15.4968035512
 20
11.918886536
 30
0.0
 10
15.4778368826
 20
11.9294202652
 30
0.0
 10
15.4584303371
 20
11.9395602388
 30
0.0
 10
15.43861705
 20
11.9492891444
 30
0.0
 10
15.4184308536
 20
11.9585903687
 30
0.0
 10
15.3979062196
 20
11.9674480271
 30
0.0
 10
15.3770782013
 20
11.9758469949
 30
0.0
 10
15.355982371
 20
11.9837729289
 30
0.0
 10
15.3346547586
 20
11.9912122928
 30
0.0
 10
15.3131317907
 20
11.9981523801
 30
0.0
 10
15.2914502274
 20
12.0045813367
 30
0.0
 10
15.2696471002
 20
12.0104881799
 30
0.0
 10
15.2477596479
 20
12.0158628202
 30
0.0
 10
15.2258252535
 20
12.0206960805
 30
0.0
 10
15.203881378
 20
12.0249797073
 30
0.0
 10
15.181965497
 20
12.0287063853
 30
0.0
 10
15.1601150357
 20
12.0318697499
 30
0.0
 10
15.1383673056
 20
12.0344643972
 30
0.0
 10
15.1167594396
 20
12.036485893
 30
0.0
 10
15.0953283281
 20
12.0379307823
 30
0.0
 10
15.0741105553
 20
12.0387965966
 30
0.0
 10
15.0531423356
 20
12.039081853
 30
0.0
 10
15.0324594521
 20
12.0387860561
 30
0.0
 10
15.0120971953
 20
12.037909698
 30
0.0
 10
14.9920903028
 20
12.0364542559
 30
0.0
 10
14.9724728991
 20
12.0344221877
 30
0.0
 10
14.953278437
 20
12.0318169289
 30
0.0
 10
14.9345396397
 20
12.0286428861
 30
0.0
 10
14.9162884466
 20
12.0249054217
 30
0.0
 10
14.8985559602
 20
12.020610843
 30
0.0
 10
14.8813723979
 20
12.0157663887
 30
0.0
 10
14.8647670347
 20
12.0103802093
 30
0.0
 10
14.8487681888
 20
12.0044613656
 30
0.0
 10
14.8334030643
 20
11.9980197505
 30
0.0
 10
14.8186981188
 20
11.9910663035
 30
0.0
 10
14.806943982
 20
11.9848171059
 30
0.0
 10
14.7979022747
 20
11.9795697893
 30
0.0
 10
14.7913423761
 20
11.9755379403
 30
0.0
 10
14.7849657392
 20
11.9713877356
 30
0.0
 10
14.7767598183
 20
11.9657319153
 30
0.0
 10
14.7669625714
 20
11.9583776533
 30
0.0
 10
14.7577030557
 20
11.9505667191
 30
0.0
 10
14.7507025086
 20
11.9441033717
 30
0.0
 10
14.7456808469
 20
11.9391767911
 30
0.0
 10
14.7408620986
 20
11.9341473496
 30
0.0
 10
14.7362482975
 20
11.9290171448
 30
0.0
 10
14.7318414161
 20
11.9237884013
 30
0.0
 10
14.7276433995
 20
11.9184633075
 30
0.0
 10
14.723656005
 20
11.9130441862
 30
0.0
 10
14.7198810105
 20
11.9075333118
 30
0.0
 10
14.7163200078
 20
11.9019330751
 30
0.0
 10
14.7129745567
 20
11.8962458616
 30
0.0
 10
14.7098461162
 20
11.890474108
 30
0.0
 10
14.7069360034
 20
11.8846203097
 30
0.0
 10
14.7042455411
 20
11.8786869614
 30
0.0
 10
14.7017758163
 20
11.8726766189
 30
0.0
 10
14.6995279946
 20
11.8665919478
 30
0.0
 10
14.6981777236
 20
11.8624868444
 30
0.0
 10
14.6975402122
 20
11.860423868
 30
0.0
  0
SPLINE
  5
2B0
100
AcDbEntity
  8
LAYER_FEATURE
100
AcDbSpline
 62
7
  6
CONTINUOUS
 70
0
 71
3
 72
47
 73
43
 74
0
 42
0.0000001
 43
0.0000001
 44
0.0000000001
 40
0.0
 40
0.0
 40
0.0
 40
0.0
 40
0.0099899723
 40
0.0202817032
 40
0.0308783444
 40
0.0417817906
 40
0.0529928475
 40
0.0645113781
 40
0.0763362058
 40
0.088465439
 40
0.1008962666
 40
0.1136252382
 40
0.1266481963
 40
0.1399603201
 40
0.1535562937
 40
0.1674301319
 40
0.181575465
 40
0.1959853495
 40
0.2255680528
 40
0.2561156228
 40
0.2875585209
 40
0.3198220653
 40
0.3528270769
 40
0.3864904651
 40
0.4207257765
 40
0.4554437231
 40
0.4905526774
 40
0.5259591466
 40
0.5615682357
 40
0.5972841007
 40
0.6330103997
 40
0.6686507455
 40
0.7041091514
 40
0.73929048
 40
0.7741008923
 40
0.8084483123
 40
0.8422429081
 40
0.8753975422
 40
0.9078285041
 40
0.9394552557
 40
0.9702031929
 40
1.0
 40
1.0
 40
1.0
 40
1.0
 10
16.2788952412
 20
12.1239054522
 30
0.0
 10
16.2794529826
 20
12.1232372503
 30
0.0
 10
16.2805604759
 20
12.1218597555
 30
0.0
 10
16.2821740843
 20
12.1197065097
 30
0.0
 10
16.2837633552
 20
12.1174373615
 30
0.0
 10
16.2853270281
 20
12.1150541536
 30
0.0
 10
16.2868638902
 20
12.1125587632
 30
0.0
 10
16.2883727017
 20
12.1099531547
 30
0.0
 10
16.2898523148
 20
12.1072394083
 30
0.0
 10
16.2913015154
 20
12.1044196532
 30
0.0
 10
16.2927191959
 20
12.101496139
 30
0.0
 10
16.2941042114
 20
12.0984711732
 30
0.0
 10
16.2954554665
 20
12.0953471555
 30
0.0
 10
16.2967719075
 20
12.0921265683
 30
0.0
 10
16.2980524564
 20
12.0888119562
 30
0.0
 10
16.2992961355
 20
12.0854059626
 30
0.0
 10
16.3005019261
 20
12.0819112728
 30
0.0
 10
16.3020715689
 20
12.0770950783
 30
0.0
 10
16.3039289624
 20
12.0708706958
 30
0.0
 10
16.3059730506
 20
12.0631574092
 30
0.0
 10
16.3078449051
 20
12.0551604953
 30
0.0
 10
16.3095385576
 20
12.046905365
 30
0.0
 10
16.3110486107
 20
12.0384181765
 30
0.0
 10
16.312370248
 20
12.0297258641
 30
0.0
 10
16.3134992568
 20
12.0208560181
 30
0.0
 10
16.3144320364
 20
12.0118368024
 30
0.0
 10
16.3151656113
 20
12.0026968602
 30
0.0
 10
16.3156976403
 20
11.9934652228
 30
0.0
 10
16.3160264248
 20
11.9841712166
 30
0.0
 10
16.3161509132
 20
11.9748443687
 30
0.0
 10
16.3160707098
 20
11.9655143121
 30
0.0
 10
16.3157860721
 20
11.95621069
 30
0.0
 10
16.315297909
 20
11.9469630596
 30
0.0
 10
16.3146077782
 20
11.9378007988
 30
0.0
 10
16.3137178809
 20
11.9287530115
 30
0.0
 10
16.3126310549
 20
11.9198484332
 30
0.0
 10
16.3113507652
 20
11.9111153427
 30
0.0
 10
16.3098811017
 20
11.9025814479
 30
0.0
 10
16.3082267438
 20
11.8942738692
 30
0.0
 10
16.3063929722
 20
11.8862188484
 30
0.0
 10
16.3043856319
 20
11.8784421217
 30
0.0
 10
16.3029117048
 20
11.8733761263
 30
0.0
 10
16.3021452216
 20
11.8708957856
 30
0.0
  0
SPLINE
  5
2B1
100
AcDbEntity
  8
LAYER_FEATURE
100
AcDbSpline
 62
7
  6
CONTINUOUS
 70
0
 71
3
 72
23
 73
19
 74
0
 42
0.0000001
 43
0.0000001
 44
0.0000000001
 40
0.0
 40
0.0
 40
0.0
 40
0.0
 40
0.0507377599
 40
0.1030494169
 40
0.1569516717
 40
0.2124540879
 40
0.2695607147
 40
0.3282698978
 40
0.3885748112
 40
0.4504644554
 40
0.5139231383
 40
0.5789318001
 40
0.645466365
 40
0.7134998287
 40
0.7830038447
 40
0.8539486725
 40
0.9262969934
 40
1.0
 40
1.0
 40
1.0
 40
1.0
 10
16.2788952411
 20
11.823763341
 30
0.0
 10
16.2794683009
 20
11.8244498978
 30
0.0
 10
16.2806059738
 20
11.8258663864
 30
0.0
 10
16.2822622096
 20
11.8280828172
 30
0.0
 10
16.2838926894
 20
11.8304214011
 30
0.0
 10
16.2854960733
 20
11.8328801239
 30
0.0
 10
16.2870710171
 20
11.8354569603
 30
0.0
 10
16.2886162166
 20
11.8381497515
 30
0.0
 10
16.2901304019
 20
11.8409562446
 30
0.0
 10
16.2916122812
 20
11.8438741107
 30
0.0
 10
16.2930606615
 20
11.8469009021
 30
0.0
 10
16.2944742833
 20
11.850034101
 30
0.0
 10
16.2958520036
 20
11.8532710517
 30
0.0
 10
16.2971926449
 20
11.8566090583
 30
0.0
 10
16.2984951142
 20
11.8600453869
 30
0.0
 10
16.2997583278
 20
11.8635772061
 30
0.0
 10
16.3009811583
 20
11.8672013826
 30
0.0
 10
16.3017616741
 20
11.8696546253
 30
0.0
 10
16.3021452216
 20
11.8708957856
 30
0.0
  0
SPLINE
  5
2B2
100
AcDbEntity
  8
02___PRT_ALL_AXES
100
AcDbSpline
 62
7
  6
CONTINUOUS
 70
0
 71
3
 72
36
 73
32
 74
0
 42
0.0000001
 43
0.0000001
 44
0.0000000001
 40
0.0
 40
0.0
 40
0.0
 40
0.0
 40
0.0200410785
 40
0.0402430142
 40
0.0607002449
 40
0.0815033696
 40
0.1027378373
 40
0.1244836047
 40
0.1697800306
 40
0.193474774
 40
0.2179358861
 40
0.2432109211
 40
0.2693420705
 40
0.2963658944
 40
0.3243136092
 40
0.3532123394
 40
0.3830846846
 40
0.4139491022
 40
0.4458210896
 40
0.4787125151
 40
0.5126320902
 40
0.5475864124
 40
0.5835791536
 40
0.6206116388
 40
0.6586836338
 40
0.6977921785
 40
0.7379324107
 40
0.7790984258
 40
0.8212829679
 40
0.90867115
 40
1.0
 40
1.0
 40
1.0
 40
1.0
 10
16.2441801214
 20
11.7668343972
 30
0.0
 10
16.2437488136
 20
11.766834399
 30
0.0
 10
16.2428824383
 20
11.7668648778
 30
0.0
 10
16.2415822638
 20
11.7670013631
 30
0.0
 10
16.2402781774
 20
11.7672286702
 30
0.0
 10
16.2389703969
 20
11.7675466813
 30
0.0
 10
16.2376589492
 20
11.7679552188
 30
0.0
 10
16.2358817799
 20
11.7686294087
 30
0.0
 10
16.2341192994
 20
11.7694808833
 30
0.0
 10
16.232379022
 20
11.7704900249
 30
0.0
 10
16.2310508575
 20
11.7713475728
 30
0.0
 10
16.2297197453
 20
11.7722939456
 30
0.0
 10
16.2283857312
 20
11.7733288351
 30
0.0
 10
16.2270490028
 20
11.7744518206
 30
0.0
 10
16.22570972
 20
11.7756624543
 30
0.0
 10
16.2243680969
 20
11.7769602704
 30
0.0
 10
16.2230243557
 20
11.7783447519
 30
0.0
 10
16.221678735
 20
11.7798153377
 30
0.0
 10
16.2203315151
 20
11.7813714414
 30
0.0
 10
16.2189829869
 20
11.7830124228
 30
0.0
 10
16.2176334617
 20
11.7847375988
 30
0.0
 10
16.216283287
 20
11.7865462534
 30
0.0
 10
16.2149328214
 20
11.7884376211
 30
0.0
 10
16.2135824462
 20
11.7904108959
 30
0.0
 10
16.2122325769
 20
11.7924652295
 30
0.0
 10
16.2108836434
 20
11.7945997181
 30
0.0
 10
16.2095361042
 20
11.7968134127
 30
0.0
 10
16.2081904276
 20
11.7991053408
 30
0.0
 10
16.2063779964
 20
11.8023018893
 30
0.0
 10
16.2041234533
 20
11.806488085
 30
0.0
 10
16.2023884485
 20
11.8099212298
 30
0.0
 10
16.2015225595
 20
11.8116857261
 30
0.0
  0
SPLINE
  5
2B3
100
AcDbEntity
  8
LAYER_CHAMFER_FEAT
100
AcDbSpline
 62
7
  6
CONTINUOUS
 70
0
 71
3
 72
29
 73
25
 74
0
 42
0.0000001
 43
0.0000001
 44
0.0000000001
 40
0.0
 40
0.0
 40
0.0
 40
0.0
 40
0.073957116
 40
0.1461167841
 40
0.2164831511
 40
0.2850749932
 40
0.3519266703
 40
0.4170891352
 40
0.4806309427
 40
0.5426389129
 40
0.6032186032
 40
0.6624945231
 40
0.6916918439
 40
0.7206184591
 40
0.7492951063
 40
0.7777434625
 40
0.8059862232
 40
0.8340469932
 40
0.861950135
 40
0.8897207913
 40
0.9173846911
 40
0.9449680611
 40
0.9724975395
 40
1.0
 40
1.0
 40
1.0
 40
1.0
 10
15.0557514583
 20
11.8946050784
 30
0.0
 10
15.0527282862
 20
11.8936812401
 30
0.0
 10
15.0467917722
 20
11.8917340052
 30
0.0
 10
15.0381298599
 20
11.8884709834
 30
0.0
 10
15.0298357568
 20
11.8849075194
 30
0.0
 10
15.0219255196
 20
11.8810503552
 30
0.0
 10
15.0144142549
 20
11.8769066913
 30
0.0
 10
15.0073164071
 20
11.8724842536
 30
0.0
 10
15.0006456501
 20
11.8677913311
 30
0.0
 10
14.9944148432
 20
11.8628366448
 30
0.0
 10
14.9886362743
 20
11.8576296647
 30
0.0
 10
14.9841844375
 20
11.8530650401
 30
0.0
 10
14.980866661
 20
11.8492992014
 30
0.0
 10
14.9785103423
 20
11.8464323761
 30
0.0
 10
14.9762748771
 20
11.8435105755
 30
0.0
 10
14.9741613495
 20
11.8405351396
 30
0.0
 10
14.9721707941
 20
11.8375075089
 30
0.0
 10
14.970304141
 20
11.8344291576
 30
0.0
 10
14.9685623513
 20
11.8313015355
 30
0.0
 10
14.9669462361
 20
11.8281261708
 30
0.0
 10
14.9654565776
 20
11.8249045994
 30
0.0
 10
14.9640941414
 20
11.8216383395
 30
0.0
 10
14.9628595538
 20
11.8183290585
 30
0.0
 10
14.962121975
 20
11.8160947221
 30
0.0
 10
14.9617749005
 20
11.8149715776
 30
0.0
  0
SPLINE
  5
2B4
100
AcDbEntity
  8
LAYER_CHAMFER_FEAT
100
AcDbSpline
 62
7
  6
CONTINUOUS
 70
0
 71
3
 72
27
 73
23
 74
0
 42
0.0000001
 43
0.0000001
 44
0.0000000001
 40
0.0
 40
0.0
 40
0.0
 40
0.0
 40
0.0738802816
 40
0.1459714146
 40
0.2162787213
 40
0.284821925
 40
0.3516361657
 40
0.4167730806
 40
0.4803015954
 40
0.5423085929
 40
0.6028994403
 40
0.6621982204
 40
0.7203473567
 40
0.7775067835
 40
0.8057743886
 40
0.8338618398
 40
0.8617933062
 40
0.8895936369
 40
0.9172883333
 40
0.9449033519
 40
0.9724650387
 40
1.0
 40
1.0
 40
1.0
 40
1.0
 10
15.4670975872
 20
11.7669560112
 30
0.0
 10
15.4690469038
 20
11.7645000247
 30
0.0
 10
15.472800091
 20
11.7595684327
 30
0.0
 10
15.4780397037
 20
11.7520282068
 30
0.0
 10
15.4828109037
 20
11.7444490952
 30
0.0
 10
15.4871044618
 20
11.7368454686
 30
0.0
 10
15.490912165
 20
11.7292315356
 30
0.0
 10
15.494226673
 20
11.721621591
 30
0.0
 10
15.4970415433
 20
11.7140299154
 30
0.0
 10
15.4993512117
 20
11.7064707698
 30
0.0
 10
15.5011510146
 20
11.6989584174
 30
0.0
 10
15.5024372474
 20
11.6915070065
 30
0.0
 10
15.5032071604
 20
11.6841309773
 30
0.0
 10
15.5034176934
 20
11.6780355305
 30
0.0
 10
15.5033240467
 20
11.6732178925
 30
0.0
 10
15.5031246878
 20
11.669645415
 30
0.0
 10
15.5027960298
 20
11.6661024502
 30
0.0
 10
15.5023381728
 20
11.6625906408
 30
0.0
 10
15.5017513875
 20
11.6591116769
 30
0.0
 10
15.5010359211
 20
11.6556672016
 30
0.0
 10
15.5001921071
 20
11.6522589339
 30
0.0
 10
15.4995441474
 20
11.6500114498
 30
0.0
 10
15.4991991208
 20
11.6488949325
 30
0.0
  0
SPLINE
  5
2B5
100
AcDbEntity
  8
02___PRT_ALL_AXES
100
AcDbSpline
 62
7
  6
CONTINUOUS
 70
0
 71
3
 72
53
 73
49
 74
0
 42
0.0000001
 43
0.0000001
 44
0.0000000001
 40
0.0
 40
0.0
 40
0.0
 40
0.0
 40
0.0135998204
 40
0.0271793593
 40
0.0407450152
 40
0.0543034229
 40
0.0678614228
 40
0.0814260789
 40
0.0950046309
 40
0.1086044801
 40
0.1222331557
 40
0.1358982821
 40
0.1496075485
 40
0.1633686454
 40
0.1771892377
 40
0.19107688
 40
0.2050390047
 40
0.2190828251
 40
0.2332153045
 40
0.2474430866
 40
0.2617724539
 40
0.2762092694
 40
0.29075891
 40
0.30542626
 40
0.3351257081
 40
0.3653403349
 40
0.3960872648
 40
0.4273728396
 40
0.4591924382
 40
0.4915305063
 40
0.5243607543
 40
0.5576465271
 40
0.591341223
 40
0.6253888244
 40
0.6597244218
 40
0.6942748944
 40
0.7289595885
 40
0.7636912416
 40
0.7983769824
 40
0.8329196299
 40
0.8672191838
 40
0.9011745653
 40
0.9179929023
 40
0.9346878634
 40
0.9512472632
 40
0.9676599111
 40
0.9839151242
 40
1.0
 40
1.0
 40
1.0
 40
1.0
 10
15.1820193294
 20
12.6948069419
 30
0.0
 10
15.1828275398
 20
12.6931599912
 30
0.0
 10
15.1843723319
 20
12.6898334368
 30
0.0
 10
15.1864708472
 20
12.6847516849
 30
0.0
 10
15.1883455536
 20
12.6795890008
 30
0.0
 10
15.1899934853
 20
12.6743525864
 30
0.0
 10
15.1914118593
 20
12.669049511
 30
0.0
 10
15.1925983011
 20
12.6636869904
 30
0.0
 10
15.1935505535
 20
12.6582722355
 30
0.0
 10
15.1942668091
 20
12.6528125316
 30
0.0
 10
15.1947454374
 20
12.6473151651
 30
0.0
 10
15.1949852157
 20
12.6417874457
 30
0.0
 10
15.1949852237
 20
12.6362366727
 30
0.0
 10
15.1947448527
 20
12.6306701273
 30
0.0
 10
15.1942639474
 20
12.6250950496
 30
0.0
 10
15.1935425598
 20
12.6195186367
 30
0.0
 10
15.1925813108
 20
12.6139479919
 30
0.0
 10
15.1913809784
 20
12.6083901595
 30
0.0
 10
15.1899429298
 20
12.6028520367
 30
0.0
 10
15.188268731
 20
12.5973404343
 30
0.0
 10
15.1863604422
 20
12.5918619819
 30
0.0
 10
15.1842204546
 20
12.5864231903
 30
0.0
 10
15.1818514425
 20
12.5810303039
 30
0.0
 10
15.1783776268
 20
12.5738802587
 30
0.0
 10
15.1734701524
 20
12.5650860053
 30
0.0
 10
15.1667485136
 20
12.5548570161
 30
0.0
 10
15.1592055851
 20
12.544947826
 30
0.0
 10
15.1508823446
 20
12.5353963662
 30
0.0
 10
15.1418231368
 20
12.5262363736
 30
0.0
 10
15.1320755103
 20
12.5174982905
 30
0.0
 10
15.1216896895
 20
12.5092093205
 30
0.0
 10
15.1107182487
 20
12.5013937813
 30
0.0
 10
15.0992158249
 20
12.4940734092
 30
0.0
 10
15.0872389213
 20
12.4872676788
 30
0.0
 10
15.0748457595
 20
12.4809940868
 30
0.0
 10
15.0620961774
 20
12.4752683999
 30
0.0
 10
15.0490515318
 20
12.4701048419
 30
0.0
 10
15.0357745882
 20
12.4655162258
 30
0.0
 10
15.022329387
 20
12.4615140287
 30
0.0
 10
15.0087809551
 20
12.4581083901
 30
0.0
 10
14.9951953101
 20
12.4553081476
 30
0.0
 10
14.9838618159
 20
12.4534793755
 30
0.0
 10
14.9748330726
 20
12.4523275425
 30
0.0
 10
14.9681147897
 20
12.4516219722
 30
0.0
 10
14.9614368773
 20
12.4510724736
 30
0.0
 10
14.9548073225
 20
12.4506794372
 30
0.0
 10
14.9482344104
 20
12.4504431837
 30
0.0
 10
14.943871667
 20
12.4503899685
 30
0.0
 10
14.9417018702
 20
12.4503899685
 30
0.0
  0
SPLINE
  5
2B6
100
AcDbEntity
  8
LAYER_CUT_FEAT
100
AcDbSpline
 62
7
  6
CONTINUOUS
 70
0
 71
3
 72
23
 73
19
 74
0
 42
0.0000001
 43
0.0000001
 44
0.0000000001
 40
0.0
 40
0.0
 40
0.0
 40
0.0
 40
0.0581641106
 40
0.1164420888
 40
0.1749467128
 40
0.2337885793
 40
0.2930751321
 40
0.3529097562
 40
0.4133909154
 40
0.4746115699
 40
0.5366585838
 40
0.5996122132
 40
0.6635460432
 40
0.7285267505
 40
0.7946133009
 40
0.8618582554
 40
0.9303093717
 40
1.0
 40
1.0
 40
1.0
 40
1.0
 10
15.7430094631
 20
11.5373494342
 30
0.0
 10
15.7439633016
 20
11.5404360398
 30
0.0
 10
15.7457060984
 20
11.5466682432
 30
0.0
 10
15.7478154171
 20
11.5561582301
 30
0.0
 10
15.7494190286
 20
11.5657850417
 30
0.0
 10
15.7505153659
 20
11.575538942
 30
0.0
 10
15.7511034674
 20
11.5854105521
 30
0.0
 10
15.7511828077
 20
11.595390273
 30
0.0
 10
15.7507534642
 20
11.605468457
 30
0.0
 10
15.7498159378
 20
11.61563538
 30
0.0
 10
15.748371228
 20
11.6258812522
 30
0.0
 10
15.7464208841
 20
11.6361962456
 30
0.0
 10
15.7439668494
 20
11.64657048
 30
0.0
 10
15.7410115798
 20
11.6569940207
 30
0.0
 10
15.7375580624
 20
11.6674569097
 30
0.0
 10
15.733609584
 20
11.6779493089
 30
0.0
 10
15.7291701126
 20
11.6884608836
 30
0.0
 10
15.7259156071
 20
11.6954116699
 30
0.0
 10
15.724210334
 20
11.6988866511
 30
0.0
  0
SPLINE
  5
2B7
100
AcDbEntity
  8
LAYER_CUT_FEAT
100
AcDbSpline
 62
7
  6
CONTINUOUS
 70
0
 71
3
 72
23
 73
19
 74
0
 42
0.0000001
 43
0.0000001
 44
0.0000000001
 40
0.0
 40
0.0
 40
0.0
 40
0.0
 40
0.0581641117
 40
0.1164420897
 40
0.1749467112
 40
0.2337885816
 40
0.2930751322
 40
0.3529097549
 40
0.4133909183
 40
0.4746115686
 40
0.536658585
 40
0.5996122112
 40
0.6635460446
 40
0.7285267646
 40
0.7946132692
 40
0.8618582466
 40
0.9303094701
 40
1.0
 40
1.0
 40
1.0
 40
1.0
 10
14.703272734
 20
11.8586523847
 30
0.0
 10
14.7023293571
 20
11.8555996277
 30
0.0
 10
14.7006056751
 20
11.8494357683
 30
0.0
 10
14.6985194925
 20
11.840049852
 30
0.0
 10
14.6969334552
 20
11.8305286137
 30
0.0
 10
14.6958491519
 20
11.8208816774
 30
0.0
 10
14.6952674952
 20
11.811118324
 30
0.0
 10
14.6951890219
 20
11.8012480447
 30
0.0
 10
14.6956136647
 20
11.7912803827
 30
0.0
 10
14.6965409024
 20
11.7812249537
 30
0.0
 10
14.6979697718
 20
11.7710914425
 30
0.0
 10
14.6998987296
 20
11.7608895681
 30
0.0
 10
14.7023258479
 20
11.7506290999
 30
0.0
 10
14.7052487127
 20
11.7403198709
 30
0.0
 10
14.7086643546
 20
11.7299717221
 30
0.0
 10
14.7125695337
 20
11.7195943823
 30
0.0
 10
14.7169603235
 20
11.7091980817
 30
0.0
 10
14.7201791373
 20
11.7023235194
 30
0.0
 10
14.7218657073
 20
11.6988866511
 30
0.0
  0
SPLINE
  5
2B8
100
AcDbEntity
  8
LAYER_CHAMFER_FEAT
100
AcDbSpline
 62
7
  6
CONTINUOUS
 70
0
 71
3
 72
39
 73
35
 74
0
 42
0.0000001
 43
0.0000001
 44
0.0000000001
 40
0.0
 40
0.0
 40
0.0
 40
0.0
 40
0.0378630287
 40
0.0752495754
 40
0.1121557706
 40
0.1485787256
 40
0.1845166153
 40
0.2199686505
 40
0.2549352184
 40
0.289417831
 40
0.3234192549
 40
0.3569435051
 40
0.3899959046
 40
0.4225831562
 40
0.4547133235
 40
0.4863959562
 40
0.5176420351
 40
0.5484640838
 40
0.5788761393
 40
0.6088937918
 40
0.6385342078
 40
0.667816085
 40
0.6967597041
 40
0.725386832
 40
0.7537207439
 40
0.7817861222
 40
0.8096090033
 40
0.8372166897
 40
0.8646376194
 40
0.8919012728
 40
0.9190379963
 40
0.9460788734
 40
0.9730555377
 40
1.0
 40
1.0
 40
1.0
 40
1.0
 10
14.7843104822
 20
12.7791152797
 30
0.0
 10
14.77782954
 20
12.7775911009
 30
0.0
 10
14.7649805152
 20
12.7744268234
 30
0.0
 10
14.7459364017
 20
12.7692976473
 30
0.0
 10
14.7272536071
 20
12.7638184512
 30
0.0
 10
14.7089431389
 20
12.7579924159
 30
0.0
 10
14.6910156287
 20
12.7518229603
 30
0.0
 10
14.6734815523
 20
12.7453136049
 30
0.0
 10
14.6563511094
 20
12.7384681875
 30
0.0
 10
14.6396343068
 20
12.7312906211
 30
0.0
 10
14.6233408794
 20
12.7237851022
 30
0.0
 10
14.607480334
 20
12.7159559676
 30
0.0
 10
14.5920619322
 20
12.7078077362
 30
0.0
 10
14.5770946524
 20
12.6993451671
 30
0.0
 10
14.5625872642
 20
12.6905731018
 30
0.0
 10
14.5485482072
 20
12.6814966836
 30
0.0
 10
14.5349857224
 20
12.6721211084
 30
0.0
 10
14.5219077189
 20
12.6624518469
 30
0.0
 10
14.509321865
 20
12.6524944807
 30
0.0
 10
14.4972355465
 20
12.64225477
 30
0.0
 10
14.4856558286
 20
12.6317386833
 30
0.0
 10
14.4745895604
 20
12.620952269
 30
0.0
 10
14.4640431998
 20
12.6099018483
 30
0.0
 10
14.4540230161
 20
12.5985937876
 30
0.0
 10
14.4445348806
 20
12.5870347089
 30
0.0
 10
14.4355844252
 20
12.5752313254
 30
0.0
 10
14.4271769531
 20
12.5631905243
 30
0.0
 10
14.4193174168
 20
12.5509193638
 30
0.0
 10
14.4120105386
 20
12.5384249935
 30
0.0
 10
14.4052605853
 20
12.5257147765
 30
0.0
 10
14.3990716497
 20
12.5127961595
 30
0.0
 10
14.393447319
 20
12.499676687
 30
0.0
 10
14.3883910725
 20
12.4863643825
 30
0.0
 10
14.3854001075
 20
12.4773636145
 30
0.0
 10
14.3840012707
 20
12.4728369641
 30
0.0
  0
SPLINE
  5
2B9
100
AcDbEntity
  8
LAYER_CHAMFER_FEAT
100
AcDbSpline
 62
7
  6
CONTINUOUS
 70
0
 71
3
 72
39
 73
35
 74
0
 42
0.0000001
 43
0.0000001
 44
0.0000000001
 40
0.0
 40
0.0
 40
0.0
 40
0.0
 40
0.0378630382
 40
0.0752495783
 40
0.112155775
 40
0.1485787324
 40
0.1845166145
 40
0.2199686599
 40
0.2549352166
 40
0.2894178396
 40
0.3234192559
 40
0.3569435088
 40
0.3899959094
 40
0.4225831548
 40
0.4547133309
 40
0.4863959536
 40
0.5176420421
 40
0.5484640835
 40
0.5788761423
 40
0.6088937948
 40
0.6385342064
 40
0.66781609
 40
0.6967597016
 40
0.7253868365
 40
0.7537207431
 40
0.7817861239
 40
0.8096090046
 40
0.8372166888
 40
0.8646376214
 40
0.8919012715
 40
0.9190379975
 40
0.946078873
 40
0.9730555375
 40
1.0
 40
1.0
 40
1.0
 40
1.0
 10
16.1896659314
 20
12.3448275964
 30
0.0
 10
16.1941570783
 20
12.3399127867
 30
0.0
 10
16.2029807945
 20
12.3300511367
 30
0.0
 10
16.2158109752
 20
12.3150720444
 30
0.0
 10
16.228145374
 20
12.3000078156
 30
0.0
 10
16.2399766826
 20
12.284867272
 30
0.0
 10
16.2512980329
 20
12.2696592196
 30
0.0
 10
16.2621028141
 20
12.2543925172
 30
0.0
 10
16.2723846917
 20
12.2390760272
 30
0.0
 10
16.2821377016
 20
12.2237186935
 30
0.0
 10
16.2913560865
 20
12.2083294111
 30
0.0
 10
16.3000345096
 20
12.1929171696
 30
0.0
 10
16.3081678432
 20
12.1774909038
 30
0.0
 10
16.3157513464
 20
12.1620596034
 30
0.0
 10
16.3227805666
 20
12.1466322422
 30
0.0
 10
16.3292513454
 20
12.1312177828
 30
0.0
 10
16.3351599213
 20
12.1158252167
 30
0.0
 10
16.3405027388
 20
12.100463474
 30
0.0
 10
16.3452767053
 20
12.0851415266
 30
0.0
 10
16.3494789229
 20
12.0698682772
 30
0.0
 10
16.3531069237
 20
12.0546526419
 30
0.0
 10
16.3561585208
 20
12.0395034913
 30
0.0
 10
16.3586318474
 20
12.0244296662
 30
0.0
 10
16.360525448
 20
12.0094399842
 30
0.0
 10
16.361838076
 20
11.9945432042
 30
0.0
 10
16.362568983
 20
11.979748061
 30
0.0
 10
16.3627176046
 20
11.965063225
 30
0.0
 10
16.3622838483
 20
11.9504973219
 30
0.0
 10
16.3612678953
 20
11.9360589148
 30
0.0
 10
16.3596702776
 20
11.9217564987
 30
0.0
 10
16.3574919514
 20
11.9075985158
 30
0.0
 10
16.3547340645
 20
11.893593241
 30
0.0
 10
16.3513984073
 20
11.8797492364
 30
0.0
 10
16.348789929
 20
11.8706302703
 30
0.0
 10
16.3473910922
 20
11.8661036199
 30
0.0
  0
SPLINE
  5
2BA
100
AcDbEntity
  8
LAYER_FEATURE
100
AcDbSpline
 62
7
  6
CONTINUOUS
 70
0
 71
3
 72
34
 73
30
 74
0
 42
0.0000001
 43
0.0000001
 44
0.0000000001
 40
0.0
 40
0.0
 40
0.0
 40
0.0
 40
0.0276888568
 40
0.0554030707
 40
0.0831678834
 40
0.1110083109
 40
0.1389490279
 40
0.1670142716
 40
0.1952277305
 40
0.2236124676
 40
0.2521908184
 40
0.2809843361
 40
0.3100137028
 40
0.3392986973
 40
0.3688581208
 40
0.3987097867
 40
0.4288704611
 40
0.4593558719
 40
0.490180663
 40
0.5213584192
 40
0.5848154725
 40
0.6498209516
 40
0.7164453026
 40
0.784742812
 40
0.8195341043
 40
0.8547570198
 40
0.890414144
 40
0.926507218
 40
1.0
 40
1.0
 40
1.0
 40
1.0
 10
14.7171450483
 20
13.5508906235
 30
0.0
 10
14.7159207753
 20
13.5469288636
 30
0.0
 10
14.7136173033
 20
13.5389556843
 30
0.0
 10
14.7106037046
 20
13.526867994
 30
0.0
 10
14.7080322319
 20
13.5146552294
 30
0.0
 10
14.7059041526
 20
13.5023230979
 30
0.0
 10
14.7042203416
 20
13.4898771088
 30
0.0
 10
14.7029815923
 20
13.4773228778
 30
0.0
 10
14.7021883904
 20
13.4646660572
 30
0.0
 10
14.7018411145
 20
13.4519123401
 30
0.0
 10
14.7019398474
 20
13.4390674603
 30
0.0
 10
14.7024845592
 20
13.4261371888
 30
0.0
 10
14.7034749317
 20
13.4131273263
 30
0.0
 10
14.7049105299
 20
13.400043711
 30
0.0
 10
14.7067906387
 20
13.3868921995
 30
0.0
 10
14.7091144208
 20
13.3736786887
 30
0.0
 10
14.7118807709
 20
13.3604090747
 30
0.0
 10
14.7150884437
 20
13.3470893301
 30
0.0
 10
14.7187359838
 20
13.3337252802
 30
0.0
 10
14.7242154437
 20
13.3157511809
 30
0.0
 10
14.7321776943
 20
13.2931940089
 30
0.0
 10
14.7434043365
 20
13.2662066997
 30
0.0
 10
14.7563381467
 20
13.2391895755
 30
0.0
 10
14.7684439293
 20
13.2168298165
 30
0.0
 10
14.7789427387
 20
13.1989727936
 30
0.0
 10
14.7872770047
 20
13.1855185004
 30
0.0
 10
14.7960186526
 20
13.1720920621
 30
0.0
 10
14.808285257
 20
13.1541282376
 30
0.0
 10
14.8179775795
 20
13.1408768506
 30
0.0
 10
14.8246533659
 20
13.1321265444
 30
0.0
  0
SPLINE
  5
2BB
100
AcDbEntity
  8
LAYER_FEATURE
100
AcDbSpline
 62
7
  6
CONTINUOUS
 70
0
 71
3
 72
38
 73
34
 74
0
 42
0.0000001
 43
0.0000001
 44
0.0000000001
 40
0.0
 40
0.0
 40
0.0
 40
0.0
 40
0.0275836243
 40
0.0551935265
 40
0.0828558578
 40
0.110596529
 40
0.1384410809
 40
0.1664145852
 40
0.1945415227
 40
0.2228457015
 40
0.2513501514
 40
0.2800770594
 40
0.3090476864
 40
0.3382823194
 40
0.3678002133
 40
0.3976195571
 40
0.4277574423
 40
0.458229839
 40
0.4890515907
 40
0.5202363954
 40
0.5517968262
 40
0.5837443125
 40
0.6488346952
 40
0.6820009022
 40
0.7155889174
 40
0.7496048026
 40
0.7840535805
 40
0.8189393319
 40
0.8542651508
 40
0.8900332541
 40
0.9262449268
 40
0.9629006428
 40
1.0
 40
1.0
 40
1.0
 40
1.0
 10
16.6805348698
 20
12.9441572793
 30
0.0
 10
16.6792861791
 20
12.9401165036
 30
0.0
 10
16.6766349886
 20
12.9320773602
 30
0.0
 10
16.6722038815
 20
12.9201681107
 30
0.0
 10
16.66731968
 20
12.9084111402
 30
0.0
 10
16.6619847193
 20
12.8968121992
 30
0.0
 10
16.6562015311
 20
12.8853766405
 30
0.0
 10
16.6499728192
 20
12.874109844
 30
0.0
 10
16.6433015464
 20
12.8630170545
 30
0.0
 10
16.6361908386
 20
12.8521034627
 30
0.0
 10
16.6286440633
 20
12.8413741442
 30
0.0
 10
16.6206647626
 20
12.830834103
 30
0.0
 10
16.6122566981
 20
12.8204882346
 30
0.0
 10
16.6034238175
 20
12.8103413481
 30
0.0
 10
16.5941702673
 20
12.8003981526
 30
0.0
 10
16.5845003899
 20
12.790663255
 30
0.0
 10
16.5744187079
 20
12.7811411718
 30
0.0
 10
16.5639299499
 20
12.7718363029
 30
0.0
 10
16.5530389982
 20
12.7627529612
 30
0.0
 10
16.5417509891
 20
12.7538953549
 30
0.0
 10
16.5300710353
 20
12.7452675064
 30
0.0
 10
16.5138831417
 20
12.734006232
 30
0.0
 10
16.4970224093
 20
12.7232947356
 30
0.0
 10
16.4795450548
 20
12.7131327592
 30
0.0
 10
16.4659911341
 20
12.7057116051
 30
0.0
 10
16.4520808134
 20
12.6985426577
 30
0.0
 10
16.4378203802
 20
12.6916290631
 30
0.0
 10
16.4232164999
 20
12.6849740992
 30
0.0
 10
16.408275964
 20
12.6785807828
 30
0.0
 10
16.3930057073
 20
12.6724521282
 30
0.0
 10
16.3774128201
 20
12.6665909072
 30
0.0
 10
16.3615046195
 20
12.6609999159
 30
0.0
 10
16.3507581859
 20
12.6574755232
 30
0.0
 10
16.3453352708
 20
12.6557582233
 30
0.0
  0
SPLINE
  5
2BC
100
AcDbEntity
  8
02___PRT_ALL_AXES
100
AcDbSpline
 62
7
  6
CONTINUOUS
 70
0
 71
3
 72
82
 73
78
 74
0
 42
0.0000001
 43
0.0000001
 44
0.0000000001
 40
0.0
 40
0.0
 40
0.0
 40
0.0
 40
0.0053117365
 40
0.0106263082
 40
0.0159465426
 40
0.0212752529
 40
0.0266152292
 40
0.0319692331
 40
0.0373399896
 40
0.042730181
 40
0.0481424407
 40
0.0535793469
 40
0.059043418
 40
0.0645371059
 40
0.0700627941
 40
0.0756227901
 40
0.0812193252
 40
0.0868545483
 40
0.0925305252
 40
0.0982492358
 40
0.1040125708
 40
0.1098223331
 40
0.1215871149
 40
0.1335569893
 40
0.1396227241
 40
0.1457437795
 40
0.1581557548
 40
0.1708018476
 40
0.1836888945
 40
0.1968223804
 40
0.2102064891
 40
0.223844159
 40
0.2377371402
 40
0.2518860537
 40
0.2662904497
 40
0.280948865
 40
0.2958588803
 40
0.3110171742
 40
0.3264195764
 40
0.3420611186
 40
0.3579360829
 40
0.3740380487
 40
0.3903599369
 40
0.4068940525
 40
0.4236321255
 40
0.4405653501
 40
0.4576844219
 40
0.4749795744
 40
0.492440614
 40
0.510056953
 40
0.5278176429
 40
0.5457114056
 40
0.5637266644
 40
0.5818515739
 40
0.6000740497
 40
0.618381797
 40
0.6367623393
 40
0.6552030461
 40
0.6736911607
 40
0.6922138274
 40
0.7107581188
 40
0.7293110627
 40
0.7478596689
 40
0.7663909562
 40
0.7848919794
 40
0.803349856
 40
0.8217517934
 40
0.840085116
 40
0.858337293
 40
0.8764959662
 40
0.8945489782
 40
0.9124844008
 40
0.9302905656
 40
0.9479560886
 40
0.9654699205
 40
0.9828213139
 40
1.0
 40
1.0
 40
1.0
 40
1.0
 10
14.2385799215
 20
12.0022533248
 30
0.0
 10
14.2376455057
 20
11.9992295513
 30
0.0
 10
14.2358613459
 20
11.9931536909
 30
0.0
 10
14.2334419664
 20
11.9839643156
 30
0.0
 10
14.2312797115
 20
11.9747006021
 30
0.0
 10
14.229375194
 20
11.9653650653
 30
0.0
 10
14.2277288826
 20
11.955960127
 30
0.0
 10
14.2263412217
 20
11.9464882524
 30
0.0
 10
14.2252125588
 20
11.9369519193
 30
0.0
 10
14.2243431877
 20
11.927353622
 30
0.0
 10
14.2237333327
 20
11.9176958705
 30
0.0
 10
14.2233831371
 20
11.9079811897
 30
0.0
 10
14.2232927002
 20
11.8982121181
 30
0.0
 10
14.2234620202
 20
11.8883912076
 30
0.0
 10
14.2238910637
 20
11.8785210234
 30
0.0
 10
14.2245796941
 20
11.8686041412
 30
0.0
 10
14.2255277355
 20
11.8586431493
 30
0.0
 10
14.2267349259
 20
11.8486406466
 30
0.0
 10
14.2282009427
 20
11.838599237
 30
0.0
 10
14.2299253979
 20
11.8285215546
 30
0.0
 10
14.2319078378
 20
11.8184101652
 30
0.0
 10
14.234906716
 20
11.8048309995
 30
0.0
 10
14.2393070046
 20
11.7877796616
 30
0.0
 10
14.2445175775
 20
11.7707992262
 30
0.0
 10
14.2491859474
 20
11.7571832189
 30
0.0
 10
14.2542355876
 20
11.7434229904
 30
0.0
 10
14.2611870951
 20
11.7261891187
 30
0.0
 10
14.2704893216
 20
11.7055765077
 30
0.0
 10
14.2807805657
 20
11.6849579623
 30
0.0
 10
14.2920499064
 20
11.6643550887
 30
0.0
 10
14.3042855493
 20
11.6437891528
 30
0.0
 10
14.3174746819
 20
11.6232814732
 30
0.0
 10
14.331603526
 20
11.6028532885
 30
0.0
 10
14.3466573381
 20
11.5825257674
 30
0.0
 10
14.3626204246
 20
11.5623199797
 30
0.0
 10
14.3794761556
 20
11.5422568771
 30
0.0
 10
14.3972069793
 20
11.5223572705
 30
0.0
 10
14.4157944388
 20
11.5026418083
 30
0.0
 10
14.4352191903
 20
11.4831309551
 30
0.0
 10
14.4554610216
 20
11.4638449697
 30
0.0
 10
14.4764988725
 20
11.4448038832
 30
0.0
 10
14.4983108554
 20
11.4260274782
 30
0.0
 10
14.5208742778
 20
11.4075352672
 30
0.0
 10
14.5441656652
 20
11.3893464718
 30
0.0
 10
14.5681607847
 20
11.3714800022
 30
0.0
 10
14.5928346702
 20
11.3539544364
 30
0.0
 10
14.6181616479
 20
11.3367880013
 30
0.0
 10
14.6441153638
 20
11.3199985527
 30
0.0
 10
14.6706688101
 20
11.3036035567
 30
0.0
 10
14.6977943541
 20
11.2876200712
 30
0.0
 10
14.7254637661
 20
11.2720647275
 30
0.0
 10
14.7536482496
 20
11.2569537129
 30
0.0
 10
14.7823184704
 20
11.2423027536
 30
0.0
 10
14.8114445876
 20
11.2281270975
 30
0.0
 10
14.8409962849
 20
11.2144414988
 30
0.0
 10
14.8709428018
 20
11.2012602023
 30
0.0
 10
14.9012529666
 20
11.1885969284
 30
0.0
 10
14.931895228
 20
11.1764648587
 30
0.0
 10
14.9628376888
 20
11.1648766224
 30
0.0
 10
14.9940481386
 20
11.1538442828
 30
0.0
 10
15.0254940879
 20
11.1433793248
 30
0.0
 10
15.0571428015
 20
11.1334926422
 30
0.0
 10
15.0889613331
 20
11.1241945268
 30
0.0
 10
15.1209165596
 20
11.1154946577
 30
0.0
 10
15.1529752161
 20
11.1074020912
 30
0.0
 10
15.18510393
 20
11.0999252516
 30
0.0
 10
15.2172692564
 20
11.0930719221
 30
0.0
 10
15.2494377129
 20
11.0868492368
 30
0.0
 10
15.2815758146
 20
11.0812636735
 30
0.0
 10
15.3136501089
 20
11.0763210466
 30
0.0
 10
15.3456272109
 20
11.0720265009
 30
0.0
 10
15.3774738374
 20
11.0683845066
 30
0.0
 10
15.4091568455
 20
11.065398856
 30
0.0
 10
15.440643253
 20
11.0630726555
 30
0.0
 10
15.4719003299
 20
11.0614083336
 30
0.0
 10
15.5028953751
 20
11.0604076169
 30
0.0
 10
15.5234698822
 20
11.0601824087
 30
0.0
 10
15.5337053556
 20
11.0601824087
 30
0.0
  0
SPLINE
  5
2BD
100
AcDbEntity
  8
02___PRT_ALL_AXES
100
AcDbSpline
 62
7
  6
CONTINUOUS
 70
0
 71
3
 72
48
 73
44
 74
0
 42
0.0000001
 43
0.0000001
 44
0.0000000001
 40
0.0
 40
0.0
 40
0.0
 40
0.0
 40
0.0123992267
 40
0.0248056338
 40
0.0372263809
 40
0.0496685867
 40
0.0621393096
 40
0.0746455264
 40
0.0871941161
 40
0.0997918397
 40
0.1124453243
 40
0.1251610486
 40
0.1379453243
 40
0.1508042885
 40
0.1637438854
 40
0.1767698604
 40
0.2031006343
 40
0.2298405624
 40
0.2433769899
 40
0.2570296118
 40
0.2846978599
 40
0.3128776006
 40
0.3271685535
 40
0.3415969557
 40
0.3708750702
 40
0.4007325175
 40
0.4311845316
 40
0.4622428629
 40
0.4939159264
 40
0.5262089583
 40
0.5591241768
 40
0.5926609427
 40
0.6268159182
 40
0.6615832235
 40
0.6969545882
 40
0.732919497
 40
0.7694653288
 40
0.8065774901
 40
0.8442395432
 40
0.8824333206
 40
0.9211390818
 40
0.9603354713
 40
1.0
 40
1.0
 40
1.0
 40
1.0
 10
16.2019697537
 20
11.3955199773
 30
0.0
 10
16.2009964321
 20
11.3923703045
 30
0.0
 10
16.1989565648
 20
11.3860973402
 30
0.0
 10
16.1956204464
 20
11.3767775673
 30
0.0
 10
16.1920085324
 20
11.3675488111
 30
0.0
 10
16.1881218973
 20
11.3584137938
 30
0.0
 10
16.1839616236
 20
11.3493750861
 30
0.0
 10
16.1795289149
 20
11.3404352534
 30
0.0
 10
16.1748250234
 20
11.3315968338
 30
0.0
 10
16.1698512943
 20
11.3228623316
 30
0.0
 10
16.1646091488
 20
11.3142342181
 30
0.0
 10
16.1591000718
 20
11.3057149442
 30
0.0
 10
16.1533256425
 20
11.2973069077
 30
0.0
 10
16.1472875067
 20
11.2890125108
 30
0.0
 10
16.1409873382
 20
11.2808340354
 30
0.0
 10
16.1322093332
 20
11.270049163
 30
0.0
 10
16.1205771987
 20
11.2568651321
 30
0.0
 10
16.1081896548
 20
11.2441985802
 30
0.0
 10
16.0977901724
 20
11.2343257135
 30
0.0
 10
16.0869695656
 20
11.2245441902
 30
0.0
 10
16.0728170607
 20
11.2126517339
 30
0.0
 10
16.0579947426
 20
11.2013246363
 30
0.0
 10
16.0456746828
 20
11.192543747
 30
0.0
 10
16.0329239044
 20
11.1838703303
 30
0.0
 10
16.0163991636
 20
11.1733953268
 30
0.0
 10
15.9957667575
 20
11.1614810176
 30
0.0
 10
15.9742589421
 20
11.15017475
 30
0.0
 10
15.9519002775
 20
11.1394892782
 30
0.0
 10
15.9287159462
 20
11.129436461
 30
0.0
 10
15.9047321333
 20
11.1200275194
 30
0.0
 10
15.8799758903
 20
11.1112729494
 30
0.0
 10
15.8544751397
 20
11.1031825296
 30
0.0
 10
15.8282586382
 20
11.0957653013
 30
0.0
 10
15.8013559489
 20
11.0890295606
 30
0.0
 10
15.7737974083
 20
11.0829828475
 30
0.0
 10
15.7456140943
 20
11.077631935
 30
0.0
 10
15.7168377914
 20
11.072982821
 30
0.0
 10
15.6875009576
 20
11.0690407193
 30
0.0
 10
15.6576366839
 20
11.0658100517
 30
0.0
 10
15.6272786717
 20
11.0632944399
 30
0.0
 10
15.596461138
 20
11.0614967119
 30
0.0
 10
15.5652190425
 20
11.0604188732
 30
0.0
 10
15.5442511279
 20
11.0601824087
 30
0.0
 10
15.5337053556
 20
11.0601824087
 30
0.0
  0
SPLINE
  5
2BE
100
AcDbEntity
  8
02___PRT_ALL_AXES
100
AcDbSpline
 62
7
  6
CONTINUOUS
 70
0
 71
3
 72
73
 73
69
 74
0
 42
0.0000001
 43
0.0000001
 44
0.0000000001
 40
0.0
 40
0.0
 40
0.0
 40
0.0
 40
0.0136525477
 40
0.0277989298
 40
0.042420571
 40
0.0574998243
 40
0.0730170139
 40
0.0889511872
 40
0.1052805679
 40
0.1219825287
 40
0.1390337702
 40
0.1564103905
 40
0.1740880764
 40
0.1920421845
 40
0.2102478146
 40
0.2286799425
 40
0.2473134593
 40
0.2661232671
 40
0.2850843406
 40
0.3041717512
 40
0.3233607459
 40
0.3426267821
 40
0.3619455414
 40
0.3812929808
 40
0.4006453593
 40
0.4199792595
 40
0.4392716197
 40
0.4584997513
 40
0.477641387
 40
0.4966747067
 40
0.515578361
 40
0.5343315296
 40
0.5529139669
 40
0.5713060464
 40
0.5894888052
 40
0.607444022
 40
0.6251542838
 40
0.64260304
 40
0.659774692
 40
0.676654639
 40
0.6932293722
 40
0.7094865553
 40
0.7254150552
 40
0.7410050823
 40
0.7562482193
 40
0.7711374657
 40
0.7856673904
 40
0.7998341243
 40
0.8136354526
 40
0.8270709336
 40
0.8401418962
 40
0.8528515848
 40
0.8652052337
 40
0.8772101274
 40
0.888875781
 40
0.9002139789
 40
0.9112388983
 40
0.9166396326
 40
0.921968534
 40
0.9324196505
 40
0.9426155239
 40
0.9476261209
 40
0.9525824167
 40
0.9623447061
 40
0.9719340058
 40
0.9813828546
 40
0.9907259875
 40
1.0
 40
1.0
 40
1.0
 40
1.0
 10
16.2015225595
 20
11.8116857261
 30
0.0
 10
16.2006925217
 20
11.8133771654
 30
0.0
 10
16.1990411249
 20
11.8168403342
 30
0.0
 10
16.1966302265
 20
11.8221755244
 30
0.0
 10
16.1942447722
 20
11.8277370439
 30
0.0
 10
16.1918891123
 20
11.8335160348
 30
0.0
 10
16.1895676996
 20
11.8395035467
 30
0.0
 10
16.1872851967
 20
11.8456902088
 30
0.0
 10
16.1850464019
 20
11.8520663637
 30
0.0
 10
16.1828562401
 20
11.8586221204
 30
0.0
 10
16.1807197456
 20
11.8653473574
 30
0.0
 10
16.1786420512
 20
11.8722317632
 30
0.0
 10
16.1766283606
 20
11.8792648577
 30
0.0
 10
16.1746839381
 20
11.8864360229
 30
0.0
 10
16.1728140887
 20
11.8937345233
 30
0.0
 10
16.1710241392
 20
11.9011495221
 30
0.0
 10
16.1693194274
 20
11.9086701034
 30
0.0
 10
16.1677052709
 20
11.9162852808
 30
0.0
 10
16.1661869695
 20
11.9239840116
 30
0.0
 10
16.1647697676
 20
11.9317552009
 30
0.0
 10
16.163458842
 20
11.9395877084
 30
0.0
 10
16.1622593012
 20
11.9474703551
 30
0.0
 10
16.16117612
 20
11.9553919163
 30
0.0
 10
16.1602141738
 20
11.9633411305
 30
0.0
 10
16.1593781797
 20
11.9713066941
 30
0.0
 10
16.1586726616
 20
11.979277261
 30
0.0
 10
16.1581019935
 20
11.9872414466
 30
0.0
 10
16.1576702723
 20
11.9951878216
 30
0.0
 10
16.1573813707
 20
12.003104922
 30
0.0
 10
16.1572389031
 20
12.0109812504
 30
0.0
 10
16.1572461106
 20
12.018805282
 30
0.0
 10
16.1574059729
 20
12.0265654775
 30
0.0
 10
16.1577210573
 20
12.0342502956
 30
0.0
 10
16.1581935144
 20
12.0418482115
 30
0.0
 10
16.1588251522
 20
12.0493477282
 30
0.0
 10
16.1596172252
 20
12.0567374148
 30
0.0
 10
16.160570569
 20
12.0640059231
 30
0.0
 10
16.1616855471
 20
12.0711420157
 30
0.0
 10
16.1629619099
 20
12.0781346158
 30
0.0
 10
16.1643989825
 20
12.0849728104
 30
0.0
 10
16.165995498
 20
12.0916459074
 30
0.0
 10
16.1677495992
 20
12.0981434749
 30
0.0
 10
16.1696589892
 20
12.1044553369
 30
0.0
 10
16.1717207166
 20
12.1105716618
 30
0.0
 10
16.1739313277
 20
12.1164829569
 30
0.0
 10
16.1762869081
 20
12.1221800775
 30
0.0
 10
16.1787829197
 20
12.1276543219
 30
0.0
 10
16.1814144356
 20
12.1328973705
 30
0.0
 10
16.1841760568
 20
12.1379013378
 30
0.0
 10
16.1870618864
 20
12.1426588217
 30
0.0
 10
16.1900657322
 20
12.1471628141
 30
0.0
 10
16.1931809584
 20
12.1514068003
 30
0.0
 10
16.1964006028
 20
12.1553847229
 30
0.0
 10
16.1997174567
 20
12.1590909122
 30
0.0
 10
16.2031239892
 20
12.1625202339
 30
0.0
 10
16.2066123692
 20
12.1656678427
 30
0.0
 10
16.2096014209
 20
12.1680688797
 30
0.0
 10
16.2120252977
 20
12.1698411144
 30
0.0
 10
16.2144372188
 20
12.1714931515
 30
0.0
 10
16.217488758
 20
12.1733793159
 30
0.0
 10
16.2206192548
 20
12.1750401053
 30
0.0
 10
16.2231420025
 20
12.1762153832
 30
0.0
 10
16.2256491958
 20
12.1772783064
 30
0.0
 10
16.2288060505
 20
12.1784224898
 30
0.0
 10
16.2326361096
 20
12.1794982257
 30
0.0
 10
16.2364804929
 20
12.1802681786
 30
0.0
 10
16.2403298335
 20
12.1807309652
 30
0.0
 10
16.2429002574
 20
12.1808343988
 30
0.0
 10
16.2441801214
 20
12.1808343955
 30
0.0
  0
SPLINE
  5
2BF
100
AcDbEntity
  8
02___PRT_ALL_AXES
100
AcDbSpline
 62
7
  6
CONTINUOUS
 70
0
 71
3
 72
36
 73
32
 74
0
 42
0.0000001
 43
0.0000001
 44
0.0000000001
 40
0.0
 40
0.0
 40
0.0
 40
0.0
 40
0.0378256414
 40
0.0752548244
 40
0.1122652554
 40
0.1488419866
 40
0.1849724067
 40
0.2206443417
 40
0.2558468337
 40
0.2905715213
 40
0.3248118343
 40
0.3585635527
 40
0.3918243566
 40
0.424594594
 40
0.4568767299
 40
0.4886760485
 40
0.5508506793
 40
0.6112201487
 40
0.6699217686
 40
0.6987077136
 40
0.7271481999
 40
0.7552723391
 40
0.7831117836
 40
0.8107003537
 40
0.8380739673
 40
0.8652702981
 40
0.8923285628
 40
0.9192891833
 40
0.9461934265
 40
0.9730830758
 40
1.0
 40
1.0
 40
1.0
 40
1.0
 10
14.9417018702
 20
12.4503899685
 30
0.0
 10
14.93977264
 20
12.4503899685
 30
0.0
 10
14.93593426
 20
12.4504316023
 30
0.0
 10
14.9302110426
 20
12.450621068
 30
0.0
 10
14.9245571743
 20
12.4509372033
 30
0.0
 10
14.9189782321
 20
12.4513797898
 30
0.0
 10
14.9134793479
 20
12.4519486028
 30
0.0
 10
14.9080655795
 20
12.452643292
 30
0.0
 10
14.9027419114
 20
12.4534635278
 30
0.0
 10
14.8975131764
 20
12.4544088133
 30
0.0
 10
14.892384037
 20
12.4554786812
 30
0.0
 10
14.8873590039
 20
12.4566725088
 30
0.0
 10
14.8824424339
 20
12.4579897142
 30
0.0
 10
14.877638544
 20
12.4594295432
 30
0.0
 10
14.8729512971
 20
12.4609913262
 30
0.0
 10
14.8669082545
 20
12.4632182372
 30
0.0
 10
14.8596561484
 20
12.4662966959
 30
0.0
 10
14.8514111916
 20
12.4704935243
 30
0.0
 10
14.8449549244
 20
12.474406142
 30
0.0
 10
14.8400876514
 20
12.4777655338
 30
0.0
 10
14.8366066515
 20
12.4803815535
 30
0.0
 10
14.8332743452
 20
12.4831089136
 30
0.0
 10
14.8300930516
 20
12.4859462229
 30
0.0
 10
14.8270651039
 20
12.4888920544
 30
0.0
 10
14.8241926241
 20
12.4919448427
 30
0.0
 10
14.8214776798
 20
12.4951030038
 30
0.0
 10
14.8189221498
 20
12.4983648127
 30
0.0
 10
14.8165278543
 20
12.5017284943
 30
0.0
 10
14.8142964178
 20
12.5051921717
 30
0.0
 10
14.8122294542
 20
12.5087537681
 30
0.0
 10
14.810963233
 20
12.5111898137
 30
0.0
 10
14.8103584307
 20
12.5124222633
 30
0.0
  0
SPLINE
  5
2C0
100
AcDbEntity
  8
LAYER_CHAMFER_FEAT
100
AcDbSpline
 62
7
  6
CONTINUOUS
 70
0
 71
3
 72
15
 73
11
 74
0
 42
0.0000001
 43
0.0000001
 44
0.0000000001
 40
0.0
 40
0.0
 40
0.0
 40
0.0
 40
0.1317638601
 40
0.2617725488
 40
0.3899186996
 40
0.5161210406
 40
0.6402989362
 40
0.7623789528
 40
0.8822975205
 40
1.0
 40
1.0
 40
1.0
 40
1.0
 10
15.1216128589
 20
11.8999386252
 30
0.0
 10
15.1178784133
 20
11.8999386252
 30
0.0
 10
15.1104588895
 20
11.8998444805
 30
0.0
 10
15.0994149455
 20
11.8994147946
 30
0.0
 10
15.0885437402
 20
11.8986980616
 30
0.0
 10
15.0778611
 20
11.8976953441
 30
0.0
 10
15.0673821324
 20
11.8964080775
 30
0.0
 10
15.057121805
 20
11.8948380645
 30
0.0
 10
15.0470949415
 20
11.8929875473
 30
0.0
 10
15.0405129798
 20
11.8915550231
 30
0.0
 10
15.0372656563
 20
11.8907913199
 30
0.0
  0
SPLINE
  5
2C1
100
AcDbEntity
  8
LAYER_CHAMFER_FEAT
100
AcDbSpline
 62
7
  6
CONTINUOUS
 70
0
 71
3
 72
39
 73
35
 74
0
 42
0.0000001
 43
0.0000001
 44
0.0000000001
 40
0.0
 40
0.0
 40
0.0
 40
0.0
 40
0.0305398276
 40
0.0614592177
 40
0.09272646
 40
0.1243126296
 40
0.1561858779
 40
0.1883135656
 40
0.220662363
 40
0.2531980732
 40
0.2858858946
 40
0.318690537
 40
0.351576321
 40
0.3845072986
 40
0.4174473805
 40
0.4503604477
 40
0.4832104638
 40
0.5159616034
 40
0.5485783636
 40
0.5810256747
 40
0.6132690389
 40
0.6452746463
 40
0.6770094844
 40
0.7084414828
 40
0.7395396546
 40
0.7702742047
 40
0.8006166747
 40
0.8305401226
 40
0.8600192444
 40
0.8890305203
 40
0.9175524224
 40
0.9455655835
 40
0.9730529495
 40
1.0
 40
1.0
 40
1.0
 40
1.0
 10
15.1216128589
 20
11.8999386252
 30
0.0
 10
15.1256502935
 20
11.8999386252
 30
0.0
 10
15.1337757408
 20
11.8998271674
 30
0.0
 10
15.1460257825
 20
11.8993336096
 30
0.0
 10
15.1583969748
 20
11.8985133105
 30
0.0
 10
15.1708688615
 20
11.8973676774
 30
0.0
 10
15.1834212989
 20
11.8958985438
 30
0.0
 10
15.196033787
 20
11.8941083203
 30
0.0
 10
15.2086857742
 20
11.8919999247
 30
0.0
 10
15.2213566469
 20
11.8895767747
 30
0.0
 10
15.2340257561
 20
11.8868428393
 30
0.0
 10
15.2466724552
 20
11.883802575
 30
0.0
 10
15.2592761288
 20
11.8804609186
 30
0.0
 10
15.271816237
 20
11.8768233266
 30
0.0
 10
15.2842723445
 20
11.8728957373
 30
0.0
 10
15.2966241459
 20
11.8686845405
 30
0.0
 10
15.3088515073
 20
11.8641965934
 30
0.0
 10
15.3209345065
 20
11.8594392273
 30
0.0
 10
15.3328534504
 20
11.8544201929
 30
0.0
 10
15.3445889069
 20
11.8491476531
 30
0.0
 10
15.3561217577
 20
11.8436302143
 30
0.0
 10
15.3674332129
 20
11.8378768724
 30
0.0
 10
15.3785048334
 20
11.8318969874
 30
0.0
 10
15.3893185795
 20
11.8257003013
 30
0.0
 10
15.399856842
 20
11.819296921
 30
0.0
 10
15.4101024501
 20
11.812697269
 30
0.0
 10
15.4200387051
 20
11.8059120775
 30
0.0
 10
15.4296494346
 20
11.7989524068
 30
0.0
 10
15.4389189884
 20
11.7918295851
 30
0.0
 10
15.447832261
 20
11.7845551812
 30
0.0
 10
15.4563747335
 20
11.7771410403
 30
0.0
 10
15.4645325392
 20
11.769599185
 30
0.0
 10
15.4722922657
 20
11.7619419959
 30
0.0
 10
15.4772417293
 20
11.7567156361
 30
0.0
 10
15.4796448734
 20
11.7540858017
 30
0.0
  0
SPLINE
  5
2C2
100
AcDbEntity
  8
LAYER_FEATURE
100
AcDbSpline
 62
7
  6
CONTINUOUS
 70
0
 71
3
 72
80
 73
76
 74
0
 42
0.0000001
 43
0.0000001
 44
0.0000000001
 40
0.0
 40
0.0
 40
0.0
 40
0.0
 40
0.0171785694
 40
0.0345302214
 40
0.0520439891
 40
0.0697095676
 40
0.087515767
 40
0.1054512208
 40
0.1235042682
 40
0.1416629748
 40
0.1599151866
 40
0.1782485442
 40
0.1966505161
 40
0.2151084273
 40
0.2336094856
 40
0.2521408081
 40
0.2706894492
 40
0.2892424281
 40
0.3077867547
 40
0.3263094563
 40
0.3447976057
 40
0.3632383475
 40
0.3816189249
 40
0.3999267064
 40
0.4181492162
 40
0.4362741602
 40
0.4542894536
 40
0.4721832497
 40
0.4899439726
 40
0.5075603452
 40
0.5250214187
 40
0.5423166036
 40
0.5594357067
 40
0.5763689633
 40
0.593107069
 40
0.6096412157
 40
0.6259631336
 40
0.6420651299
 40
0.6579401256
 40
0.6735816976
 40
0.6889841275
 40
0.7041424495
 40
0.719052494
 40
0.7337109377
 40
0.7481153596
 40
0.7622642994
 40
0.776157308
 40
0.7897950047
 40
0.8031791375
 40
0.8163126471
 40
0.8291997191
 40
0.8418458368
 40
0.8542578348
 40
0.8603789023
 40
0.8664446472
 40
0.8784145448
 40
0.8901793499
 40
0.8959891215
 40
0.9017524686
 40
0.9074711897
 40
0.9131471767
 40
0.9187824117
 40
0.9243789562
 40
0.9354637337
 40
0.9464205521
 40
0.9518574684
 40
0.957269738
 40
0.9626599402
 40
0.9680307063
 40
0.9733847205
 40
0.9787247071
 40
0.9840534271
 40
0.9893736719
 40
0.9946882534
 40
1.0
 40
1.0
 40
1.0
 40
1.0
 10
15.4086478081
 20
13.9614275771
 30
0.0
 10
15.4188831926
 20
13.9614275771
 30
0.0
 10
15.439457745
 20
13.9612023535
 30
0.0
 10
15.4704527788
 20
13.9602016639
 30
0.0
 10
15.5017099442
 20
13.958537317
 30
0.0
 10
15.5331963085
 20
13.9562111356
 30
0.0
 10
15.5648793282
 20
13.9532254782
 30
0.0
 10
15.5967259538
 20
13.9495834791
 30
0.0
 10
15.6287030545
 20
13.9452889353
 30
0.0
 10
15.6607773498
 20
13.9403463128
 30
0.0
 10
15.692915451
 20
13.9347607481
 30
0.0
 10
15.7250839069
 20
13.9285380587
 30
0.0
 10
15.7572492332
 20
13.92168473
 30
0.0
 10
15.789377948
 20
13.9142078955
 30
0.0
 10
15.8214366044
 20
13.9061153292
 30
0.0
 10
15.8533918296
 20
13.8974154551
 30
0.0
 10
15.8852103608
 20
13.8881173389
 30
0.0
 10
15.9168590754
 20
13.8782306601
 30
0.0
 10
15.9483050252
 20
13.8677657037
 30
0.0
 10
15.9795154732
 20
13.8567333597
 30
0.0
 10
16.0104579335
 20
13.8451451226
 30
0.0
 10
16.0411001964
 20
13.8330130565
 30
0.0
 10
16.0714103626
 20
13.8203497858
 30
0.0
 10
16.1013568772
 20
13.8071684847
 30
0.0
 10
16.1309085729
 20
13.7934828839
 30
0.0
 10
16.1600346913
 20
13.7793072299
 30
0.0
 10
16.1887049142
 20
13.7646562745
 30
0.0
 10
16.2168893955
 20
13.7495452564
 30
0.0
 10
16.2445588057
 20
13.7339899105
 30
0.0
 10
16.2716843511
 20
13.7180064269
 30
0.0
 10
16.2982378008
 20
13.7016114354
 30
0.0
 10
16.3241915147
 20
13.6848219843
 30
0.0
 10
16.3495184892
 20
13.6676555459
 30
0.0
 10
16.3741923749
 20
13.6501299807
 30
0.0
 10
16.398187498
 20
13.6322635151
 30
0.0
 10
16.4214788845
 20
13.6140747187
 30
0.0
 10
16.4440423033
 20
13.5955825045
 30
0.0
 10
16.4658542866
 20
13.5768061
 30
0.0
 10
16.4868921421
 20
13.5577650173
 30
0.0
 10
16.5071339739
 20
13.5384790323
 30
0.0
 10
16.5265587202
 20
13.5189681754
 30
0.0
 10
16.5451461783
 20
13.4992527128
 30
0.0
 10
16.5628770059
 20
13.4793531088
 30
0.0
 10
16.5797327392
 20
13.4592900078
 30
0.0
 10
16.5956958204
 20
13.4390842169
 30
0.0
 10
16.6107496309
 20
13.4187566953
 30
0.0
 10
16.6248784796
 20
13.3983285126
 30
0.0
 10
16.6380676169
 20
13.3778208353
 30
0.0
 10
16.6503032537
 20
13.3572548965
 30
0.0
 10
16.6615725905
 20
13.3366520221
 30
0.0
 10
16.6718638369
 20
13.3160334776
 30
0.0
 10
16.6811660714
 20
13.2954208695
 30
0.0
 10
16.688117569
 20
13.2781869934
 30
0.0
 10
16.6931672177
 20
13.2644267691
 30
0.0
 10
16.6978355747
 20
13.2508107575
 30
0.0
 10
16.7030461525
 20
13.233830324
 30
0.0
 10
16.7074464574
 20
13.21677899
 30
0.0
 10
16.7104453129
 20
13.2031998186
 30
0.0
 10
16.7124277672
 20
13.1930884338
 30
0.0
 10
16.7141522192
 20
13.1830107465
 30
0.0
 10
16.7156182265
 20
13.17296935
 30
0.0
 10
16.716825435
 20
13.1629667966
 30
0.0
 10
16.7180853735
 20
13.1497287349
 30
0.0
 10
16.7190185479
 20
13.133279972
 30
0.0
 10
16.7190879507
 20
13.1168995616
 30
0.0
 10
16.7186198275
 20
13.1039141539
 30
0.0
 10
16.7180099649
 20
13.0942563551
 30
0.0
 10
16.7171406117
 20
13.0846580691
 30
0.0
 10
16.7160119324
 20
13.0751217343
 30
0.0
 10
16.714624276
 20
13.0656498603
 30
0.0
 10
16.7129779747
 20
13.0562449197
 30
0.0
 10
16.7110734367
 20
13.0469093874
 30
0.0
 10
16.7089112041
 20
13.0376456689
 30
0.0
 10
16.7064918101
 20
13.028456297
 30
0.0
 10
16.704707651
 20
13.0223804366
 30
0.0
 10
16.7037732368
 20
13.0193566626
 30
0.0
  0
SPLINE
  5
2C3
100
AcDbEntity
  8
LAYER_CHAMFER_FEAT
100
AcDbSpline
 62
7
  6
CONTINUOUS
 70
0
 71
3
 72
15
 73
11
 74
0
 42
0.0000001
 43
0.0000001
 44
0.0000000001
 40
0.0
 40
0.0
 40
0.0
 40
0.0
 40
0.1317665014
 40
0.2617716406
 40
0.3899185377
 40
0.5161213134
 40
0.6402988432
 40
0.7623789246
 40
0.8822975475
 40
1.0
 40
1.0
 40
1.0
 40
1.0
 10
15.114225666
 20
12.826488978
 30
0.0
 10
15.1036694212
 20
12.826488978
 30
0.0
 10
15.0826969715
 20
12.8262229095
 30
0.0
 10
15.0514794373
 20
12.8250082614
 30
0.0
 10
15.0207503528
 20
12.8229823095
 30
0.0
 10
14.9905540197
 20
12.820147995
 30
0.0
 10
14.9609334615
 20
12.8165092981
 30
0.0
 10
14.9319309579
 20
12.8120713814
 30
0.0
 10
14.9035883405
 20
12.8068406264
 30
0.0
 10
14.8849833327
 20
12.8027913261
 30
0.0
 10
14.8758042303
 20
12.8006326053
 30
0.0
  0
SPLINE
  5
2C4
100
AcDbEntity
  8
LAYER_CHAMFER_FEAT
100
AcDbSpline
 62
7
  6
CONTINUOUS
 70
0
 71
3
 72
39
 73
35
 74
0
 42
0.0000001
 43
0.0000001
 44
0.0000000001
 40
0.0
 40
0.0
 40
0.0
 40
0.0
 40
0.0305403475
 40
0.0614589823
 40
0.0927264868
 40
0.1243126567
 40
0.1561858558
 40
0.1883135694
 40
0.220662363
 40
0.2531980693
 40
0.2858858925
 40
0.3186905355
 40
0.3515763182
 40
0.3845072963
 40
0.4174473788
 40
0.4503604452
 40
0.4832104624
 40
0.5159616025
 40
0.5485783602
 40
0.5810256724
 40
0.6132690383
 40
0.6452746426
 40
0.6770094797
 40
0.7084414824
 40
0.739539653
 40
0.7702741991
 40
0.8006166745
 40
0.8305401248
 40
0.8600192409
 40
0.8890305182
 40
0.9175524255
 40
0.9455655818
 40
0.973052943
 40
1.0
 40
1.0
 40
1.0
 40
1.0
 10
15.114225666
 20
12.826488978
 30
0.0
 10
15.1256383423
 20
12.826488978
 30
0.0
 10
15.1486061865
 20
12.8261739688
 30
0.0
 10
15.1832329788
 20
12.824778777
 30
0.0
 10
15.2182020334
 20
12.8224601022
 30
0.0
 10
15.2534559795
 20
12.8192217668
 30
0.0
 10
15.288937528
 20
12.8150690232
 30
0.0
 10
15.324588818
 20
12.8100086567
 30
0.0
 10
15.3603517724
 20
12.8040489071
 30
0.0
 10
15.396168108
 20
12.7971994907
 30
0.0
 10
15.4319794571
 20
12.7894715687
 30
0.0
 10
15.4677274562
 20
12.7808777362
 30
0.0
 10
15.5033538434
 20
12.7714319989
 30
0.0
 10
15.5388005535
 20
12.7611497516
 30
0.0
 10
15.5740098134
 20
12.7500477525
 30
0.0
 10
15.6089242371
 20
12.7381440959
 30
0.0
 10
15.6434869191
 20
12.7254581831
 30
0.0
 10
15.6776415288
 20
12.7120106904
 30
0.0
 10
15.7113324021
 20
12.6978235342
 30
0.0
 10
15.7445046323
 20
12.6829198356
 30
0.0
 10
15.777104161
 20
12.6673238818
 30
0.0
 10
15.8090778654
 20
12.6510610857
 30
0.0
 10
15.8403736462
 20
12.6341579443
 30
0.0
 10
15.8709405122
 20
12.6166419941
 30
0.0
 10
15.9007286638
 20
12.5985417658
 30
0.0
 10
15.9296895744
 20
12.5798867361
 30
0.0
 10
15.9577760689
 20
12.5607072788
 30
0.0
 10
15.9849424017
 20
12.5410346128
 30
0.0
 10
16.011144327
 20
12.5209007531
 30
0.0
 10
16.0363391826
 20
12.5003384438
 30
0.0
 10
16.0604859158
 20
12.4793811498
 30
0.0
 10
16.0835453026
 20
12.4580628287
 30
0.0
 10
16.1054794485
 20
12.4364184949
 30
0.0
 10
16.1194699531
 20
12.4216453365
 30
0.0
 10
16.1262628387
 20
12.414211666
 30
0.0
  0
SPLINE
  5
2C5
100
AcDbEntity
  8
LAYER_FEATURE
100
AcDbSpline
 62
7
  6
CONTINUOUS
 70
0
 71
3
 72
48
 73
44
 74
0
 42
0.0000001
 43
0.0000001
 44
0.0000000001
 40
0.0
 40
0.0
 40
0.0
 40
0.0
 40
0.0396642273
 40
0.0788610707
 40
0.1175666274
 40
0.1557604661
 40
0.1934225114
 40
0.2305346681
 40
0.2670805005
 40
0.3030454094
 40
0.3384167774
 40
0.3731840833
 40
0.4073390557
 40
0.4408758197
 40
0.4737910397
 40
0.506084075
 40
0.5377571387
 40
0.5688154671
 40
0.5992674797
 40
0.6291249283
 40
0.6584030456
 40
0.6728314441
 40
0.6871224001
 40
0.7153021387
 40
0.7429703862
 40
0.7566230102
 40
0.770159437
 40
0.7968993666
 40
0.8232301397
 40
0.8362561147
 40
0.8491957105
 40
0.8620546765
 40
0.8748389507
 40
0.8875546756
 40
0.9002081606
 40
0.9128058833
 40
0.9253544741
 40
0.93786069
 40
0.9503314132
 40
0.9627736192
 40
0.975194366
 40
0.9876007734
 40
1.0
 40
1.0
 40
1.0
 40
1.0
 10
15.4086478081
 20
13.9614275771
 30
0.0
 10
15.398102116
 20
13.9614275771
 30
0.0
 10
15.3771341613
 20
13.9611910983
 30
0.0
 10
15.3458920787
 20
13.9601132865
 30
0.0
 10
15.315074464
 20
13.9583155307
 30
0.0
 10
15.2847164908
 20
13.9557999382
 30
0.0
 10
15.2548522044
 20
13.952569267
 30
0.0
 10
15.2255153745
 20
13.9486271612
 30
0.0
 10
15.1967390731
 20
13.9439780454
 30
0.0
 10
15.1685557579
 20
13.9386271343
 30
0.0
 10
15.1409972153
 20
13.9325804261
 30
0.0
 10
15.1140945256
 20
13.9258446863
 30
0.0
 10
15.087878027
 20
13.9184274526
 30
0.0
 10
15.0623772783
 20
13.9103370302
 30
0.0
 10
15.0376210339
 20
13.9015824626
 30
0.0
 10
15.0136372175
 20
13.8921735265
 30
0.0
 10
14.9904528862
 20
13.882120709
 30
0.0
 10
14.9680942254
 20
13.8714352321
 30
0.0
 10
14.9465864116
 20
13.8601289634
 30
0.0
 10
14.9259540055
 20
13.8482146539
 30
0.0
 10
14.9094292566
 20
13.8377396623
 30
0.0
 10
14.8966784877
 20
13.8290662307
 30
0.0
 10
14.8843584196
 20
13.8202853546
 30
0.0
 10
14.8695361082
 20
13.8089582474
 30
0.0
 10
14.8553836057
 20
13.7970657895
 30
0.0
 10
14.8445629922
 20
13.7872842732
 30
0.0
 10
14.8341635132
 20
13.777411402
 30
0.0
 10
14.8217759627
 20
13.7647448566
 30
0.0
 10
14.810143835
 20
13.7515608196
 30
0.0
 10
14.8013658257
 20
13.7407759514
 30
0.0
 10
14.7950656662
 20
13.7325974689
 30
0.0
 10
14.7890275175
 20
13.7243030818
 30
0.0
 10
14.7832530995
 20
13.715895037
 30
0.0
 10
14.7777440188
 20
13.7073757661
 30
0.0
 10
14.7725018677
 20
13.6987476558
 30
0.0
 10
14.7675281518
 20
13.6900131461
 30
0.0
 10
14.7628242437
 20
13.6811747356
 30
0.0
 10
14.7583915478
 20
13.6722348962
 30
0.0
 10
14.754231272
 20
13.66319619
 30
0.0
 10
14.7503446273
 20
13.6540611764
 30
0.0
 10
14.7467327312
 20
13.6448324134
 30
0.0
 10
14.7433965922
 20
13.6355126481
 30
0.0
 10
14.7413567352
 20
13.6292396801
 30
0.0
 10
14.7403834153
 20
13.6260900068
 30
0.0
  0
SPLINE
  5
2C6
100
AcDbEntity
  8
LAYER_FEATURE
100
AcDbSpline
 62
7
  6
CONTINUOUS
 70
0
 71
3
 72
23
 73
19
 74
0
 42
0.0000001
 43
0.0000001
 44
0.0000000001
 40
0.0
 40
0.0
 40
0.0
 40
0.0
 40
0.0508056224
 40
0.102004886
 40
0.1539767224
 40
0.2070720349
 40
0.2616033724
 40
0.3178388974
 40
0.3759979829
 40
0.4362513916
 40
0.498722891
 40
0.563490561
 40
0.6305923921
 40
0.7000290213
 40
0.7717638257
 40
0.8457342746
 40
0.9218596679
 40
1.0
 40
1.0
 40
1.0
 40
1.0
 10
16.2269859297
 20
13.4151449323
 30
0.0
 10
16.2270963899
 20
13.415502375
 30
0.0
 10
16.2272794485
 20
13.4162326443
 30
0.0
 10
16.2274359913
 20
13.4173576856
 30
0.0
 10
16.2274744773
 20
13.418509822
 30
0.0
 10
16.2273948752
 20
13.4196842757
 30
0.0
 10
16.2271977581
 20
13.4208764948
 30
0.0
 10
16.2268840438
 20
13.4220818728
 30
0.0
 10
16.2264551519
 20
13.4232958499
 30
0.0
 10
16.2259128737
 20
13.424513876
 30
0.0
 10
16.2252593491
 20
13.4257313822
 30
0.0
 10
16.2244971792
 20
13.4269438512
 30
0.0
 10
16.223629281
 20
13.4281467493
 30
0.0
 10
16.22265897
 20
13.429335555
 30
0.0
 10
16.2215899888
 20
13.4305058419
 30
0.0
 10
16.2204263079
 20
13.4316532372
 30
0.0
 10
16.2191724338
 20
13.4327733051
 30
0.0
 10
16.2182905699
 20
13.4334901082
 30
0.0
 10
16.2178362144
 20
13.4338431739
 30
0.0
  0
SPLINE
  5
2C7
100
AcDbEntity
  8
02___PRT_ALL_AXES
100
AcDbSpline
 62
7
  6
CONTINUOUS
 70
0
 71
3
 72
82
 73
78
 74
0
 42
0.0000001
 43
0.0000001
 44
0.0000000001
 40
0.0
 40
0.0
 40
0.0
 40
0.0
 40
0.0171786861
 40
0.0345300795
 40
0.0520439114
 40
0.0697094344
 40
0.0875155992
 40
0.1054510218
 40
0.1235040338
 40
0.141662707
 40
0.159914884
 40
0.1782482066
 40
0.196650144
 40
0.2151080206
 40
0.2336090438
 40
0.2521403311
 40
0.2706889373
 40
0.2892418812
 40
0.3077861726
 40
0.3263088393
 40
0.3447969539
 40
0.3632376607
 40
0.381618203
 40
0.3999259503
 40
0.4181484261
 40
0.4362733356
 40
0.4542885944
 40
0.4721823571
 40
0.489943047
 40
0.507559386
 40
0.5250204256
 40
0.5423155781
 40
0.5594346499
 40
0.5763678745
 40
0.5931059475
 40
0.6096400631
 40
0.6259619513
 40
0.6420639171
 40
0.6579388814
 40
0.6735804236
 40
0.6889828258
 40
0.7041411197
 40
0.719051135
 40
0.7337095503
 40
0.7481139463
 40
0.7622628598
 40
0.776155841
 40
0.7897935109
 40
0.8031776196
 40
0.8163111055
 40
0.8291981524
 40
0.8418442452
 40
0.8542562205
 40
0.8603772759
 40
0.8664430107
 40
0.8784128851
 40
0.8901776669
 40
0.8959874292
 40
0.9017507642
 40
0.9074694748
 40
0.9131454517
 40
0.9187806748
 40
0.9243772099
 40
0.9299372059
 40
0.9354628941
 40
0.940956582
 40
0.9464206531
 40
0.9518575593
 40
0.957269819
 40
0.9626600104
 40
0.9680307669
 40
0.9733847708
 40
0.9787247471
 40
0.9840534574
 40
0.9893736918
 40
0.9946882635
 40
1.0
 40
1.0
 40
1.0
 40
1.0
 10
14.9068443197
 20
12.3375908935
 30
0.0
 10
14.9170797931
 20
12.3375908935
 30
0.0
 10
14.9376543002
 20
12.3373656853
 30
0.0
 10
14.9686493454
 20
12.3363649686
 30
0.0
 10
14.9999064223
 20
12.3347006466
 30
0.0
 10
15.0313928298
 20
12.3323744462
 30
0.0
 10
15.0630758379
 20
12.3293887956
 30
0.0
 10
15.0949224644
 20
12.3257468013
 30
0.0
 10
15.1268995664
 20
12.3214522556
 30
0.0
 10
15.1589738607
 20
12.3165096287
 30
0.0
 10
15.1911119623
 20
12.3109240654
 30
0.0
 10
15.2232804189
 20
12.3047013801
 30
0.0
 10
15.2554457453
 20
12.2978480505
 30
0.0
 10
15.2875744592
 20
12.2903712109
 30
0.0
 10
15.3196331157
 20
12.2822786445
 30
0.0
 10
15.3515883422
 20
12.2735787754
 30
0.0
 10
15.3834068738
 20
12.26428066
 30
0.0
 10
15.4150555874
 20
12.2543939774
 30
0.0
 10
15.4465015366
 20
12.2439290193
 30
0.0
 10
15.4777119864
 20
12.2328966797
 30
0.0
 10
15.5086544472
 20
12.2213084435
 30
0.0
 10
15.5392967087
 20
12.2091763738
 30
0.0
 10
15.5696068734
 20
12.1965130999
 30
0.0
 10
15.5995533904
 20
12.1833318033
 30
0.0
 10
15.6291050876
 20
12.1696462046
 30
0.0
 10
15.6582312049
 20
12.1554705486
 30
0.0
 10
15.6869014257
 20
12.1408195893
 30
0.0
 10
15.7150859091
 20
12.1257085747
 30
0.0
 10
15.7427553212
 20
12.1101532309
 30
0.0
 10
15.7698808651
 20
12.0941697454
 30
0.0
 10
15.7964343115
 20
12.0777747495
 30
0.0
 10
15.8223880273
 20
12.0609853009
 30
0.0
 10
15.8477150051
 20
12.0438188657
 30
0.0
 10
15.8723888905
 20
12.0262933
 30
0.0
 10
15.8963840101
 20
12.0084268303
 30
0.0
 10
15.9196753975
 20
11.9902380349
 30
0.0
 10
15.9422388199
 20
11.9717458239
 30
0.0
 10
15.9640508028
 20
11.9529694189
 30
0.0
 10
15.9850886536
 20
11.9339283325
 30
0.0
 10
16.0053304849
 20
11.914642347
 30
0.0
 10
16.0247552364
 20
11.8951314938
 30
0.0
 10
16.043342696
 20
11.8754160317
 30
0.0
 10
16.0610735197
 20
11.855516425
 30
0.0
 10
16.0779292507
 20
11.8354533225
 30
0.0
 10
16.0938923372
 20
11.8152475348
 30
0.0
 10
16.1089461492
 20
11.7949200137
 30
0.0
 10
16.1230749933
 20
11.7744918289
 30
0.0
 10
16.1362641259
 20
11.7539841494
 30
0.0
 10
16.1484997689
 20
11.7334182134
 30
0.0
 10
16.1597691096
 20
11.7128153399
 30
0.0
 10
16.1700603537
 20
11.6921967944
 30
0.0
 10
16.1793625801
 20
11.6715841834
 30
0.0
 10
16.1863140877
 20
11.6543503117
 30
0.0
 10
16.1913637279
 20
11.6405900833
 30
0.0
 10
16.1960320978
 20
11.6269740759
 30
0.0
 10
16.2012426707
 20
11.6099936405
 30
0.0
 10
16.2056429593
 20
11.5929423027
 30
0.0
 10
16.2086418374
 20
11.579363137
 30
0.0
 10
16.2106242774
 20
11.5692517476
 30
0.0
 10
16.2123487326
 20
11.5591740652
 30
0.0
 10
16.2138147494
 20
11.5491326555
 30
0.0
 10
16.2150219398
 20
11.5391301529
 30
0.0
 10
16.2159699812
 20
11.529169161
 30
0.0
 10
16.2166586116
 20
11.5192522788
 30
0.0
 10
16.217087655
 20
11.5093820946
 30
0.0
 10
16.217256975
 20
11.4995611841
 30
0.0
 10
16.2171665382
 20
11.4897921125
 30
0.0
 10
16.2168163426
 20
11.4800774316
 30
0.0
 10
16.2162064876
 20
11.4704196801
 30
0.0
 10
16.2153371165
 20
11.4608213829
 30
0.0
 10
16.2142084535
 20
11.4512850498
 30
0.0
 10
16.2128207927
 20
11.4418131751
 30
0.0
 10
16.2111744813
 20
11.4324082368
 30
0.0
 10
16.2092699638
 20
11.4230727001
 30
0.0
 10
16.2071077089
 20
11.4138089866
 30
0.0
 10
16.2046883293
 20
11.4046196112
 30
0.0
 10
16.2029041695
 20
11.3985437508
 30
0.0
 10
16.2019697537
 20
11.3955199773
 30
0.0
  0
SPLINE
  5
2C8
100
AcDbEntity
  8
LAYER_FEATURE
100
AcDbSpline
 62
7
  6
CONTINUOUS
 70
0
 71
3
 72
22
 73
18
 74
0
 42
0.0000001
 43
0.0000001
 44
0.0000000001
 40
0.0
 40
0.0
 40
0.0
 40
0.0
 40
0.1039657596
 40
0.1582347551
 40
0.2140691292
 40
0.2714896049
 40
0.330500862
 40
0.3910928763
 40
0.453241863
 40
0.516911578
 40
0.5820545097
 40
0.6486126844
 40
0.7165191243
 40
0.7856976176
 40
0.8560640381
 40
0.9275336317
 40
1.0
 40
1.0
 40
1.0
 40
1.0
 10
15.9462562631
 20
13.5155057364
 30
0.0
 10
15.9470913908
 20
13.5132526094
 30
0.0
 10
15.9485887558
 20
13.5099032209
 30
0.0
 10
15.9509812997
 20
13.5055709496
 30
0.0
 10
15.9530336625
 20
13.5022853561
 30
0.0
 10
15.9553128052
 20
13.4990188076
 30
0.0
 10
15.9578134819
 20
13.4957785616
 30
0.0
 10
15.9605297355
 20
13.4925723245
 30
0.0
 10
15.9634551498
 20
13.4894075813
 30
0.0
 10
15.9665827992
 20
13.4862917607
 30
0.0
 10
15.9699053096
 20
13.4832321953
 30
0.0
 10
15.9734148409
 20
13.4802360803
 30
0.0
 10
15.977103099
 20
13.4773104671
 30
0.0
 10
15.9809613565
 20
13.4744622667
 30
0.0
 10
15.9849805949
 20
13.4716981287
 30
0.0
 10
15.9891511848
 20
13.4690247065
 30
0.0
 10
15.9920075199
 20
13.4673180422
 30
0.0
 10
15.993458224
 20
13.4664809631
 30
0.0
  0
SPLINE
  5
2C9
100
AcDbEntity
  8
LAYER_FEATURE
100
AcDbSpline
 62
7
  6
CONTINUOUS
 70
0
 71
3
 72
28
 73
24
 74
0
 42
0.0000001
 43
0.0000001
 44
0.0000000001
 40
0.0
 40
0.0
 40
0.0
 40
0.0
 40
0.0230114237
 40
0.0461137109
 40
0.0693957943
 40
0.0929433886
 40
0.1168371127
 40
0.1411518474
 40
0.1659551733
 40
0.1913073764
 40
0.2438364697
 40
0.271116739
 40
0.2991070579
 40
0.3572793721
 40
0.418460292
 40
0.4826386331
 40
0.549718356
 40
0.6195313764
 40
0.6918486447
 40
0.7663914134
 40
0.842836947
 40
0.9208351153
 40
1.0
 40
1.0
 40
1.0
 40
1.0
 10
15.962142288
 20
13.5669090528
 30
0.0
 10
15.9622209036
 20
13.5671634437
 30
0.0
 10
15.9623588895
 20
13.5676795097
 30
0.0
 10
15.962506432
 20
13.5684695573
 30
0.0
 10
15.9625945147
 20
13.5692746949
 30
0.0
 10
15.9626228959
 20
13.5700932625
 30
0.0
 10
15.9625916371
 20
13.570923656
 30
0.0
 10
15.9625007615
 20
13.5717642245
 30
0.0
 10
15.962350538
 20
13.5726133734
 30
0.0
 10
15.9620682402
 20
13.5737681759
 30
0.0
 10
15.9616688641
 20
13.5749211437
 30
0.0
 10
15.961164223
 20
13.5760622816
 30
0.0
 10
15.960570063
 20
13.5772333861
 30
0.0
 10
15.9596830298
 20
13.5786927223
 30
0.0
 10
15.9584182269
 20
13.5804017656
 30
0.0
 10
15.9569493057
 20
13.5820782794
 30
0.0
 10
15.9552876485
 20
13.5837095601
 30
0.0
 10
15.9534459581
 20
13.5852833326
 30
0.0
 10
15.9514383353
 20
13.5867876526
 30
0.0
 10
15.9492801604
 20
13.5882110336
 30
0.0
 10
15.9469879386
 20
13.5895426443
 30
0.0
 10
15.9445793541
 20
13.5907721899
 30
0.0
 10
15.942917716
 20
13.591513415
 30
0.0
 10
15.9420719451
 20
13.5918651745
 30
0.0
  0
SPLINE
  5
2CA
100
AcDbEntity
  8
LAYER_CUT_FEAT
100
AcDbSpline
 62
7
  6
CONTINUOUS
 70
0
 71
3
 72
81
 73
77
 74
0
 42
0.0000001
 43
0.0000001
 44
0.0000000001
 40
0.0
 40
0.0
 40
0.0
 40
0.0
 40
0.0131061612
 40
0.0265342122
 40
0.0402891786
 40
0.0543741239
 40
0.0687894074
 40
0.083533307
 40
0.0986020007
 40
0.1139897672
 40
0.1296891148
 40
0.1456909208
 40
0.1619845592
 40
0.1785580223
 40
0.1953980341
 40
0.2124901589
 40
0.2298189032
 40
0.2473678123
 40
0.2651195657
 40
0.2830560663
 40
0.3011585261
 40
0.3194075499
 40
0.3377832151
 40
0.3562651505
 40
0.374832613
 40
0.3934645644
 40
0.4121397455
 40
0.4308367496
 40
0.4495340961
 40
0.4682103028
 40
0.4868439591
 40
0.5054137998
 40
0.5238987786
 40
0.5422781429
 40
0.5605315088
 40
0.5786389377
 40
0.5965810152
 40
0.6143389322
 40
0.6318945688
 40
0.6492305792
 40
0.6663304813
 40
0.6831787493
 40
0.6997609109
 40
0.7160636503
 40
0.732074917
 40
0.7477840402
 40
0.7631818491
 40
0.7782607994
 40
0.7930151091
 40
0.8074409004
 40
0.8215363487
 40
0.8353018392
 40
0.8487401252
 40
0.8618564856
 40
0.868296826
 40
0.8746599013
 40
0.8809471569
 40
0.8871602118
 40
0.8993699799
 40
0.9113070858
 40
0.9171801429
 40
0.9229927581
 40
0.9287478981
 40
0.9344487219
 40
0.9400985771
 40
0.9457009828
 40
0.951259641
 40
0.9567784068
 40
0.962261297
 40
0.9677124641
 40
0.9731361901
 40
0.9785368706
 40
0.9839189942
 40
0.9892871317
 40
0.9946459103
 40
1.0
 40
1.0
 40
1.0
 40
1.0
 10
14.7163393413
 20
11.6988866511
 30
0.0
 10
14.7186678488
 20
11.6941416516
 30
0.0
 10
14.7236228011
 20
11.6846514829
 30
0.0
 10
14.7318142587
 20
11.6706131284
 30
0.0
 10
14.7408401689
 20
11.656623981
 30
0.0
 10
14.7506846852
 20
11.6427082515
 30
0.0
 10
14.7613310796
 20
11.6288893691
 30
0.0
 10
14.7727610826
 20
11.6151908248
 30
0.0
 10
14.7849551835
 20
11.6016358652
 30
0.0
 10
14.7978925544
 20
11.5882475257
 30
0.0
 10
14.8115511111
 20
11.5750485686
 30
0.0
 10
14.8259075429
 20
11.5620614503
 30
0.0
 10
14.840937352
 20
11.5493082801
 30
0.0
 10
14.8566148931
 20
11.5368107805
 30
0.0
 10
14.8729134151
 20
11.5245902491
 30
0.0
 10
14.8898051061
 20
11.5126675205
 30
0.0
 10
14.9072611382
 20
11.5010629293
 30
0.0
 10
14.9252517147
 20
11.4897962699
 30
0.0
 10
14.9437461241
 20
11.4788867662
 30
0.0
 10
14.9627127926
 20
11.468353037
 30
0.0
 10
14.9821193382
 20
11.4582130634
 30
0.0
 10
15.0019326252
 20
11.4484841577
 30
0.0
 10
15.0221188217
 20
11.4391829334
 30
0.0
 10
15.0426434557
 20
11.4303252751
 30
0.0
 10
15.0634714739
 20
11.4219263072
 30
0.0
 10
15.0845673043
 20
11.4140003732
 30
0.0
 10
15.1058949166
 20
11.4065610094
 30
0.0
 10
15.1274178846
 20
11.399620922
 30
0.0
 10
15.1490994478
 20
11.3931919655
 30
0.0
 10
15.1709025751
 20
11.3872851222
 30
0.0
 10
15.1927900274
 20
11.3819104819
 30
0.0
 10
15.2147244218
 20
11.3770772216
 30
0.0
 10
15.2366682972
 20
11.3727935949
 30
0.0
 10
15.2585841783
 20
11.3690669168
 30
0.0
 10
15.2804346396
 20
11.3659035523
 30
0.0
 10
15.3021823697
 20
11.363308905
 30
0.0
 10
15.3237902357
 20
11.3612874092
 30
0.0
 10
15.3452213472
 20
11.3598425199
 30
0.0
 10
15.36643912
 20
11.3589767055
 30
0.0
 10
15.3874073397
 20
11.3586914491
 30
0.0
 10
15.4080902232
 20
11.358987246
 30
0.0
 10
15.4284524799
 20
11.3598636042
 30
0.0
 10
15.4484593725
 20
11.3613190462
 30
0.0
 10
15.4680767762
 20
11.3633511145
 30
0.0
 10
15.4872712382
 20
11.3659563732
 30
0.0
 10
15.5060100356
 20
11.3691304161
 30
0.0
 10
15.5242612287
 20
11.3728678804
 30
0.0
 10
15.5419937151
 20
11.3771624592
 30
0.0
 10
15.5591772774
 20
11.3820069134
 30
0.0
 10
15.5757826406
 20
11.3873930929
 30
0.0
 10
15.5917814864
 20
11.3933119366
 30
0.0
 10
15.6071466109
 20
11.3997535516
 30
0.0
 10
15.6218515565
 20
11.4067069987
 30
0.0
 10
15.6336056933
 20
11.4129561963
 30
0.0
 10
15.6426474006
 20
11.4182035128
 30
0.0
 10
15.6492072992
 20
11.4222353618
 30
0.0
 10
15.655583936
 20
11.4263855665
 30
0.0
 10
15.6637898569
 20
11.4320413869
 30
0.0
 10
15.6735871039
 20
11.4393956488
 30
0.0
 10
15.6828466196
 20
11.447206583
 30
0.0
 10
15.6898471667
 20
11.4536699305
 30
0.0
 10
15.6948688284
 20
11.4585965111
 30
0.0
 10
15.6996875767
 20
11.4636259526
 30
0.0
 10
15.7043013777
 20
11.4687561574
 30
0.0
 10
15.7087082592
 20
11.4739849009
 30
0.0
 10
15.7129062757
 20
11.4793099947
 30
0.0
 10
15.7168936703
 20
11.484729116
 30
0.0
 10
15.7206686648
 20
11.4902399903
 30
0.0
 10
15.7242296674
 20
11.4958402271
 30
0.0
 10
15.7275751186
 20
11.5015274406
 30
0.0
 10
15.7307035591
 20
11.5072991942
 30
0.0
 10
15.7336136719
 20
11.5131529924
 30
0.0
 10
15.7363041342
 20
11.5190863407
 30
0.0
 10
15.7387738589
 20
11.5250966833
 30
0.0
 10
15.7410216806
 20
11.5311813543
 30
0.0
 10
15.7423719516
 20
11.5352864577
 30
0.0
 10
15.7430094631
 20
11.5373494342
 30
0.0
  0
SPLINE
  5
2CB
100
AcDbEntity
  8
LAYER_FEATURE
100
AcDbSpline
 62
7
  6
CONTINUOUS
 70
0
 71
3
 72
21
 73
17
 74
0
 42
0.0000001
 43
0.0000001
 44
0.0000000001
 40
0.0
 40
0.0
 40
0.0
 40
0.0
 40
0.0594357355
 40
0.119049704
 40
0.1788992644
 40
0.2390400772
 40
0.299525693
 40
0.3604073091
 40
0.4217333343
 40
0.4835492917
 40
0.5458973334
 40
0.6088164325
 40
0.6723421207
 40
0.7365058253
 40
0.8668316589
 40
1.0
 40
1.0
 40
1.0
 40
1.0
 10
14.8146524882
 20
12.5047069673
 30
0.0
 10
14.8140620942
 20
12.5062552111
 30
0.0
 10
14.8129504866
 20
12.5093839274
 30
0.0
 10
14.8114962168
 20
12.5141563864
 30
0.0
 10
14.810254522
 20
12.5190088977
 30
0.0
 10
14.809226853
 20
12.5239359709
 30
0.0
 10
14.8084142585
 20
12.5289321788
 30
0.0
 10
14.8078176905
 20
12.5339919972
 30
0.0
 10
14.8074377114
 20
12.5391098302
 30
0.0
 10
14.8072747933
 20
12.5442800274
 30
0.0
 10
14.8073290262
 20
12.5494968862
 30
0.0
 10
14.8076003747
 20
12.5547546393
 30
0.0
 10
14.8080885087
 20
12.560047563
 30
0.0
 10
14.8090324177
 20
12.5671801213
 30
0.0
 10
14.8107601387
 20
12.5761594007
 30
0.0
 10
14.8126825821
 20
12.5832569257
 30
0.0
 10
14.8137787067
 20
12.5868039861
 30
0.0
  0
SPLINE
  5
2CC
100
AcDbEntity
  8
02___PRT_ALL_AXES
100
AcDbSpline
 62
7
  6
CONTINUOUS
 70
0
 71
3
 72
51
 73
47
 74
0
 42
0.0000001
 43
0.0000001
 44
0.0000000001
 40
0.0
 40
0.0
 40
0.0
 40
0.0
 40
0.0114897224
 40
0.0230336447
 40
0.034652742
 40
0.0463670965
 40
0.0581958156
 40
0.0701567137
 40
0.082266332
 40
0.0945396357
 40
0.1069900977
 40
0.1196295075
 40
0.1455088618
 40
0.1587693485
 40
0.17224945
 40
0.1998769885
 40
0.2140314352
 40
0.2284110556
 40
0.2430137967
 40
0.2578364427
 40
0.2728746692
 40
0.2881231263
 40
0.3035756094
 40
0.3192250374
 40
0.3350636824
 40
0.3510831373
 40
0.3672745132
 40
0.3836284352
 40
0.4167821192
 40
0.450466047
 40
0.4845968909
 40
0.5190906676
 40
0.5538642478
 40
0.5888365117
 40
0.6239292872
 40
0.6590680046
 40
0.6941822752
 40
0.7292062539
 40
0.7640790386
 40
0.7987449261
 40
0.8331537283
 40
0.867261017
 40
0.9010283363
 40
0.9344235512
 40
0.9674204509
 40
1.0
 40
1.0
 40
1.0
 40
1.0
 10
14.8103584307
 20
12.5124222633
 30
0.0
 10
14.8096835409
 20
12.5137975354
 30
0.0
 10
14.8084015917
 20
12.5165900582
 30
0.0
 10
14.806690837
 20
12.520884021
 30
0.0
 10
14.8051901231
 20
12.525287571
 30
0.0
 10
14.803900661
 20
12.5297969688
 30
0.0
 10
14.8028235042
 20
12.5344085016
 30
0.0
 10
14.8019593827
 20
12.539118181
 30
0.0
 10
14.8013089601
 20
12.5439218606
 30
0.0
 10
14.8008725613
 20
12.5488151307
 30
0.0
 10
14.8006504173
 20
12.5537935292
 30
0.0
 10
14.8006396896
 20
12.5605909706
 30
0.0
 10
14.8010639912
 20
12.5674907111
 30
0.0
 10
14.8019001372
 20
12.5744578549
 30
0.0
 10
14.8030348508
 20
12.581618984
 30
0.0
 10
14.804588558
 20
12.5888289379
 30
0.0
 10
14.8065353356
 20
12.5960605537
 30
0.0
 10
14.808213349
 20
12.6015629845
 30
0.0
 10
14.8100952678
 20
12.6070930746
 30
0.0
 10
14.8121788866
 20
12.6126442526
 30
0.0
 10
14.8144617465
 20
12.6182096285
 30
0.0
 10
14.8169411668
 20
12.623782268
 30
0.0
 10
14.8196143181
 20
12.6293550998
 30
0.0
 10
14.8224781196
 20
12.6349210157
 30
0.0
 10
14.8255293812
 20
12.6404728079
 30
0.0
 10
14.828764672
 20
12.6460032536
 30
0.0
 10
14.8321804829
 20
12.6515051222
 30
0.0
 10
14.8369922076
 20
12.6588259568
 30
0.0
 10
14.8434385928
 20
12.6678587796
 30
0.0
 10
14.8517971143
 20
12.6784186522
 30
0.0
 10
14.8607798628
 20
12.6886916384
 30
0.0
 10
14.8703509411
 20
12.6986215598
 30
0.0
 10
14.880473
 20
12.7081537075
 30
0.0
 10
14.891107021
 20
12.7172347688
 30
0.0
 10
14.9022123332
 20
12.7258131417
 30
0.0
 10
14.9137464999
 20
12.7338391514
 30
0.0
 10
14.9256651852
 20
12.7412653145
 30
0.0
 10
14.9379220113
 20
12.748046647
 30
0.0
 10
14.9504684219
 20
12.7541410183
 30
0.0
 10
14.9632535985
 20
12.7595095624
 30
0.0
 10
14.9762244222
 20
12.764117136
 30
0.0
 10
14.9893255595
 20
12.7679327996
 30
0.0
 10
15.0024995367
 20
12.7709303363
 30
0.0
 10
15.0156873088
 20
12.7730886652
 30
0.0
 10
15.0288274433
 20
12.7743923803
 30
0.0
 10
15.0375734448
 20
12.774687309
 30
0.0
 10
15.0419173281
 20
12.774687309
 30
0.0
  0
SPLINE
  5
2CD
100
AcDbEntity
  8
LAYER_CUT_FEAT
100
AcDbSpline
 62
7
  6
CONTINUOUS
 70
0
 71
3
 72
23
 73
19
 74
0
 42
0.0000001
 43
0.0000001
 44
0.0000000001
 40
0.0
 40
0.0
 40
0.0
 40
0.0
 40
0.0581641106
 40
0.1164420888
 40
0.1749467128
 40
0.2337885793
 40
0.2930751321
 40
0.3529097562
 40
0.4133909154
 40
0.4746115699
 40
0.5366585838
 40
0.5996122132
 40
0.6635460432
 40
0.7285267505
 40
0.7946133009
 40
0.8618582554
 40
0.9303093717
 40
1.0
 40
1.0
 40
1.0
 40
1.0
 10
14.6975402122
 20
11.860423868
 30
0.0
 10
14.6965863736
 20
11.8573372624
 30
0.0
 10
14.6948435768
 20
11.851105059
 30
0.0
 10
14.6927342582
 20
11.8416150721
 30
0.0
 10
14.6911306466
 20
11.8319882604
 30
0.0
 10
14.6900343094
 20
11.8222343602
 30
0.0
 10
14.6894462079
 20
11.81236275
 30
0.0
 10
14.6893668676
 20
11.8023830291
 30
0.0
 10
14.6897962111
 20
11.7923048451
 30
0.0
 10
14.6907337375
 20
11.7821379222
 30
0.0
 10
14.6921784472
 20
11.7718920499
 30
0.0
 10
14.6941287911
 20
11.7615770566
 30
0.0
 10
14.6965828258
 20
11.7512028221
 30
0.0
 10
14.6995380955
 20
11.7407792814
 30
0.0
 10
14.7029916129
 20
11.7303163924
 30
0.0
 10
14.7069400913
 20
11.7198239932
 30
0.0
 10
14.7113795627
 20
11.7093124186
 30
0.0
 10
14.7146340682
 20
11.7023616323
 30
0.0
 10
14.7163393413
 20
11.6988866511
 30
0.0
  0
SPLINE
  5
2CE
100
AcDbEntity
  8
LAYER_CUT_FEAT
100
AcDbSpline
 62
7
  6
CONTINUOUS
 70
0
 71
3
 72
15
 73
11
 74
0
 42
0.0000001
 43
0.0000001
 44
0.0000000001
 40
0.0
 40
0.0
 40
0.0
 40
0.0
 40
0.1236468575
 40
0.2475321718
 40
0.3717313921
 40
0.4963190543
 40
0.6213685709
 40
0.7469518708
 40
0.8731394377
 40
1.0
 40
1.0
 40
1.0
 40
1.0
 10
14.7017509386
 20
11.8727928674
 30
0.0
 10
14.701325014
 20
11.8710173768
 30
0.0
 10
14.7005263524
 20
11.867449767
 30
0.0
 10
14.699489906
 20
11.8620584235
 30
0.0
 10
14.6986143058
 20
11.8566245143
 30
0.0
 10
14.6978998486
 20
11.8511497624
 30
0.0
 10
14.6973467724
 20
11.8456358281
 30
0.0
 10
14.6969551936
 20
11.8400843918
 30
0.0
 10
14.69672526
 20
11.8344972065
 30
0.0
 10
14.696679911
 20
11.8307601687
 30
0.0
 10
14.6966839515
 20
11.8288868533
 30
0.0
  0
SPLINE
  5
2CF
100
AcDbEntity
  8
LAYER_CHAMFER_FEAT
100
AcDbSpline
 62
7
  6
CONTINUOUS
 70
0
 71
3
 72
64
 73
60
 74
0
 42
0.0000001
 43
0.0000001
 44
0.0000000001
 40
0.0
 40
0.0
 40
0.0
 40
0.0
 40
0.0106254844
 40
0.0212736114
 40
0.0319667891
 40
0.0427269551
 40
0.0535753638
 40
0.0645324012
 40
0.075617393
 40
0.086848506
 40
0.0982425799
 40
0.1098151169
 40
0.1215801487
 40
0.1335502859
 40
0.145736639
 40
0.1581488833
 40
0.1707952511
 40
0.1836825732
 40
0.1968163482
 40
0.2102007396
 40
0.2238387121
 40
0.2377319863
 40
0.2518812136
 40
0.2662859151
 40
0.2809446525
 40
0.2958549873
 40
0.31101361
 40
0.3264163463
 40
0.342058224
 40
0.3579335362
 40
0.3740358448
 40
0.3903580924
 40
0.4068925594
 40
0.4236310005
 40
0.4405645864
 40
0.4576840324
 40
0.4749795567
 40
0.4924409753
 40
0.5100576955
 40
0.5278187686
 40
0.5457129204
 40
0.5637285663
 40
0.5818538707
 40
0.6000767379
 40
0.6183848839
 40
0.6367658218
 40
0.6736938362
 40
0.7107600078
 40
0.747860776
 40
0.7848922946
 40
0.8217512887
 40
0.8583359326
 40
0.8945466802
 40
0.912482535
 40
0.9302890973
 40
0.9479548071
 40
0.9654690743
 40
0.9828216353
 40
1.0
 40
1.0
 40
1.0
 40
1.0
 10
14.9617749005
 20
11.8149715776
 30
0.0
 10
14.9612632772
 20
11.8133159483
 30
0.0
 10
14.9603322533
 20
11.8099714963
 30
0.0
 10
14.9592184428
 20
11.8048758318
 30
0.0
 10
14.9583877835
 20
11.7997040412
 30
0.0
 10
14.9578411947
 20
11.7944618198
 30
0.0
 10
14.9575791537
 20
11.7891546651
 30
0.0
 10
14.9576019392
 20
11.7837881994
 30
0.0
 10
14.9579093833
 20
11.7783680692
 30
0.0
 10
14.9585011806
 20
11.7728999771
 30
0.0
 10
14.9593765439
 20
11.7673896372
 30
0.0
 10
14.9605345757
 20
11.7618428222
 30
0.0
 10
14.9619739164
 20
11.7562652938
 30
0.0
 10
14.9636930641
 20
11.7506628709
 30
0.0
 10
14.9656901233
 20
11.7450413571
 30
0.0
 10
14.9679629845
 20
11.7394065909
 30
0.0
 10
14.9705092352
 20
11.733764413
 30
0.0
 10
14.9733261674
 20
11.7281206569
 30
0.0
 10
14.9764108547
 20
11.7224811891
 30
0.0
 10
14.9797600113
 20
11.7168518178
 30
0.0
 10
14.9833701914
 20
11.7112384133
 30
0.0
 10
14.9872375603
 20
11.705646745
 30
0.0
 10
14.9913581432
 20
11.7000826541
 30
0.0
 10
14.9957275903
 20
11.6945518632
 30
0.0
 10
15.0003413931
 20
11.6890601455
 30
0.0
 10
15.0051947163
 20
11.6836131686
 30
0.0
 10
15.0102825252
 20
11.6782166014
 30
0.0
 10
15.0155995214
 20
11.6728760422
 30
0.0
 10
15.0211401633
 20
11.6675970254
 30
0.0
 10
15.0268987064
 20
11.6623850585
 30
0.0
 10
15.0328691307
 20
11.6572455201
 30
0.0
 10
15.0390452595
 20
11.6521837968
 30
0.0
 10
15.0454206298
 20
11.6472050984
 30
0.0
 10
15.0519886454
 20
11.6423146543
 30
0.0
 10
15.058742439
 20
11.6375174994
 30
0.0
 10
15.0656750109
 20
11.6328186662
 30
0.0
 10
15.0727791271
 20
11.628223009
 30
0.0
 10
15.080047407
 20
11.6237353295
 30
0.0
 10
15.0874722833
 20
11.61936029
 30
0.0
 10
15.0950460244
 20
11.6151024349
 30
0.0
 10
15.1027607596
 20
11.6109662171
 30
0.0
 10
15.1106084418
 20
11.6069559068
 30
0.0
 10
15.1185809263
 20
11.6030757212
 30
0.0
 10
15.1266698826
 20
11.5993296525
 30
0.0
 10
15.134866949
 20
11.5957216346
 30
0.0
 10
15.1459455183
 20
11.5910931202
 30
0.0
 10
15.1600079056
 20
11.585677952
 30
0.0
 10
15.1771494162
 20
11.5797973506
 30
0.0
 10
15.1945126314
 20
11.5745486978
 30
0.0
 10
15.2120252411
 20
11.5699538549
 30
0.0
 10
15.229614592
 20
11.5660318834
 30
0.0
 10
15.2472074196
 20
11.5627991176
 30
0.0
 10
15.2618566567
 20
11.5606839221
 30
0.0
 10
15.2735159232
 20
11.5593505565
 30
0.0
 10
15.2821882818
 20
11.5585333157
 30
0.0
 10
15.2908067962
 20
11.5578965811
 30
0.0
 10
15.2993626731
 20
11.5574410014
 30
0.0
 10
15.3078467441
 20
11.5571671182
 30
0.0
 10
15.313478468
 20
11.5571054515
 30
0.0
 10
15.3162800356
 20
11.5571054515
 30
0.0
  0
SPLINE
  5
2D0
100
AcDbEntity
  8
LAYER_FEATURE
100
AcDbSpline
 62
7
  6
CONTINUOUS
 70
0
 71
3
 72
15
 73
11
 74
0
 42
0.0000001
 43
0.0000001
 44
0.0000000001
 40
0.0
 40
0.0
 40
0.0
 40
0.0
 40
0.1109093765
 40
0.2251896555
 40
0.3432309422
 40
0.4653711824
 40
0.5918989982
 40
0.7230549071
 40
0.8590365732
 40
1.0
 40
1.0
 40
1.0
 40
1.0
 10
16.2272198628
 20
12.1778133919
 30
0.0
 10
16.2281106887
 20
12.1774182329
 30
0.0
 10
16.2298901349
 20
12.1765483385
 30
0.0
 10
16.2325032176
 20
12.1750382707
 30
0.0
 10
16.2350945895
 20
12.1733066743
 30
0.0
 10
16.2376613417
 20
12.1713557233
 30
0.0
 10
16.2402007967
 20
12.1691876069
 30
0.0
 10
16.2427103257
 20
12.1668048072
 30
0.0
 10
16.2451871865
 20
12.1642099973
 30
0.0
 10
16.2467858529
 20
12.1623741122
 30
0.0
 10
16.2475795541
 20
12.1614232153
 30
0.0
  0
SPLINE
  5
2D1
100
AcDbEntity
  8
02___PRT_ALL_AXES
100
AcDbSpline
 62
7
  6
CONTINUOUS
 70
0
 71
3
 72
30
 73
26
 74
0
 42
0.0000001
 43
0.0000001
 44
0.0000000001
 40
0.0
 40
0.0
 40
0.0
 40
0.0
 40
0.0680335515
 40
0.1017435078
 40
0.1352438968
 40
0.2016111841
 40
0.2671486827
 40
0.2996144209
 40
0.3318782742
 40
0.3639429747
 40
0.3958117356
 40
0.4589668729
 40
0.5213859724
 40
0.5831078381
 40
0.6441764524
 40
0.6744858626
 40
0.704650753
 40
0.7346779786
 40
0.7645747444
 40
0.8239969085
 40
0.8829912003
 40
0.9123545892
 40
0.9416374425
 40
0.9708492786
 40
1.0
 40
1.0
 40
1.0
 40
1.0
 10
15.0419173281
 20
12.774687309
 30
0.0
 10
15.0457719387
 20
12.774687309
 30
0.0
 10
15.0515385957
 20
12.774514739
 30
0.0
 10
15.0591797966
 20
12.7739307529
 30
0.0
 10
15.0667054448
 20
12.7731191821
 30
0.0
 10
15.0759717975
 20
12.7716757893
 30
0.0
 10
15.085069343
 20
12.7696522899
 30
0.0
 10
15.0921871587
 20
12.7676960709
 30
0.0
 10
15.0974252155
 20
12.7660682709
 30
0.0
 10
15.1025740466
 20
12.7642774841
 30
0.0
 10
15.1092924848
 20
12.7616840152
 30
0.0
 10
15.1174472868
 20
12.7580499259
 30
0.0
 10
15.1268263048
 20
12.7530677564
 30
0.0
 10
15.1357330431
 20
12.7475032839
 30
0.0
 10
15.1427508109
 20
12.7423910983
 30
0.0
 10
15.1480898808
 20
12.7380399009
 30
0.0
 10
15.151945399
 20
12.734657719
 30
0.0
 10
15.1556577802
 20
12.7311529693
 30
0.0
 10
15.1604016428
 20
12.7263326351
 30
0.0
 10
15.1659606902
 20
12.7200202038
 30
0.0
 10
15.1710136316
 20
12.7133333433
 30
0.0
 10
15.174723936
 20
12.7077946931
 30
0.0
 10
15.1773357146
 20
12.7035555921
 30
0.0
 10
15.1797774986
 20
12.6992303286
 30
0.0
 10
15.181291723
 20
12.6962896401
 30
0.0
 10
15.1820193294
 20
12.6948069419
 30
0.0
  0
SPLINE
  5
2D2
100
AcDbEntity
  8
02___PRT_ALL_AXES
100
AcDbSpline
 62
7
  6
CONTINUOUS
 70
0
 71
3
 72
39
 73
35
 74
0
 42
0.0000001
 43
0.0000001
 44
0.0000000001
 40
0.0
 40
0.0
 40
0.0
 40
0.0
 40
0.0240511276
 40
0.0487970533
 40
0.074231207
 40
0.1003474487
 40
0.127134769
 40
0.1545786082
 40
0.1826616506
 40
0.2113636745
 40
0.2406618438
 40
0.2705308902
 40
0.3009433389
 40
0.3318696921
 40
0.3632785492
 40
0.3951367932
 40
0.4274097106
 40
0.4600611122
 40
0.4930534485
 40
0.5263478717
 40
0.5599043481
 40
0.5936817395
 40
0.6276378159
 40
0.6617293585
 40
0.6959122286
 40
0.7301413755
 40
0.7643709393
 40
0.7985543009
 40
0.8326441616
 40
0.8665926411
 40
0.9003513343
 40
0.933871484
 40
0.9671040812
 40
1.0
 40
1.0
 40
1.0
 40
1.0
 10
16.3017380174
 20
12.1359830666
 30
0.0
 10
16.3025774843
 20
12.134272413
 30
0.0
 10
16.3042079973
 20
12.1307655919
 30
0.0
 10
16.3064782811
 20
12.1253388068
 30
0.0
 10
16.3086048005
 20
12.1196789756
 30
0.0
 10
16.310584825
 20
12.1137954838
 30
0.0
 10
16.3124163339
 20
12.1076977308
 30
0.0
 10
16.3140976626
 20
12.1013955497
 30
0.0
 10
16.3156277166
 20
12.0948990779
 30
0.0
 10
16.3170059485
 20
12.088218708
 30
0.0
 10
16.3182322054
 20
12.0813650504
 30
0.0
 10
16.3193068766
 20
12.0743489323
 30
0.0
 10
16.3202308032
 20
12.0671813485
 30
0.0
 10
16.3210051921
 20
12.0598734316
 30
0.0
 10
16.3216317404
 20
12.0524364456
 30
0.0
 10
16.3221124812
 20
12.0448817513
 30
0.0
 10
16.3224497867
 20
12.0372207935
 30
0.0
 10
16.3226464179
 20
12.0294650898
 30
0.0
 10
16.3227053777
 20
12.0216262162
 30
0.0
 10
16.3226299699
 20
12.0137158027
 30
0.0
 10
16.3224237629
 20
12.0057455254
 30
0.0
 10
16.3220905058
 20
11.9977271063
 30
0.0
 10
16.3216341851
 20
11.9896723102
 30
0.0
 10
16.3210589413
 20
11.9815929459
 30
0.0
 10
16.3203690536
 20
11.973500867
 30
0.0
 10
16.3195689501
 20
11.9654079692
 30
0.0
 10
16.3186631376
 20
11.9573261954
 30
0.0
 10
16.3176562132
 20
11.9492675295
 30
0.0
 10
16.3165528314
 20
11.941243993
 30
0.0
 10
16.3153576756
 20
11.9332676418
 30
0.0
 10
16.3140754523
 20
11.9253505538
 30
0.0
 10
16.3127108504
 20
11.9175048152
 30
0.0
 10
16.311268544
 20
11.9097425203
 30
0.0
 10
16.310252597
 20
11.9046025813
 30
0.0
 10
16.3097325648
 20
11.9020487028
 30
0.0
  0
LINE
  5
2D3
100
AcDbEntity
  8
02___PRT_ALL_AXES
100
AcDbLine
 62
7
  6
CONTINUOUS
 10
16.3027112348
 20
11.8713254742
 11
16.3025706765
 21
11.8707747932
  0
SPLINE
  5
2D4
100
AcDbEntity
  8
02___PRT_ALL_AXES
100
AcDbSpline
 62
7
  6
CONTINUOUS
 70
0
 71
3
 72
44
 73
40
 74
0
 42
0.0000001
 43
0.0000001
 44
0.0000000001
 40
0.0
 40
0.0
 40
0.0
 40
0.0
 40
0.0484539498
 40
0.0960713131
 40
0.1428025473
 40
0.1885997806
 40
0.2334167259
 40
0.2772090945
 40
0.3199347246
 40
0.3615536684
 40
0.402028754
 40
0.4413252956
 40
0.4794120077
 40
0.5162604141
 40
0.5518460987
 40
0.5861479771
 40
0.6191496609
 40
0.6508388964
 40
0.6812089167
 40
0.7102582825
 40
0.7379921413
 40
0.7644226523
 40
0.7895702007
 40
0.8134645882
 40
0.836146362
 40
0.8576687223
 40
0.8780990606
 40
0.8879319072
 40
0.8975247603
 40
0.9160410745
 40
0.9337733994
 40
0.9423916837
 40
0.9508689827
 40
0.959226089
 40
0.9674848171
 40
0.9756678869
 40
0.983798749
 40
0.9919013649
 40
1.0
 40
1.0
 40
1.0
 40
1.0
 10
16.3025706765
 20
11.8707747932
 30
0.0
 10
16.3020717811
 20
11.8688240519
 30
0.0
 10
16.3010632132
 20
11.8649611762
 30
0.0
 10
16.2995046452
 20
11.8592351706
 30
0.0
 10
16.2979151799
 20
11.8536323247
 30
0.0
 10
16.296296884
 20
11.84815898
 30
0.0
 10
16.294651735
 20
11.8428213036
 30
0.0
 10
16.2929815931
 20
11.8376253004
 30
0.0
 10
16.2912882092
 20
11.8325767929
 30
0.0
 10
16.2895732216
 20
11.8276814034
 30
0.0
 10
16.2878381429
 20
11.8229445588
 30
0.0
 10
16.2860843756
 20
11.8183714531
 30
0.0
 10
16.2843131915
 20
11.8139670758
 30
0.0
 10
16.2825257498
 20
11.8097361623
 30
0.0
 10
16.2807230855
 20
11.8056832334
 30
0.0
 10
16.278906115
 20
11.8018125472
 30
0.0
 10
16.2770756444
 20
11.7981281378
 30
0.0
 10
16.2752323572
 20
11.7946337794
 30
0.0
 10
16.273376839
 20
11.791333013
 30
0.0
 10
16.2715095543
 20
11.7882291282
 30
0.0
 10
16.2696308735
 20
11.7853251792
 30
0.0
 10
16.2677410589
 20
11.7826239819
 30
0.0
 10
16.2658402668
 20
11.780128128
 30
0.0
 10
16.263928572
 20
11.7778399902
 30
0.0
 10
16.2620058955
 20
11.7757617295
 30
0.0
 10
16.2600721961
 20
11.7738953927
 30
0.0
 10
16.2584308767
 20
11.7725008442
 30
0.0
 10
16.2571126125
 20
11.7714976259
 30
0.0
 10
16.2558228591
 20
11.7705901664
 30
0.0
 10
16.2542017318
 20
11.7695855035
 30
0.0
 10
16.2525352348
 20
11.7687432016
 30
0.0
 10
16.2511997147
 20
11.7681842201
 30
0.0
 10
16.2502047681
 20
11.7678239962
 30
0.0
 10
16.2492071419
 20
11.7675189814
 30
0.0
 10
16.2482068289
 20
11.7672692762
 30
0.0
 10
16.2472038558
 20
11.7670749862
 30
0.0
 10
16.2461982427
 20
11.7669361653
 30
0.0
 10
16.2451900622
 20
11.7668528667
 30
0.0
 10
16.2445166639
 20
11.7668343958
 30
0.0
 10
16.2441801214
 20
11.7668343972
 30
0.0
  0
SPLINE
  5
2D5
100
AcDbEntity
  8
02___PRT_ALL_AXES
100
AcDbSpline
 62
7
  6
CONTINUOUS
 70
0
 71
3
 72
30
 73
26
 74
0
 42
0.0000001
 43
0.0000001
 44
0.0000000001
 40
0.0
 40
0.0
 40
0.0
 40
0.0
 40
0.0269956344
 40
0.0539751399
 40
0.0809719972
 40
0.1080198087
 40
0.1351521359
 40
0.162402275
 40
0.1898031749
 40
0.2173872584
 40
0.2451862643
 40
0.2732311654
 40
0.3015520039
 40
0.3301778103
 40
0.3884441451
 40
0.4482502092
 40
0.5097837688
 40
0.5732105257
 40
0.6056834656
 40
0.6386814449
 40
0.7063014839
 40
0.7761764992
 40
0.8483827997
 40
0.9229811862
 40
1.0
 40
1.0
 40
1.0
 40
1.0
 10
16.2441801214
 20
12.1808343955
 30
0.0
 10
16.2448726559
 20
12.1808343937
 30
0.0
 10
16.2462575021
 20
12.1808042707
 30
0.0
 10
16.2483309099
 20
12.1806684811
 30
0.0
 10
16.250397781
 20
12.1804421251
 30
0.0
 10
16.2524566749
 20
12.1801252475
 30
0.0
 10
16.2545062352
 20
12.1797179832
 30
0.0
 10
16.2565450892
 20
12.1792204435
 30
0.0
 10
16.258571879
 20
12.1786327892
 30
0.0
 10
16.2605852742
 20
12.177955269
 30
0.0
 10
16.2625839426
 20
12.1771881031
 30
0.0
 10
16.2645665603
 20
12.176331577
 30
0.0
 10
16.2665318814
 20
12.1753860337
 30
0.0
 10
16.2691426138
 20
12.1739990743
 30
0.0
 10
16.2723595086
 20
12.1720382538
 30
0.0
 10
16.2761063254
 20
12.1693498197
 30
0.0
 10
16.2797535281
 20
12.1663165683
 30
0.0
 10
16.282679218
 20
12.1635278599
 30
0.0
 10
16.2849618286
 20
12.1611347891
 30
0.0
 10
16.2872408433
 20
12.158591839
 30
0.0
 10
16.2900101987
 20
12.1552029701
 30
0.0
 10
16.293174164
 20
12.1508489483
 30
0.0
 10
16.2961988917
 20
12.146182346
 30
0.0
 10
16.2990778194
 20
12.14121187
 30
0.0
 10
16.3008675897
 20
12.1377568119
 30
0.0
 10
16.3017380174
 20
12.1359830666
 30
0.0
  0
SPLINE
  5
2D6
100
AcDbEntity
  8
LAYER_CUT_FEAT
100
AcDbSpline
 62
7
  6
CONTINUOUS
 70
0
 71
3
 72
23
 73
19
 74
0
 42
0.0000001
 43
0.0000001
 44
0.0000000001
 40
0.0
 40
0.0
 40
0.0
 40
0.0
 40
0.0581641117
 40
0.1164420897
 40
0.1749467112
 40
0.2337885816
 40
0.2930751322
 40
0.3529097549
 40
0.4133909183
 40
0.4746115686
 40
0.536658585
 40
0.5996122112
 40
0.6635460446
 40
0.7285267646
 40
0.7946132692
 40
0.8618582466
 40
0.9303094701
 40
1.0
 40
1.0
 40
1.0
 40
1.0
 10
15.7372769413
 20
11.5391209174
 30
0.0
 10
15.7382203182
 20
11.5421736745
 30
0.0
 10
15.7399440001
 20
11.5483375338
 30
0.0
 10
15.7420301828
 20
11.5577234502
 30
0.0
 10
15.7436162201
 20
11.5672446884
 30
0.0
 10
15.7447005233
 20
11.5768916247
 30
0.0
 10
15.7452821801
 20
11.5866549781
 30
0.0
 10
15.7453606534
 20
11.5965252575
 30
0.0
 10
15.7449360106
 20
11.6064929194
 30
0.0
 10
15.7440087729
 20
11.6165483484
 30
0.0
 10
15.7425799035
 20
11.6266818597
 30
0.0
 10
15.7406509457
 20
11.6368837341
 30
0.0
 10
15.7382238274
 20
11.6471442022
 30
0.0
 10
15.7353009625
 20
11.6574534313
 30
0.0
 10
15.7318853207
 20
11.6678015801
 30
0.0
 10
15.7279801416
 20
11.6781789198
 30
0.0
 10
15.7235893518
 20
11.6885752205
 30
0.0
 10
15.720370538
 20
11.6954497828
 30
0.0
 10
15.718683968
 20
11.6988866511
 30
0.0
  0
SPLINE
  5
2D7
100
AcDbEntity
  8
02___PRT_ALL_AXES
100
AcDbSpline
 62
7
  6
CONTINUOUS
 70
0
 71
3
 72
48
 73
44
 74
0
 42
0.0000001
 43
0.0000001
 44
0.0000000001
 40
0.0
 40
0.0
 40
0.0
 40
0.0
 40
0.0396645287
 40
0.0788609182
 40
0.1175666794
 40
0.1557604568
 40
0.1934225099
 40
0.2305346712
 40
0.267080503
 40
0.3030454118
 40
0.3384167765
 40
0.3731840818
 40
0.4073390573
 40
0.4408758232
 40
0.4737910417
 40
0.5060840736
 40
0.5377571371
 40
0.5688154684
 40
0.5992674825
 40
0.6291249298
 40
0.6584030443
 40
0.6728314465
 40
0.6871223994
 40
0.7153021401
 40
0.7429703882
 40
0.7566230101
 40
0.7701594376
 40
0.7968993657
 40
0.8232301396
 40
0.8362561146
 40
0.8491957115
 40
0.8620546757
 40
0.8748389514
 40
0.8875546757
 40
0.9002081603
 40
0.9128058839
 40
0.9253544736
 40
0.9378606904
 40
0.9503314133
 40
0.9627736191
 40
0.9751943662
 40
0.9876007733
 40
1.0
 40
1.0
 40
1.0
 40
1.0
 10
14.9068443197
 20
12.3375908935
 30
0.0
 10
14.8962985473
 20
12.3375908935
 30
0.0
 10
14.8753306328
 20
12.3373544289
 30
0.0
 10
14.8440885373
 20
12.3362765903
 30
0.0
 10
14.8132710035
 20
12.3344788623
 30
0.0
 10
14.7829129913
 20
12.3319632505
 30
0.0
 10
14.7530487177
 20
12.3287325828
 30
0.0
 10
14.7237118839
 20
12.3247904811
 30
0.0
 10
14.694935581
 20
12.3201413671
 30
0.0
 10
14.666752267
 20
12.3147904547
 30
0.0
 10
14.6391937264
 20
12.3087437415
 30
0.0
 10
14.6122910371
 20
12.3020080009
 30
0.0
 10
14.5860745356
 20
12.2945907726
 30
0.0
 10
14.5605737849
 20
12.2865003527
 30
0.0
 10
14.535817542
 20
12.2777457827
 30
0.0
 10
14.5118337291
 20
12.2683368412
 30
0.0
 10
14.4886493977
 20
12.258284024
 30
0.0
 10
14.4662907332
 20
12.2475985521
 30
0.0
 10
14.4447829177
 20
12.2362922845
 30
0.0
 10
14.4241505117
 20
12.2243779754
 30
0.0
 10
14.4076257709
 20
12.2139029719
 30
0.0
 10
14.3948749924
 20
12.2052295552
 30
0.0
 10
14.3825549327
 20
12.1964486659
 30
0.0
 10
14.3677326145
 20
12.1851215682
 30
0.0
 10
14.3535801097
 20
12.173229112
 30
0.0
 10
14.3427595029
 20
12.1634475887
 30
0.0
 10
14.3323600205
 20
12.1535747219
 30
0.0
 10
14.3199724766
 20
12.14090817
 30
0.0
 10
14.3083403421
 20
12.1277241392
 30
0.0
 10
14.299562337
 20
12.1169392668
 30
0.0
 10
14.2932621686
 20
12.1087607914
 30
0.0
 10
14.2872240328
 20
12.1004663944
 30
0.0
 10
14.2814496035
 20
12.0920583579
 30
0.0
 10
14.2759405264
 20
12.083539084
 30
0.0
 10
14.270698381
 20
12.0749109706
 30
0.0
 10
14.2657246518
 20
12.0661764683
 30
0.0
 10
14.2610207604
 20
12.0573380487
 30
0.0
 10
14.2565880517
 20
12.048398216
 30
0.0
 10
14.252427778
 20
12.0393595084
 30
0.0
 10
14.2485411428
 20
12.030224491
 30
0.0
 10
14.2449292289
 20
12.0209957349
 30
0.0
 10
14.2415931104
 20
12.011675962
 30
0.0
 10
14.2395532431
 20
12.0054029977
 30
0.0
 10
14.2385799215
 20
12.0022533248
 30
0.0
  0
SPLINE
  5
2D8
100
AcDbEntity
  8
LAYER_CHAMFER_FEAT
100
AcDbSpline
 62
7
  6
CONTINUOUS
 70
0
 71
3
 72
39
 73
35
 74
0
 42
0.0000001
 43
0.0000001
 44
0.0000000001
 40
0.0
 40
0.0
 40
0.0
 40
0.0
 40
0.0248034972
 40
0.0496643314
 40
0.0746391968
 40
0.0997834827
 40
0.125150746
 40
0.1507921182
 40
0.1767559196
 40
0.203087265
 40
0.2298277574
 40
0.2570153763
 40
0.284684206
 40
0.3128645638
 40
0.3415828103
 40
0.3708615548
 40
0.4007196492
 40
0.4311723049
 40
0.4622313194
 40
0.4939050469
 40
0.5261987885
 40
0.5591147055
 40
0.5926521959
 40
0.6268079059
 40
0.6615759486
 40
0.6969480967
 40
0.7329137532
 40
0.7694603547
 40
0.8065733747
 40
0.8442363191
 40
0.8824305252
 40
0.9211370866
 40
0.9603361466
 40
1.0
 40
1.0
 40
1.0
 40
1.0
 10
15.4991991208
 20
11.6488949325
 30
0.0
 10
15.4986661879
 20
11.6471703442
 30
0.0
 10
15.4974972664
 20
11.6437477099
 30
0.0
 10
15.4954423842
 20
11.6387164097
 30
0.0
 10
15.4930873537
 20
11.6337907441
 30
0.0
 10
15.4904350901
 20
11.6289765581
 30
0.0
 10
15.4874886069
 20
11.6242793281
 30
0.0
 10
15.484251397
 20
11.6197043905
 30
0.0
 10
15.4807272129
 20
11.6152569326
 30
0.0
 10
15.4769201316
 20
11.6109419876
 30
0.0
 10
15.4728345878
 20
11.6067643689
 30
0.0
 10
15.4684752322
 20
11.6027288114
 30
0.0
 10
15.4638471163
 20
11.5988397614
 30
0.0
 10
15.458955478
 20
11.5951016176
 30
0.0
 10
15.4538059232
 20
11.5915184965
 30
0.0
 10
15.448404283
 20
11.5880944114
 30
0.0
 10
15.4427566816
 20
11.584833175
 30
0.0
 10
15.4368695239
 20
11.5817383875
 30
0.0
 10
15.4307494414
 20
11.578813547
 30
0.0
 10
15.4244033728
 20
11.5760618467
 30
0.0
 10
15.4178384551
 20
11.5734864214
 30
0.0
 10
15.411062114
 20
11.5710900884
 30
0.0
 10
15.4040819809
 20
11.5688755601
 30
0.0
 10
15.3969059309
 20
11.5668453009
 30
0.0
 10
15.3895420578
 20
11.5650015653
 30
0.0
 10
15.3819986593
 20
11.5633464587
 30
0.0
 10
15.3742842531
 20
11.5618817766
 30
0.0
 10
15.3664075243
 20
11.5606092218
 30
0.0
 10
15.3583773612
 20
11.5595301699
 30
0.0
 10
15.3502028508
 20
11.5586458746
 30
0.0
 10
15.3418932019
 20
11.5579572867
 30
0.0
 10
15.333457644
 20
11.5574651922
 30
0.0
 10
15.3249059549
 20
11.5571701998
 30
0.0
 10
15.3191665409
 20
11.5571054515
 30
0.0
 10
15.3162800356
 20
11.5571054515
 30
0.0
  0
SPLINE
  5
2D9
100
AcDbEntity
  8
LAYER_FEATURE
100
AcDbSpline
 62
7
  6
CONTINUOUS
 70
0
 71
3
 72
48
 73
44
 74
0
 42
0.0000001
 43
0.0000001
 44
0.0000000001
 40
0.0
 40
0.0
 40
0.0
 40
0.0
 40
0.0475512739
 40
0.0938168497
 40
0.1387408043
 40
0.1822825164
 40
0.2244047946
 40
0.2650756143
 40
0.304271194
 40
0.3419757617
 40
0.3781822953
 40
0.412894337
 40
0.4461268414
 40
0.4779078635
 40
0.5082805077
 40
0.5373044245
 40
0.5650582073
 40
0.5916411708
 40
0.6171748449
 40
0.6295958434
 40
0.6418108409
 40
0.6538415903
 40
0.6657111635
 40
0.6774438126
 40
0.6890649432
 40
0.7006008974
 40
0.7120787184
 40
0.7235259859
 40
0.7349705531
 40
0.7464402895
 40
0.7579628558
 40
0.7695654147
 40
0.7812744471
 40
0.7931155735
 40
0.8051132787
 40
0.8172908509
 40
0.8296703243
 40
0.8551097432
 40
0.8815854239
 40
0.909221133
 40
0.9381183475
 40
0.9683574852
 40
1.0
 40
1.0
 40
1.0
 40
1.0
 10
16.2011153554
 20
12.0767730071
 30
0.0
 10
16.2016661374
 20
12.0785553383
 30
0.0
 10
16.2027948208
 20
12.0820590172
 30
0.0
 10
16.2045953852
 20
12.0871961717
 30
0.0
 10
16.2064778677
 20
12.0921359895
 30
0.0
 10
16.2084389157
 20
12.0968697288
 30
0.0
 10
16.2104751327
 20
12.101389304
 30
0.0
 10
16.212583036
 20
12.1056868636
 30
0.0
 10
16.2147589639
 20
12.1097549659
 30
0.0
 10
16.2169991637
 20
12.1135865995
 30
0.0
 10
16.2192998396
 20
12.1171751373
 30
0.0
 10
16.2216570488
 20
12.1205144104
 30
0.0
 10
16.2240668286
 20
12.1235986594
 30
0.0
 10
16.2265251676
 20
12.1264225447
 30
0.0
 10
16.2290279742
 20
12.1289811912
 30
0.0
 10
16.2315711717
 20
12.1312700721
 30
0.0
 10
16.2341506747
 20
12.1332851093
 30
0.0
 10
16.2367621201
 20
12.1350225056
 30
0.0
 10
16.2389819885
 20
12.1362473521
 30
0.0
 10
16.2407661846
 20
12.1370797225
 30
0.0
 10
16.2420970493
 20
12.1376270832
 30
0.0
 10
16.2434321831
 20
12.1381029366
 30
0.0
 10
16.2447710181
 20
12.1385070846
 30
0.0
 10
16.2461129633
 20
12.138839294
 30
0.0
 10
16.2474574158
 20
12.1390994065
 30
0.0
 10
16.2488037657
 20
12.1392873175
 30
0.0
 10
16.2501514072
 20
12.1394029058
 30
0.0
 10
16.2514997246
 20
12.1394461022
 30
0.0
 10
16.2528481009
 20
12.1394169188
 30
0.0
 10
16.2541959222
 20
12.1393153545
 30
0.0
 10
16.2555425697
 20
12.1391414376
 30
0.0
 10
16.256887436
 20
12.1388952937
 30
0.0
 10
16.2582299155
 20
12.1385770417
 30
0.0
 10
16.2595693993
 20
12.1381868075
 30
0.0
 10
16.2609052931
 20
12.1377248189
 30
0.0
 10
16.2622370361
 20
12.1371912892
 30
0.0
 10
16.2640223494
 20
12.1363775541
 30
0.0
 10
16.2662440438
 20
12.1351758599
 30
0.0
 10
16.2688583725
 20
12.1334655287
 30
0.0
 10
16.2714411687
 20
12.1314772225
 30
0.0
 10
16.2739880636
 20
12.1292146593
 30
0.0
 10
16.2764949128
 20
12.1266820114
 30
0.0
 10
16.2780997705
 20
12.1248584658
 30
0.0
 10
16.2788952412
 20
12.1239054522
 30
0.0
  0
SPLINE
  5
2DA
100
AcDbEntity
  8
LAYER_FEATURE
100
AcDbSpline
 62
7
  6
CONTINUOUS
 70
0
 71
3
 72
80
 73
76
 74
0
 42
0.0000001
 43
0.0000001
 44
0.0000000001
 40
0.0
 40
0.0
 40
0.0
 40
0.0
 40
0.0176366946
 40
0.0357016715
 40
0.0541699459
 40
0.0730188603
 40
0.092223594
 40
0.1117579403
 40
0.1315949998
 40
0.1517069925
 40
0.1720653556
 40
0.1926408352
 40
0.2134036308
 40
0.2343234344
 40
0.255369516
 40
0.2765108411
 40
0.2977161112
 40
0.3189538745
 40
0.3401925933
 40
0.3614007262
 40
0.3825468155
 40
0.4035995495
 40
0.4245278759
 40
0.445301045
 40
0.4658887196
 40
0.4862610661
 40
0.5063887913
 40
0.5262433067
 40
0.5457967612
 40
0.5650221358
 40
0.5838934143
 40
0.6023855819
 40
0.6204748208
 40
0.6381386249
 40
0.6553558454
 40
0.6721069741
 40
0.6883741934
 40
0.7041415649
 40
0.7193953374
 40
0.7341240212
 40
0.7483187771
 40
0.7619737138
 40
0.7750861409
 40
0.7876571595
 40
0.7996920155
 40
0.8112006726
 40
0.8221985536
 40
0.8327070729
 40
0.8427544847
 40
0.8523765769
 40
0.8616171859
 40
0.8661116384
 40
0.8705310636
 40
0.8748833324
 40
0.8791767871
 40
0.883420206
 40
0.8876227942
 40
0.8917940931
 40
0.8959439047
 40
0.9000822322
 40
0.9042191792
 40
0.9083648606
 40
0.9125293169
 40
0.9167224114
 40
0.9209537655
 40
0.9252326847
 40
0.9295680635
 40
0.9339683703
 40
0.9384416122
 40
0.9476340644
 40
0.9572013634
 40
0.967188487
 40
0.9776323004
 40
0.9885620372
 40
1.0
 40
1.0
 40
1.0
 40
1.0
 10
16.2011153554
 20
12.0767730071
 30
0.0
 10
16.2005491671
 20
12.0749408212
 30
0.0
 10
16.199448493
 20
12.0712177672
 30
0.0
 10
16.1979090387
 20
12.0655320118
 30
0.0
 10
16.1964634509
 20
12.0596857942
 30
0.0
 10
16.1951142888
 20
12.0536895205
 30
0.0
 10
16.1938638608
 20
12.0475535589
 30
0.0
 10
16.192714398
 20
12.0412886377
 30
0.0
 10
16.1916679029
 20
12.0349057283
 30
0.0
 10
16.1907261981
 20
12.0284159859
 30
0.0
 10
16.1898909604
 20
12.0218307559
 30
0.0
 10
16.189163631
 20
12.0151615597
 30
0.0
 10
16.1885454935
 20
12.0084200621
 30
0.0
 10
16.1880376427
 20
12.0016180549
 30
0.0
 10
16.1876409467
 20
11.994767439
 30
0.0
 10
16.1873561223
 20
11.9878801988
 30
0.0
 10
16.1871836616
 20
11.9809683838
 30
0.0
 10
16.1871238561
 20
11.9740440874
 30
0.0
 10
16.1871768341
 20
11.9671194241
 30
0.0
 10
16.1873424812
 20
11.9602065092
 30
0.0
 10
16.1876205131
 20
11.9533174377
 30
0.0
 10
16.1880104545
 20
11.9464642628
 30
0.0
 10
16.1885115984
 20
11.9396589731
 30
0.0
 10
16.1891230864
 20
11.9329134751
 30
0.0
 10
16.1898438402
 20
11.9262395681
 30
0.0
 10
16.190672583
 20
11.9196489254
 30
0.0
 10
16.1916078864
 20
11.9131530761
 30
0.0
 10
16.1926480887
 20
11.906763378
 30
0.0
 10
16.1937913712
 20
11.9004910044
 30
0.0
 10
16.1950357445
 20
11.894346923
 30
0.0
 10
16.1963790021
 20
11.8883418691
 30
0.0
 10
16.1978188118
 20
11.8824863396
 30
0.0
 10
16.199352647
 20
11.8767905625
 30
0.0
 10
16.2009778061
 20
11.8712644805
 30
0.0
 10
16.2026914737
 20
11.8659177454
 30
0.0
 10
16.20449063
 20
11.8607596784
 30
0.0
 10
16.2063721358
 20
11.8557992716
 30
0.0
 10
16.2083327279
 20
11.8510451718
 30
0.0
 10
16.2103689619
 20
11.8465056416
 30
0.0
 10
16.2124773237
 20
11.84218858
 30
0.0
 10
16.2146541581
 20
11.8381014815
 30
0.0
 10
16.2168956879
 20
11.8342514218
 30
0.0
 10
16.2191980982
 20
11.8306450847
 30
0.0
 10
16.221557434
 20
11.8272886955
 30
0.0
 10
16.223969704
 20
11.8241880592
 30
0.0
 10
16.2264308844
 20
11.8213485687
 30
0.0
 10
16.2289368604
 20
11.8187751423
 30
0.0
 10
16.2314835283
 20
11.816472341
 30
0.0
 10
16.2340667921
 20
11.814444291
 30
0.0
 10
16.2366822589
 20
11.8126948148
 30
0.0
 10
16.2389058252
 20
11.8114605595
 30
0.0
 10
16.2406931112
 20
11.8106212022
 30
0.0
 10
16.2420262553
 20
11.8100689403
 30
0.0
 10
16.2433637138
 20
11.8095884378
 30
0.0
 10
16.2447049196
 20
11.8091799043
 30
0.0
 10
16.2460492785
 20
11.8088435794
 30
0.0
 10
16.2473961815
 20
11.8085796108
 30
0.0
 10
16.2487450178
 20
11.8083881137
 30
0.0
 10
16.2500951784
 20
11.8082692187
 30
0.0
 10
16.2514460425
 20
11.8082229816
 30
0.0
 10
16.2527969908
 20
11.8082493983
 30
0.0
 10
16.2541474049
 20
11.8083484811
 30
0.0
 10
16.255496663
 20
11.8085201883
 30
0.0
 10
16.2568441544
 20
11.8087643977
 30
0.0
 10
16.2581892678
 20
11.8090810013
 30
0.0
 10
16.2595313921
 20
11.8094698638
 30
0.0
 10
16.2608699309
 20
11.8099307542
 30
0.0
 10
16.2622043166
 20
11.8104634691
 30
0.0
 10
16.2639931837
 20
11.8112764851
 30
0.0
 10
16.2662193426
 20
11.8124779999
 30
0.0
 10
16.2688388927
 20
11.8141892183
 30
0.0
 10
16.2714268154
 20
11.8161794917
 30
0.0
 10
16.2739787255
 20
11.8184450752
 30
0.0
 10
16.2764904399
 20
11.8209817901
 30
0.0
 10
16.2780982986
 20
11.8228085605
 30
0.0
 10
16.2788952411
 20
11.823763341
 30
0.0
  0
SPLINE
  5
2DB
100
AcDbEntity
  8
LAYER_CUT_FEAT
100
AcDbSpline
 62
7
  6
CONTINUOUS
 70
0
 71
3
 72
81
 73
77
 74
0
 42
0.0000001
 43
0.0000001
 44
0.0000000001
 40
0.0
 40
0.0
 40
0.0
 40
0.0
 40
0.0131061518
 40
0.02653422
 40
0.0402891799
 40
0.0543741279
 40
0.0687894119
 40
0.0835333125
 40
0.0986020083
 40
0.1139897763
 40
0.1296891249
 40
0.1456909312
 40
0.1619845701
 40
0.1785580341
 40
0.195398048
 40
0.2124901752
 40
0.2298189208
 40
0.2473678305
 40
0.2651195844
 40
0.2830560857
 40
0.3011585472
 40
0.3194075733
 40
0.3377832402
 40
0.3562651766
 40
0.3748326399
 40
0.3934645924
 40
0.412139775
 40
0.4308367809
 40
0.4495341287
 40
0.4682103363
 40
0.4868439937
 40
0.505413836
 40
0.523898817
 40
0.5422781831
 40
0.5605315496
 40
0.5786389785
 40
0.5965810566
 40
0.6143389755
 40
0.6318946149
 40
0.649230628
 40
0.6663305309
 40
0.6831787982
 40
0.6997609593
 40
0.7160636996
 40
0.7320749692
 40
0.7477840959
 40
0.7631819065
 40
0.7782608565
 40
0.793015165
 40
0.8074409559
 40
0.8215364059
 40
0.8353018998
 40
0.8487401885
 40
0.8553386409
 40
0.8618574988
 40
0.8746598927
 40
0.8809471498
 40
0.8871602027
 40
0.8993699711
 40
0.9113070788
 40
0.9171801368
 40
0.9229927535
 40
0.9287478919
 40
0.9344487184
 40
0.9400985718
 40
0.9457009794
 40
0.9512596374
 40
0.9567784035
 40
0.9622612948
 40
0.9677124613
 40
0.9731361886
 40
0.9785368688
 40
0.9839189931
 40
0.9892871309
 40
0.9946459099
 40
1.0
 40
1.0
 40
1.0
 40
1.0
 10
15.718683968
 20
11.6988866511
 30
0.0
 10
15.7163809977
 20
11.7035796112
 30
0.0
 10
15.711480381
 20
11.7129657081
 30
0.0
 10
15.7033787569
 20
11.7268501129
 30
0.0
 10
15.6944518243
 20
11.7406858518
 30
0.0
 10
15.6847152703
 20
11.7544489747
 30
0.0
 10
15.6741856288
 20
11.7681163142
 30
0.0
 10
15.6628809721
 20
11.7816646349
 30
0.0
 10
15.6508205947
 20
11.7950709441
 30
0.0
 10
15.6380250991
 20
11.8083124609
 30
0.0
 10
15.6245163283
 20
11.8213666729
 30
0.0
 10
15.6103173367
 20
11.8342113697
 30
0.0
 10
15.5954523524
 20
11.8468246843
 30
0.0
 10
15.5799467385
 20
11.859185132
 30
0.0
 10
15.5638269512
 20
11.8712716471
 30
0.0
 10
15.5471204987
 20
11.8830636235
 30
0.0
 10
15.5298558962
 20
11.8945409536
 30
0.0
 10
15.5120626132
 20
11.9056840591
 30
0.0
 10
15.4937710232
 20
11.9164739264
 30
0.0
 10
15.4750123524
 20
11.9268921402
 30
0.0
 10
15.4558186269
 20
11.936920915
 30
0.0
 10
15.4362226182
 20
11.9465431262
 30
0.0
 10
15.4162577902
 20
11.9557423464
 30
0.0
 10
15.3959582383
 20
11.9645028684
 30
0.0
 10
15.3753586301
 20
11.972809732
 30
0.0
 10
15.3544941468
 20
11.9806487499
 30
0.0
 10
15.3334004224
 20
11.9880065326
 30
0.0
 10
15.3121134834
 20
11.99487051
 30
0.0
 10
15.2906696879
 20
12.0012289594
 30
0.0
 10
15.2691056625
 20
12.0070710232
 30
0.0
 10
15.2474582377
 20
12.0123867247
 30
0.0
 10
15.2257643854
 20
12.0171669851
 30
0.0
 10
15.2040611557
 20
12.0214036396
 30
0.0
 10
15.1823856131
 20
12.0250894499
 30
0.0
 10
15.160774773
 20
12.0282181194
 30
0.0
 10
15.1392655381
 20
12.0307843081
 30
0.0
 10
15.1178946333
 20
12.0327836339
 30
0.0
 10
15.096698544
 20
12.0342126812
 30
0.0
 10
15.0757134528
 20
12.0350690054
 30
0.0
 10
15.0549751784
 20
12.0353511368
 30
0.0
 10
15.0345191123
 20
12.0350585814
 30
0.0
 10
15.0143801584
 20
12.034191829
 30
0.0
 10
14.9945926716
 20
12.032752344
 30
0.0
 10
14.9751904006
 20
12.0307425606
 30
0.0
 10
14.9562064308
 20
12.0281658767
 30
0.0
 10
14.9376731282
 20
12.0250266467
 30
0.0
 10
14.9196220841
 20
12.0213301694
 30
0.0
 10
14.9020840627
 20
12.0170826836
 30
0.0
 10
14.885088942
 20
12.0122913497
 30
0.0
 10
14.8686656959
 20
12.0069642414
 30
0.0
 10
14.8528422493
 20
12.0011102839
 30
0.0
 10
14.8376457993
 20
11.9947394023
 30
0.0
 10
14.8254526168
 20
11.9889736751
 30
0.0
 10
14.8160426968
 20
11.9841089888
 30
0.0
 10
14.8069751135
 20
11.9791413058
 30
0.0
 10
14.7981989579
 20
11.9739051623
 30
0.0
 10
14.7897395466
 20
11.9683993992
 30
0.0
 10
14.7816235776
 20
11.9628055614
 30
0.0
 10
14.7719337927
 20
11.9555319673
 30
0.0
 10
14.7627758102
 20
11.947806691
 30
0.0
 10
14.7558520367
 20
11.9414142206
 30
0.0
 10
14.7508854351
 20
11.9365416763
 30
0.0
 10
14.7461195467
 20
11.9315673743
 30
0.0
 10
14.741556324
 20
11.9264934471
 30
0.0
 10
14.737197789
 20
11.9213220274
 30
0.0
 10
14.7330457958
 20
11.9160553428
 30
0.0
 10
14.7291021344
 20
11.9106956447
 30
0.0
 10
14.7253685411
 20
11.9052452032
 30
0.0
 10
14.7218465774
 20
11.8997063888
 30
0.0
 10
14.7185378324
 20
11.8940815326
 30
0.0
 10
14.71544368
 20
11.8883730855
 30
0.0
 10
14.7125654987
 20
11.8825834731
 30
0.0
 10
14.7099045295
 20
11.8767151981
 30
0.0
 10
14.7074618909
 20
11.8707707661
 30
0.0
 10
14.7052387263
 20
11.86475282
 30
0.0
 10
14.7039032533
 20
11.860692738
 30
0.0
 10
14.703272734
 20
11.8586523847
 30
0.0
  0
LINE
  5
2DC
100
AcDbEntity
  8
LAYER_FEATURE
100
AcDbLine
 62
7
  6
CONTINUOUS
 10
16.4600659147
 20
13.0272183199
 11
16.4605270802
 21
13.0299206942
  0
SPLINE
  5
2DD
100
AcDbEntity
  8
LAYER_CHAMFER_FEAT
100
AcDbSpline
 62
7
  6
CONTINUOUS
 70
0
 71
3
 72
85
 73
81
 74
0
 42
0.0000001
 43
0.0000001
 44
0.0000000001
 40
0.0
 40
0.0
 40
0.0
 40
0.0
 40
0.0157578073
 40
0.0311471291
 40
0.046164283
 40
0.0608083495
 40
0.0750813818
 40
0.0889886258
 40
0.1025387451
 40
0.1091842268
 40
0.115745351
 40
0.1286219132
 40
0.1411897877
 40
0.1473661286
 40
0.1534746723
 40
0.1595190455
 40
0.165503134
 40
0.1714310623
 40
0.1773071724
 40
0.1831360435
 40
0.1889224467
 40
0.1946713483
 40
0.2003878907
 40
0.2060773587
 40
0.2117451765
 40
0.2173968669
 40
0.2230380339
 40
0.2286743344
 40
0.2343114481
 40
0.2399550519
 40
0.2456107885
 40
0.2512842448
 40
0.2569809144
 40
0.2627061852
 40
0.2684653062
 40
0.2742633645
 40
0.2801052814
 40
0.2859957678
 40
0.2919393358
 40
0.3040009033
 40
0.3163232668
 40
0.3289339417
 40
0.3418564172
 40
0.3551101675
 40
0.3687107398
 40
0.3826698913
 40
0.3969957828
 40
0.411693194
 40
0.4267637429
 40
0.4422060979
 40
0.4580161928
 40
0.4741874486
 40
0.4907109736
 40
0.5075757498
 40
0.5247688004
 40
0.542275368
 40
0.5600790769
 40
0.5781620797
 40
0.5965051918
 40
0.6150880249
 40
0.6338891231
 40
0.652886084
 40
0.6720556723
 40
0.69137393
 40
0.7108162932
 40
0.7303577003
 40
0.7499726952
 40
0.769635529
 40
0.7893202654
 40
0.8090008845
 40
0.828651382
 40
0.8482458694
 40
0.8677586781
 40
0.8871644705
 40
0.906438321
 40
0.9255558524
 40
0.9444933686
 40
0.9632276338
 40
0.9817372632
 40
1.0
 40
1.0
 40
1.0
 40
1.0
 10
15.0372656563
 20
11.8907913199
 30
0.0
 10
15.033539778
 20
11.8899150706
 30
0.0
 10
15.0262073695
 20
11.8880419418
 30
0.0
 10
15.0154615585
 20
11.8848275757
 30
0.0
 10
15.0051174277
 20
11.8812474348
 30
0.0
 10
14.9951954709
 20
11.8773084794
 30
0.0
 10
14.9857150378
 20
11.873018241
 30
0.0
 10
14.976694938
 20
11.868385068
 30
0.0
 10
14.9695303933
 20
11.8642188121
 30
0.0
 10
14.9640518875
 20
11.8607210071
 30
0.0
 10
14.9588096502
 20
11.8571619237
 30
0.0
 10
14.9525683012
 20
11.8525191092
 30
0.0
 10
14.9466917839
 20
11.8475652252
 30
0.0
 10
14.942268122
 20
11.8434562753
 30
0.0
 10
14.9391060268
 20
11.8403209865
 30
0.0
 10
14.9360822435
 20
11.8371160173
 30
0.0
 10
14.9331982287
 20
11.8338429205
 30
0.0
 10
14.9304553997
 20
11.8305033292
 30
0.0
 10
14.9278551671
 20
11.8270988414
 30
0.0
 10
14.9253987748
 20
11.8236311731
 30
0.0
 10
14.9230874744
 20
11.8201020084
 30
0.0
 10
14.9209224287
 20
11.816513084
 30
0.0
 10
14.9189046738
 20
11.8128661967
 30
0.0
 10
14.9170352785
 20
11.8091631145
 30
0.0
 10
14.9153151277
 20
11.8054056967
 30
0.0
 10
14.9137450912
 20
11.801595796
 30
0.0
 10
14.912325985
 20
11.7977352902
 30
0.0
 10
14.9110584542
 20
11.7938261162
 30
0.0
 10
14.9099431914
 20
11.7898701927
 30
0.0
 10
14.9089807144
 20
11.785869496
 30
0.0
 10
14.9081714859
 20
11.7818260121
 30
0.0
 10
14.9075159566
 20
11.7777417394
 30
0.0
 10
14.9070143752
 20
11.7736187153
 30
0.0
 10
14.9066670348
 20
11.7694589762
 30
0.0
 10
14.9064740858
 20
11.7652645882
 30
0.0
 10
14.9064355795
 20
11.7610376227
 30
0.0
 10
14.9065515862
 20
11.7567801867
 30
0.0
 10
14.9068219824
 20
11.7524943258
 30
0.0
 10
14.9073909099
 20
11.7467170964
 30
0.0
 10
14.9084940217
 20
11.7394274295
 30
0.0
 10
14.9104254324
 20
11.7306453044
 30
0.0
 10
14.9129667927
 20
11.7218023151
 30
0.0
 10
14.9161127311
 20
11.7129160784
 30
0.0
 10
14.9198567729
 20
11.7040038481
 30
0.0
 10
14.9241913327
 20
11.6950830089
 30
0.0
 10
14.9291077014
 20
11.6861709077
 30
0.0
 10
14.9345960793
 20
11.6772848803
 30
0.0
 10
14.9406455933
 20
11.668442217
 30
0.0
 10
14.9472443094
 20
11.6596601403
 30
0.0
 10
14.9543792353
 20
11.650955769
 30
0.0
 10
14.9620363313
 20
11.6423460767
 30
0.0
 10
14.9702005547
 20
11.6338478739
 30
0.0
 10
14.9788558808
 20
11.6254777691
 30
0.0
 10
14.9879853302
 20
11.6172521409
 30
0.0
 10
14.9975709808
 20
11.6091870837
 30
0.0
 10
15.0075940173
 20
11.6012983901
 30
0.0
 10
15.0180347707
 20
11.5936015191
 30
0.0
 10
15.0288727547
 20
11.5861115667
 30
0.0
 10
15.0400866963
 20
11.5788432261
 30
0.0
 10
15.0516545741
 20
11.5718107506
 30
0.0
 10
15.0635536752
 20
11.565027942
 30
0.0
 10
15.0757606365
 20
11.5585081175
 30
0.0
 10
15.08825149
 20
11.5522640872
 30
0.0
 10
15.1010016991
 20
11.5463081067
 30
0.0
 10
15.1139862179
 20
11.5406518703
 30
0.0
 10
15.1271795414
 20
11.5353064884
 30
0.0
 10
15.1405557557
 20
11.5302824687
 30
0.0
 10
15.1540885832
 20
11.5255896823
 30
0.0
 10
15.1677514349
 20
11.5212373405
 30
0.0
 10
15.1815174695
 20
11.5172339926
 30
0.0
 10
15.1953596435
 20
11.5135875063
 30
0.0
 10
15.2092507653
 20
11.5103050544
 30
0.0
 10
15.2231635444
 20
11.5073930765
 30
0.0
 10
15.2370706497
 20
11.5048572906
 30
0.0
 10
15.2509447634
 20
11.5027026767
 30
0.0
 10
15.2647586496
 20
11.5009334721
 30
0.0
 10
15.2784851197
 20
11.4995531751
 30
0.0
 10
15.2920973864
 20
11.498564433
 30
0.0
 10
15.3055684118
 20
11.4979692814
 30
0.0
 10
15.3145008461
 20
11.497834677
 30
0.0
 10
15.3189368164
 20
11.497834677
 30
0.0
  0
SPLINE
  5
2DE
100
AcDbEntity
  8
LAYER_FEATURE
100
AcDbSpline
 62
7
  6
CONTINUOUS
 70
0
 71
3
 72
80
 73
76
 74
0
 42
0.0000001
 43
0.0000001
 44
0.0000000001
 40
0.0
 40
0.0
 40
0.0
 40
0.0
 40
0.0171785694
 40
0.0345302214
 40
0.0520439891
 40
0.0697095676
 40
0.087515767
 40
0.1054512208
 40
0.1235042682
 40
0.1416629748
 40
0.1599151866
 40
0.1782485442
 40
0.1966505161
 40
0.2151084273
 40
0.2336094856
 40
0.2521408081
 40
0.2706894492
 40
0.2892424281
 40
0.3077867547
 40
0.3263094563
 40
0.3447976057
 40
0.3632383475
 40
0.3816189249
 40
0.3999267064
 40
0.4181492162
 40
0.4362741602
 40
0.4542894536
 40
0.4721832497
 40
0.4899439726
 40
0.5075603452
 40
0.5250214187
 40
0.5423166036
 40
0.5594357067
 40
0.5763689633
 40
0.593107069
 40
0.6096412157
 40
0.6259631336
 40
0.6420651299
 40
0.6579401256
 40
0.6735816976
 40
0.6889841275
 40
0.7041424495
 40
0.719052494
 40
0.7337109377
 40
0.7481153596
 40
0.7622642994
 40
0.776157308
 40
0.7897950047
 40
0.8031791375
 40
0.8163126471
 40
0.8291997191
 40
0.8418458368
 40
0.8542578348
 40
0.8603789023
 40
0.8664446472
 40
0.8784145448
 40
0.8901793499
 40
0.8959891215
 40
0.9017524686
 40
0.9074711897
 40
0.9131471767
 40
0.9187824117
 40
0.9243789562
 40
0.9354637337
 40
0.9464205521
 40
0.9518574684
 40
0.957269738
 40
0.9626599402
 40
0.9680307063
 40
0.9733847205
 40
0.9787247071
 40
0.9840534271
 40
0.9893736719
 40
0.9946882534
 40
1.0
 40
1.0
 40
1.0
 40
1.0
 10
15.385409441
 20
13.8862281938
 30
0.0
 10
15.3956448255
 20
13.8862281938
 30
0.0
 10
15.4162193779
 20
13.8860029702
 30
0.0
 10
15.4472144117
 20
13.8850022806
 30
0.0
 10
15.4784715772
 20
13.8833379337
 30
0.0
 10
15.5099579415
 20
13.8810117522
 30
0.0
 10
15.5416409611
 20
13.8780260949
 30
0.0
 10
15.5734875867
 20
13.8743840958
 30
0.0
 10
15.6054646875
 20
13.870089552
 30
0.0
 10
15.6375389828
 20
13.8651469294
 30
0.0
 10
15.669677084
 20
13.8595613647
 30
0.0
 10
15.7018455398
 20
13.8533386754
 30
0.0
 10
15.7340108662
 20
13.8464853467
 30
0.0
 10
15.7661395809
 20
13.8390085121
 30
0.0
 10
15.7981982374
 20
13.8309159459
 30
0.0
 10
15.8301534626
 20
13.8222160718
 30
0.0
 10
15.8619719937
 20
13.8129179555
 30
0.0
 10
15.8936207084
 20
13.8030312767
 30
0.0
 10
15.9250666581
 20
13.7925663204
 30
0.0
 10
15.9562771062
 20
13.7815339764
 30
0.0
 10
15.9872195664
 20
13.7699457393
 30
0.0
 10
16.0178618294
 20
13.7578136732
 30
0.0
 10
16.0481719956
 20
13.7451504025
 30
0.0
 10
16.0781185102
 20
13.7319691014
 30
0.0
 10
16.1076702059
 20
13.7182835006
 30
0.0
 10
16.1367963242
 20
13.7041078466
 30
0.0
 10
16.1654665472
 20
13.6894568912
 30
0.0
 10
16.1936510285
 20
13.6743458731
 30
0.0
 10
16.2213204387
 20
13.6587905272
 30
0.0
 10
16.2484459841
 20
13.6428070435
 30
0.0
 10
16.2749994338
 20
13.6264120521
 30
0.0
 10
16.3009531477
 20
13.609622601
 30
0.0
 10
16.3262801221
 20
13.5924561626
 30
0.0
 10
16.3509540078
 20
13.5749305974
 30
0.0
 10
16.3749491309
 20
13.5570641317
 30
0.0
 10
16.3982405174
 20
13.5388753354
 30
0.0
 10
16.4208039363
 20
13.5203831212
 30
0.0
 10
16.4426159196
 20
13.5016067167
 30
0.0
 10
16.463653775
 20
13.482565634
 30
0.0
 10
16.4838956069
 20
13.463279649
 30
0.0
 10
16.5033203531
 20
13.4437687921
 30
0.0
 10
16.5219078112
 20
13.4240533294
 30
0.0
 10
16.5396386388
 20
13.4041537255
 30
0.0
 10
16.5564943721
 20
13.3840906245
 30
0.0
 10
16.5724574534
 20
13.3638848336
 30
0.0
 10
16.5875112639
 20
13.343557312
 30
0.0
 10
16.6016401126
 20
13.3231291293
 30
0.0
 10
16.6148292498
 20
13.302621452
 30
0.0
 10
16.6270648866
 20
13.2820555132
 30
0.0
 10
16.6383342234
 20
13.2614526388
 30
0.0
 10
16.6486254698
 20
13.2408340943
 30
0.0
 10
16.6579277044
 20
13.2202214861
 30
0.0
 10
16.664879202
 20
13.2029876101
 30
0.0
 10
16.6699288507
 20
13.1892273858
 30
0.0
 10
16.6745972077
 20
13.1756113741
 30
0.0
 10
16.6798077855
 20
13.1586309407
 30
0.0
 10
16.6842080904
 20
13.1415796066
 30
0.0
 10
16.6872069459
 20
13.1280004353
 30
0.0
 10
16.6891894002
 20
13.1178890504
 30
0.0
 10
16.6909138521
 20
13.1078113632
 30
0.0
 10
16.6923798594
 20
13.0977699667
 30
0.0
 10
16.6935870679
 20
13.0877674132
 30
0.0
 10
16.6948470064
 20
13.0745293516
 30
0.0
 10
16.6957801808
 20
13.0580805886
 30
0.0
 10
16.6958495836
 20
13.0417001782
 30
0.0
 10
16.6953814605
 20
13.0287147706
 30
0.0
 10
16.6947715978
 20
13.0190569718
 30
0.0
 10
16.6939022446
 20
13.0094586858
 30
0.0
 10
16.6927735653
 20
12.999922351
 30
0.0
 10
16.6913859089
 20
12.990450477
 30
0.0
 10
16.6897396077
 20
12.9810455364
 30
0.0
 10
16.6878350696
 20
12.9717100041
 30
0.0
 10
16.6856728371
 20
12.9624462855
 30
0.0
 10
16.683253443
 20
12.9532569137
 30
0.0
 10
16.681469284
 20
12.9471810533
 30
0.0
 10
16.6805348698
 20
12.9441572793
 30
0.0
  0
SPLINE
  5
2DF
100
AcDbEntity
  8
LAYER_FEATURE
100
AcDbSpline
 62
7
  6
CONTINUOUS
 70
0
 71
3
 72
70
 73
66
 74
0
 42
0.0000001
 43
0.0000001
 44
0.0000000001
 40
0.0
 40
0.0
 40
0.0
 40
0.0
 40
0.0208238391
 40
0.0414785311
 40
0.0619565831
 40
0.0822525091
 40
0.1023610765
 40
0.1222769104
 40
0.1419949664
 40
0.1615105905
 40
0.1808194271
 40
0.1999174145
 40
0.218800865
 40
0.2374664309
 40
0.2559111682
 40
0.2741325003
 40
0.2921282923
 40
0.3098968194
 40
0.327436827
 40
0.344747521
 40
0.3618286037
 40
0.3786802936
 40
0.3953033316
 40
0.4116990303
 40
0.4278692544
 40
0.4438164904
 40
0.4595438116
 40
0.4750549537
 40
0.5054433673
 40
0.520334883
 40
0.5350317759
 40
0.5495411694
 40
0.56387089
 40
0.5780294822
 40
0.5920261797
 40
0.605870926
 40
0.6195743226
 40
0.6331476421
 40
0.6466027626
 40
0.6599521594
 40
0.6732088358
 40
0.6863862854
 40
0.6994984227
 40
0.7125595179
 40
0.725584126
 40
0.7385870036
 40
0.7515830326
 40
0.7645871325
 40
0.7776141765
 40
0.7906789109
 40
0.8037958661
 40
0.81697929
 40
0.830243062
 40
0.8436006387
 40
0.8570649837
 40
0.8706485201
 40
0.8843630863
 40
0.8982198889
 40
0.9122294911
 40
0.9264017621
 40
0.940745897
 40
0.9552703647
 40
0.9699829486
 40
0.9848907035
 40
1.0
 40
1.0
 40
1.0
 40
1.0
 10
15.4136277287
 20
13.748299178
 30
0.0
 10
15.4072229225
 20
13.748299178
 30
0.0
 10
15.3944650883
 20
13.7481976905
 30
0.0
 10
15.3754138081
 20
13.7477369658
 30
0.0
 10
15.3565348897
 20
13.7469685009
 30
0.0
 10
15.3378392211
 20
13.7458927872
 30
0.0
 10
15.3193370939
 20
13.7445104102
 30
0.0
 10
15.3010388241
 20
13.7428221469
 30
0.0
 10
15.2829546934
 20
13.7408289301
 30
0.0
 10
15.2650948266
 20
13.7385318683
 30
0.0
 10
15.2474692044
 20
13.7359322689
 30
0.0
 10
15.2300876929
 20
13.7330315404
 30
0.0
 10
15.2129600141
 20
13.7298313532
 30
0.0
 10
15.1960957579
 20
13.7263334324
 30
0.0
 10
15.1795043495
 20
13.7225397932
 30
0.0
 10
15.1631950817
 20
13.7184524865
 30
0.0
 10
15.1471770679
 20
13.7140738494
 30
0.0
 10
15.1314592791
 20
13.7094062732
 30
0.0
 10
15.1160505006
 20
13.704452394
 30
0.0
 10
15.1009593577
 20
13.699214951
 30
0.0
 10
15.0861942933
 20
13.6936968633
 30
0.0
 10
15.0717635641
 20
13.6879012174
 30
0.0
 10
15.0576752553
 20
13.6818312063
 30
0.0
 10
15.0439372391
 20
13.6754902565
 30
0.0
 10
15.030557212
 20
13.668881825
 30
0.0
 10
15.0175427015
 20
13.6620096942
 30
0.0
 10
15.0049007945
 20
13.6548774642
 30
0.0
 10
14.9886638528
 20
13.6450943673
 30
0.0
 10
14.9730753149
 20
13.6347450414
 30
0.0
 10
14.958200133
 20
13.6238310696
 30
0.0
 10
14.9475241403
 20
13.6154614281
 30
0.0
 10
14.9372603375
 20
13.6068578101
 30
0.0
 10
14.9274143584
 20
13.5980248746
 30
0.0
 10
14.9179917667
 20
13.5889676012
 30
0.0
 10
14.9089979111
 20
13.5796909835
 30
0.0
 10
14.9004378249
 20
13.5702002517
 30
0.0
 10
14.8923164146
 20
13.5605006453
 30
0.0
 10
14.8846382178
 20
13.5505976459
 30
0.0
 10
14.877407659
 20
13.5404967431
 30
0.0
 10
14.8706287885
 20
13.5302036459
 30
0.0
 10
14.8643055129
 20
13.5197240991
 30
0.0
 10
14.8584414003
 20
13.5090640188
 30
0.0
 10
14.8530398077
 20
13.4982293986
 30
0.0
 10
14.848103819
 20
13.487226348
 30
0.0
 10
14.8436362187
 20
13.4760610912
 30
0.0
 10
14.8396395961
 20
13.4647399214
 30
0.0
 10
14.8361161538
 20
13.4532692653
 30
0.0
 10
14.8330679661
 20
13.441655591
 30
0.0
 10
14.8304966613
 20
13.4299054956
 30
0.0
 10
14.8284037696
 20
13.4180256106
 30
0.0
 10
14.8267903666
 20
13.4060226725
 30
0.0
 10
14.8256574091
 20
13.3939034587
 30
0.0
 10
14.8250054454
 20
13.3816748222
 30
0.0
 10
14.8248348404
 20
13.3693436625
 30
0.0
 10
14.8251456334
 20
13.3569169334
 30
0.0
 10
14.8259375937
 20
13.3444016313
 30
0.0
 10
14.8272102598
 20
13.3318047999
 30
0.0
 10
14.8289628161
 20
13.3191335091
 30
0.0
 10
14.8311942971
 20
13.3063948823
 30
0.0
 10
14.8339033244
 20
13.2935960456
 30
0.0
 10
14.8370884163
 20
13.2807441862
 30
0.0
 10
14.8407476577
 20
13.2678464849
 30
0.0
 10
14.8448790473
 20
13.25491014
 30
0.0
 10
14.8494801068
 20
13.2419425111
 30
0.0
 10
14.8528360915
 20
13.233339875
 30
0.0
 10
14.854589695
 20
13.2290362544
 30
0.0
  0
SPLINE
  5
2E0
100
AcDbEntity
  8
LAYER_FEATURE
100
AcDbSpline
 62
7
  6
CONTINUOUS
 70
0
 71
3
 72
91
 73
87
 74
0
 42
0.0000001
 43
0.0000001
 44
0.0000000001
 40
0.0
 40
0.0
 40
0.0
 40
0.0
 40
0.0181087434
 40
0.0364371893
 40
0.0549686265
 40
0.073686023
 40
0.0925714778
 40
0.111606626
 40
0.1307725753
 40
0.1500500209
 40
0.1694192984
 40
0.188860454
 40
0.2083533081
 40
0.22787752
 40
0.2474126519
 40
0.2669382321
 40
0.2864338186
 40
0.3058790624
 40
0.3252537714
 40
0.3445379744
 40
0.3637119863
 40
0.3827564736
 40
0.401652522
 40
0.4203817048
 40
0.4389261531
 40
0.4572686287
 40
0.4753925984
 40
0.4932823115
 40
0.5109228805
 40
0.5283003656
 40
0.5454018627
 40
0.5622155965
 40
0.5787310181
 40
0.5949389082
 40
0.6108314866
 40
0.6264025269
 40
0.6416474773
 40
0.6565635876
 40
0.6711500414
 40
0.6854080916
 40
0.6993411994
 40
0.7061880722
 40
0.7129560932
 40
0.7262592134
 40
0.7327980195
 40
0.7392634247
 40
0.7519802003
 40
0.7644269711
 40
0.7705556247
 40
0.7766242166
 40
0.7826355859
 40
0.7885927433
 40
0.7944988719
 40
0.8003573123
 40
0.80617157
 40
0.8119452928
 40
0.8176822772
 40
0.8233864442
 40
0.8290618396
 40
0.8347126126
 40
0.8403430075
 40
0.8459573459
 40
0.8515600117
 40
0.8571554349
 40
0.8627480736
 40
0.8683423969
 40
0.8739428677
 40
0.8795539239
 40
0.885179963
 40
0.8908253229
 40
0.8964942682
 40
0.9021909741
 40
0.9079195106
 40
0.9136838342
 40
0.9194877683
 40
0.9253350038
 40
0.9312290758
 40
0.9371733723
 40
0.9431711103
 40
0.949225347
 40
0.9553389624
 40
0.9615146652
 40
0.9677549882
 40
0.9740622835
 40
0.9868852302
 40
1.0
 40
1.0
 40
1.0
 40
1.0
 10
15.4136277287
 20
13.748299178
 30
0.0
 10
15.424425678
 20
13.748299178
 30
0.0
 10
15.4461536042
 20
13.7480079011
 30
0.0
 10
15.4789084976
 20
13.7467173621
 30
0.0
 10
15.5119823805
 20
13.7445724126
 30
0.0
 10
15.5453233747
 20
13.7415764449
 30
0.0
 10
15.5788797213
 20
13.7377340936
 30
0.0
 10
15.6125991169
 20
13.7330513637
 30
0.0
 10
15.646429071
 20
13.7275355394
 30
0.0
 10
15.6803168951
 20
13.7211952153
 30
0.0
 10
15.714209814
 20
13.714040264
 30
0.0
 10
15.7480550408
 20
13.7060818295
 30
0.0
 10
15.7817998611
 20
13.697332306
 30
0.0
 10
15.8153917157
 20
13.6878053212
 30
0.0
 10
15.8487782833
 20
13.6775157147
 30
0.0
 10
15.8819075623
 20
13.6664795138
 30
0.0
 10
15.9147279518
 20
13.6547139084
 30
0.0
 10
15.9471883329
 20
13.6422372241
 30
0.0
 10
15.9792381486
 20
13.6290688935
 30
0.0
 10
16.0108274825
 20
13.6152294255
 30
0.0
 10
16.0419071373
 20
13.6007403731
 30
0.0
 10
16.0724287117
 20
13.585624299
 30
0.0
 10
16.1023446756
 20
13.5699047407
 30
0.0
 10
16.1316084453
 20
13.5536061721
 30
0.0
 10
16.1601744563
 20
13.5367539668
 30
0.0
 10
16.1879982345
 20
13.5193743558
 30
0.0
 10
16.215036465
 20
13.5014943858
 30
0.0
 10
16.2412470593
 20
13.4831418761
 30
0.0
 10
16.2665892207
 20
13.4643453735
 30
0.0
 10
16.2910235076
 20
13.4451341068
 30
0.0
 10
16.3145118935
 20
13.4255379396
 30
0.0
 10
16.3370178253
 20
13.4055873216
 30
0.0
 10
16.358506279
 20
13.38531324
 30
0.0
 10
16.3789438113
 20
13.3647471684
 30
0.0
 10
16.3982986107
 20
13.343921016
 30
0.0
 10
16.4165405416
 20
13.3228670792
 30
0.0
 10
16.4336411918
 20
13.3016179778
 30
0.0
 10
16.4495738887
 20
13.2802066428
 30
0.0
 10
16.4643138121
 20
13.258666125
 30
0.0
 10
16.4778377431
 20
13.2370300498
 30
0.0
 10
16.4881361194
 20
13.2188432692
 30
0.0
 10
16.4957357859
 20
13.204279045
 30
0.0
 10
16.5028283688
 20
13.1898791241
 30
0.0
 10
16.5093325104
 20
13.1753981663
 30
0.0
 10
16.5152174326
 20
13.1608557415
 30
0.0
 10
16.5206066813
 20
13.1464952243
 30
0.0
 10
16.5265440891
 20
13.128584532
 30
0.0
 10
16.5314440633
 20
13.1105695592
 30
0.0
 10
16.534690108
 20
13.0962359612
 30
0.0
 10
16.5367804292
 20
13.0855799384
 30
0.0
 10
16.5385380446
 20
13.0749676798
 30
0.0
 10
16.5399622478
 20
13.064403235
 30
0.0
 10
16.5410525042
 20
13.0538907585
 30
0.0
 10
16.5418083024
 20
13.043434343
 30
0.0
 10
16.5422294082
 20
13.0330380851
 30
0.0
 10
16.5423155498
 20
13.0227060458
 30
0.0
 10
16.5420667622
 20
13.0124422728
 30
0.0
 10
16.5414830486
 20
13.002250786
 30
0.0
 10
16.5405646826
 20
12.992135579
 30
0.0
 10
16.5393119716
 20
12.9821006204
 30
0.0
 10
16.5377254082
 20
12.9721498478
 30
0.0
 10
16.5358056174
 20
12.9622871639
 30
0.0
 10
16.5335533074
 20
12.9525164499
 30
0.0
 10
16.5309694164
 20
12.9428415285
 30
0.0
 10
16.5280548803
 20
12.9332662204
 30
0.0
 10
16.5248109285
 20
12.9237942591
 30
0.0
 10
16.5212387502
 20
12.9144293933
 30
0.0
 10
16.5173398326
 20
12.9051752676
 30
0.0
 10
16.5131156466
 20
12.896035539
 30
0.0
 10
16.5085679062
 20
12.8870137693
 30
0.0
 10
16.5036983806
 20
12.8781135034
 30
0.0
 10
16.4985089933
 20
12.8693382252
 30
0.0
 10
16.4930018114
 20
12.8606913522
 30
0.0
 10
16.4871789671
 20
12.8521762902
 30
0.0
 10
16.4810428094
 20
12.8437963229
 30
0.0
 10
16.4745956904
 20
12.8355547684
 30
0.0
 10
16.4678402142
 20
12.8274547824
 30
0.0
 10
16.4607789725
 20
12.8194995749
 30
0.0
 10
16.4534147944
 20
12.8116921893
 30
0.0
 10
16.4457505285
 20
12.8040357033
 30
0.0
 10
16.4377892034
 20
12.7965330614
 30
0.0
 10
16.429533943
 20
12.7891872
 30
0.0
 10
16.4209879173
 20
12.7820009325
 30
0.0
 10
16.4091456656
 20
12.7725845556
 30
0.0
 10
16.3936171346
 20
12.7612307869
 30
0.0
 10
16.3806742035
 20
12.7527506076
 30
0.0
 10
16.3740311678
 20
12.7486245419
 30
0.0
  0
SPLINE
  5
2E1
100
AcDbEntity
  8
LAYER_FEATURE
100
AcDbSpline
 62
7
  6
CONTINUOUS
 70
0
 71
3
 72
73
 73
69
 74
0
 42
0.0000001
 43
0.0000001
 44
0.0000000001
 40
0.0
 40
0.0
 40
0.0
 40
0.0
 40
0.0149069001
 40
0.0300594129
 40
0.0454576403
 40
0.0611017695
 40
0.0931046277
 40
0.1094591067
 40
0.1260348002
 40
0.1428209177
 40
0.1598050713
 40
0.1769734338
 40
0.1943108759
 40
0.2118010901
 40
0.229426741
 40
0.2471696064
 40
0.2650107023
 40
0.2829304113
 40
0.3009086256
 40
0.3189248737
 40
0.3369584441
 40
0.3549885182
 40
0.3729943031
 40
0.3909551532
 40
0.4088506995
 40
0.4266609879
 40
0.4443666034
 40
0.461948796
 40
0.4793896232
 40
0.4966720883
 40
0.513780265
 40
0.5306994331
 40
0.5474162368
 40
0.5639188173
 40
0.5801969441
 40
0.5962421607
 40
0.612047946
 40
0.6276098342
 40
0.6429255408
 40
0.657995101
 40
0.6728209942
 40
0.6874082213
 40
0.7017643781
 40
0.7158997197
 40
0.7298271714
 40
0.7435622827
 40
0.7571231486
 40
0.7705302877
 40
0.783806436
 40
0.7969762807
 40
0.8100661431
 40
0.8231036097
 40
0.8361171063
 40
0.8491354451
 40
0.8621873599
 40
0.8753010411
 40
0.8885036949
 40
0.9018211402
 40
0.915277445
 40
0.9220654545
 40
0.9288962433
 40
0.9357722054
 40
0.9426955924
 40
0.9566912379
 40
0.9708991771
 40
0.978087577
 40
0.9853337416
 40
1.0
 40
1.0
 40
1.0
 40
1.0
 10
14.8392818986
 20
12.6125386388
 30
0.0
 10
14.8399430933
 20
12.6146782655
 30
0.0
 10
14.8413912407
 20
12.618958132
 30
0.0
 10
14.8439078107
 20
12.6253094985
 30
0.0
 10
14.8467806208
 20
12.6316299999
 30
0.0
 10
14.8511083834
 20
12.6400578165
 30
0.0
 10
14.856095756
 20
12.6482963096
 30
0.0
 10
14.861679769
 20
12.6562973346
 30
0.0
 10
14.866211863
 20
12.6622370067
 30
0.0
 10
14.8710459912
 20
12.6680566451
 30
0.0
 10
14.8761706766
 20
12.6737425627
 30
0.0
 10
14.8815735402
 20
12.6792810353
 30
0.0
 10
14.8872416077
 20
12.6846587724
 30
0.0
 10
14.8931612329
 20
12.6898628583
 30
0.0
 10
14.8993181699
 20
12.694880802
 30
0.0
 10
14.9056976132
 20
12.6997005443
 30
0.0
 10
14.9122842295
 20
12.70431049
 30
0.0
 10
14.9190621682
 20
12.7086995719
 30
0.0
 10
14.9260151255
 20
12.7128572454
 30
0.0
 10
14.9331263853
 20
12.7167735087
 30
0.0
 10
14.9403788513
 20
12.7204389349
 30
0.0
 10
14.9477550746
 20
12.7238447256
 30
0.0
 10
14.9552373175
 20
12.7269826926
 30
0.0
 10
14.9628075934
 20
12.7298452759
 30
0.0
 10
14.9704477003
 20
12.7324255847
 30
0.0
 10
14.978139264
 20
12.7347174249
 30
0.0
 10
14.9858637936
 20
12.736715279
 30
0.0
 10
14.9936027229
 20
12.7384143183
 30
0.0
 10
15.001337447
 20
12.7398104525
 30
0.0
 10
15.0090493733
 20
12.740900324
 30
0.0
 10
15.0167199678
 20
12.7416812931
 30
0.0
 10
15.0243307968
 20
12.7421514437
 30
0.0
 10
15.0318635695
 20
12.7423096355
 30
0.0
 10
15.0393001859
 20
12.7421554671
 30
0.0
 10
15.0466227754
 20
12.7416892663
 30
0.0
 10
15.0538137385
 20
12.7409120969
 30
0.0
 10
15.060855794
 20
12.7398257973
 30
0.0
 10
15.067732015
 20
12.738432926
 30
0.0
 10
15.0744258616
 20
12.7367367531
 30
0.0
 10
15.0809212233
 20
12.734741276
 30
0.0
 10
15.0872024653
 20
12.7324512301
 30
0.0
 10
15.0932544485
 20
12.7298720348
 30
0.0
 10
15.0990625569
 20
12.7270097831
 30
0.0
 10
15.1046127494
 20
12.7238712708
 30
0.0
 10
15.1098915917
 20
12.7204639736
 30
0.0
 10
15.1148862695
 20
12.7167960069
 30
0.0
 10
15.1195846142
 20
12.7128761165
 30
0.0
 10
15.1239751747
 20
12.7087137099
 30
0.0
 10
15.1280472266
 20
12.7043188037
 30
0.0
 10
15.1317907912
 20
12.6997019964
 30
0.0
 10
15.1351966709
 20
12.6948744544
 30
0.0
 10
15.1382565308
 20
12.6898479165
 30
0.0
 10
15.1409628813
 20
12.6846346209
 30
0.0
 10
15.1433090975
 20
12.6792472751
 30
0.0
 10
15.1452894633
 20
12.6736990243
 30
0.0
 10
15.1468992192
 20
12.6680034315
 30
0.0
 10
15.1481345178
 20
12.6621743484
 30
0.0
 10
15.1489924337
 20
12.6562261157
 30
0.0
 10
15.1493900669
 20
12.6511961389
 30
0.0
 10
15.1495196379
 20
12.6471301849
 30
0.0
 10
15.1495220655
 20
12.644050752
 30
0.0
 10
15.1494294729
 20
12.6409523841
 30
0.0
 10
15.1491785231
 20
12.6367837588
 30
0.0
 10
15.148624869
 20
12.6315324691
 30
0.0
 10
15.1477615828
 20
12.6262830294
 30
0.0
 10
15.1468857034
 20
12.6220696551
 30
0.0
 10
15.1458777923
 20
12.6178151965
 30
0.0
 10
15.1449878208
 20
12.6146437256
 30
0.0
 10
15.1443372998
 20
12.6125386388
 30
0.0
  0
SPLINE
  5
2E2
100
AcDbEntity
  8
LAYER_FEATURE
100
AcDbSpline
 62
7
  6
CONTINUOUS
 70
0
 71
3
 72
32
 73
28
 74
0
 42
0.0000001
 43
0.0000001
 44
0.0000000001
 40
0.0
 40
0.0
 40
0.0
 40
0.0
 40
0.070832098
 40
0.1405384488
 40
0.2090718502
 40
0.2763999123
 40
0.3425035186
 40
0.3750979067
 40
0.4073861947
 40
0.4710465724
 40
0.5335211871
 40
0.5643319266
 40
0.5948653552
 40
0.6251301926
 40
0.655136183
 40
0.6848942621
 40
0.7144163757
 40
0.7437156018
 40
0.7728059913
 40
0.8017026308
 40
0.8304215116
 40
0.8589795287
 40
0.8873943766
 40
0.9156844905
 40
0.9438689594
 40
0.9719674253
 40
1.0
 40
1.0
 40
1.0
 40
1.0
 10
15.0545460614
 20
12.7489526564
 30
0.0
 10
15.0581377241
 20
12.7489526564
 30
0.0
 10
15.0652652943
 20
12.7487814156
 30
0.0
 10
15.0758419893
 20
12.7479977954
 30
0.0
 10
15.0861884344
 20
12.7466917745
 30
0.0
 10
15.0962706092
 20
12.7448675349
 30
0.0
 10
15.1044637704
 20
12.742910983
 30
0.0
 10
15.1108519024
 20
12.7410895988
 30
0.0
 10
15.1170657941
 20
12.739119234
 30
0.0
 10
15.1246122344
 20
12.7363505036
 30
0.0
 10
15.1319043517
 20
12.7331490749
 30
0.0
 10
15.1375248529
 20
12.7303489516
 30
0.0
 10
15.1416132389
 20
12.7281419012
 30
0.0
 10
15.1455904325
 20
12.725820213
 30
0.0
 10
15.1494532134
 20
12.7233856774
 30
0.0
 10
15.1531984657
 20
12.7208403279
 30
0.0
 10
15.1568231116
 20
12.7181861646
 30
0.0
 10
15.1603242336
 20
12.7154253818
 30
0.0
 10
15.1636989539
 20
12.7125601747
 30
0.0
 10
15.1669445462
 20
12.7095928913
 30
0.0
 10
15.1700583516
 20
12.7065259176
 30
0.0
 10
15.1730378374
 20
12.7033617478
 30
0.0
 10
15.1758805793
 20
12.7001029498
 30
0.0
 10
15.1785842403
 20
12.6967521626
 30
0.0
 10
15.1811466532
 20
12.6933121082
 30
0.0
 10
15.1835656442
 20
12.6897856294
 30
0.0
 10
15.1850829336
 20
12.6873765358
 30
0.0
 10
15.1858166265
 20
12.6861590855
 30
0.0
  0
SPLINE
  5
2E3
100
AcDbEntity
  8
LAYER_FEATURE
100
AcDbSpline
 62
7
  6
CONTINUOUS
 70
0
 71
3
 72
37
 73
33
 74
0
 42
0.0000001
 43
0.0000001
 44
0.0000000001
 40
0.0
 40
0.0
 40
0.0
 40
0.0
 40
0.0272320291
 40
0.0549120075
 40
0.0830414253
 40
0.1116199289
 40
0.1700822989
 40
0.1999584494
 40
0.230238706
 40
0.2609033564
 40
0.2919297822
 40
0.3232927246
 40
0.3549645335
 40
0.3869154233
 40
0.4191137308
 40
0.4515261623
 40
0.4841180367
 40
0.5168535254
 40
0.5496958915
 40
0.5826077332
 40
0.6155512192
 40
0.6484883221
 40
0.6813810518
 40
0.7141916921
 40
0.7468830403
 40
0.7794186394
 40
0.8117630236
 40
0.8438819415
 40
0.8757425985
 40
0.9073140581
 40
0.9385667823
 40
1.0
 40
1.0
 40
1.0
 40
1.0
 10
14.8137787067
 20
12.5868039861
 30
0.0
 10
14.8146052092
 20
12.5894785492
 30
0.0
 10
14.8164153764
 20
12.5948283743
 30
0.0
 10
14.8195611086
 20
12.6027675758
 30
0.0
 10
14.8231521055
 20
12.6106681785
 30
0.0
 10
14.8285618182
 20
12.6212029593
 30
0.0
 10
14.834796017
 20
12.6315010856
 30
0.0
 10
14.8417760486
 20
12.6415023535
 30
0.0
 10
14.8474411671
 20
12.6489269423
 30
0.0
 10
14.8534838183
 20
12.6562014968
 30
0.0
 10
14.8598896733
 20
12.6633088954
 30
0.0
 10
14.8666432592
 20
12.6702319807
 30
0.0
 10
14.8737283434
 20
12.6769541524
 30
0.0
 10
14.8811278718
 20
12.6834592634
 30
0.0
 10
14.8888240452
 20
12.6897316908
 30
0.0
 10
14.8967983526
 20
12.6957563642
 30
0.0
 10
14.9050316168
 20
12.7015188048
 30
0.0
 10
14.9135040395
 20
12.7070051588
 30
0.0
 10
14.9221952411
 20
12.7122022432
 30
0.0
 10
14.9310843188
 20
12.7170975666
 30
0.0
 10
14.9401498959
 20
12.7216793596
 30
0.0
 10
14.9493701729
 20
12.7259366034
 30
0.0
 10
14.9587229802
 20
12.7298590539
 30
0.0
 10
14.9681858269
 20
12.733437278
 30
0.0
 10
14.9777359578
 20
12.736662671
 30
0.0
 10
14.9873504138
 20
12.7395274728
 30
0.0
 10
14.9970060722
 20
12.7420247847
 30
0.0
 10
15.0066797511
 20
12.7441485876
 30
0.0
 10
15.0163480908
 20
12.7458937602
 30
0.0
 10
15.0259882423
 20
12.7472560983
 30
0.0
 10
15.0386977706
 20
12.7485501544
 30
0.0
 10
15.0482309445
 20
12.7489526564
 30
0.0
 10
15.0545460614
 20
12.7489526564
 30
0.0
  0
SPLINE
  5
2E4
100
AcDbEntity
  8
LAYER_FEATURE
100
AcDbSpline
 62
7
  6
CONTINUOUS
 70
0
 71
3
 72
73
 73
69
 74
0
 42
0.0000001
 43
0.0000001
 44
0.0000000001
 40
0.0
 40
0.0
 40
0.0
 40
0.0
 40
0.0146662584
 40
0.021912423
 40
0.0291008229
 40
0.0433087621
 40
0.0573044076
 40
0.0642277946
 40
0.0711037567
 40
0.0779345455
 40
0.084722555
 40
0.0981788598
 40
0.1114963051
 40
0.1246989589
 40
0.1378126401
 40
0.1508645549
 40
0.1638828937
 40
0.1768963903
 40
0.1899338569
 40
0.2030237193
 40
0.216193564
 40
0.2294697123
 40
0.2428768514
 40
0.2564377173
 40
0.2701728286
 40
0.2841002803
 40
0.2982356219
 40
0.3125917787
 40
0.3271790058
 40
0.342004899
 40
0.3570744592
 40
0.3723901658
 40
0.387952054
 40
0.4037578393
 40
0.4198030559
 40
0.4360811827
 40
0.4525837632
 40
0.4693005669
 40
0.486219735
 40
0.5033279117
 40
0.5206103768
 40
0.538051204
 40
0.5556333966
 40
0.5733390121
 40
0.5911493005
 40
0.6090448468
 40
0.6270056969
 40
0.6450114818
 40
0.6630415559
 40
0.6810751263
 40
0.6990913744
 40
0.7170695887
 40
0.7349892977
 40
0.7528303936
 40
0.770573259
 40
0.7881989099
 40
0.8056891241
 40
0.8230265662
 40
0.8401949287
 40
0.8571790823
 40
0.8739651998
 40
0.8905408933
 40
0.9068953723
 40
0.9388982305
 40
0.9545423597
 40
0.9699405871
 40
0.9850930999
 40
1.0
 40
1.0
 40
1.0
 40
1.0
 10
14.8392818986
 20
12.6125386388
 30
0.0
 10
14.8386313775
 20
12.6104335519
 30
0.0
 10
14.837741406
 20
12.607262081
 30
0.0
 10
14.8367334949
 20
12.6030076224
 30
0.0
 10
14.8358576156
 20
12.5987942481
 30
0.0
 10
14.8349943294
 20
12.5935448084
 30
0.0
 10
14.8344406753
 20
12.5882935187
 30
0.0
 10
14.8341897255
 20
12.5841248935
 30
0.0
 10
14.8340971328
 20
12.5810265255
 30
0.0
 10
14.8340995605
 20
12.5779470926
 30
0.0
 10
14.8342291315
 20
12.5738811386
 30
0.0
 10
14.8346267647
 20
12.5688511618
 30
0.0
 10
14.8354846806
 20
12.5629029291
 30
0.0
 10
14.8367199791
 20
12.557073846
 30
0.0
 10
14.838329735
 20
12.5513782532
 30
0.0
 10
14.8403101009
 20
12.5458300024
 30
0.0
 10
14.8426563171
 20
12.5404426566
 30
0.0
 10
14.8453626675
 20
12.5352293611
 30
0.0
 10
14.8484225274
 20
12.5302028231
 30
0.0
 10
14.8518284072
 20
12.5253752811
 30
0.0
 10
14.8555719718
 20
12.5207584738
 30
0.0
 10
14.8596440237
 20
12.5163635676
 30
0.0
 10
14.8640345842
 20
12.512201161
 30
0.0
 10
14.8687329289
 20
12.5082812706
 30
0.0
 10
14.8737276067
 20
12.5046133039
 30
0.0
 10
14.879006449
 20
12.5012060067
 30
0.0
 10
14.8845566414
 20
12.4980674945
 30
0.0
 10
14.8903647498
 20
12.4952052427
 30
0.0
 10
14.8964167331
 20
12.4926260474
 30
0.0
 10
14.902697975
 20
12.4903360015
 30
0.0
 10
14.9091933368
 20
12.4883405244
 30
0.0
 10
14.9158871833
 20
12.4866443515
 30
0.0
 10
14.9227634044
 20
12.4852514802
 30
0.0
 10
14.9298054599
 20
12.4841651806
 30
0.0
 10
14.936996423
 20
12.4833880112
 30
0.0
 10
14.9443190125
 20
12.4829218105
 30
0.0
 10
14.9517556288
 20
12.482767642
 30
0.0
 10
14.9592884015
 20
12.4829258338
 30
0.0
 10
14.9668992306
 20
12.4833959844
 30
0.0
 10
14.974569825
 20
12.4841769535
 30
0.0
 10
14.9822817513
 20
12.485266825
 30
0.0
 10
14.9900164755
 20
12.4866629592
 30
0.0
 10
14.9977554048
 20
12.4883619985
 30
0.0
 10
15.0054799343
 20
12.4903598527
 30
0.0
 10
15.013171498
 20
12.4926516928
 30
0.0
 10
15.020811605
 20
12.4952320016
 30
0.0
 10
15.0283818809
 20
12.4980945849
 30
0.0
 10
15.0358641238
 20
12.5012325519
 30
0.0
 10
15.0432403471
 20
12.5046383426
 30
0.0
 10
15.0504928131
 20
12.5083037689
 30
0.0
 10
15.0576040728
 20
12.5122200321
 30
0.0
 10
15.0645570302
 20
12.5163777056
 30
0.0
 10
15.0713349688
 20
12.5207667875
 30
0.0
 10
15.0779215851
 20
12.5253767332
 30
0.0
 10
15.0843010285
 20
12.5301964755
 30
0.0
 10
15.0904579655
 20
12.5352144192
 30
0.0
 10
15.0963775907
 20
12.5404185052
 30
0.0
 10
15.1020456581
 20
12.5457962422
 30
0.0
 10
15.1074485217
 20
12.5513347149
 30
0.0
 10
15.1125732072
 20
12.5570206324
 30
0.0
 10
15.1174073354
 20
12.5628402708
 30
0.0
 10
15.1219394294
 20
12.5687799429
 30
0.0
 10
15.1275234423
 20
12.5767809679
 30
0.0
 10
15.1325108149
 20
12.585019461
 30
0.0
 10
15.1368385776
 20
12.5934472777
 30
0.0
 10
15.1397113877
 20
12.5997677791
 30
0.0
 10
15.1422279577
 20
12.6061191455
 30
0.0
 10
15.1436761051
 20
12.610399012
 30
0.0
 10
15.1443372998
 20
12.6125386388
 30
0.0
  0
SPLINE
  5
2E5
100
AcDbEntity
  8
LAYER_FEATURE
100
AcDbSpline
 62
7
  6
CONTINUOUS
 70
0
 71
3
 72
15
 73
11
 74
0
 42
0.0000001
 43
0.0000001
 44
0.0000000001
 40
0.0
 40
0.0
 40
0.0
 40
0.0
 40
0.1383880679
 40
0.2726917413
 40
0.4030116262
 40
0.529469406
 40
0.6522119442
 40
0.7714103764
 40
0.8872641361
 40
1.0
 40
1.0
 40
1.0
 40
1.0
 10
16.2475795533
 20
11.7862455816
 30
0.0
 10
16.246915878
 20
11.7854504623
 30
0.0
 10
16.2455805794
 20
11.7839063854
 30
0.0
 10
16.243522622
 20
11.7817003949
 30
0.0
 10
16.2414414886
 20
11.7796411841
 30
0.0
 10
16.2393387142
 20
11.7777304103
 30
0.0
 10
16.2372159033
 20
11.7759695037
 30
0.0
 10
16.2350745587
 20
11.7743598745
 30
0.0
 10
16.2329164045
 20
11.7729028052
 30
0.0
 10
16.2314483168
 20
11.772022461
 30
0.0
 10
16.2307125828
 20
11.7716094726
 30
0.0
  0
SPLINE
  5
2E6
100
AcDbEntity
  8
LAYER_CUT_FEAT
100
AcDbSpline
 62
7
  6
CONTINUOUS
 70
0
 71
3
 72
11
 73
7
 74
0
 42
0.0000001
 43
0.0000001
 44
0.0000000001
 40
0.0
 40
0.0
 40
0.0
 40
0.0
 40
0.2530113473
 40
0.5036581013
 40
0.7524707646
 40
1.0
 40
1.0
 40
1.0
 40
1.0
 10
15.7257830786
 20
11.5106223069
 30
0.0
 10
15.7278320294
 20
11.5135990045
 30
0.0
 10
15.731748379
 20
11.5196384158
 30
0.0
 10
15.7370790799
 20
11.528977145
 30
0.0
 10
15.741828949
 20
11.5385370125
 30
0.0
 10
15.7446099336
 20
11.54506312
 30
0.0
 10
15.7458996001
 20
11.5483549147
 30
0.0
  0
SPLINE
  5
2E7
100
AcDbEntity
  8
LAYER_CHAMFER_FEAT
100
AcDbSpline
 62
7
  6
CONTINUOUS
 70
0
 71
3
 72
15
 73
11
 74
0
 42
0.0000001
 43
0.0000001
 44
0.0000000001
 40
0.0
 40
0.0
 40
0.0
 40
0.0
 40
0.1317666363
 40
0.2617715684
 40
0.3899185693
 40
0.5161213098
 40
0.6402988453
 40
0.7623789227
 40
0.8822975433
 40
1.0
 40
1.0
 40
1.0
 40
1.0
 10
15.0522656635
 20
12.8081745344
 30
0.0
 10
15.0404017832
 20
12.8081745344
 30
0.0
 10
15.01683144
 20
12.80787551
 30
0.0
 10
14.9817469241
 20
12.8065103965
 30
0.0
 10
14.9472113779
 20
12.8042334915
 30
0.0
 10
14.9132745574
 20
12.801048081
 30
0.0
 10
14.8799848439
 20
12.7969586508
 30
0.0
 10
14.8473897415
 20
12.791971
 30
0.0
 10
14.8155362683
 20
12.7860922944
 30
0.0
 10
14.794626617
 20
12.7815414136
 30
0.0
 10
14.7843104822
 20
12.7791152797
 30
0.0
  0
SPLINE
  5
2E8
100
AcDbEntity
  8
LAYER_FEATURE
100
AcDbSpline
 62
7
  6
CONTINUOUS
 70
0
 71
3
 72
19
 73
15
 74
0
 42
0.0000001
 43
0.0000001
 44
0.0000000001
 40
0.0
 40
0.0
 40
0.0
 40
0.0
 40
0.0570627687
 40
0.1142730919
 40
0.1717768315
 40
0.229715908
 40
0.2882268101
 40
0.3474397861
 40
0.4684040996
 40
0.5935219126
 40
0.7234892392
 40
0.7904870653
 40
0.8588918307
 40
1.0
 40
1.0
 40
1.0
 40
1.0
 10
16.4031117171
 20
13.2242452602
 30
0.0
 10
16.4031753066
 20
13.2244510455
 30
0.0
 10
16.4032898653
 20
13.2248672237
 30
0.0
 10
16.4034229553
 20
13.2255021986
 30
0.0
 10
16.4035171924
 20
13.2261474546
 30
0.0
 10
16.403572489
 20
13.2268021123
 30
0.0
 10
16.4035887859
 20
13.2274653608
 30
0.0
 10
16.4035582657
 20
13.2283662123
 30
0.0
 10
16.4034201257
 20
13.229512877
 30
0.0
 10
16.4031000613
 20
13.2308982069
 30
0.0
 10
16.4027094471
 20
13.2320515741
 30
0.0
 10
16.4023241083
 20
13.2329764345
 30
0.0
 10
16.4018804679
 20
13.2339214486
 30
0.0
 10
16.4014987327
 20
13.2346153445
 30
0.0
 10
16.4012244218
 20
13.2350718938
 30
0.0
  0
SPLINE
  5
2E9
100
AcDbEntity
  8
LAYER_CHAMFER_FEAT
100
AcDbSpline
 62
7
  6
CONTINUOUS
 70
0
 71
3
 72
39
 73
35
 74
0
 42
0.0000001
 43
0.0000001
 44
0.0000000001
 40
0.0
 40
0.0
 40
0.0
 40
0.0
 40
0.0305403714
 40
0.0614589679
 40
0.0927264922
 40
0.1243126541
 40
0.156185856
 40
0.188313569
 40
0.220662363
 40
0.2531980695
 40
0.2858858929
 40
0.318690536
 40
0.3515763186
 40
0.3845072965
 40
0.4174473787
 40
0.4503604448
 40
0.483210462
 40
0.5159616022
 40
0.5485783603
 40
0.5810256729
 40
0.6132690395
 40
0.6452746443
 40
0.6770094817
 40
0.7084414845
 40
0.7395396547
 40
0.7702742003
 40
0.8006166748
 40
0.8305401243
 40
0.8600192396
 40
0.8890305167
 40
0.9175524241
 40
0.9455655807
 40
0.9730529424
 40
1.0
 40
1.0
 40
1.0
 40
1.0
 10
15.0522656635
 20
12.8081745344
 30
0.0
 10
15.0650920611
 20
12.8081745344
 30
0.0
 10
15.0909049728
 20
12.8078205065
 30
0.0
 10
15.1298210582
 20
12.8062524854
 30
0.0
 10
15.1691217895
 20
12.8036465973
 30
0.0
 10
15.2087427193
 20
12.8000071199
 30
0.0
 10
15.2486194369
 20
12.7953399695
 30
0.0
 10
15.2886869254
 20
12.7896527642
 30
0.0
 10
15.3288799094
 20
12.7829547682
 30
0.0
 10
15.3691328872
 20
12.7752568996
 30
0.0
 10
15.4093802607
 20
12.7665717032
 30
0.0
 10
15.4495564366
 20
12.7569133339
 30
0.0
 10
15.4895959361
 20
12.7462975328
 30
0.0
 10
15.5294335015
 20
12.7347416018
 30
0.0
 10
15.5690042034
 20
12.7222643752
 30
0.0
 10
15.6082435473
 20
12.7088861892
 30
0.0
 10
15.6470875793
 20
12.6946288482
 30
0.0
 10
15.6854729906
 20
12.679515589
 30
0.0
 10
15.7233372217
 20
12.6635710428
 30
0.0
 10
15.7606185647
 20
12.6468211943
 30
0.0
 10
15.7972562643
 20
12.629293339
 30
0.0
 10
15.8331906172
 20
12.6110160378
 30
0.0
 10
15.86836307
 20
12.5920190698
 30
0.0
 10
15.9027163152
 20
12.5723333826
 30
0.0
 10
15.9361943844
 20
12.5519910411
 30
0.0
 10
15.9687427399
 20
12.5310251737
 30
0.0
 10
16.0003083633
 20
12.5094699169
 30
0.0
 10
16.0308398428
 20
12.4873603569
 30
0.0
 10
16.0602874523
 20
12.4647324747
 30
0.0
 10
16.0886032454
 20
12.4416230706
 30
0.0
 10
16.1157410836
 20
12.4180697545
 30
0.0
 10
16.1416568853
 20
12.3941106911
 30
0.0
 10
16.166308057
 20
12.3697852279
 30
0.0
 10
16.1820316013
 20
12.3531820946
 30
0.0
 10
16.1896659314
 20
12.3448275964
 30
0.0
  0
SPLINE
  5
2EA
100
AcDbEntity
  8
LAYER_FEATURE
100
AcDbSpline
 62
7
  6
CONTINUOUS
 70
0
 71
3
 72
48
 73
44
 74
0
 42
0.0000001
 43
0.0000001
 44
0.0000000001
 40
0.0
 40
0.0
 40
0.0
 40
0.0
 40
0.0396642273
 40
0.0788610707
 40
0.1175666274
 40
0.1557604661
 40
0.1934225114
 40
0.2305346681
 40
0.2670805005
 40
0.3030454094
 40
0.3384167774
 40
0.3731840833
 40
0.4073390557
 40
0.4408758197
 40
0.4737910397
 40
0.506084075
 40
0.5377571387
 40
0.5688154671
 40
0.5992674797
 40
0.6291249283
 40
0.6584030456
 40
0.6728314441
 40
0.6871224001
 40
0.7153021387
 40
0.7429703862
 40
0.7566230102
 40
0.770159437
 40
0.7968993666
 40
0.8232301397
 40
0.8362561147
 40
0.8491957105
 40
0.8620546765
 40
0.8748389507
 40
0.8875546756
 40
0.9002081606
 40
0.9128058833
 40
0.9253544741
 40
0.93786069
 40
0.9503314132
 40
0.9627736192
 40
0.975194366
 40
0.9876007734
 40
1.0
 40
1.0
 40
1.0
 40
1.0
 10
15.385409441
 20
13.8862281938
 30
0.0
 10
15.3748637489
 20
13.8862281938
 30
0.0
 10
15.3538957943
 20
13.885991715
 30
0.0
 10
15.3226537117
 20
13.8849139032
 30
0.0
 10
15.2918360969
 20
13.8831161473
 30
0.0
 10
15.2614781237
 20
13.8806005549
 30
0.0
 10
15.2316138374
 20
13.8773698837
 30
0.0
 10
15.2022770074
 20
13.8734277779
 30
0.0
 10
15.173500706
 20
13.8687786621
 30
0.0
 10
15.1453173909
 20
13.8634277509
 30
0.0
 10
15.1177588483
 20
13.8573810428
 30
0.0
 10
15.0908561586
 20
13.850645303
 30
0.0
 10
15.06463966
 20
13.8432280693
 30
0.0
 10
15.0391389113
 20
13.8351376469
 30
0.0
 10
15.0143826668
 20
13.8263830792
 30
0.0
 10
14.9903988505
 20
13.8169741432
 30
0.0
 10
14.9672145191
 20
13.8069213257
 30
0.0
 10
14.9448558584
 20
13.7962358488
 30
0.0
 10
14.9233480445
 20
13.7849295801
 30
0.0
 10
14.9027156384
 20
13.7730152705
 30
0.0
 10
14.8861908895
 20
13.762540279
 30
0.0
 10
14.8734401207
 20
13.7538668474
 30
0.0
 10
14.8611200526
 20
13.7450859712
 30
0.0
 10
14.8462977412
 20
13.7337588641
 30
0.0
 10
14.8321452386
 20
13.7218664062
 30
0.0
 10
14.8213246252
 20
13.7120848899
 30
0.0
 10
14.8109251461
 20
13.7022120187
 30
0.0
 10
14.7985375956
 20
13.6895454733
 30
0.0
 10
14.7869054679
 20
13.6763614363
 30
0.0
 10
14.7781274586
 20
13.6655765681
 30
0.0
 10
14.7718272992
 20
13.6573980856
 30
0.0
 10
14.7657891504
 20
13.6491036985
 30
0.0
 10
14.7600147325
 20
13.6406956537
 30
0.0
 10
14.7545056518
 20
13.6321763828
 30
0.0
 10
14.7492635007
 20
13.6235482725
 30
0.0
 10
14.7442897847
 20
13.6148137628
 30
0.0
 10
14.7395858767
 20
13.6059753523
 30
0.0
 10
14.7351531808
 20
13.5970355128
 30
0.0
 10
14.730992905
 20
13.5879968067
 30
0.0
 10
14.7271062603
 20
13.5788617931
 30
0.0
 10
14.7234943641
 20
13.5696330301
 30
0.0
 10
14.7201582251
 20
13.5603132647
 30
0.0
 10
14.7181183682
 20
13.5540402968
 30
0.0
 10
14.7171450483
 20
13.5508906235
 30
0.0
  0
SPLINE
  5
2EB
100
AcDbEntity
  8
LAYER_FEATURE
100
AcDbSpline
 62
7
  6
CONTINUOUS
 70
0
 71
3
 72
32
 73
28
 74
0
 42
0.0000001
 43
0.0000001
 44
0.0000000001
 40
0.0
 40
0.0
 40
0.0
 40
0.0
 40
0.0217007306
 40
0.0439883023
 40
0.0669435956
 40
0.0906407926
 40
0.1404422823
 40
0.1666416908
 40
0.1937191282
 40
0.2216751128
 40
0.2504991202
 40
0.280170795
 40
0.3106604208
 40
0.3419305948
 40
0.3739364387
 40
0.4066268395
 40
0.4399451251
 40
0.5082030141
 40
0.5781815957
 40
0.6492912884
 40
0.720911854
 40
0.7924094407
 40
0.8631540052
 40
0.8980561378
 40
0.9325440548
 40
0.9665511532
 40
1.0
 40
1.0
 40
1.0
 40
1.0
 10
16.4601758914
 20
13.06019866
 30
0.0
 10
16.4601538869
 20
13.0605457898
 30
0.0
 10
16.4600764832
 20
13.0612477227
 30
0.0
 10
16.4598659096
 20
13.0623010873
 30
0.0
 10
16.459560173
 20
13.0633642376
 30
0.0
 10
16.4590184229
 20
13.064813531
 30
0.0
 10
16.4582942075
 20
13.0662446696
 30
0.0
 10
16.4574133481
 20
13.0676431569
 30
0.0
 10
16.4566547075
 20
13.0687023321
 30
0.0
 10
16.4558119943
 20
13.0697502395
 30
0.0
 10
16.4548879208
 20
13.0707836113
 30
0.0
 10
16.4538855281
 20
13.0717990191
 30
0.0
 10
16.4528081348
 20
13.0727931882
 30
0.0
 10
16.4516592587
 20
13.0737628368
 30
0.0
 10
16.4504426925
 20
13.074704801
 30
0.0
 10
16.4491624197
 20
13.0756160097
 30
0.0
 10
16.4473616992
 20
13.0767952996
 30
0.0
 10
16.4449778233
 20
13.0781710881
 30
0.0
 10
16.4419587558
 20
13.0796413107
 30
0.0
 10
16.4387975292
 20
13.0809249576
 30
0.0
 10
16.4355355492
 20
13.082005196
 30
0.0
 10
16.4322155358
 20
13.0828679052
 30
0.0
 10
16.4294238394
 20
13.083398598
 30
0.0
 10
16.427198166
 20
13.0837037869
 30
0.0
 10
16.4255489983
 20
13.0838712861
 30
0.0
 10
16.4239181447
 20
13.0839778185
 30
0.0
 10
16.4228370617
 20
13.0840082861
 30
0.0
 10
16.422300953
 20
13.0840129951
 30
0.0
  0
SPLINE
  5
2EC
100
AcDbEntity
  8
LAYER_FEATURE
100
AcDbSpline
 62
7
  6
CONTINUOUS
 70
0
 71
3
 72
16
 73
12
 74
0
 42
0.0000001
 43
0.0000001
 44
0.0000000001
 40
0.0
 40
0.0
 40
0.0
 40
0.0
 40
0.1272997694
 40
0.2549039715
 40
0.3823234251
 40
0.5090710773
 40
0.6346674546
 40
0.7586467143
 40
0.8805614816
 40
0.9406207027
 40
1.0
 40
1.0
 40
1.0
 40
1.0
 10
16.3633880928
 20
13.0957171702
 30
0.0
 10
16.3657766677
 20
13.0947903501
 30
0.0
 10
16.3706007908
 20
13.0930389425
 30
0.0
 10
16.3779426133
 20
13.090727562
 30
0.0
 10
16.3853668574
 20
13.0887383299
 30
0.0
 10
16.3928311293
 20
13.0870826224
 30
0.0
 10
16.4002930951
 20
13.0857698219
 30
0.0
 10
16.4077102089
 20
13.0848074248
 30
0.0
 10
16.4138495085
 20
13.0842993866
 30
0.0
 10
16.4187022871
 20
13.0840751781
 30
0.0
 10
16.4211059076
 20
13.0840234921
 30
0.0
 10
16.422300953
 20
13.0840129951
 30
0.0
  0
SPLINE
  5
2ED
100
AcDbEntity
  8
LAYER_CHAMFER_FEAT
100
AcDbSpline
 62
7
  6
CONTINUOUS
 70
0
 71
3
 72
67
 73
63
 74
0
 42
0.0000001
 43
0.0000001
 44
0.0000000001
 40
0.0
 40
0.0
 40
0.0
 40
0.0
 40
0.0357308955
 40
0.0531878334
 40
0.0703689817
 40
0.0872736055
 40
0.1039018417
 40
0.120254815
 40
0.1363346173
 40
0.1676839632
 40
0.1829675878
 40
0.1979973495
 40
0.2273220665
 40
0.2416417041
 40
0.2557459598
 40
0.269647615
 40
0.283360703
 40
0.2969004881
 40
0.3102834159
 40
0.3235270472
 40
0.3366499766
 40
0.3496717195
 40
0.3626125953
 40
0.3754935726
 40
0.3883361197
 40
0.4011620218
 40
0.4139932084
 40
0.4268515614
 40
0.4397587357
 40
0.4527359806
 40
0.4658039694
 40
0.4789826542
 40
0.4922911168
 40
0.5057474719
 40
0.5193687451
 40
0.5331708292
 40
0.5471683891
 40
0.5613748707
 40
0.5758024262
 40
0.6053577781
 40
0.6205089267
 40
0.6359172217
 40
0.6515886599
 40
0.6675280379
 40
0.6837390925
 40
0.7002244392
 40
0.7169857269
 40
0.7340235697
 40
0.7513377091
 40
0.7689269385
 40
0.7867892704
 40
0.8049218583
 40
0.8233211601
 40
0.8419828387
 40
0.8609019464
 40
0.8800728805
 40
0.8994894736
 40
0.919144736
 40
0.9390312965
 40
0.9591419278
 40
0.9794685701
 40
1.0
 40
1.0
 40
1.0
 40
1.0
 10
15.4796448734
 20
11.7540858017
 30
0.0
 10
15.4829961404
 20
11.7504184072
 30
0.0
 10
15.487850633
 20
11.7448337825
 30
0.0
 10
15.4939658067
 20
11.7371951581
 30
0.0
 10
15.4982886944
 20
11.7314781003
 30
0.0
 10
15.5023796989
 20
11.7257337962
 30
0.0
 10
15.5062354088
 20
11.7199669503
 30
0.0
 10
15.5098526992
 20
11.7141822568
 30
0.0
 10
15.514315515
 20
11.706517651
 30
0.0
 10
15.5183360195
 20
11.6987714892
 30
0.0
 10
15.5218790751
 20
11.6909625629
 30
0.0
 10
15.5250307275
 20
11.6832914069
 30
0.0
 10
15.5277102679
 20
11.6755757821
 30
0.0
 10
15.5298834738
 20
11.6678443485
 30
0.0
 10
15.5312422189
 20
11.6621166299
 30
0.0
 10
15.5323413051
 20
11.6564193619
 30
0.0
 10
15.5331797972
 20
11.6507571766
 30
0.0
 10
15.5337569437
 20
11.6451348461
 30
0.0
 10
15.5340722077
 20
11.6395570745
 30
0.0
 10
15.5341252805
 20
11.6340285506
 30
0.0
 10
15.5339160725
 20
11.6285539284
 30
0.0
 10
15.5334447164
 20
11.623137827
 30
0.0
 10
15.5327115822
 20
11.6177848237
 30
0.0
 10
15.5317172514
 20
11.6124994514
 30
0.0
 10
15.5304625597
 20
11.6072861864
 30
0.0
 10
15.5289485414
 20
11.6021494528
 30
0.0
 10
15.527176498
 20
11.5970935989
 30
0.0
 10
15.5251479143
 20
11.5921229155
 30
0.0
 10
15.5228645498
 20
11.5872415961
 30
0.0
 10
15.5203283301
 20
11.5824537751
 30
0.0
 10
15.5175414583
 20
11.5777634679
 30
0.0
 10
15.5145062865
 20
11.5731746343
 30
0.0
 10
15.5112254424
 20
11.5686910943
 30
0.0
 10
15.5077016877
 20
11.5643166198
 30
0.0
 10
15.5039380573
 20
11.5600548259
 30
0.0
 10
15.4999377004
 20
11.5559092834
 30
0.0
 10
15.495704065
 20
11.5518834132
 30
0.0
 10
15.4912405837
 20
11.5479805124
 30
0.0
 10
15.4849380803
 20
11.5429047119
 30
0.0
 10
15.4782323468
 20
11.5381308716
 30
0.0
 10
15.4711675054
 20
11.5336621656
 30
0.0
 10
15.4656152431
 20
11.5304204978
 30
0.0
 10
15.4598585695
 20
11.5273196787
 30
0.0
 10
15.4539021534
 20
11.5243620939
 30
0.0
 10
15.4477509828
 20
11.5215502773
 30
0.0
 10
15.441410199
 20
11.5188864803
 30
0.0
 10
15.434885068
 20
11.5163729704
 30
0.0
 10
15.4281810476
 20
11.5140117597
 30
0.0
 10
15.4213037049
 20
11.5118048681
 30
0.0
 10
15.414258787
 20
11.5097540547
 30
0.0
 10
15.4070521477
 20
11.5078610855
 30
0.0
 10
15.3996898037
 20
11.5061274604
 30
0.0
 10
15.3921778778
 20
11.5045546859
 30
0.0
 10
15.3845226413
 20
11.5031439959
 30
0.0
 10
15.3767304608
 20
11.5018966282
 30
0.0
 10
15.3688078273
 20
11.500813551
 30
0.0
 10
15.3607613518
 20
11.4998957369
 30
0.0
 10
15.3525977744
 20
11.4991438699
 30
0.0
 10
15.3443238441
 20
11.4985586347
 30
0.0
 10
15.3359463354
 20
11.498140471
 30
0.0
 10
15.3274724938
 20
11.4978897991
 30
0.0
 10
15.3217914782
 20
11.497834677
 30
0.0
 10
15.3189368164
 20
11.497834677
 30
0.0
  0
SPLINE
  5
2EE
100
AcDbEntity
  8
LAYER_FEATURE
100
AcDbSpline
 62
7
  6
CONTINUOUS
 70
0
 71
3
 72
35
 73
31
 74
0
 42
0.0000001
 43
0.0000001
 44
0.0000000001
 40
0.0
 40
0.0
 40
0.0
 40
0.0
 40
0.0260850598
 40
0.0530118496
 40
0.0807593101
 40
0.1093080958
 40
0.1386286265
 40
0.1686822525
 40
0.1994242567
 40
0.2308045172
 40
0.2627673214
 40
0.2952525556
 40
0.3281963351
 40
0.3615312975
 40
0.4290831787
 40
0.4973348555
 40
0.5656842082
 40
0.6335265481
 40
0.6670767189
 40
0.7002805376
 40
0.7330688272
 40
0.7653755059
 40
0.7971378927
 40
0.8282973026
 40
0.85880021
 40
0.8885980434
 40
0.9176477696
 40
0.9459149397
 40
0.9733747949
 40
1.0
 40
1.0
 40
1.0
 40
1.0
 10
16.38070162
 20
13.2667143899
 30
0.0
 10
16.3804512103
 20
13.267073834
 30
0.0
 10
16.3799205281
 20
13.2677893575
 30
0.0
 10
16.3790538942
 20
13.2688333946
 30
0.0
 10
16.3781066882
 20
13.2698619126
 30
0.0
 10
16.3770821417
 20
13.2708714707
 30
0.0
 10
16.375983598
 20
13.2718588468
 30
0.0
 10
16.3748146347
 20
13.272820767
 30
0.0
 10
16.3735791276
 20
13.2737541067
 30
0.0
 10
16.3722811213
 20
13.2746557832
 30
0.0
 10
16.370924887
 20
13.2755228459
 30
0.0
 10
16.3695148952
 20
13.2763524499
 30
0.0
 10
16.3680557538
 20
13.2771418568
 30
0.0
 10
16.3660424281
 20
13.2781416762
 30
0.0
 10
16.3634345074
 20
13.279273284
 30
0.0
 10
16.3602034981
 20
13.2804273922
 30
0.0
 10
16.3568991362
 20
13.2813686802
 30
0.0
 10
16.3541098007
 20
13.2819677694
 30
0.0
 10
16.3518781484
 20
13.2823294105
 30
0.0
 10
16.3502193821
 20
13.2825398008
 30
0.0
 10
16.3485750249
 20
13.2826896142
 30
0.0
 10
16.3469504675
 20
13.2827783832
 30
0.0
 10
16.3453510587
 20
13.2828058051
 30
0.0
 10
16.3437820532
 20
13.2827717773
 30
0.0
 10
16.3422486056
 20
13.2826764342
 30
0.0
 10
16.3407557636
 20
13.2825200417
 30
0.0
 10
16.3393084255
 20
13.2823031579
 30
0.0
 10
16.3379112746
 20
13.2820264362
 30
0.0
 10
16.3365690329
 20
13.2816907687
 30
0.0
 10
16.3357001435
 20
13.281424304
 30
0.0
 10
16.3352765549
 20
13.2812810991
 30
0.0
  0
SPLINE
  5
2EF
100
AcDbEntity
  8
LAYER_FEATURE
100
AcDbSpline
 62
7
  6
CONTINUOUS
 70
0
 71
3
 72
39
 73
35
 74
0
 42
0.0000001
 43
0.0000001
 44
0.0000000001
 40
0.0
 40
0.0
 40
0.0
 40
0.0
 40
0.0292097048
 40
0.0590118865
 40
0.089372131
 40
0.1202532251
 40
0.151614908
 40
0.1834141945
 40
0.2156057154
 40
0.2481420641
 40
0.2809740925
 40
0.314051124
 40
0.3473212991
 40
0.3807318286
 40
0.4142292201
 40
0.4477595892
 40
0.4812688844
 40
0.5147031505
 40
0.548008809
 40
0.5811328712
 40
0.6140232503
 40
0.6466290177
 40
0.678900622
 40
0.710790261
 40
0.7422521222
 40
0.7732426327
 40
0.8037209097
 40
0.833648968
 40
0.8629920667
 40
0.8917193752
 40
0.919803648
 40
0.9472222428
 40
0.9739597824
 40
1.0
 40
1.0
 40
1.0
 40
1.0
 10
16.1957923588
 20
13.3143067299
 30
0.0
 10
16.1968800817
 20
13.3133470238
 30
0.0
 10
16.199114751
 20
13.3114498693
 30
0.0
 10
16.2026005191
 20
13.3087011118
 30
0.0
 10
16.2062467682
 20
13.3060262134
 30
0.0
 10
16.2100446793
 20
13.3034316114
 30
0.0
 10
16.213985183
 20
13.3009234784
 30
0.0
 10
16.2180588611
 20
13.2985078394
 30
0.0
 10
16.2222559564
 20
13.2961904597
 30
0.0
 10
16.2265664185
 20
13.2939768755
 30
0.0
 10
16.2309799401
 20
13.291872407
 30
0.0
 10
16.2354859478
 20
13.2898820786
 30
0.0
 10
16.2400736493
 20
13.2880106476
 30
0.0
 10
16.2447320681
 20
13.2862626173
 30
0.0
 10
16.2494500431
 20
13.2846421591
 30
0.0
 10
16.2542162738
 20
13.283153146
 30
0.0
 10
16.2590193531
 20
13.2817991668
 30
0.0
 10
16.2638477739
 20
13.2805834479
 30
0.0
 10
16.2686899724
 20
13.2795088937
 30
0.0
 10
16.2735343587
 20
13.2785781008
 30
0.0
 10
16.2783693297
 20
13.2777932806
 30
0.0
 10
16.2831833094
 20
13.2771563064
 30
0.0
 10
16.2879647768
 20
13.2766687278
 30
0.0
 10
16.2927022853
 20
13.2763316941
 30
0.0
 10
16.2973844981
 20
13.2761460082
 30
0.0
 10
16.3020002144
 20
13.2761121422
 30
0.0
 10
16.3065383927
 20
13.2762301616
 30
0.0
 10
16.3109881816
 20
13.2764997847
 30
0.0
 10
16.3153389481
 20
13.2769203996
 30
0.0
 10
16.3195802905
 20
13.2774910009
 30
0.0
 10
16.3237020574
 20
13.2782102201
 30
0.0
 10
16.3276945184
 20
13.2790764055
 30
0.0
 10
16.3315479072
 20
13.2800874918
 30
0.0
 10
16.3340514918
 20
13.2808669352
 30
0.0
 10
16.3352765549
 20
13.2812810991
 30
0.0
  0
SPLINE
  5
2F0
100
AcDbEntity
  8
LAYER_FEATURE
100
AcDbSpline
 62
7
  6
CONTINUOUS
 70
0
 71
3
 72
32
 73
28
 74
0
 42
0.0000001
 43
0.0000001
 44
0.0000000001
 40
0.0
 40
0.0
 40
0.0
 40
0.0
 40
0.0328197957
 40
0.0662343103
 40
0.1001693669
 40
0.1345609653
 40
0.2044202409
 40
0.2752253573
 40
0.3463554208
 40
0.4171804094
 40
0.4870784348
 40
0.5554524925
 40
0.5888983815
 40
0.6217598822
 40
0.6539775086
 40
0.6854968462
 40
0.7162691819
 40
0.7462526892
 40
0.7754126109
 40
0.8037228586
 40
0.8311664461
 40
0.8577366458
 40
0.908262624
 40
0.9322929834
 40
0.9555492375
 40
0.9780948884
 40
1.0
 40
1.0
 40
1.0
 40
1.0
 10
16.1806903785
 20
13.4613789253
 30
0.0
 10
16.1802577978
 20
13.4616849679
 30
0.0
 10
16.1793724235
 20
13.4622852908
 30
0.0
 10
16.1780001182
 20
13.4631417619
 30
0.0
 10
16.1765752936
 20
13.4639599786
 30
0.0
 10
16.1746018348
 20
13.4650015887
 30
0.0
 10
16.172034508
 20
13.4661893831
 30
0.0
 10
16.1688397368
 20
13.4674154694
 30
0.0
 10
16.1655564215
 20
13.4684338091
 30
0.0
 10
16.1622275538
 20
13.4692310416
 30
0.0
 10
16.1588967487
 20
13.4697967412
 30
0.0
 10
16.1561352805
 20
13.4700711042
 30
0.0
 10
16.1539624325
 20
13.4701664238
 30
0.0
 10
16.1523713105
 20
13.4701759711
 30
0.0
 10
16.150812122
 20
13.4701240985
 30
0.0
 10
16.1492899668
 20
13.4700109667
 30
0.0
 10
16.1478098498
 20
13.4698369215
 30
0.0
 10
16.1463766272
 20
13.4696025616
 30
0.0
 10
16.1449949945
 20
13.4693085976
 30
0.0
 10
16.1436695141
 20
13.4689560209
 30
0.0
 10
16.1424043997
 20
13.468545896
 30
0.0
 10
16.1408305457
 20
13.4679345423
 30
0.0
 10
16.1393626276
 20
13.4672069993
 30
0.0
 10
16.1380288435
 20
13.4663592401
 30
0.0
 10
16.1371240301
 20
13.4656845784
 30
0.0
 10
16.1363014685
 20
13.4649628376
 30
0.0
 10
16.135803076
 20
13.4644449397
 30
0.0
 10
16.1355695931
 20
13.4641792921
 30
0.0
  0
SPLINE
  5
2F1
100
AcDbEntity
  8
LAYER_FEATURE
100
AcDbSpline
 62
7
  6
CONTINUOUS
 70
0
 71
3
 72
39
 73
35
 74
0
 42
0.0000001
 43
0.0000001
 44
0.0000000001
 40
0.0
 40
0.0
 40
0.0
 40
0.0
 40
0.0343092321
 40
0.0690208898
 40
0.1040687875
 40
0.1393921012
 40
0.1749250534
 40
0.2106012114
 40
0.2463535867
 40
0.282114556
 40
0.3178165048
 40
0.353392164
 40
0.3887749548
 40
0.4238993863
 40
0.4587014796
 40
0.4931191342
 40
0.5270925157
 40
0.5605645435
 40
0.5934813228
 40
0.6257925596
 40
0.6574520805
 40
0.6884184285
 40
0.7186553453
 40
0.7481323512
 40
0.7768254897
 40
0.8047180027
 40
0.8318010073
 40
0.8580743111
 40
0.8835472836
 40
0.9082397318
 40
0.9321824018
 40
0.9554175524
 40
0.9780018976
 40
1.0
 40
1.0
 40
1.0
 40
1.0
 10
15.993458224
 20
13.4664809631
 30
0.0
 10
15.9949568355
 20
13.4656162407
 30
0.0
 10
15.9980011245
 20
13.4639272433
 30
0.0
 10
16.0026715307
 20
13.4615315685
 30
0.0
 10
16.0074622335
 20
13.4592641968
 30
0.0
 10
16.0123595737
 20
13.4571315404
 30
0.0
 10
16.0173499193
 20
13.455139562
 30
0.0
 10
16.0224192164
 20
13.4532938582
 30
0.0
 10
16.0275532267
 20
13.4515996086
 30
0.0
 10
16.0327375392
 20
13.4500615887
 30
0.0
 10
16.0379575857
 20
13.448684107
 30
0.0
 10
16.0431987033
 20
13.4474710266
 30
0.0
 10
16.048446174
 20
13.4464257641
 30
0.0
 10
16.0536852611
 20
13.445551261
 30
0.0
 10
16.0589012507
 20
13.4448499593
 30
0.0
 10
16.0640794989
 20
13.4443238291
 30
0.0
 10
16.0692054707
 20
13.4439743645
 30
0.0
 10
16.0742647798
 20
13.4438025401
 30
0.0
 10
16.0792432327
 20
13.443808834
 30
0.0
 10
16.0841268663
 20
13.4439932436
 30
0.0
 10
16.0889019879
 20
13.4443552724
 30
0.0
 10
16.0935552176
 20
13.4448939046
 30
0.0
 10
16.0980735228
 20
13.4456076507
 30
0.0
 10
16.1024442494
 20
13.4464945579
 30
0.0
 10
16.1066551656
 20
13.4475521783
 30
0.0
 10
16.110694494
 20
13.4487775953
 30
0.0
 10
16.1145509307
 20
13.4501674594
 30
0.0
 10
16.1182136709
 20
13.4517179936
 30
0.0
 10
16.1216724576
 20
13.4534249566
 30
0.0
 10
16.1249175749
 20
13.4552837276
 30
0.0
 10
16.1279398175
 20
13.457289263
 30
0.0
 10
16.1307307316
 20
13.4594362021
 30
0.0
 10
16.1332819924
 20
13.461718496
 30
0.0
 10
16.134837231
 20
13.4633460396
 30
0.0
 10
16.1355695931
 20
13.4641792921
 30
0.0
  0
SPLINE
  5
2F2
100
AcDbEntity
  8
LAYER_FEATURE
100
AcDbSpline
 62
7
  6
CONTINUOUS
 70
0
 71
3
 72
32
 73
28
 74
0
 42
0.0000001
 43
0.0000001
 44
0.0000000001
 40
0.0
 40
0.0
 40
0.0
 40
0.0
 40
0.0768227542
 40
0.1536204581
 40
0.2298346746
 40
0.3049159979
 40
0.3783423859
 40
0.449629624
 40
0.5183464179
 40
0.5516309881
 40
0.5841434828
 40
0.615852343
 40
0.6467323534
 40
0.6767658101
 40
0.7059430346
 40
0.734263151
 40
0.7617351798
 40
0.7883783564
 40
0.8142236386
 40
0.8393135558
 40
0.8637036907
 40
0.8874620022
 40
0.9106695137
 40
0.9334190681
 40
0.9558146798
 40
0.9779688572
 40
1.0
 40
1.0
 40
1.0
 40
1.0
 10
15.8947259276
 20
13.6105329995
 30
0.0
 10
15.8937487395
 20
13.6108975885
 30
0.0
 10
15.8917722276
 20
13.6115679732
 30
0.0
 10
15.8887610485
 20
13.6123928672
 30
0.0
 10
15.885728755
 20
13.6130306613
 30
0.0
 10
15.8827082559
 20
13.6134743936
 30
0.0
 10
15.8797321127
 20
13.6137192874
 30
0.0
 10
15.8768325611
 20
13.6137626733
 30
0.0
 10
15.8744812616
 20
13.6136290847
 30
0.0
 10
15.8726668263
 20
13.6134181646
 30
0.0
 10
15.8713588271
 20
13.6132117274
 30
0.0
 10
15.8700928424
 20
13.6129559795
 30
0.0
 10
15.86887229
 20
13.6126515684
 30
0.0
 10
15.86770048
 20
13.6122993238
 30
0.0
 10
15.8665805877
 20
13.6119001755
 30
0.0
 10
15.8655156536
 20
13.6114551716
 30
0.0
 10
15.8645085603
 20
13.6109655079
 30
0.0
 10
15.863562064
 20
13.6104324386
 30
0.0
 10
15.8626787273
 20
13.6098574076
 30
0.0
 10
15.8618610093
 20
13.6092418731
 30
0.0
 10
15.8611111387
 20
13.6085875079
 30
0.0
 10
15.860431263
 20
13.6078959887
 30
0.0
 10
15.859823267
 20
13.6071692088
 30
0.0
 10
15.8592889515
 20
13.6064090962
 30
0.0
 10
15.8588298374
 20
13.6056177378
 30
0.0
 10
15.8584473444
 20
13.6047974239
 30
0.0
 10
15.8582438908
 20
13.6042320498
 30
0.0
 10
15.8581555811
 20
13.6039462768
 30
0.0
  0
SPLINE
  5
2F3
100
AcDbEntity
  8
LAYER_FEATURE
100
AcDbSpline
 62
7
  6
CONTINUOUS
 70
0
 71
3
 72
33
 73
29
 74
0
 42
0.0000001
 43
0.0000001
 44
0.0000000001
 40
0.0
 40
0.0
 40
0.0
 40
0.0
 40
0.0754788012
 40
0.1504285726
 40
0.2245041284
 40
0.2973699361
 40
0.3687098317
 40
0.4037183212
 40
0.438237765
 40
0.4722361951
 40
0.5056839888
 40
0.5385538555
 40
0.570821395
 40
0.6024649745
 40
0.6334663353
 40
0.6638106139
 40
0.6934867466
 40
0.7224878316
 40
0.7508112333
 40
0.7784592622
 40
0.8054390999
 40
0.831763543
 40
0.8574510055
 40
0.9069999821
 40
0.9309489311
 40
0.9543973642
 40
0.9773955107
 40
1.0
 40
1.0
 40
1.0
 40
1.0
 10
15.7454898499
 20
13.5644859248
 30
0.0
 10
15.7482246688
 20
13.5637102421
 30
0.0
 10
15.7537131008
 20
13.5622946142
 30
0.0
 10
15.7619961675
 20
13.5605808312
 30
0.0
 10
15.7702567583
 20
13.559292499
 30
0.0
 10
15.7784367968
 20
13.5584387341
 30
0.0
 10
15.7851811033
 20
13.5580921513
 30
0.0
 10
15.7904868332
 20
13.5580408759
 30
0.0
 10
15.7943857363
 20
13.558113938
 30
0.0
 10
15.7982221237
 20
13.5582981476
 30
0.0
 10
15.8019893061
 20
13.5585931596
 30
0.0
 10
15.8056806742
 20
13.5589985061
 30
0.0
 10
15.8092897683
 20
13.5595134309
 30
0.0
 10
15.8128102641
 20
13.5601370907
 30
0.0
 10
15.816236003
 20
13.5608683651
 30
0.0
 10
15.8195609866
 20
13.5617060072
 30
0.0
 10
15.8227793941
 20
13.5626485706
 30
0.0
 10
15.8258856011
 20
13.5636944019
 30
0.0
 10
15.8288741532
 20
13.5648417395
 30
0.0
 10
15.8317398492
 20
13.5660885612
 30
0.0
 10
15.8344775972
 20
13.5674327452
 30
0.0
 10
15.8370827862
 20
13.5688720637
 30
0.0
 10
15.8403335659
 20
13.5708898617
 30
0.0
 10
15.8433495567
 20
13.5731098064
 30
0.0
 10
15.8460877778
 20
13.5755277859
 30
0.0
 10
15.8479653699
 20
13.5774022036
 30
0.0
 10
15.8496861318
 20
13.5793544016
 30
0.0
 10
15.850735098
 20
13.5807162958
 30
0.0
 10
15.8512310629
 20
13.5814082415
 30
0.0
  0
SPLINE
  5
2F4
100
AcDbEntity
  8
LAYER_FEATURE
100
AcDbSpline
 62
7
  6
CONTINUOUS
 70
0
 71
3
 72
39
 73
35
 74
0
 42
0.0000001
 43
0.0000001
 44
0.0000000001
 40
0.0
 40
0.0
 40
0.0
 40
0.0
 40
0.0221171697
 40
0.0444589915
 40
0.0671203825
 40
0.0901939416
 40
0.1137617961
 40
0.1378965894
 40
0.1626611087
 40
0.1881075968
 40
0.214278021
 40
0.2412044811
 40
0.2689095653
 40
0.2974069035
 40
0.3267019044
 40
0.3567923043
 40
0.3876687061
 40
0.419315315
 40
0.4517104615
 40
0.4848270181
 40
0.5186330276
 40
0.553092161
 40
0.5881640373
 40
0.6238047266
 40
0.6599671559
 40
0.6966013772
 40
0.7336549828
 40
0.7710734357
 40
0.8088003204
 40
0.8467779348
 40
0.8849469199
 40
0.9232468473
 40
0.9616199766
 40
1.0
 40
1.0
 40
1.0
 40
1.0
 10
15.6546236449
 20
13.6542643762
 30
0.0
 10
15.6544174429
 20
13.6532668221
 30
0.0
 10
15.6540878872
 20
13.6512429959
 30
0.0
 10
15.6538462986
 20
13.6481577836
 30
0.0
 10
15.6538560613
 20
13.6450190165
 30
0.0
 10
15.6541169525
 20
13.6418346778
 30
0.0
 10
15.654628118
 20
13.6386122817
 30
0.0
 10
15.6553881199
 20
13.6353595333
 30
0.0
 10
15.6563949603
 20
13.6320841156
 30
0.0
 10
15.6576460756
 20
13.6287937211
 30
0.0
 10
15.6591383445
 20
13.6254960432
 30
0.0
 10
15.6608681459
 20
13.6221987898
 30
0.0
 10
15.6628313154
 20
13.61890966
 30
0.0
 10
15.6650231413
 20
13.615636321
 30
0.0
 10
15.6674384229
 20
13.6123864257
 30
0.0
 10
15.6700714476
 20
13.6091675842
 30
0.0
 10
15.6729159716
 20
13.6059873206
 30
0.0
 10
15.675965282
 20
13.6028530937
 30
0.0
 10
15.6792121964
 20
13.5997722739
 30
0.0
 10
15.6826490415
 20
13.5967520872
 30
0.0
 10
15.6862677099
 20
13.5937996349
 30
0.0
 10
15.6900596786
 20
13.5909218821
 30
0.0
 10
15.6940159938
 20
13.5881255973
 30
0.0
 10
15.6981273169
 20
13.5854173644
 30
0.0
 10
15.7023839558
 20
13.5828035839
 30
0.0
 10
15.7067758616
 20
13.5802904172
 30
0.0
 10
15.7112926609
 20
13.5778837844
 30
0.0
 10
15.7159236955
 20
13.5755893782
 30
0.0
 10
15.7206580364
 20
13.5734126133
 30
0.0
 10
15.7254844963
 20
13.5713586242
 30
0.0
 10
15.7303916526
 20
13.5694322726
 30
0.0
 10
15.7353680242
 20
13.5676380654
 30
0.0
 10
15.7404016915
 20
13.5659803319
 30
0.0
 10
15.7437892745
 20
13.5649682628
 30
0.0
 10
15.7454898499
 20
13.5644859248
 30
0.0
  0
SPLINE
  5
2F5
100
AcDbEntity
  8
LAYER_FEATURE
100
AcDbSpline
 62
7
  6
CONTINUOUS
 70
0
 71
3
 72
35
 73
31
 74
0
 42
0.0000001
 43
0.0000001
 44
0.0000000001
 40
0.0
 40
0.0
 40
0.0
 40
0.0
 40
0.0215603965
 40
0.043387955
 40
0.0655971898
 40
0.0883010823
 40
0.0998727909
 40
0.1116039822
 40
0.1355794673
 40
0.1603012376
 40
0.185823966
 40
0.2121874643
 40
0.2394184893
 40
0.2675307799
 40
0.2965269148
 40
0.3263986646
 40
0.3571283042
 40
0.3886896009
 40
0.4210482727
 40
0.4541634843
 40
0.4879877529
 40
0.5224685043
 40
0.5575479807
 40
0.6292415048
 40
0.7025439145
 40
0.7768772085
 40
0.8516383898
 40
0.9262115643
 40
0.9632468707
 40
1.0
 40
1.0
 40
1.0
 40
1.0
 10
15.6546236449
 20
13.6542643762
 30
0.0
 10
15.6546919129
 20
13.6545946402
 30
0.0
 10
15.6547972181
 20
13.655266325
 30
0.0
 10
15.6548599155
 20
13.6562918927
 30
0.0
 10
15.6548278343
 20
13.6573367577
 30
0.0
 10
15.6547229812
 20
13.6582152212
 30
0.0
 10
15.6545931766
 20
13.6589232225
 30
0.0
 10
15.6544302302
 20
13.6596447592
 30
0.0
 10
15.6541668042
 20
13.6605535986
 30
0.0
 10
15.6537608661
 20
13.661642309
 30
0.0
 10
15.6532640715
 20
13.6627337945
 30
0.0
 10
15.6526780707
 20
13.6638247511
 30
0.0
 10
15.6520046361
 20
13.6649118769
 30
0.0
 10
15.6512458988
 20
13.6659919255
 30
0.0
 10
15.6504041627
 20
13.6670616219
 30
0.0
 10
15.6494820165
 20
13.6681177438
 30
0.0
 10
15.6484822835
 20
13.6691571039
 30
0.0
 10
15.6474079952
 20
13.6701765305
 30
0.0
 10
15.646262457
 20
13.6711729639
 30
0.0
 10
15.6450491293
 20
13.6721433355
 30
0.0
 10
15.6437717471
 20
13.6730847309
 30
0.0
 10
15.6424341673
 20
13.6739942628
 30
0.0
 10
15.6405625148
 20
13.6751692155
 30
0.0
 10
15.6380981938
 20
13.6765384885
 30
0.0
 10
15.6349923048
 20
13.6780012665
 30
0.0
 10
15.6317537396
 20
13.6792779445
 30
0.0
 10
15.6284220194
 20
13.6803529203
 30
0.0
 10
15.6255945936
 20
13.6810716417
 30
0.0
 10
15.6233202113
 20
13.6815343552
 30
0.0
 10
15.6221820577
 20
13.6817276399
 30
0.0
 10
15.6216137613
 20
13.681814456
 30
0.0
  0
SPLINE
  5
2F6
100
AcDbEntity
  8
LAYER_FEATURE
100
AcDbSpline
 62
7
  6
CONTINUOUS
 70
0
 71
3
 72
28
 73
24
 74
0
 42
0.0000001
 43
0.0000001
 44
0.0000000001
 40
0.0
 40
0.0
 40
0.0
 40
0.0
 40
0.0794937555
 40
0.1573530014
 40
0.2332915468
 40
0.3070703036
 40
0.3784721211
 40
0.4473227042
 40
0.5134928199
 40
0.5769067361
 40
0.6375504206
 40
0.6668554039
 40
0.6954955581
 40
0.7508472715
 40
0.8038439153
 40
0.829564974
 40
0.8548233003
 40
0.8796727963
 40
0.9041722253
 40
0.9283854263
 40
0.9523801019
 40
0.9762272163
 40
1.0
 40
1.0
 40
1.0
 40
1.0
 10
15.5722541188
 20
13.6883865182
 30
0.0
 10
15.5715096306
 20
13.6884709329
 30
0.0
 10
15.5700317214
 20
13.6886030597
 30
0.0
 10
15.567833669
 20
13.6886898616
 30
0.0
 10
15.5656878141
 20
13.6886628904
 30
0.0
 10
15.5636073174
 20
13.6885223469
 30
0.0
 10
15.5616047257
 20
13.688269015
 30
0.0
 10
15.5596922015
 20
13.6879043975
 30
0.0
 10
15.5578812764
 20
13.6874306087
 30
0.0
 10
15.5561829885
 20
13.6868504381
 30
0.0
 10
15.5548551157
 20
13.6862745536
 30
0.0
 10
15.5538611763
 20
13.6857624747
 30
0.0
 10
15.5529350845
 20
13.6852301535
 30
0.0
 10
15.551862482
 20
13.6845073516
 30
0.0
 10
15.5508924517
 20
13.6836931608
 30
0.0
 10
15.5501988181
 20
13.6830001532
 30
0.0
 10
15.5497238258
 20
13.6824655107
 30
0.0
 10
15.5492896965
 20
13.6819117382
 30
0.0
 10
15.5488971446
 20
13.681339633
 30
0.0
 10
15.5485467714
 20
13.6807501056
 30
0.0
 10
15.5482391382
 20
13.6801440504
 30
0.0
 10
15.5479747756
 20
13.6795224424
 30
0.0
 10
15.5478275256
 20
13.6790980114
 30
0.0
 10
15.5477613688
 20
13.6788839331
 30
0.0
  0
SPLINE
  5
2F7
100
AcDbEntity
  8
LAYER_FEATURE
100
AcDbSpline
 62
7
  6
CONTINUOUS
 70
0
 71
3
 72
15
 73
11
 74
0
 42
0.0000001
 43
0.0000001
 44
0.0000000001
 40
0.0
 40
0.0
 40
0.0
 40
0.0
 40
0.1351267677
 40
0.2677233
 40
0.3975665457
 40
0.5244809425
 40
0.648301426
 40
0.7688928909
 40
0.8861500578
 40
1.0
 40
1.0
 40
1.0
 40
1.0
 10
15.4868183915
 20
13.5991522885
 30
0.0
 10
15.4885483828
 20
13.599111532
 30
0.0
 10
15.4919777903
 20
13.5990925383
 30
0.0
 10
15.4970677093
 20
13.5992560701
 30
0.0
 10
15.5020425551
 20
13.5996114734
 30
0.0
 10
15.5068870831
 20
13.600157616
 30
0.0
 10
15.5115867462
 20
13.6008929228
 30
0.0
 10
15.5161273559
 20
13.6018151997
 30
0.0
 10
15.5204950408
 20
13.602921645
 30
0.0
 10
15.5233251736
 20
13.6037929529
 30
0.0
 10
15.5247064164
 20
13.6042597675
 30
0.0
  0
SPLINE
  5
2F8
100
AcDbEntity
  8
LAYER_FEATURE
100
AcDbSpline
 62
7
  6
CONTINUOUS
 70
0
 71
3
 72
39
 73
35
 74
0
 42
0.0000001
 43
0.0000001
 44
0.0000000001
 40
0.0
 40
0.0
 40
0.0
 40
0.0
 40
0.0238149551
 40
0.0483211979
 40
0.073530718
 40
0.0994529525
 40
0.1260881632
 40
0.1534301935
 40
0.1814672487
 40
0.2101818657
 40
0.2395516015
 40
0.2695495603
 40
0.3001447005
 40
0.3313022416
 40
0.3629841262
 40
0.3951493065
 40
0.4277540416
 40
0.4607523006
 40
0.4940960269
 40
0.5277353835
 40
0.5616191029
 40
0.5956947374
 40
0.6299088938
 40
0.66420754
 40
0.6985362455
 40
0.7328404228
 40
0.7670656285
 40
0.8011577627
 40
0.8350633225
 40
0.8687299195
 40
0.902105913
 40
0.9351409586
 40
0.9677892282
 40
1.0
 40
1.0
 40
1.0
 40
1.0
 10
15.3560061482
 20
13.6683198054
 30
0.0
 10
15.3565182562
 20
13.6672054111
 30
0.0
 10
15.3576258251
 20
13.6649751742
 30
0.0
 10
15.3594987802
 20
13.6616820611
 30
0.0
 10
15.3616024014
 20
13.6584016223
 30
0.0
 10
15.363931512
 20
13.6551417376
 30
0.0
 10
15.3664806517
 20
13.6519099269
 30
0.0
 10
15.3692437718
 20
13.6487137793
 30
0.0
 10
15.3722143521
 20
13.6455607912
 30
0.0
 10
15.3753853817
 20
13.6424583575
 30
0.0
 10
15.3787493686
 20
13.639413756
 30
0.0
 10
15.3822983882
 20
13.6364341554
 30
0.0
 10
15.3860240717
 20
13.6335265706
 30
0.0
 10
15.3899176193
 20
13.6306978351
 30
0.0
 10
15.3939698512
 20
13.6279546213
 30
0.0
 10
15.3981712122
 20
13.6253034065
 30
0.0
 10
15.4025117765
 20
13.6227504281
 30
0.0
 10
15.4069813012
 20
13.6203017124
 30
0.0
 10
15.4115692427
 20
13.6179630531
 30
0.0
 10
15.416264761
 20
13.6157399562
 30
0.0
 10
15.4210567681
 20
13.6136376685
 30
0.0
 10
15.4259339549
 20
13.6116611703
 30
0.0
 10
15.4308847985
 20
13.609815119
 30
0.0
 10
15.4358976039
 20
13.6081038673
 30
0.0
 10
15.4409605367
 20
13.6065314721
 30
0.0
 10
15.4460616377
 20
13.6051016431
 30
0.0
 10
15.4511888557
 20
13.6038177459
 30
0.0
 10
15.4563300829
 20
13.602682825
 30
0.0
 10
15.4614731829
 20
13.6016995608
 30
0.0
 10
15.466606005
 20
13.6008702681
 30
0.0
 10
15.4717164028
 20
13.6001969101
 30
0.0
 10
15.4767924235
 20
13.5996810623
 30
0.0
 10
15.4818218952
 20
13.5993239935
 30
0.0
 10
15.4851600519
 20
13.5991913569
 30
0.0
 10
15.4868183915
 20
13.5991522885
 30
0.0
  0
SPLINE
  5
2F9
100
AcDbEntity
  8
LAYER_FEATURE
100
AcDbSpline
 62
7
  6
CONTINUOUS
 70
0
 71
3
 72
33
 73
29
 74
0
 42
0.0000001
 43
0.0000001
 44
0.0000000001
 40
0.0
 40
0.0
 40
0.0
 40
0.0
 40
0.0239030238
 40
0.0485998094
 40
0.0741001216
 40
0.1004126286
 40
0.1275354185
 40
0.1554551564
 40
0.1841506475
 40
0.2135938759
 40
0.2437495501
 40
0.2745767526
 40
0.3060288938
 40
0.3380549773
 40
0.3705996546
 40
0.4036040581
 40
0.4370062594
 40
0.4707416281
 40
0.5389347521
 40
0.6076415549
 40
0.6762982766
 40
0.7443424211
 40
0.8112264291
 40
0.8764327001
 40
0.9082607807
 40
0.9394972814
 40
0.9700952457
 40
1.0
 40
1.0
 40
1.0
 40
1.0
 10
15.3560061482
 20
13.6683198054
 30
0.0
 10
15.355836362
 20
13.6686892758
 30
0.0
 10
15.3554651948
 20
13.6694287957
 30
0.0
 10
15.3548291823
 20
13.670517956
 30
0.0
 10
15.3541068342
 20
13.6716014875
 30
0.0
 10
15.3533005008
 20
13.6726760185
 30
0.0
 10
15.3524126261
 20
13.6737383758
 30
0.0
 10
15.3514459019
 20
13.6747853311
 30
0.0
 10
15.3504033056
 20
13.6758137265
 30
0.0
 10
15.3492879928
 20
13.6768204128
 30
0.0
 10
15.3481033954
 20
13.6778023749
 30
0.0
 10
15.3468530945
 20
13.6787565835
 30
0.0
 10
15.3455409294
 20
13.6796801696
 30
0.0
 10
15.3441708879
 20
13.6805702953
 30
0.0
 10
15.3427471551
 20
13.6814242563
 30
0.0
 10
15.3412740853
 20
13.6822394517
 30
0.0
 10
15.3397561467
 20
13.6830133837
 30
0.0
 10
15.3376713297
 20
13.6839905554
 30
0.0
 10
15.3349837669
 20
13.6850929733
 30
0.0
 10
15.3316687109
 20
13.6862125234
 30
0.0
 10
15.3282919796
 20
13.6871199976
 30
0.0
 10
15.3248946145
 20
13.687804354
 30
0.0
 10
15.3215179224
 20
13.6882572903
 30
0.0
 10
15.3187328656
 20
13.6884387791
 30
0.0
 10
15.3165505382
 20
13.6884611865
 30
0.0
 10
15.3149574274
 20
13.6884175775
 30
0.0
 10
15.3133999146
 20
13.6883137977
 30
0.0
 10
15.3123762723
 20
13.688203457
 30
0.0
 10
15.3118717943
 20
13.6881379705
 30
0.0
  0
SPLINE
  5
2FA
100
AcDbEntity
  8
LAYER_FEATURE
100
AcDbSpline
 62
7
  6
CONTINUOUS
 70
0
 71
3
 72
23
 73
19
 74
0
 42
0.0000001
 43
0.0000001
 44
0.0000000001
 40
0.0
 40
0.0
 40
0.0
 40
0.0
 40
0.0762054603
 40
0.1504381632
 40
0.2226295145
 40
0.292762731
 40
0.3608420287
 40
0.4268878182
 40
0.4909460852
 40
0.5530916502
 40
0.6134279522
 40
0.6720875857
 40
0.729234578
 40
0.7850625573
 40
0.8397946793
 40
0.8936791638
 40
0.9469860055
 40
1.0
 40
1.0
 40
1.0
 40
1.0
 10
15.2690332574
 20
13.6814779006
 30
0.0
 10
15.2686114435
 20
13.6814010845
 30
0.0
 10
15.2677818152
 20
13.6812318031
 30
0.0
 10
15.2665666269
 20
13.6809263162
 30
0.0
 10
15.2653999877
 20
13.6805732392
 30
0.0
 10
15.2642851448
 20
13.6801735831
 30
0.0
 10
15.26322505
 20
13.6797283717
 30
0.0
 10
15.2622225478
 20
13.6792387833
 30
0.0
 10
15.2612803721
 20
13.6787060842
 30
0.0
 10
15.2604010837
 20
13.6781316716
 30
0.0
 10
15.2595870726
 20
13.6775170574
 30
0.0
 10
15.2588406032
 20
13.6768638229
 30
0.0
 10
15.2581637283
 20
13.6761737209
 30
0.0
 10
15.2575584018
 20
13.6754485401
 30
0.0
 10
15.2570263109
 20
13.67469028
 30
0.0
 10
15.2565690566
 20
13.6739009405
 30
0.0
 10
15.256187943
 20
13.6730828434
 30
0.0
 10
15.255985165
 20
13.6725190365
 30
0.0
 10
15.2558970996
 20
13.6722340635
 30
0.0
  0
SPLINE
  5
2FB
100
AcDbEntity
  8
LAYER_FEATURE
100
AcDbSpline
 62
7
  6
CONTINUOUS
 70
0
 71
3
 72
24
 73
20
 74
0
 42
0.0000001
 43
0.0000001
 44
0.0000000001
 40
0.0
 40
0.0
 40
0.0
 40
0.0
 40
0.0280756479
 40
0.0565743288
 40
0.1147587001
 40
0.1744193941
 40
0.2354005773
 40
0.2975312618
 40
0.3606281478
 40
0.4244978474
 40
0.4889391748
 40
0.5537452881
 40
0.6187057919
 40
0.6836087981
 40
0.7482429736
 40
0.8123995932
 40
0.8758746183
 40
0.9384708239
 40
1.0
 40
1.0
 40
1.0
 40
1.0
 10
15.1140308375
 20
13.6010828152
 30
0.0
 10
15.1148451524
 20
13.600351448
 30
0.0
 10
15.1165062845
 20
13.5989000457
 30
0.0
 10
15.1199518522
 20
13.5960456875
 30
0.0
 10
15.1244844969
 20
13.592576584
 30
0.0
 10
15.1302211872
 20
13.5886107054
 30
0.0
 10
15.1362652264
 20
13.5848323153
 30
0.0
 10
15.1425872938
 20
13.581259726
 30
0.0
 10
15.1491568591
 20
13.5779101751
 30
0.0
 10
15.1559421441
 20
13.5747998623
 30
0.0
 10
15.1629103273
 20
13.5719438298
 30
0.0
 10
15.1700276922
 20
13.5693558972
 30
0.0
 10
15.1772597963
 20
13.567048588
 30
0.0
 10
15.1845716382
 20
13.5650330688
 30
0.0
 10
15.1919278364
 20
13.5633190933
 30
0.0
 10
15.19929278
 20
13.5619149557
 30
0.0
 10
15.2066308927
 20
13.5608274489
 30
0.0
 10
15.2139064824
 20
13.5600618396
 30
0.0
 10
15.218738363
 20
13.559765666
 30
0.0
 10
15.2211353271
 20
13.5596737049
 30
0.0
  0
SPLINE
  5
2FC
100
AcDbEntity
  8
LAYER_FEATURE
100
AcDbSpline
 62
7
  6
CONTINUOUS
 70
0
 71
3
 72
33
 73
29
 74
0
 42
0.0000001
 43
0.0000001
 44
0.0000000001
 40
0.0
 40
0.0
 40
0.0
 40
0.0
 40
0.0298373483
 40
0.0603707484
 40
0.0915459715
 40
0.1233164305
 40
0.1884196847
 40
0.2552188199
 40
0.323197875
 40
0.3918103903
 40
0.4604944434
 40
0.5286863249
 40
0.5624289966
 40
0.5958436498
 40
0.6288655066
 40
0.6614324514
 40
0.6934853915
 40
0.7249687113
 40
0.7558311027
 40
0.7860256184
 40
0.8155109309
 40
0.8442512855
 40
0.8722181434
 40
0.899389723
 40
0.9257520326
 40
0.9513024357
 40
0.9760488017
 40
1.0
 40
1.0
 40
1.0
 40
1.0
 10
15.1140308375
 20
13.6010828152
 30
0.0
 10
15.1136530474
 20
13.601422123
 30
0.0
 10
15.1128736009
 20
13.6020920682
 30
0.0
 10
15.1116511411
 20
13.6030585906
 30
0.0
 10
15.1103650512
 20
13.6039957364
 30
0.0
 10
15.1085562805
 20
13.6052119845
 30
0.0
 10
15.1061606795
 20
13.6066383012
 30
0.0
 10
15.1031235016
 20
13.60817583
 30
0.0
 10
15.0999372562
 20
13.6095346152
 30
0.0
 10
15.0966406721
 20
13.6106981212
 30
0.0
 10
15.0932738228
 20
13.6116522173
 30
0.0
 10
15.0904333405
 20
13.6122653801
 30
0.0
 10
15.0881602914
 20
13.6126406615
 30
0.0
 10
15.0864695285
 20
13.6128625231
 30
0.0
 10
15.0847921415
 20
13.6130250458
 30
0.0
 10
15.0831332324
 20
13.613127757
 30
0.0
 10
15.0814978689
 20
13.613170334
 30
0.0
 10
15.0798910383
 20
13.6131526345
 30
0.0
 10
15.0783176416
 20
13.613074738
 30
0.0
 10
15.0767824759
 20
13.6129368334
 30
0.0
 10
15.0752902167
 20
13.6127393879
 30
0.0
 10
15.0738454092
 20
13.6124829415
 30
0.0
 10
15.0724524472
 20
13.6121683006
 30
0.0
 10
15.0711155834
 20
13.61179638
 30
0.0
 10
15.0698388749
 20
13.6113683139
 30
0.0
 10
15.0686261441
 20
13.6108853318
 30
0.0
 10
15.0674812482
 20
13.6103488788
 30
0.0
 10
15.066753808
 20
13.609950312
 30
0.0
 10
15.0664032441
 20
13.6097423248
 30
0.0
  0
SPLINE
  5
2FD
100
AcDbEntity
  8
LAYER_FEATURE
100
AcDbSpline
 62
7
  6
CONTINUOUS
 70
0
 71
3
 72
14
 73
10
 74
0
 42
0.0000001
 43
0.0000001
 44
0.0000000001
 40
0.0
 40
0.0
 40
0.0
 40
0.0
 40
0.2659869082
 40
0.3938525227
 40
0.5187891646
 40
0.6413012671
 40
0.7619372667
 40
0.8812928788
 40
1.0
 40
1.0
 40
1.0
 40
1.0
 10
15.0374929849
 20
13.5910017094
 30
0.0
 10
15.0369506895
 20
13.5906175949
 30
0.0
 10
15.0361833667
 20
13.5899943253
 30
0.0
 10
15.0352773651
 20
13.5890659904
 30
0.0
 10
15.0346772606
 20
13.5883440377
 30
0.0
 10
15.0341496949
 20
13.5875894497
 30
0.0
 10
15.0336960741
 20
13.5868041844
 30
0.0
 10
15.033317801
 20
13.5859904903
 30
0.0
 10
15.0331163078
 20
13.585429856
 30
0.0
 10
15.0330287461
 20
13.5851464942
 30
0.0
  0
SPLINE
  5
2FE
100
AcDbEntity
  8
LAYER_FEATURE
100
AcDbSpline
 62
7
  6
CONTINUOUS
 70
0
 71
3
 72
35
 73
31
 74
0
 42
0.0000001
 43
0.0000001
 44
0.0000000001
 40
0.0
 40
0.0
 40
0.0
 40
0.0
 40
0.0366871821
 40
0.0736618168
 40
0.1481303048
 40
0.2228099002
 40
0.2970853153
 40
0.3703535705
 40
0.4420360635
 40
0.4771182986
 40
0.5116070508
 40
0.545444286
 40
0.5785770982
 40
0.6109576183
 40
0.6425445604
 40
0.673303127
 40
0.7032064959
 40
0.7322362752
 40
0.7603834848
 40
0.7876498641
 40
0.8140482225
 40
0.8396042979
 40
0.8643568001
 40
0.8883592343
 40
0.9001020858
 40
0.9116840549
 40
0.9344037016
 40
0.9566213299
 40
0.9784488754
 40
1.0
 40
1.0
 40
1.0
 40
1.0
 10
14.9705374425
 20
13.4641792921
 30
0.0
 10
14.9700202088
 20
13.4644293697
 30
0.0
 10
14.9689732399
 20
13.4649142319
 30
0.0
 10
14.9668374285
 20
13.465820204
 30
0.0
 10
14.9641003702
 20
13.4668283632
 30
0.0
 10
14.9607452437
 20
13.4678285671
 30
0.0
 10
14.9573516771
 20
13.4686100886
 30
0.0
 10
14.9539610964
 20
13.4691634092
 30
0.0
 10
14.9511520421
 20
13.4694307093
 30
0.0
 10
14.9489415371
 20
13.4695226668
 30
0.0
 10
14.9473218125
 20
13.4695309102
 30
0.0
 10
14.9457334422
 20
13.469478878
 30
0.0
 10
14.944181248
 20
13.4693667645
 30
0.0
 10
14.9426699667
 20
13.4691948551
 30
0.0
 10
14.9412041971
 20
13.4689637175
 30
0.0
 10
14.9397884057
 20
13.4686740001
 30
0.0
 10
14.9384268972
 20
13.468326598
 30
0.0
 10
14.9371238138
 20
13.4679225375
 30
0.0
 10
14.9358831249
 20
13.4674630063
 30
0.0
 10
14.9347085948
 20
13.4669493967
 30
0.0
 10
14.9336038297
 20
13.4663831752
 30
0.0
 10
14.9325721716
 20
13.4657660572
 30
0.0
 10
14.9316168627
 20
13.4650998278
 30
0.0
 10
14.9308814375
 20
13.4645009686
 30
0.0
 10
14.930335574
 20
13.4639993821
 30
0.0
 10
14.9298247633
 20
13.4634902391
 30
0.0
 10
14.9292372236
 20
13.4628267424
 30
0.0
 10
14.9286145632
 20
13.4619851063
 30
0.0
 10
14.9280808996
 20
13.4611057284
 30
0.0
 10
14.9277841748
 20
13.4604933043
 30
0.0
 10
14.9276518531
 20
13.4601828385
 30
0.0
  0
ENDSEC
  0
SECTION
  2
OBJECTS
  0
DICTIONARY
  5
C
100
AcDbDictionary
280
0
281
1
  3
ACAD_GROUP
350
D
  3
ACAD_MLINESTYLE
350
17
  3
ACAD_LAYOUT
350
1A
  3
ACAD_PLOTSETTINGS
350
19
  3
ACAD_PLOTSTYLENAME
350
E
  0
DICTIONARY
  5
D
102
{ACAD_REACTORS
330
C
102
}
100
AcDbDictionary
280
0
281
1
  0
ACDBDICTIONARYWDFLT
  5
E
102
{ACAD_REACTORS
330
C
102
}
100
AcDbDictionary
281
1
  3
Normal
350
F
100
AcDbDictionaryWithDefault
340
F
  0
DICTIONARY
  5
17
102
{ACAD_REACTORS
330
C
102
}
100
AcDbDictionary
280
0
281
1
  3
Standard
350
18
  0
DICTIONARY
  5
19
102
{ACAD_REACTORS
330
C
102
}
100
AcDbDictionary
281
1
  0
DICTIONARY
  5
1A
102
{ACAD_REACTORS
330
C
102
}
100
AcDbDictionary
281
1
  3
Model
350
2FF
  3
Layout1
350
300
  0
ACDBPLACEHOLDER
  5
F
102
{ACAD_REACTORS
330
E
102
}
  0
MLINESTYLE
  5
18
102
{ACAD_REACTORS
330
17
102
}
100
AcDbMlineStyle
  2
STANDARD
 70
0
  3

 62
256
 51
90.0
 52
90.0
 71
2
 49
0.5
 62
256
  6
BYLAYER
 49
-0.5
 62
256
  6
BYLAYER
  0
LAYOUT
  5
2FF
102
{ACAD_REACTORS
330
1A
102
}
100
AcDbPlotSettings
  1

  2
none_device
  4
ANSI_C_(22.00_x_17.00_Inches)
  6

 40
0.0
 41
0.0
 42
0.0
 43
0.0
 44
558.8
 45
431.8
 46
0.0
 47
0.0
 48
0.0
 49
0.0
140
0.0
141
0.0
142
1.0
143
1.0
 70
1024
 72
0
 73
0
 74
0
  7

 75
0
147
1.0
148
0.0
149
0.0
100
AcDbLayout
  1
Model
 70
0
 71
0
 10
0.0
 20
0.0
 11
22.0
 21
17.0
 12
0.0
 22
0.0
 32
0.0
 14
0.0
 24
0.0
 34
0.0
 15
0.0
 25
0.0
 35
0.0
146
0.0
 13
0.0
 23
0.0
 33
0.0
 16
1.0
 26
0.0
 36
0.0
 17
0.0
 27
1.0
 37
0.0
 76
0
330
221
345
0
346
0
  0
LAYOUT
  5
300
102
{ACAD_REACTORS
330
1A
102
}
100
AcDbPlotSettings
  1

  2
none_device
  4
ANSI_C_(22.00_x_17.00_Inches)
  6

 40
0.0
 41
0.0
 42
0.0
 43
0.0
 44
558.8
 45
431.8
 46
0.0
 47
0.0
 48
0.0
 49
0.0
140
0.0
141
0.0
142
1.0
143
1.0
 70
0
 72
0
 73
0
 74
0
  7

 75
0
147
1.0
148
0.0
149
0.0
100
AcDbLayout
  1
Layout1
 70
0
 71
1
 10
0.0
 20
0.0
 11
22.0
 21
17.0
 12
0.0
 22
0.0
 32
0.0
 14
0.0
 24
0.0
 34
0.0
 15
0.0
 25
0.0
 35
0.0
146
0.0
 13
0.0
 23
0.0
 33
0.0
 16
1.0
 26
0.0
 36
0.0
 17
0.0
 27
1.0
 37
0.0
 76
0
330
222
345
0
346
0
  0
ENDSEC
  0
EOF