999
DXF file: _cgs_temp_output.dxf
999
Pro/ENGINEER 2015110 by Parametric Technology Corporation
  0
SECTION
  2
HEADER
  9
$ACADVER
  1
AC1021
  9
$DWGCODEPAGE
  3
ANSI_1252
  9
$EXTMAX
 10
22.0
 20
17.0
 30
0.0
  9
$EXTMIN
 10
0.0
 20
0.0
 30
0.0
  9
$LIMMIN
 10
0.0
 20
0.0
  9
$LIMMAX
 10
22.0
 20
17.0
  9
$VIEWCTR
 10
11.0
 20
8.5
  9
$VIEWSIZE
 40
17.0
  9
$CLAYER
  8
0
  9
$LTSCALE
 40
1.21
  9
$CELTYPE
  6
BYLAYER
  9
$DIMSCALE
 40
1.0
  9
$DIMASZ
 40
0.1875
  9
$DIMEXO
 40
0.0625
  9
$DIMDLI
 40
0.836
  9
$DIMEXE
 40
0.125
  9
$DIMCEN
 40
0.198
  9
$DIMLFAC
 40
1.0
  9
$DIMBLK
  1
_CLOSED
  9
$DIMALT
 70
0
  9
$DIMALTF
 40
25.4
  9
$DIMTXT
 40
0.15625
  9
$DIMTOL
 70
0
  9
$DIMLIM
 70
0
  9
$DIMTFAC
 40
1.0
  9
$DIMGAP
 40
0.09
  9
$DIMDSEP
 70
46
  9
$AUNITS
 70
0
  9
$PDMODE
 70
3
  9
$PDSIZE
 40
0.3125
  9
$HANDSEED
  5
2DB
  9
$TILEMODE
 70
1
  9
$MEASUREMENT
 70
0
  9
$INSUNITS
 70
1
  0
ENDSEC
  0
SECTION
  2
CLASSES
  0
CLASS
  1
ACDBDICTIONARYWDFLT
  2
AcDbDictionaryWithDefault
  3
AutoCAD 2000
 90
0
 91
1
280
0
281
0
  0
CLASS
  1
ACDBPLACEHOLDER
  2
AcDbPlaceHolder
  3
AutoCAD 2000
 90
0
 91
1
280
0
281
0
  0
CLASS
  1
LAYOUT
  2
AcDbLayout
  3
AutoCAD 2000
 90
0
 91
0
280
0
281
0
  0
ENDSEC
  0
SECTION
  2
TABLES
  0
TABLE
  2
VPORT
  5
8
100
AcDbSymbolTable
 70
2
  0
VPORT
  5
1F4
100
AcDbSymbolTableRecord
100
AcDbViewportTableRecord
  2
*ACTIVE
 70
0
 10
0.0
 20
0.0
 11
1.0
 21
1.0
 12
11.0
 22
8.5
 13
0.0
 23
0.0
 14
1.0
 24
1.0
 15
0.0
 25
0.0
 16
0.0
 26
0.0
 36
1.0
 17
0.0
 27
0.0
 37
0.0
 40
17.0
 41
1.2941176471
 42
50.0
 43
0.0
 44
0.0
 50
0.0
 51
0.0
 71
0
 72
100
 73
1
 74
1
 75
0
 76
0
 77
0
 78
0
  0
ENDTAB
  0
TABLE
  2
LTYPE
  5
5
100
AcDbSymbolTable
 70
6
  0
LTYPE
  5
14
100
AcDbSymbolTableRecord
100
AcDbLinetypeTableRecord
  2
BYBLOCK
 70
0
  3

 72
65
 73
0
 40
0.0
  0
LTYPE
  5
15
100
AcDbSymbolTableRecord
100
AcDbLinetypeTableRecord
  2
BYLAYER
 70
0
  3

 72
65
 73
0
 40
0.0
  0
LTYPE
  5
16
100
AcDbSymbolTableRecord
100
AcDbLinetypeTableRecord
  2
CONTINUOUS
 70
64
  3
Solid line
 72
65
 73
0
 40
0.0
  0
LTYPE
  5
1F5
100
AcDbSymbolTableRecord
100
AcDbLinetypeTableRecord
  2
CENTER
 70
64
  3
____ _ ____ _ ____ _ ____ _ ____ _ ____ _ ____
 72
65
 73
4
 40
0.6
 49
0.375
 74
0
 49
-0.075
 74
0
 49
0.075
 74
0
 49
-0.075
 74
0
  0
LTYPE
  5
1F6
100
AcDbSymbolTableRecord
100
AcDbLinetypeTableRecord
  2
HIDDEN
 70
64
  3
- - - - - - - - - - - - - - - - - - - -
 72
65
 73
2
 40
0.2
 49
0.1
 74
0
 49
-0.1
 74
0
  0
LTYPE
  5
1F7
100
AcDbSymbolTableRecord
100
AcDbLinetypeTableRecord
  2
PHANTOM
 70
64
  3
_____ _ _ _____ _ _ _____ _ _ _____
 72
65
 73
6
 40
0.8
 49
0.45
 74
0
 49
-0.05
 74
0
 49
0.1
 74
0
 49
-0.05
 74
0
 49
0.1
 74
0
 49
-0.05
 74
0
  0
LTYPE
  5
1F8
100
AcDbSymbolTableRecord
100
AcDbLinetypeTableRecord
  2
DOT
 70
64
  3
. . . . . . . . . . . . . . . . . . . .
 72
65
 73
2
 40
0.2
 49
0.1
 74
0
 49
-0.1
 74
0
  0
LTYPE
  5
1F9
100
AcDbSymbolTableRecord
100
AcDbLinetypeTableRecord
  2
DASHED
 70
64
  3
- - - - - - - - - - - - - - - - - - - -
 72
65
 73
2
 40
0.2
 49
0.1
 74
0
 49
-0.1
 74
0
  0
ENDTAB
  0
TABLE
  2
LAYER
  5
2
100
AcDbSymbolTable
 70
36
  0
LAYER
  5
10
100
AcDbSymbolTableRecord
100
AcDbLayerTableRecord
  2
0
 70
0
 62
7
  6
CONTINUOUS
370
-3
390
F
  0
LAYER
  5
1FA
100
AcDbSymbolTableRecord
100
AcDbLayerTableRecord
  2
DEFAULT_1
 70
0
 62
7
  6
CENTER
370
-3
390
F
  0
LAYER
  5
1FB
100
AcDbSymbolTableRecord
100
AcDbLayerTableRecord
  2
DEFAULT_2
 70
0
 62
8
  6
HIDDEN
370
-3
390
F
  0
LAYER
  5
1FC
100
AcDbSymbolTableRecord
100
AcDbLayerTableRecord
  2
DEFAULT_3
 70
0
 62
7
  6
PHANTOM
370
-3
390
F
  0
LAYER
  5
1FD
100
AcDbSymbolTableRecord
100
AcDbLayerTableRecord
  2
01_ALL_DTM_PLN
 70
0
 62
7
  6
CONTINUOUS
370
-3
390
F
  0
LAYER
  5
1FE
100
AcDbSymbolTableRecord
100
AcDbLayerTableRecord
  2
01__ASM_ALL_DTM_PLN
 70
0
 62
7
  6
CONTINUOUS
370
-3
390
F
  0
LAYER
  5
1FF
100
AcDbSymbolTableRecord
100
AcDbLayerTableRecord
  2
01__ASM_DEF_DTM_PLN
 70
0
 62
7
  6
CONTINUOUS
370
-3
390
F
  0
LAYER
  5
200
100
AcDbSymbolTableRecord
100
AcDbLayerTableRecord
  2
01___PRT_ALL_DTM_PLN
 70
0
 62
7
  6
CONTINUOUS
370
-3
390
F
  0
LAYER
  5
201
100
AcDbSymbolTableRecord
100
AcDbLayerTableRecord
  2
01___PRT_DEF_DTM_PLN
 70
0
 62
7
  6
CONTINUOUS
370
-3
390
F
  0
LAYER
  5
202
100
AcDbSymbolTableRecord
100
AcDbLayerTableRecord
  2
02_ALL_AXES
 70
0
 62
7
  6
CONTINUOUS
370
-3
390
F
  0
LAYER
  5
203
100
AcDbSymbolTableRecord
100
AcDbLayerTableRecord
  2
02__ASM_ALL_AXES
 70
0
 62
7
  6
CONTINUOUS
370
-3
390
F
  0
LAYER
  5
204
100
AcDbSymbolTableRecord
100
AcDbLayerTableRecord
  2
02___PRT_ALL_AXES
 70
0
 62
7
  6
CONTINUOUS
370
-3
390
F
  0
LAYER
  5
205
100
AcDbSymbolTableRecord
100
AcDbLayerTableRecord
  2
03_ALL_CURVES
 70
0
 62
7
  6
CONTINUOUS
370
-3
390
F
  0
LAYER
  5
206
100
AcDbSymbolTableRecord
100
AcDbLayerTableRecord
  2
03__ASM_ALL_CURVES
 70
0
 62
7
  6
CONTINUOUS
370
-3
390
F
  0
LAYER
  5
207
100
AcDbSymbolTableRecord
100
AcDbLayerTableRecord
  2
03___PRT_ALL_CURVES
 70
0
 62
7
  6
CONTINUOUS
370
-3
390
F
  0
LAYER
  5
208
100
AcDbSymbolTableRecord
100
AcDbLayerTableRecord
  2
04_ALL_DTM_PNT
 70
0
 62
7
  6
CONTINUOUS
370
-3
390
F
  0
LAYER
  5
209
100
AcDbSymbolTableRecord
100
AcDbLayerTableRecord
  2
04__ASM_ALL_DTM_PNT
 70
0
 62
7
  6
CONTINUOUS
370
-3
390
F
  0
LAYER
  5
20A
100
AcDbSymbolTableRecord
100
AcDbLayerTableRecord
  2
04___PRT_ALL_DTM_PNT
 70
0
 62
7
  6
CONTINUOUS
370
-3
390
F
  0
LAYER
  5
20B
100
AcDbSymbolTableRecord
100
AcDbLayerTableRecord
  2
05_ALL_DTM_CSYS
 70
0
 62
7
  6
CONTINUOUS
370
-3
390
F
  0
LAYER
  5
20C
100
AcDbSymbolTableRecord
100
AcDbLayerTableRecord
  2
05__ASM_ALL_DTM_CSYS
 70
0
 62
7
  6
CONTINUOUS
370
-3
390
F
  0
LAYER
  5
20D
100
AcDbSymbolTableRecord
100
AcDbLayerTableRecord
  2
05__ASM_DEF_DTM_CSYS
 70
0
 62
7
  6
CONTINUOUS
370
-3
390
F
  0
LAYER
  5
20E
100
AcDbSymbolTableRecord
100
AcDbLayerTableRecord
  2
05___PRT_ALL_DTM_CSYS
 70
0
 62
7
  6
CONTINUOUS
370
-3
390
F
  0
LAYER
  5
20F
100
AcDbSymbolTableRecord
100
AcDbLayerTableRecord
  2
05___PRT_DEF_DTM_CSYS
 70
0
 62
7
  6
CONTINUOUS
370
-3
390
F
  0
LAYER
  5
210
100
AcDbSymbolTableRecord
100
AcDbLayerTableRecord
  2
06_ALL_SURFS
 70
0
 62
7
  6
CONTINUOUS
370
-3
390
F
  0
LAYER
  5
211
100
AcDbSymbolTableRecord
100
AcDbLayerTableRecord
  2
06__ASM_ALL_SURFS
 70
0
 62
7
  6
CONTINUOUS
370
-3
390
F
  0
LAYER
  5
212
100
AcDbSymbolTableRecord
100
AcDbLayerTableRecord
  2
06___PRT_ALL_SURFS
 70
0
 62
7
  6
CONTINUOUS
370
-3
390
F
  0
LAYER
  5
213
100
AcDbSymbolTableRecord
100
AcDbLayerTableRecord
  2
07__ASM_ALL_SKELETONS
 70
0
 62
7
  6
CONTINUOUS
370
-3
390
F
  0
LAYER
  5
214
100
AcDbSymbolTableRecord
100
AcDbLayerTableRecord
  2
LAYER_AXIS
 70
0
 62
7
  6
CONTINUOUS
370
-3
390
F
  0
LAYER
  5
215
100
AcDbSymbolTableRecord
100
AcDbLayerTableRecord
  2
LAYER_CHAMFER_FEAT
 70
0
 62
7
  6
CONTINUOUS
370
-3
390
F
  0
LAYER
  5
216
100
AcDbSymbolTableRecord
100
AcDbLayerTableRecord
  2
LAYER_CUT_FEAT
 70
0
 62
7
  6
CONTINUOUS
370
-3
390
F
  0
LAYER
  5
217
100
AcDbSymbolTableRecord
100
AcDbLayerTableRecord
  2
LAYER_DATUM
 70
0
 62
7
  6
CONTINUOUS
370
-3
390
F
  0
LAYER
  5
218
100
AcDbSymbolTableRecord
100
AcDbLayerTableRecord
  2
LAYER_DIM
 70
0
 62
7
  6
CONTINUOUS
370
-3
390
F
  0
LAYER
  5
219
100
AcDbSymbolTableRecord
100
AcDbLayerTableRecord
  2
LAYER_FEATURE
 70
0
 62
7
  6
CONTINUOUS
370
-3
390
F
  0
LAYER
  5
21A
100
AcDbSymbolTableRecord
100
AcDbLayerTableRecord
  2
LAYER_GEOM_FEAT
 70
0
 62
7
  6
CONTINUOUS
370
-3
390
F
  0
LAYER
  5
21B
100
AcDbSymbolTableRecord
100
AcDbLayerTableRecord
  2
LAYER_NOGEOM_FEAT
 70
0
 62
7
  6
CONTINUOUS
370
-3
390
F
  0
LAYER
  5
21C
100
AcDbSymbolTableRecord
100
AcDbLayerTableRecord
  2
LAYER_PARAMETER_DIM
 70
0
 62
7
  6
CONTINUOUS
370
-3
390
F
  0
LAYER
  5
21D
100
AcDbSymbolTableRecord
100
AcDbLayerTableRecord
  2
LAYER_PROTRUSION_FEAT
 70
0
 62
7
  6
CONTINUOUS
370
-3
390
F
  0
LAYER
  5
21E
100
AcDbSymbolTableRecord
100
AcDbLayerTableRecord
  2
LAYER_QUILT
 70
0
 62
7
  6
CONTINUOUS
370
-3
390
F
  0
LAYER
  5
21F
100
AcDbSymbolTableRecord
100
AcDbLayerTableRecord
  2
LAYER_ROUND_FEAT
 70
0
 62
7
  6
CONTINUOUS
370
-3
390
F
  0
ENDTAB
  0
TABLE
  2
STYLE
  5
3
100
AcDbSymbolTable
 70
1
  0
STYLE
  5
11
100
AcDbSymbolTableRecord
100
AcDbTextStyleTableRecord
  2
STANDARD
 70
0
 40
0.0
 41
0.8
 50
0.0
 71
0
 42
0.2
  3
txt
  4

  0
STYLE
  5
220
100
AcDbSymbolTableRecord
100
AcDbTextStyleTableRecord
  2
TEXTSTYLE_1
 70
0
 40
0.0
 41
0.8
 50
0.0
 71
0
 42
0.2
  3
gdt
  4

  0
ENDTAB
  0
TABLE
  2
VIEW
  5
6
100
AcDbSymbolTable
 70
0
  0
ENDTAB
  0
TABLE
  2
UCS
  5
7
100
AcDbSymbolTable
 70
0
  0
ENDTAB
  0
TABLE
  2
APPID
  5
9
100
AcDbSymbolTable
 70
1
  0
APPID
  5
221
100
AcDbSymbolTableRecord
100
AcDbRegAppTableRecord
  2
ACAD
 70
0
  0
ENDTAB
  0
TABLE
  2
BLOCK_RECORD
  5
1
100
AcDbSymbolTable
 70
0
  0
BLOCK_RECORD
  5
222
100
AcDbSymbolTableRecord
100
AcDbBlockTableRecord
  2
*Model_Space
  0
BLOCK_RECORD
  5
223
100
AcDbSymbolTableRecord
100
AcDbBlockTableRecord
  2
*Paper_Space
  0
ENDTAB
  0
TABLE
  2
DIMSTYLE
  5
A
100
AcDbSymbolTable
 70
1
100
AcDbDimStyleTable
 71
0
  0
DIMSTYLE
105
224
100
AcDbSymbolTableRecord
100
AcDbDimStyleTableRecord
  2
STANDARD
 70
0
  3

  4

 40
1.0
 41
0.1875
 42
0.0625
 43
0.38
 44
0.125
 45
0.0
 46
0.0
 47
0.0001
 48
0.0001
140
0.15625
141
0.09
142
0.0
143
25.4
144
1.0
145
0.0
146
1.0
147
0.09
 71
0.0
 72
0.0
 73
1
 74
1
 75
0
 76
0
 77
0
 78
4
170
0
171
2
172
0
173
0
174
0
175
0
176
0
177
0
178
0
270
2
271
4
272
4
273
2
274
2
275
0
280
0
281
0
282
0
283
1
284
4
285
0
286
0
287
3
288
0
340
11
278
46
  0
ENDTAB
  0
ENDSEC
  0
SECTION
  2
BLOCKS
  0
BLOCK
  5
20
100
AcDbEntity
  8
0
100
AcDbBlockBegin
  2
*Model_Space
 70
0
 10
0.0
 20
0.0
 30
0.0
  3
*Model_Space
  1

  0
ENDBLK
  5
21
100
AcDbEntity
  8
0
100
AcDbBlockEnd
  0
BLOCK
  5
1C
100
AcDbEntity
  8
0
100
AcDbBlockBegin
  2
*Paper_Space
 70
0
 10
0.0
 20
0.0
 30
0.0
  3
*Paper_Space
  1

  0
ENDBLK
  5
1D
100
AcDbEntity
  8
0
100
AcDbBlockEnd
  0
ENDSEC
  0
SECTION
  2
ENTITIES
  0
MTEXT
  5
225
100
AcDbEntity
  8
0
100
AcDbMText
 62
7
  6
CONTINUOUS
  7
STANDARD
 71
1
 72
1
 10
15.9560215477
 20
0.9479130325
 30
0.0
 11
1.0
 21
0.0
 31
0.0
 44
0.9
  1
SCALE: 1:2.000
 40
0.3
 41
3.36
  0
LINE
  5
226
100
AcDbEntity
  8
0
100
AcDbLine
 62
7
  6
CONTINUOUS
 10
0.0
 20
0.0
 11
0.0
 21
17.0
  0
LINE
  5
227
100
AcDbEntity
  8
0
100
AcDbLine
 62
7
  6
CONTINUOUS
 10
0.0
 20
0.0
 11
22.0
 21
0.0
  0
LINE
  5
228
100
AcDbEntity
  8
0
100
AcDbLine
 62
7
  6
CONTINUOUS
 10
0.0
 20
17.0
 11
22.0
 21
17.0
  0
LINE
  5
229
100
AcDbEntity
  8
0
100
AcDbLine
 62
7
  6
CONTINUOUS
 10
22.0
 20
0.0
 11
22.0
 21
17.0
  0
LINE
  5
22A
100
AcDbEntity
  8
LAYER_FEATURE
100
AcDbLine
 62
7
  6
CONTINUOUS
 10
5.9991672762
 20
6.0201198968
 11
5.9740649111
 21
5.9950175317
  0
LINE
  5
22B
100
AcDbEntity
  8
LAYER_FEATURE
100
AcDbLine
 62
7
  6
CONTINUOUS
 10
6.2615672762
 20
6.0201198968
 11
6.2866696413
 21
5.9950175317
  0
LINE
  5
22C
100
AcDbEntity
  8
LAYER_FEATURE
100
AcDbLine
 62
7
  6
CONTINUOUS
 10
5.9991672762
 20
6.0201198968
 11
6.2615672762
 21
6.0201198968
  0
LINE
  5
22D
100
AcDbEntity
  8
02___PRT_ALL_AXES
100
AcDbLine
 62
7
  6
CONTINUOUS
 10
5.5708720948
 20
11.5750477814
 11
6.5708720729
 21
11.5750477814
  0
LINE
  5
22E
100
AcDbEntity
  8
LAYER_FEATURE
100
AcDbLine
 62
7
  6
CONTINUOUS
 10
5.1338720839
 20
12.0650477814
 11
5.1338720839
 21
12.1450477814
  0
LINE
  5
22F
100
AcDbEntity
  8
LAYER_FEATURE
100
AcDbLine
 62
7
  6
CONTINUOUS
 10
5.1338720839
 20
13.5450477814
 11
5.1338720839
 21
13.6250477814
  0
LINE
  5
230
100
AcDbEntity
  8
LAYER_CUT_FEAT
100
AcDbLine
 62
7
  6
CONTINUOUS
 10
6.0235293618
 20
11.7380477814
 11
6.1182148059
 21
11.7380477814
  0
LINE
  5
231
100
AcDbEntity
  8
LAYER_CUT_FEAT
100
AcDbLine
 62
7
  6
CONTINUOUS
 10
5.3033164947
 20
13.4950477814
 11
5.3033164947
 21
12.1950477814
  0
LINE
  5
232
100
AcDbEntity
  8
LAYER_CUT_FEAT
100
AcDbLine
 62
7
  6
CONTINUOUS
 10
5.3416308102
 20
13.4950477814
 11
5.3416308102
 21
12.1950477814
  0
LINE
  5
233
100
AcDbEntity
  8
LAYER_CUT_FEAT
100
AcDbLine
 62
7
  6
CONTINUOUS
 10
6.1182148059
 20
11.9020477814
 11
6.0235293618
 21
11.9020477814
  0
LINE
  5
234
100
AcDbEntity
  8
LAYER_FEATURE
100
AcDbLine
 62
7
  6
CONTINUOUS
 10
6.8708720839
 20
13.4950477814
 11
7.0078720839
 21
13.5450477814
  0
LINE
  5
235
100
AcDbEntity
  8
LAYER_CUT_FEAT
100
AcDbLine
 62
7
  6
CONTINUOUS
 10
5.5335099715
 20
13.4950477814
 11
5.5335099715
 21
12.1950477814
  0
LINE
  5
236
100
AcDbEntity
  8
02___PRT_ALL_AXES
100
AcDbLine
 62
7
  6
CONTINUOUS
 10
5.5708720839
 20
11.5750477814
 11
5.5708720839
 21
12.0650477814
  0
LINE
  5
237
100
AcDbEntity
  8
LAYER_FEATURE
100
AcDbLine
 62
7
  6
CONTINUOUS
 10
5.1338720839
 20
12.0650477814
 11
7.0078720839
 21
12.0650477814
  0
LINE
  5
238
100
AcDbEntity
  8
LAYER_FEATURE
100
AcDbLine
 62
7
  6
CONTINUOUS
 10
5.1338720839
 20
12.1450477814
 11
7.0078720839
 21
12.1450477814
  0
LINE
  5
239
100
AcDbEntity
  8
LAYER_CUT_FEAT
100
AcDbLine
 62
7
  6
CONTINUOUS
 10
5.9761866397
 20
11.8200477814
 11
6.0235293618
 21
11.7380477814
  0
LINE
  5
23A
100
AcDbEntity
  8
LAYER_FEATURE
100
AcDbLine
 62
7
  6
CONTINUOUS
 10
5.2708721482
 20
12.1950477814
 11
6.8708720196
 21
12.1950477814
  0
LINE
  5
23B
100
AcDbEntity
  8
LAYER_CUT_FEAT
100
AcDbLine
 62
7
  6
CONTINUOUS
 10
6.165557528
 20
11.8200477814
 11
6.1182148059
 21
11.9020477814
  0
LINE
  5
23C
100
AcDbEntity
  8
LAYER_CUT_FEAT
100
AcDbLine
 62
7
  6
CONTINUOUS
 10
5.8407033265
 20
13.4950477814
 11
5.8407033265
 21
12.1950477814
  0
LINE
  5
23D
100
AcDbEntity
  8
LAYER_CUT_FEAT
100
AcDbLine
 62
7
  6
CONTINUOUS
 10
5.9569537773
 20
13.4950477814
 11
5.9569537773
 21
12.1950477814
  0
LINE
  5
23E
100
AcDbEntity
  8
LAYER_FEATURE
100
AcDbLine
 62
7
  6
CONTINUOUS
 10
7.0078720839
 20
12.1450477814
 11
6.8708720839
 21
12.1950477814
  0
LINE
  5
23F
100
AcDbEntity
  8
LAYER_CUT_FEAT
100
AcDbLine
 62
7
  6
CONTINUOUS
 10
6.1928365798
 20
13.4950477814
 11
6.1928365798
 21
12.1950477814
  0
LINE
  5
240
100
AcDbEntity
  8
LAYER_FEATURE
100
AcDbLine
 62
7
  6
CONTINUOUS
 10
5.1338720839
 20
12.1450477814
 11
5.2708720839
 21
12.1950477814
  0
LINE
  5
241
100
AcDbEntity
  8
LAYER_CUT_FEAT
100
AcDbLine
 62
7
  6
CONTINUOUS
 10
6.3089543343
 20
13.4950477814
 11
6.3089543343
 21
12.1950477814
  0
LINE
  5
242
100
AcDbEntity
  8
LAYER_CUT_FEAT
100
AcDbLine
 62
7
  6
CONTINUOUS
 10
6.0235293618
 20
11.9020477814
 11
5.9761866397
 21
11.8200477814
  0
LINE
  5
243
100
AcDbEntity
  8
LAYER_CUT_FEAT
100
AcDbLine
 62
7
  6
CONTINUOUS
 10
6.1182148059
 20
11.7380477814
 11
6.165557528
 21
11.8200477814
  0
LINE
  5
244
100
AcDbEntity
  8
02___PRT_ALL_AXES
100
AcDbLine
 62
7
  6
CONTINUOUS
 10
6.5708720839
 20
11.5750477814
 11
6.5708720839
 21
12.0650477814
  0
LINE
  5
245
100
AcDbEntity
  8
LAYER_CUT_FEAT
100
AcDbLine
 62
7
  6
CONTINUOUS
 10
6.6142021072
 20
13.4950477814
 11
6.6142021072
 21
12.1950477814
  0
LINE
  5
246
100
AcDbEntity
  8
LAYER_FEATURE
100
AcDbLine
 62
7
  6
CONTINUOUS
 10
5.2708720839
 20
13.4950477814
 11
5.1338720839
 21
13.5450477814
  0
LINE
  5
247
100
AcDbEntity
  8
LAYER_CUT_FEAT
100
AcDbLine
 62
7
  6
CONTINUOUS
 10
6.8027685098
 20
13.4950477814
 11
6.8027685098
 21
12.1950477814
  0
LINE
  5
248
100
AcDbEntity
  8
LAYER_CUT_FEAT
100
AcDbLine
 62
7
  6
CONTINUOUS
 10
6.8377122427
 20
13.4950477814
 11
6.8377122427
 21
12.1950477814
  0
LINE
  5
249
100
AcDbEntity
  8
LAYER_FEATURE
100
AcDbLine
 62
7
  6
CONTINUOUS
 10
7.0078720839
 20
12.0650477814
 11
7.0078720839
 21
12.1450477814
  0
LINE
  5
24A
100
AcDbEntity
  8
LAYER_FEATURE
100
AcDbLine
 62
7
  6
CONTINUOUS
 10
7.0078720839
 20
13.5450477814
 11
7.0078720839
 21
13.6250477814
  0
LINE
  5
24B
100
AcDbEntity
  8
LAYER_FEATURE
100
AcDbLine
 62
7
  6
CONTINUOUS
 10
5.2708721482
 20
13.4950477814
 11
6.8708720196
 21
13.4950477814
  0
LINE
  5
24C
100
AcDbEntity
  8
LAYER_FEATURE
100
AcDbLine
 62
7
  6
CONTINUOUS
 10
5.1338720839
 20
13.5450477814
 11
7.0078720839
 21
13.5450477814
  0
LINE
  5
24D
100
AcDbEntity
  8
LAYER_FEATURE
100
AcDbLine
 62
7
  6
CONTINUOUS
 10
5.1338720839
 20
13.6250477814
 11
7.0078720839
 21
13.6250477814
  0
LINE
  5
24E
100
AcDbEntity
  8
02___PRT_ALL_AXES
100
AcDbLine
 62
7
  6
CONTINUOUS
 10
14.5353552569
 20
5.9606247044
 11
14.5353552569
 21
4.9606247044
  0
LINE
  5
24F
100
AcDbEntity
  8
LAYER_FEATURE
100
AcDbLine
 62
7
  6
CONTINUOUS
 10
14.6414884849
 20
5.9529579325
 11
14.6491552569
 21
5.9606247044
  0
LINE
  5
250
100
AcDbEntity
  8
LAYER_FEATURE
100
AcDbLine
 62
7
  6
CONTINUOUS
 10
16.5853552569
 20
4.5236247044
 11
16.5053552569
 21
4.5236247044
  0
LINE
  5
251
100
AcDbEntity
  8
LAYER_FEATURE
100
AcDbLine
 62
7
  6
CONTINUOUS
 10
15.1053552569
 20
4.5236247044
 11
15.0253552569
 21
4.5236247044
  0
LINE
  5
252
100
AcDbEntity
  8
02___PRT_ALL_AXES
100
AcDbLine
 62
7
  6
CONTINUOUS
 10
15.1553552569
 20
4.6906247044
 11
16.4553552569
 21
4.6906247044
  0
LINE
  5
253
100
AcDbEntity
  8
LAYER_CUT_FEAT
100
AcDbLine
 62
7
  6
CONTINUOUS
 10
16.4553552569
 20
4.7619915378
 11
15.1553552569
 21
4.7619915378
  0
LINE
  5
254
100
AcDbEntity
  8
LAYER_FEATURE
100
AcDbLine
 62
7
  6
CONTINUOUS
 10
15.0253552569
 20
6.3976247044
 11
15.0253552569
 21
4.5236247044
  0
LINE
  5
255
100
AcDbEntity
  8
LAYER_FEATURE
100
AcDbLine
 62
7
  6
CONTINUOUS
 10
15.1053552569
 20
6.3976247044
 11
15.1053552569
 21
4.5236247044
  0
LINE
  5
256
100
AcDbEntity
  8
02___PRT_ALL_AXES
100
AcDbLine
 62
7
  6
CONTINUOUS
 10
15.0253552569
 20
4.9606247044
 11
14.5353552569
 21
4.9606247044
  0
LINE
  5
257
100
AcDbEntity
  8
LAYER_CUT_FEAT
100
AcDbLine
 62
7
  6
CONTINUOUS
 10
16.4553552569
 20
4.9850493221
 11
15.1553552569
 21
4.9850493221
  0
LINE
  5
258
100
AcDbEntity
  8
LAYER_FEATURE
100
AcDbLine
 62
7
  6
CONTINUOUS
 10
15.1553552569
 20
6.2606247044
 11
15.1553552569
 21
4.6606247044
  0
LINE
  5
259
100
AcDbEntity
  8
LAYER_FEATURE
100
AcDbLine
 62
7
  6
CONTINUOUS
 10
15.1553552569
 20
4.6606247044
 11
15.1053552569
 21
4.5236247044
  0
LINE
  5
25A
100
AcDbEntity
  8
LAYER_CUT_FEAT
100
AcDbLine
 62
7
  6
CONTINUOUS
 10
16.4553552569
 20
5.309266705
 11
15.1553552569
 21
5.309266705
  0
LINE
  5
25B
100
AcDbEntity
  8
LAYER_FEATURE
100
AcDbLine
 62
7
  6
CONTINUOUS
 10
14.9192220297
 20
5.9529579317
 11
14.9115552569
 21
5.9606247044
  0
LINE
  5
25C
100
AcDbEntity
  8
LAYER_FEATURE
100
AcDbLine
 62
7
  6
CONTINUOUS
 10
15.1553552569
 20
6.2606247044
 11
15.1053552569
 21
6.3976247044
  0
LINE
  5
25D
100
AcDbEntity
  8
LAYER_CUT_FEAT
100
AcDbLine
 62
7
  6
CONTINUOUS
 10
16.4553552569
 20
5.4264976052
 11
15.1553552569
 21
5.4264976052
  0
LINE
  5
25E
100
AcDbEntity
  8
LAYER_CUT_FEAT
100
AcDbLine
 62
7
  6
CONTINUOUS
 10
16.4553552569
 20
5.7748689571
 11
15.1553552569
 21
5.7748689571
  0
LINE
  5
25F
100
AcDbEntity
  8
LAYER_FEATURE
100
AcDbLine
 62
7
  6
CONTINUOUS
 10
16.5053552569
 20
6.3976247044
 11
16.4553552569
 21
6.2606247044
  0
LINE
  5
260
100
AcDbEntity
  8
02___PRT_ALL_AXES
100
AcDbLine
 62
7
  6
CONTINUOUS
 10
15.0253552569
 20
5.9606247044
 11
14.9443552569
 21
5.9606247044
  0
LINE
  5
261
100
AcDbEntity
  8
02___PRT_ALL_AXES
100
AcDbLine
 62
7
  6
CONTINUOUS
 10
14.6163552569
 20
5.9606247044
 11
14.5353552569
 21
5.9606247044
  0
LINE
  5
262
100
AcDbEntity
  8
LAYER_FEATURE
100
AcDbLine
 62
7
  6
CONTINUOUS
 10
14.6491552569
 20
5.9606247044
 11
14.9115552569
 21
5.9606247044
  0
LINE
  5
263
100
AcDbEntity
  8
LAYER_FEATURE
100
AcDbLine
 62
7
  6
CONTINUOUS
 10
16.5053552569
 20
4.5236247044
 11
16.4553552569
 21
4.6606247044
  0
LINE
  5
264
100
AcDbEntity
  8
LAYER_CUT_FEAT
100
AcDbLine
 62
7
  6
CONTINUOUS
 10
16.4553552569
 20
6.059039728
 11
15.1553552569
 21
6.059039728
  0
LINE
  5
265
100
AcDbEntity
  8
LAYER_CUT_FEAT
100
AcDbLine
 62
7
  6
CONTINUOUS
 10
16.4553552569
 20
6.213909819
 11
15.1553552569
 21
6.213909819
  0
LINE
  5
266
100
AcDbEntity
  8
LAYER_CUT_FEAT
100
AcDbLine
 62
7
  6
CONTINUOUS
 10
16.4553552569
 20
6.2156074883
 11
15.1553552569
 21
6.2156074883
  0
LINE
  5
267
100
AcDbEntity
  8
LAYER_FEATURE
100
AcDbLine
 62
7
  6
CONTINUOUS
 10
16.4553552569
 20
6.2606247044
 11
16.4553552569
 21
4.6606247044
  0
LINE
  5
268
100
AcDbEntity
  8
LAYER_FEATURE
100
AcDbLine
 62
7
  6
CONTINUOUS
 10
16.5853552569
 20
6.3976247044
 11
16.5053552569
 21
6.3976247044
  0
LINE
  5
269
100
AcDbEntity
  8
LAYER_FEATURE
100
AcDbLine
 62
7
  6
CONTINUOUS
 10
15.1053552569
 20
6.3976247044
 11
15.0253552569
 21
6.3976247044
  0
LINE
  5
26A
100
AcDbEntity
  8
LAYER_FEATURE
100
AcDbLine
 62
7
  6
CONTINUOUS
 10
16.5053552569
 20
6.3976247044
 11
16.5053552569
 21
4.5236247044
  0
LINE
  5
26B
100
AcDbEntity
  8
LAYER_FEATURE
100
AcDbLine
 62
7
  6
CONTINUOUS
 10
16.5853552569
 20
6.3976247044
 11
16.5853552569
 21
4.5236247044
  0
LINE
  5
26C
100
AcDbEntity
  8
LAYER_FEATURE
100
AcDbLine
 62
7
  6
CONTINUOUS
 10
14.3870714052
 20
12.2325501053
 11
14.406436711
 21
12.295216258
  0
LINE
  5
26D
100
AcDbEntity
  8
LAYER_FEATURE
100
AcDbLine
 62
7
  6
CONTINUOUS
 10
14.7453295638
 20
13.3918739315
 11
14.7646948697
 21
13.4545400843
  0
LINE
  5
26E
100
AcDbEntity
  8
LAYER_CUT_FEAT
100
AcDbLine
 62
7
  6
CONTINUOUS
 10
14.8842585852
 20
13.2650175317
 11
14.6600258275
 21
12.5394000619
  0
LINE
  5
26F
100
AcDbEntity
  8
LAYER_CUT_FEAT
100
AcDbLine
 62
7
  6
CONTINUOUS
 10
14.9685497639
 20
13.4198768967
 11
14.7011336803
 21
12.554518133
  0
LINE
  5
270
100
AcDbEntity
  8
LAYER_CUT_FEAT
100
AcDbLine
 62
7
  6
CONTINUOUS
 10
14.7453542217
 20
12.121832341
 11
14.7574575379
 21
12.1609986864
  0
LINE
  5
271
100
AcDbEntity
  8
LAYER_CUT_FEAT
100
AcDbLine
 62
7
  6
CONTINUOUS
 10
15.1988986057
 20
13.5270541874
 11
14.9113510236
 21
12.5965498708
  0
LINE
  5
272
100
AcDbEntity
  8
LAYER_CUT_FEAT
100
AcDbLine
 62
7
  6
CONTINUOUS
 10
14.9832624844
 20
12.0747932095
 11
15.0147833676
 21
12.0105604029
  0
LINE
  5
273
100
AcDbEntity
  8
LAYER_CUT_FEAT
100
AcDbLine
 62
7
  6
CONTINUOUS
 10
15.0467174575
 20
12.1390260161
 11
15.0967443237
 21
12.0370819813
  0
LINE
  5
274
100
AcDbEntity
  8
LAYER_CUT_FEAT
100
AcDbLine
 62
7
  6
CONTINUOUS
 10
14.9832624844
 20
12.0747932095
 11
15.0070185805
 21
12.0105604029
  0
LINE
  5
275
100
AcDbEntity
  8
02___PRT_ALL_AXES
100
AcDbLine
 62
7
  6
CONTINUOUS
 10
14.6859778156
 20
11.7196968182
 11
14.8045903141
 21
12.1035270039
  0
LINE
  5
276
100
AcDbEntity
  8
LAYER_CUT_FEAT
100
AcDbLine
 62
7
  6
CONTINUOUS
 10
15.0070185805
 20
12.0105604029
 11
15.0942296498
 21
12.0105604029
  0
LINE
  5
277
100
AcDbEntity
  8
LAYER_CUT_FEAT
100
AcDbLine
 62
7
  6
CONTINUOUS
 10
15.1204300625
 20
12.0370819813
 11
15.0967443237
 21
12.0370819813
  0
LINE
  5
278
100
AcDbEntity
  8
LAYER_CUT_FEAT
100
AcDbLine
 62
7
  6
CONTINUOUS
 10
15.157684623
 20
12.0747932095
 11
15.1339285268
 21
12.1390260161
  0
LINE
  5
279
100
AcDbEntity
  8
LAYER_CUT_FEAT
100
AcDbLine
 62
7
  6
CONTINUOUS
 10
15.1339285268
 20
12.1390260161
 11
15.0467174575
 21
12.1390260161
  0
LINE
  5
27A
100
AcDbEntity
  8
LAYER_CUT_FEAT
100
AcDbLine
 62
7
  6
CONTINUOUS
 10
15.5202120096
 20
13.5332140068
 11
15.2270550629
 21
12.5845577794
  0
LINE
  5
27B
100
AcDbEntity
  8
LAYER_CUT_FEAT
100
AcDbLine
 62
7
  6
CONTINUOUS
 10
15.6332048997
 20
13.5055874219
 11
15.3418538647
 21
12.562775127
  0
LINE
  5
27C
100
AcDbEntity
  8
LAYER_CUT_FEAT
100
AcDbLine
 62
7
  6
CONTINUOUS
 10
15.0467174575
 20
12.1390260161
 11
14.9832624844
 21
12.0747932095
  0
LINE
  5
27D
100
AcDbEntity
  8
LAYER_CUT_FEAT
100
AcDbLine
 62
7
  6
CONTINUOUS
 10
15.8588809472
 20
13.4369452145
 11
15.567417082
 21
12.4937678011
  0
LINE
  5
27E
100
AcDbEntity
  8
LAYER_CUT_FEAT
100
AcDbLine
 62
7
  6
CONTINUOUS
 10
15.0967443237
 20
12.0370819813
 11
15.0705439109
 21
12.0105604029
  0
LINE
  5
27F
100
AcDbEntity
  8
LAYER_CUT_FEAT
100
AcDbLine
 62
7
  6
CONTINUOUS
 10
15.0942296498
 20
12.0105604029
 11
15.157684623
 21
12.0747932095
  0
LINE
  5
280
100
AcDbEntity
  8
LAYER_CUT_FEAT
100
AcDbLine
 62
7
  6
CONTINUOUS
 10
15.9679953802
 20
13.3962833183
 11
15.6748252096
 21
12.4475842986
  0
LINE
  5
281
100
AcDbEntity
  8
02___PRT_ALL_AXES
100
AcDbLine
 62
7
  6
CONTINUOUS
 10
15.6413986599
 20
11.4244494467
 11
15.7600111583
 21
11.8082796325
  0
LINE
  5
282
100
AcDbEntity
  8
LAYER_CUT_FEAT
100
AcDbLine
 62
7
  6
CONTINUOUS
 10
16.2324431476
 20
13.2113204157
 11
15.9446010471
 21
12.279863037
  0
LINE
  5
283
100
AcDbEntity
  8
LAYER_CUT_FEAT
100
AcDbLine
 62
7
  6
CONTINUOUS
 10
15.8192472507
 20
11.7899742954
 11
15.8313505669
 21
11.8291406409
  0
LINE
  5
284
100
AcDbEntity
  8
LAYER_CUT_FEAT
100
AcDbLine
 62
7
  6
CONTINUOUS
 10
16.3659664055
 20
12.993071486
 11
16.0977245196
 21
12.1250404251
  0
LINE
  5
285
100
AcDbEntity
  8
LAYER_CUT_FEAT
100
AcDbLine
 62
7
  6
CONTINUOUS
 10
16.3517419129
 20
12.8168243266
 11
16.1258325147
 21
12.0857812462
  0
LINE
  5
286
100
AcDbEntity
  8
LAYER_FEATURE
100
AcDbLine
 62
7
  6
CONTINUOUS
 10
16.1775300673
 20
11.6792565311
 11
16.1968953732
 21
11.7419226839
  0
LINE
  5
287
100
AcDbEntity
  8
LAYER_FEATURE
100
AcDbLine
 62
7
  6
CONTINUOUS
 10
16.5357882259
 20
12.8385803574
 11
16.5551535318
 21
12.9012465101
  0
CIRCLE
  5
288
100
AcDbEntity
  8
LAYER_FEATURE
100
AcDbCircle
 62
7
  6
CONTINUOUS
 10
6.1303672762
 20
5.5201198968
 40
0.937
  0
CIRCLE
  5
289
100
AcDbEntity
  8
LAYER_FEATURE
100
AcDbCircle
 62
7
  6
CONTINUOUS
 10
6.1303672762
 20
5.5201198968
 40
0.8
  0
CIRCLE
  5
28A
100
AcDbEntity
  8
LAYER_CUT_FEAT
100
AcDbCircle
 62
7
  6
CONTINUOUS
 10
6.1303672762
 20
5.5201198968
 40
0.562
  0
CIRCLE
  5
28B
100
AcDbEntity
  8
02___PRT_ALL_AXES
100
AcDbCircle
 62
7
  6
CONTINUOUS
 10
6.1303672762
 20
5.5201198968
 40
0.5
  0
CIRCLE
  5
28C
100
AcDbEntity
  8
LAYER_CHAMFER_FEAT
100
AcDbCircle
 62
7
  6
CONTINUOUS
 10
6.1303672762
 20
5.5201198968
 40
0.2875
  0
CIRCLE
  5
28D
100
AcDbEntity
  8
LAYER_CHAMFER_FEAT
100
AcDbCircle
 62
7
  6
CONTINUOUS
 10
6.1303672762
 20
5.5201198968
 40
0.25
  0
CIRCLE
  5
28E
100
AcDbEntity
  8
02___PRT_ALL_AXES
100
AcDbCircle
 62
7
  6
CONTINUOUS
 10
6.0708720839
 20
11.8200477814
 40
0.164
  0
CIRCLE
  5
28F
100
AcDbEntity
  8
LAYER_FEATURE
100
AcDbCircle
 62
7
  6
CONTINUOUS
 10
6.0708720839
 20
11.8200477814
 40
0.1312
  0
ARC
  5
290
100
AcDbEntity
  8
LAYER_FEATURE
100
AcDbCircle
 62
7
  6
CONTINUOUS
 10
15.3879818079
 20
12.2772435819
 40
1.2747645091
100
AcDbArc
 50
63.8551941521
 51
66.1457802096
  0
ARC
  5
291
100
AcDbEntity
  8
LAYER_FEATURE
100
AcDbCircle
 62
7
  6
CONTINUOUS
 10
15.3780636773
 20
12.2915016988
 40
1.2639673778
100
AcDbArc
 50
79.9129906314
 51
82.2186287169
  0
ARC
  5
292
100
AcDbEntity
  8
LAYER_FEATURE
100
AcDbCircle
 62
7
  6
CONTINUOUS
 10
15.655961121
 20
12.6645903561
 40
0.8017886587
100
AcDbArc
 50
44.6504287001
 51
47.7735963692
  0
ARC
  5
293
100
AcDbEntity
  8
LAYER_FEATURE
100
AcDbCircle
 62
7
  6
CONTINUOUS
 10
15.3713076351
 20
12.7652580731
 40
0.7881815686
100
AcDbArc
 50
98.424794122
 51
101.583810967
  0
ARC
  5
294
100
AcDbEntity
  8
LAYER_FEATURE
100
AcDbCircle
 62
7
  6
CONTINUOUS
 10
16.0173290124
 20
12.9117554976
 40
0.359650463
100
AcDbArc
 50
14.1604769239
 51
19.4909940575
  0
ARC
  5
295
100
AcDbEntity
  8
LAYER_FEATURE
100
AcDbCircle
 62
7
  6
CONTINUOUS
 10
15.2102760893
 20
13.165171697
 40
0.3526986854
100
AcDbArc
 50
127.087833232
 51
132.4881875759
  0
ARC
  5
296
100
AcDbEntity
  8
LAYER_FEATURE
100
AcDbCircle
 62
7
  6
CONTINUOUS
 10
15.150620164
 20
12.0887917156
 40
0.0858838159
100
AcDbArc
 50
29.3654275126
 51
32.6342310886
  0
ARC
  5
297
100
AcDbEntity
  8
LAYER_FEATURE
100
AcDbCircle
 62
7
  6
CONTINUOUS
 10
15.0102821477
 20
12.0199320191
 40
0.0857962047
100
AcDbArc
 50
199.6415464893
 51
202.7854411141
  0
SPLINE
  5
298
100
AcDbEntity
  8
02___PRT_ALL_AXES
100
AcDbSpline
 62
7
  6
CONTINUOUS
 70
0
 71
3
 72
31
 73
27
 74
0
 42
0.0000001
 43
0.0000001
 44
0.0000000001
 40
0.0
 40
0.0
 40
0.0
 40
0.0
 40
0.0100465816
 40
0.0395568497
 40
0.0868380282
 40
0.1495629263
 40
0.1859120743
 40
0.2251365796
 40
0.2668879302
 40
0.310802076
 40
0.3564938081
 40
0.4035522805
 40
0.4515405788
 40
0.5000000002
 40
0.5484594215
 40
0.5964477198
 40
0.6435061923
 40
0.6891979243
 40
0.7331120701
 40
0.7748634207
 40
0.8140879259
 40
0.850437074
 40
0.9131619721
 40
0.9604431505
 40
0.9899534184
 40
1.0
 40
1.0
 40
1.0
 40
1.0
 10
14.9443552569
 20
5.9606247044
 30
0.0
 10
14.9432923187
 20
5.9602760592
 30
0.0
 10
14.9391036213
 20
5.9589140731
 30
0.0
 10
14.9298778497
 20
5.9560182808
 30
0.0
 10
14.9149622144
 20
5.9516705864
 30
0.0
 10
14.8991797809
 20
5.9475945841
 30
0.0
 10
14.8841615566
 20
5.9441857949
 30
0.0
 10
14.8713566765
 20
5.9415909167
 30
0.0
 10
14.8576594222
 20
5.939179993
 30
0.0
 10
14.8431872054
 20
5.9370485915
 30
0.0
 10
14.8280701097
 20
5.9352848875
 30
0.0
 10
14.8124521797
 20
5.9339648936
 30
0.0
 10
14.7964910474
 20
5.9331477296
 30
0.0
 10
14.7803552569
 20
5.9328710483
 30
0.0
 10
14.7642194663
 20
5.9331477296
 30
0.0
 10
14.7482583341
 20
5.9339648937
 30
0.0
 10
14.732640404
 20
5.9352848876
 30
0.0
 10
14.7175233084
 20
5.9370485916
 30
0.0
 10
14.7030510916
 20
5.939179993
 30
0.0
 10
14.6893538372
 20
5.9415909167
 30
0.0
 10
14.6765489571
 20
5.9441857949
 30
0.0
 10
14.6615307329
 20
5.9475945842
 30
0.0
 10
14.6457482993
 20
5.9516705864
 30
0.0
 10
14.6308326641
 20
5.9560182808
 30
0.0
 10
14.6216068925
 20
5.9589140731
 30
0.0
 10
14.6174181952
 20
5.9602760592
 30
0.0
 10
14.6163552569
 20
5.9606247044
 30
0.0
  0
SPLINE
  5
299
100
AcDbEntity
  8
02___PRT_ALL_AXES
100
AcDbSpline
 62
7
  6
CONTINUOUS
 70
0
 71
3
 72
28
 73
24
 74
0
 42
0.0000001
 43
0.0000001
 44
0.0000000001
 40
0.0
 40
0.0
 40
0.0
 40
0.0
 40
0.0782808263
 40
0.1545588282
 40
0.2286645231
 40
0.300463496
 40
0.3698623925
 40
0.4368135908
 40
0.5013194625
 40
0.5634360767
 40
0.6232761734
 40
0.6810112535
 40
0.7368724633
 40
0.7641951291
 40
0.7911626485
 40
0.8178196168
 40
0.8442136936
 40
0.8703951035
 40
0.8964163231
 40
0.9223316165
 40
0.9481964771
 40
0.9740671596
 40
1.0
 40
1.0
 40
1.0
 40
1.0
 10
15.0307746766
 20
11.9463275963
 30
0.0
 10
15.027722668
 20
11.9463275963
 30
0.0
 10
15.0216959896
 20
11.9464423373
 30
0.0
 10
15.0127941557
 20
11.9469727984
 30
0.0
 10
15.0041742574
 20
11.9478586959
 30
0.0
 10
14.9958689356
 20
11.9490987123
 30
0.0
 10
14.987907797
 20
11.9506911246
 30
0.0
 10
14.9803175449
 20
11.9526339455
 30
0.0
 10
14.9731219054
 20
11.9549250627
 30
0.0
 10
14.9663418077
 20
11.9575623356
 30
0.0
 10
14.9599954827
 20
11.9605438008
 30
0.0
 10
14.9540992543
 20
11.9638673007
 30
0.0
 10
14.9495385848
 20
11.9669434608
 30
0.0
 10
14.946140574
 20
11.9695715791
 30
0.0
 10
14.9437312827
 20
11.9716117663
 30
0.0
 10
14.9414440302
 20
11.9737350271
 30
0.0
 10
14.9392799105
 20
11.9759409997
 30
0.0
 10
14.937240042
 20
11.9782292925
 30
0.0
 10
14.9353254209
 20
11.9805994544
 30
0.0
 10
14.9335370146
 20
11.9830510024
 30
0.0
 10
14.9318756828
 20
11.9855834082
 30
0.0
 10
14.9303422946
 20
11.9881959806
 30
0.0
 10
14.9294075214
 20
11.9899874631
 30
0.0
 10
14.9289621009
 20
11.9908951301
 30
0.0
  0
SPLINE
  5
29A
100
AcDbEntity
  8
LAYER_CUT_FEAT
100
AcDbSpline
 62
7
  6
CONTINUOUS
 70
0
 71
3
 72
22
 73
18
 74
0
 42
0.0000001
 43
0.0000001
 44
0.0000000001
 40
0.0
 40
0.0
 40
0.0
 40
0.0
 40
0.1372622179
 40
0.2041850882
 40
0.2700211142
 40
0.3348214198
 40
0.3986440715
 40
0.4615533279
 40
0.5236194013
 40
0.5849185157
 40
0.6455324843
 40
0.7055483559
 40
0.7650579602
 40
0.8241572464
 40
0.8829456397
 40
0.9415252494
 40
1.0
 40
1.0
 40
1.0
 40
1.0
 10
14.7611312317
 20
11.9633424934
 30
0.0
 10
14.758020671
 20
11.9701168394
 30
0.0
 10
14.7537496878
 20
11.980365106
 30
0.0
 10
14.7489112686
 20
11.9942109808
 30
0.0
 10
14.745779914
 20
12.0044760874
 30
0.0
 10
14.7431188845
 20
12.0146990545
 30
0.0
 10
14.7409304465
 20
12.0248711951
 30
0.0
 10
14.7392166389
 20
12.0349835258
 30
0.0
 10
14.7379790864
 20
12.0450271964
 30
0.0
 10
14.7372189357
 20
12.0549933592
 30
0.0
 10
14.7369369701
 20
12.0648732342
 30
0.0
 10
14.7371335422
 20
12.0746580881
 30
0.0
 10
14.7378085251
 20
12.084339263
 30
0.0
 10
14.7389614206
 20
12.093908143
 30
0.0
 10
14.7405912848
 20
12.1033563056
 30
0.0
 10
14.7426965828
 20
12.1126750279
 30
0.0
 10
14.7444166392
 20
12.1187982941
 30
0.0
 10
14.745354226
 20
12.1218323396
 30
0.0
  0
SPLINE
  5
29B
100
AcDbEntity
  8
LAYER_CHAMFER_FEAT
100
AcDbSpline
 62
7
  6
CONTINUOUS
 70
0
 71
3
 72
24
 73
20
 74
0
 42
0.0000001
 43
0.0000001
 44
0.0000000001
 40
0.0
 40
0.0
 40
0.0
 40
0.0
 40
0.0739596049
 40
0.1461217725
 40
0.2164907011
 40
0.2850851536
 40
0.3519394606
 40
0.4171046384
 40
0.4806492636
 40
0.542660121
 40
0.6032427472
 40
0.6625217167
 40
0.7206402757
 40
0.7777595005
 40
0.8340569075
 40
0.8619617179
 40
0.8897340293
 40
0.944974732
 40
1.0
 40
1.0
 40
1.0
 40
1.0
 10
15.0174356616
 20
11.7460421444
 30
0.0
 10
15.014748709
 20
11.7452209064
 30
0.0
 10
15.009472421
 20
11.7434899515
 30
0.0
 10
15.0017738507
 20
11.7405894079
 30
0.0
 10
14.9944021844
 20
11.7374218586
 30
0.0
 10
14.9873716947
 20
11.7339932881
 30
0.0
 10
14.9806958142
 20
11.7303100808
 30
0.0
 10
14.9743873707
 20
11.7263791263
 30
0.0
 10
14.9684585017
 20
11.7222077778
 30
0.0
 10
14.9629206817
 20
11.717803827
 30
0.0
 10
14.9577847023
 20
11.7131754972
 30
0.0
 10
14.9530606262
 20
11.708331518
 30
0.0
 10
14.9487577576
 20
11.7032809875
 30
0.0
 10
14.9448847901
 20
11.6980337239
 30
0.0
 10
14.9420132797
 20
11.6934913649
 30
0.0
 10
14.9399432586
 20
11.6897742251
 30
0.0
 10
14.9380316359
 20
11.6860181673
 30
0.0
 10
14.9359183295
 20
11.6812132375
 30
0.0
 10
14.9345276951
 20
11.6772569008
 30
0.0
 10
14.933910517
 20
11.6752597335
 30
0.0
  0
SPLINE
  5
29C
100
AcDbEntity
  8
LAYER_CHAMFER_FEAT
100
AcDbSpline
 62
7
  6
CONTINUOUS
 70
0
 71
3
 72
27
 73
23
 74
0
 42
0.0000001
 43
0.0000001
 44
0.0000000001
 40
0.0
 40
0.0
 40
0.0
 40
0.0
 40
0.0739762362
 40
0.1461531753
 40
0.216534623
 40
0.2851391294
 40
0.3520009159
 40
0.3847964399
 40
0.4171768591
 40
0.48072326
 40
0.5427329915
 40
0.6033116797
 40
0.6625839328
 40
0.7206931771
 40
0.7778008158
 40
0.8340847122
 40
0.8619821486
 40
0.8897467905
 40
0.9174044156
 40
0.9449813196
 40
0.9725042019
 40
1.0
 40
1.0
 40
1.0
 40
1.0
 10
15.3824710261
 20
11.6333505343
 30
0.0
 10
15.3842316569
 20
11.6311539619
 30
0.0
 10
15.3876220839
 20
11.6267426825
 30
0.0
 10
15.3923572384
 20
11.6199959232
 30
0.0
 10
15.3966708272
 20
11.6132127361
 30
0.0
 10
15.4005543367
 20
11.6064063183
 30
0.0
 10
15.4034444416
 20
11.6006891105
 30
0.0
 10
15.4055298609
 20
11.5961171482
 30
0.0
 10
15.407440703
 20
11.5916062724
 30
0.0
 10
15.4095536336
 20
11.5859760238
 30
0.0
 10
15.411649783
 20
11.5792057151
 30
0.0
 10
15.4132863752
 20
11.572476732
 30
0.0
 10
15.4144599171
 20
11.5658021225
 30
0.0
 10
15.4151678475
 20
11.5591946726
 30
0.0
 10
15.4154085387
 20
11.552667471
 30
0.0
 10
15.4152184454
 20
11.5472889545
 30
0.0
 10
15.4148311023
 20
11.5430457822
 30
0.0
 10
15.4144249647
 20
11.5399004668
 30
0.0
 10
15.4139025209
 20
11.5367847692
 30
0.0
 10
15.413263991
 20
11.5337001393
 30
0.0
 10
15.4125097508
 20
11.5306481341
 30
0.0
 10
15.4119298607
 20
11.5286357302
 30
0.0
 10
15.4116209327
 20
11.5276360497
 30
0.0
  0
SPLINE
  5
29D
100
AcDbEntity
  8
LAYER_FEATURE
100
AcDbSpline
 62
7
  6
CONTINUOUS
 70
0
 71
3
 72
45
 73
41
 74
0
 42
0.0000001
 43
0.0000001
 44
0.0000000001
 40
0.0
 40
0.0
 40
0.0
 40
0.0
 40
0.012582468
 40
0.0251714812
 40
0.0377735684
 40
0.0503952254
 40
0.0630428952
 40
0.0757229599
 40
0.0884417147
 40
0.101205361
 40
0.1268892813
 40
0.1528242439
 40
0.1790550668
 40
0.2056238934
 40
0.2325699396
 40
0.2461967865
 40
0.2599311964
 40
0.2877367168
 40
0.3160179186
 40
0.3303460387
 40
0.3448026107
 40
0.3741103946
 40
0.4039624686
 40
0.4343752027
 40
0.4653618691
 40
0.4969327551
 40
0.5290952761
 40
0.561854104
 40
0.5952113081
 40
0.6291664879
 40
0.6637168991
 40
0.6988575728
 40
0.7345814508
 40
0.770879509
 40
0.8077408701
 40
0.8451529052
 40
0.8831013453
 40
0.9215703899
 40
0.9605428032
 40
1.0
 40
1.0
 40
1.0
 40
1.0
 10
14.3870714052
 20
12.2325501052
 30
0.0
 10
14.3862301864
 20
12.2298279176
 30
0.0
 10
14.3846230194
 20
12.2243583978
 30
0.0
 10
14.3824405078
 20
12.2160869122
 30
0.0
 10
14.3804865162
 20
12.2077492998
 30
0.0
 10
14.3787615707
 20
12.1993477725
 30
0.0
 10
14.3772660641
 20
12.1908844514
 30
0.0
 10
14.3760004305
 20
12.1823615125
 30
0.0
 10
14.3749649448
 20
12.1737810566
 30
0.0
 10
14.3738893384
 20
12.1622436983
 30
0.0
 10
14.3731245369
 20
12.1476772332
 30
0.0
 10
14.3731334521
 20
12.1300409233
 30
0.0
 10
14.374066752
 20
12.1122286163
 30
0.0
 10
14.3759232599
 20
12.0942591318
 30
0.0
 10
14.3782293537
 20
12.0792247876
 30
0.0
 10
14.3805270316
 20
12.0671429021
 30
0.0
 10
14.3831492531
 20
12.0549280775
 30
0.0
 10
14.3870064348
 20
12.0395892895
 30
0.0
 10
14.3915855091
 20
12.0243103952
 30
0.0
 10
14.3956936508
 20
12.0120577884
 30
0.0
 10
14.4001399644
 20
11.9996764962
 30
0.0
 10
14.4062668601
 20
11.9841679028
 30
0.0
 10
14.4144750033
 20
11.9656143151
 30
0.0
 10
14.4235638866
 20
11.9470517802
 30
0.0
 10
14.4335241053
 20
11.9284992601
 30
0.0
 10
14.4443455058
 20
11.9099754233
 30
0.0
 10
14.4560170416
 20
11.8914989872
 30
0.0
 10
14.4685268172
 20
11.873088598
 30
0.0
 10
14.4818621065
 20
11.8547628498
 30
0.0
 10
14.4960093625
 20
11.8365402568
 30
0.0
 10
14.5109542255
 20
11.8184392397
 30
0.0
 10
14.5266815187
 20
11.8004780916
 30
0.0
 10
14.5431752824
 20
11.7826749754
 30
0.0
 10
14.5604187886
 20
11.7650479008
 30
0.0
 10
14.5783945564
 20
11.7476147118
 30
0.0
 10
14.5970843563
 20
11.7303930505
 30
0.0
 10
14.6164692218
 20
11.7134003572
 30
0.0
 10
14.6365295344
 20
11.6966538152
 30
0.0
 10
14.6572448178
 20
11.6801704927
 30
0.0
 10
14.6713929434
 20
11.6694325354
 30
0.0
 10
14.6785695997
 20
11.664110333
 30
0.0
  0
SPLINE
  5
29E
100
AcDbEntity
  8
LAYER_FEATURE
100
AcDbSpline
 62
7
  6
CONTINUOUS
 70
0
 71
3
 72
31
 73
27
 74
0
 42
0.0000001
 43
0.0000001
 44
0.0000000001
 40
0.0
 40
0.0
 40
0.0
 40
0.0
 40
0.0281895561
 40
0.0564002408
 40
0.0846531075
 40
0.1129690486
 40
0.1413687322
 40
0.1698725151
 40
0.1985003868
 40
0.2272718945
 40
0.256206085
 40
0.2853214562
 40
0.314635888
 40
0.3441666301
 40
0.3739302164
 40
0.4039424932
 40
0.4342185179
 40
0.4647726195
 40
0.5267623706
 40
0.5900165184
 40
0.6546206209
 40
0.7206473424
 40
0.7881567023
 40
0.8571964653
 40
0.9278026327
 40
1.0
 40
1.0
 40
1.0
 40
1.0
 10
14.7453295639
 20
13.3918739315
 30
0.0
 10
14.7443196354
 20
13.3886057988
 30
0.0
 10
14.7424081388
 20
13.3820327883
 30
0.0
 10
14.7398701675
 20
13.3720772799
 30
0.0
 10
14.7376619519
 20
13.3620276606
 30
0.0
 10
14.7357842731
 20
13.3518877916
 30
0.0
 10
14.7342378649
 20
13.3416613572
 30
0.0
 10
14.7330232408
 20
13.3313521409
 30
0.0
 10
14.7321408691
 20
13.3209639297
 30
0.0
 10
14.731591045
 20
13.3105005481
 30
0.0
 10
14.7313739549
 20
13.2999658421
 30
0.0
 10
14.7314896818
 20
13.2893636839
 30
0.0
 10
14.7319381316
 20
13.2786979646
 30
0.0
 10
14.732719172
 20
13.2679726046
 30
0.0
 10
14.733832439
 20
13.2571915242
 30
0.0
 10
14.7352775693
 20
13.2463587103
 30
0.0
 10
14.7370539694
 20
13.2354780239
 30
0.0
 10
14.7398767177
 20
13.2208426576
 30
0.0
 10
14.744244017
 20
13.2024380565
 30
0.0
 10
14.750771642
 20
13.1803344563
 30
0.0
 10
14.758601344
 20
13.158138009
 30
0.0
 10
14.7677211806
 20
13.1358815064
 30
0.0
 10
14.778117477
 20
13.1135971634
 30
0.0
 10
14.7897748293
 20
13.091317251
 30
0.0
 10
14.8026756897
 20
13.0690745243
 30
0.0
 10
14.8119889594
 20
13.0544550949
 30
0.0
 10
14.8168405102
 20
13.0471604356
 30
0.0
  0
SPLINE
  5
29F
100
AcDbEntity
  8
LAYER_FEATURE
100
AcDbSpline
 62
7
  6
CONTINUOUS
 70
0
 71
3
 72
40
 73
36
 74
0
 42
0.0000001
 43
0.0000001
 44
0.0000000001
 40
0.0
 40
0.0
 40
0.0
 40
0.0
 40
0.0251692354
 40
0.0503907503
 40
0.0757162892
 40
0.1011965443
 40
0.1268806722
 40
0.1528158512
 40
0.1790469011
 40
0.2056159671
 40
0.2325622671
 40
0.2599218967
 40
0.287727699
 40
0.3160091985
 40
0.3303374747
 40
0.3447942054
 40
0.3741023207
 40
0.4039547412
 40
0.434367838
 40
0.4653548841
 40
0.4969261666
 40
0.5290890981
 40
0.5618483505
 40
0.5952059936
 40
0.6291616271
 40
0.6637125037
 40
0.6988536529
 40
0.7345780174
 40
0.770876572
 40
0.8077384377
 40
0.8451509875
 40
0.8830999329
 40
0.9215695153
 40
0.9605424737
 40
1.0
 40
1.0
 40
1.0
 40
1.0
 10
16.1775300672
 20
11.6792565311
 30
0.0
 10
16.1758473284
 20
11.6738111816
 30
0.0
 10
16.1721738383
 20
11.6630006147
 30
0.0
 10
16.1657608822
 20
11.6470905898
 30
0.0
 10
16.1584492287
 20
11.6314947276
 30
0.0
 10
16.1502467383
 20
11.61622975
 30
0.0
 10
16.1411619354
 20
11.6013111492
 30
0.0
 10
16.1312043481
 20
11.5867542252
 30
0.0
 10
16.1203843754
 20
11.57257379
 30
0.0
 10
16.1087132756
 20
11.5587842373
 30
0.0
 10
16.0962031562
 20
11.5453995293
 30
0.0
 10
16.0828669026
 20
11.5324331345
 30
0.0
 10
16.0687184219
 20
11.5198982175
 30
0.0
 10
16.0563173472
 20
11.5098662628
 30
0.0
 10
16.0460126159
 20
11.502067449
 30
0.0
 10
16.0353560442
 20
11.4943531523
 30
0.0
 10
16.0215474754
 20
11.4850049167
 30
0.0
 10
16.0043025251
 20
11.4743167363
 30
0.0
 10
15.9863253187
 20
11.4641180755
 30
0.0
 10
15.9676343189
 20
11.4544192841
 30
0.0
 10
15.9482484419
 20
11.4452300499
 30
0.0
 10
15.9281873723
 20
11.4365595902
 30
0.0
 10
15.9074714511
 20
11.4284165917
 30
0.0
 10
15.8861216766
 20
11.4208092278
 30
0.0
 10
15.8641596796
 20
11.4137451449
 30
0.0
 10
15.8416077113
 20
11.4072314469
 30
0.0
 10
15.8184886249
 20
11.4012746755
 30
0.0
 10
15.7948258448
 20
11.3958808245
 30
0.0
 10
15.7706433441
 20
11.3910553279
 30
0.0
 10
15.7459656241
 20
11.3868030555
 30
0.0
 10
15.7208176946
 20
11.3831282877
 30
0.0
 10
15.6952250498
 20
11.3800347211
 30
0.0
 10
15.6692135826
 20
11.3775254814
 30
0.0
 10
15.6428098762
 20
11.3756031157
 30
0.0
 10
15.6250699683
 20
11.3747193654
 30
0.0
 10
15.6161417217
 20
11.3743740024
 30
0.0
  0
SPLINE
  5
2A0
100
AcDbEntity
  8
LAYER_FEATURE
100
AcDbSpline
 62
7
  6
CONTINUOUS
 70
0
 71
3
 72
31
 73
27
 74
0
 42
0.0000001
 43
0.0000001
 44
0.0000000001
 40
0.0
 40
0.0
 40
0.0
 40
0.0
 40
0.0282011256
 40
0.0564232855
 40
0.0846874386
 40
0.1130143859
 40
0.1414247036
 40
0.1699386635
 40
0.1985761678
 40
0.2273566875
 40
0.2562991893
 40
0.285422105
 40
0.3147432443
 40
0.3442798009
 40
0.3740482516
 40
0.404064395
 40
0.4343432475
 40
0.4648990976
 40
0.5268890212
 40
0.5901387423
 40
0.6547337355
 40
0.7207466673
 40
0.7882376374
 40
0.8572545625
 40
0.9278336601
 40
1.0
 40
1.0
 40
1.0
 40
1.0
 10
16.5357882259
 20
12.8385803574
 30
0.0
 10
16.5347807694
 20
12.8353202241
 30
0.0
 10
16.5326561938
 20
12.8288306103
 30
0.0
 10
16.5291448983
 20
12.8192021654
 30
0.0
 10
16.525309833
 20
12.8096815061
 30
0.0
 10
16.5211525059
 20
12.8002722409
 30
0.0
 10
16.5166743969
 20
12.7909777918
 30
0.0
 10
16.51187718
 20
12.7818015591
 30
0.0
 10
16.506762615
 20
12.7727468961
 30
0.0
 10
16.5013325749
 20
12.7638171182
 30
0.0
 10
16.495589083
 20
12.7550154675
 30
0.0
 10
16.4895342146
 20
12.7463451805
 30
0.0
 10
16.4831702432
 20
12.7378093805
 30
0.0
 10
16.4764994538
 20
12.72941122
 30
0.0
 10
16.4695243481
 20
12.7211537014
 30
0.0
 10
16.4622474479
 20
12.7130398945
 30
0.0
 10
16.4546713979
 20
12.7050726342
 30
0.0
 10
16.4441250715
 20
12.6945995179
 30
0.0
 10
16.430190693
 20
12.6818880478
 30
0.0
 10
16.4124011811
 20
12.667341372
 30
0.0
 10
16.3934890582
 20
12.6534489033
 30
0.0
 10
16.373482437
 20
12.640230857
 30
0.0
 10
16.3524105237
 20
12.6277060083
 30
0.0
 10
16.3303039717
 20
12.6158922121
 30
0.0
 10
16.3071954611
 20
12.6048065231
 30
0.0
 10
16.291320567
 20
12.597987817
 30
0.0
 10
16.2832312157
 20
12.5947001876
 30
0.0
  0
SPLINE
  5
2A1
100
AcDbEntity
  8
LAYER_CUT_FEAT
100
AcDbSpline
 62
7
  6
CONTINUOUS
 70
0
 71
3
 72
22
 73
18
 74
0
 42
0.0000001
 43
0.0000001
 44
0.0000000001
 40
0.0
 40
0.0
 40
0.0
 40
0.0
 40
0.0584681243
 40
0.1170412995
 40
0.1758236528
 40
0.2349174608
 40
0.2944223247
 40
0.3544343798
 40
0.4150455608
 40
0.4763430745
 40
0.5384088555
 40
0.6013191637
 40
0.6651443851
 40
0.7299487389
 40
0.7957902172
 40
0.8627206214
 40
1.0
 40
1.0
 40
1.0
 40
1.0
 10
15.8192472464
 20
11.7899742967
 30
0.0
 10
15.8183087354
 20
11.7869372605
 30
0.0
 10
15.8162721564
 20
11.7809052339
 30
0.0
 10
15.8127489227
 20
11.7720148618
 30
0.0
 10
15.8087591538
 20
11.7632861966
 30
0.0
 10
15.804306588
 20
11.7547273017
 30
0.0
 10
15.7993952026
 20
11.7463456838
 30
0.0
 10
15.7940294132
 20
11.738148792
 30
0.0
 10
15.7882140819
 20
11.7301438236
 30
0.0
 10
15.7819544098
 20
11.7223378315
 30
0.0
 10
15.7752560002
 20
11.714737661
 30
0.0
 10
15.7681248644
 20
11.7073499369
 30
0.0
 10
15.7605673096
 20
11.7001811161
 30
0.0
 10
15.752590129
 20
11.6932374769
 30
0.0
 10
15.7442001368
 20
11.6865248652
 30
0.0
 10
15.732374917
 20
11.6778183085
 30
0.0
 10
15.7230520559
 20
11.6717640688
 30
0.0
 10
15.7166518907
 20
11.6679246178
 30
0.0
  0
SPLINE
  5
2A2
100
AcDbEntity
  8
02___PRT_ALL_AXES
100
AcDbSpline
 62
7
  6
CONTINUOUS
 70
0
 71
3
 72
52
 73
48
 74
0
 42
0.0000001
 43
0.0000001
 44
0.0000000001
 40
0.0
 40
0.0
 40
0.0
 40
0.0
 40
0.0283973998
 40
0.0566608163
 40
0.0707522989
 40
0.0848194002
 40
0.0988660207
 40
0.1128965178
 40
0.1269157494
 40
0.1409290739
 40
0.1549423619
 40
0.168961955
 40
0.1829946824
 40
0.1970477675
 40
0.2111288461
 40
0.2252458158
 40
0.2394068337
 40
0.2536201669
 40
0.2678941425
 40
0.282237033
 40
0.2966569087
 40
0.3111616351
 40
0.3257586489
 40
0.3404550034
 40
0.3552571484
 40
0.3701709729
 40
0.3852016712
 40
0.4003537202
 40
0.4310313392
 40
0.4622290415
 40
0.4780275619
 40
0.4939575702
 40
0.526203175
 40
0.5589502647
 40
0.592166666
 40
0.6258076856
 40
0.6598163991
 40
0.6941239497
 40
0.728649894
 40
0.7633027813
 40
0.7979808887
 40
0.832573452
 40
0.8669623229
 40
0.9010241753
 40
0.93463347
 40
0.9676652072
 40
1.0
 40
1.0
 40
1.0
 40
1.0
 10
15.223418079
 20
12.1353931364
 30
0.0
 10
15.2247626136
 20
12.1326532728
 30
0.0
 10
15.2272255233
 20
12.1270754861
 30
0.0
 10
15.2297177383
 20
12.1198817915
 30
0.0
 10
15.2313397608
 20
12.1140372571
 30
0.0
 10
15.232367803
 20
12.1096178785
 30
0.0
 10
15.2332058029
 20
12.1051652723
 30
0.0
 10
15.233851587
 20
12.1006859145
 30
0.0
 10
15.2343030571
 20
12.0961864021
 30
0.0
 10
15.2345585275
 20
12.0916733533
 30
0.0
 10
15.2346165355
 20
12.0871533975
 30
0.0
 10
15.2344759797
 20
12.0826331572
 30
0.0
 10
15.2341361594
 20
12.0781192184
 30
0.0
 10
15.2335966433
 20
12.0736181125
 30
0.0
 10
15.2328575731
 20
12.0691362616
 30
0.0
 10
15.2319192911
 20
12.0646799939
 30
0.0
 10
15.2307827834
 20
12.0602554466
 30
0.0
 10
15.2294492725
 20
12.0558686087
 30
0.0
 10
15.2279205302
 20
12.051525225
 30
0.0
 10
15.2261987047
 20
12.0472308043
 30
0.0
 10
15.2242862975
 20
12.0429906101
 30
0.0
 10
15.2221863225
 20
12.0388095619
 30
0.0
 10
15.2199019718
 20
12.0346923566
 30
0.0
 10
15.2174369805
 20
12.0306432727
 30
0.0
 10
15.2147951905
 20
12.0266663657
 30
0.0
 10
15.2119808924
 20
12.0227652888
 30
0.0
 10
15.2089984603
 20
12.0189433804
 30
0.0
 10
15.2047870646
 20
12.0139369944
 30
0.0
 10
15.1991199264
 20
12.0078924871
 30
0.0
 10
15.1930081896
 20
12.0021970336
 30
0.0
 10
15.1878471195
 20
11.9978251703
 30
0.0
 10
15.1824659737
 20
11.9935438419
 30
0.0
 10
15.1754200826
 20
11.9884362782
 30
0.0
 10
15.1665376886
 20
11.9827253109
 30
0.0
 10
15.157238251
 20
11.9774135022
 30
0.0
 10
15.1475675641
 20
11.9725059381
 30
0.0
 10
15.1375719517
 20
11.9680066925
 30
0.0
 10
15.1272988275
 20
11.9639194797
 30
0.0
 10
15.1167968503
 20
11.9602478532
 30
0.0
 10
15.1061161656
 20
11.9569953822
 30
0.0
 10
15.095308524
 20
11.9541656967
 30
0.0
 10
15.0844272905
 20
11.9517624462
 30
0.0
 10
15.0735272702
 20
11.9497891889
 30
0.0
 10
15.0626643813
 20
11.948249213
 30
0.0
 10
15.0518950473
 20
11.94714538
 30
0.0
 10
15.0412758372
 20
11.9464798774
 30
0.0
 10
15.0342498319
 20
11.9463275963
 30
0.0
 10
15.0307746766
 20
11.9463275963
 30
0.0
  0
SPLINE
  5
2A3
100
AcDbEntity
  8
LAYER_FEATURE
100
AcDbSpline
 62
7
  6
CONTINUOUS
 70
0
 71
3
 72
77
 73
73
 74
0
 42
0.0000001
 43
0.0000001
 44
0.0000000001
 40
0.0
 40
0.0
 40
0.0
 40
0.0
 40
0.0171786384
 40
0.0345303065
 40
0.0520441323
 40
0.0697097603
 40
0.087516005
 40
0.1054515097
 40
0.1235046065
 40
0.141663363
 40
0.1599156243
 40
0.178249032
 40
0.1966510546
 40
0.2151090165
 40
0.2336101252
 40
0.2521414984
 40
0.2706901905
 40
0.2892432201
 40
0.3077875972
 40
0.3263103499
 40
0.3447985501
 40
0.363239342
 40
0.3816199692
 40
0.3999278015
 40
0.4181503619
 40
0.4362753549
 40
0.4542906965
 40
0.4721845422
 40
0.4899453151
 40
0.5075617357
 40
0.5250228553
 40
0.5423180877
 40
0.5594372392
 40
0.5763705427
 40
0.5931086924
 40
0.6096428838
 40
0.6259648478
 40
0.6420668893
 40
0.6579419273
 40
0.6735835408
 40
0.6889860137
 40
0.7041443784
 40
0.7190544635
 40
0.733712946
 40
0.7481174076
 40
0.7622663869
 40
0.7761594337
 40
0.7897971671
 40
0.8031813365
 40
0.8163148825
 40
0.8292019896
 40
0.8418481418
 40
0.8542601741
 40
0.8603812579
 40
0.8664470199
 40
0.8784169498
 40
0.8901817869
 40
0.8959915749
 40
0.9017549381
 40
0.9131488226
 40
0.9243797396
 40
0.9354645469
 40
0.9464213959
 40
0.9572696215
 40
0.9626598376
 40
0.9680306188
 40
0.9733846479
 40
0.9787246486
 40
0.9840533836
 40
0.9893736427
 40
0.9946882389
 40
1.0
 40
1.0
 40
1.0
 40
1.0
 10
15.3740999717
 20
13.7603418375
 30
0.0
 10
15.3834338574
 20
13.7603418375
 30
0.0
 10
15.4021962422
 20
13.7601364533
 30
0.0
 10
15.4304613
 20
13.759223899
 30
0.0
 10
15.4589653904
 20
13.7577061455
 30
0.0
 10
15.4876785073
 20
13.7555848478
 30
0.0
 10
15.5165709544
 20
13.7528621634
 30
0.0
 10
15.5456125965
 20
13.7495409443
 30
0.0
 10
15.5747732234
 20
13.745624652
 30
0.0
 10
15.6040224828
 20
13.7411173626
 30
0.0
 10
15.6333299295
 20
13.7360237674
 30
0.0
 10
15.6626650569
 20
13.7303491608
 30
0.0
 10
15.6919973298
 20
13.7240994554
 30
0.0
 10
15.7212962153
 20
13.7172811604
 30
0.0
 10
15.7505312145
 20
13.7099013732
 30
0.0
 10
15.7796718934
 20
13.701967771
 30
0.0
 10
15.8086879156
 20
13.6934886098
 30
0.0
 10
15.8375490776
 20
13.6844727233
 30
0.0
 10
15.8662253354
 20
13.6749294979
 30
0.0
 10
15.8946868369
 20
13.6648688669
 30
0.0
 10
15.9229039515
 20
13.6543012964
 30
0.0
 10
15.9508473069
 20
13.6432377908
 30
0.0
 10
15.9784878171
 20
13.631689871
 30
0.0
 10
16.0057967102
 20
13.6196695574
 30
0.0
 10
16.032745558
 20
13.6071893586
 30
0.0
 10
16.0593063071
 20
13.5942622606
 30
0.0
 10
16.0854513148
 20
13.5809017247
 30
0.0
 10
16.1111533702
 20
13.5671216572
 30
0.0
 10
16.1363857221
 20
13.5529363983
 30
0.0
 10
16.161122106
 20
13.5383607035
 30
0.0
 10
16.1853367793
 20
13.523409741
 30
0.0
 10
16.2090045468
 20
13.5080990707
 30
0.0
 10
16.2321007804
 20
13.4924446203
 30
0.0
 10
16.2546014445
 20
13.4764626709
 30
0.0
 10
16.2764831225
 20
13.4601698389
 30
0.0
 10
16.2977230522
 20
13.4435830721
 30
0.0
 10
16.3182991378
 20
13.4267196164
 30
0.0
 10
16.3381899715
 20
13.4095969998
 30
0.0
 10
16.3573748539
 20
13.3922330117
 30
0.0
 10
16.3758338245
 20
13.374645692
 30
0.0
 10
16.393547684
 20
13.3568533124
 30
0.0
 10
16.4104980019
 20
13.3388743473
 30
0.0
 10
16.4266671355
 20
13.3207274575
 30
0.0
 10
16.4420382469
 20
13.3024314682
 30
0.0
 10
16.456595336
 20
13.2840053617
 30
0.0
 10
16.4703232414
 20
13.2654682456
 30
0.0
 10
16.4832076518
 20
13.2468393336
 30
0.0
 10
16.4952351152
 20
13.2281379271
 30
0.0
 10
16.506393064
 20
13.2093833929
 30
0.0
 10
16.5166698228
 20
13.1905951759
 30
0.0
 10
16.5260546379
 20
13.1717926685
 30
0.0
 10
16.5345375497
 20
13.1529955738
 30
0.0
 10
16.540876779
 20
13.1372796228
 30
0.0
 10
16.5454816599
 20
13.124731367
 30
0.0
 10
16.5497388432
 20
13.1123146279
 30
0.0
 10
16.5544904811
 20
13.0968297841
 30
0.0
 10
16.558503211
 20
13.0812803257
 30
0.0
 10
16.5612379453
 20
13.0688971178
 30
0.0
 10
16.5636390901
 20
13.0566503286
 30
0.0
 10
16.5660601768
 20
13.0414102649
 30
0.0
 10
16.5680316723
 20
13.0231931727
 30
0.0
 10
16.5690560174
 20
13.0051356138
 30
0.0
 10
16.5691318987
 20
12.9872571619
 30
0.0
 10
16.5684027947
 20
12.9724908999
 30
0.0
 10
16.5673435212
 20
12.9607963483
 30
0.0
 10
16.5663142644
 20
12.9520999056
 30
0.0
 10
16.5650488375
 20
12.943462305
 30
0.0
 10
16.5635475176
 20
12.934885732
 30
0.0
 10
16.561810751
 20
12.9263724496
 30
0.0
 10
16.5598389477
 20
12.9179246625
 30
0.0
 10
16.557632648
 20
12.9095446715
 30
0.0
 10
16.5560056462
 20
12.9040039562
 30
0.0
 10
16.5551535317
 20
12.9012465102
 30
0.0
  0
SPLINE
  5
2A4
100
AcDbEntity
  8
02___PRT_ALL_AXES
100
AcDbSpline
 62
7
  6
CONTINUOUS
 70
0
 71
3
 72
64
 73
60
 74
0
 42
0.0000001
 43
0.0000001
 44
0.0000000001
 40
0.0
 40
0.0
 40
0.0
 40
0.0
 40
0.0106254832
 40
0.0212736101
 40
0.0319667868
 40
0.0427269518
 40
0.0535753612
 40
0.0645323953
 40
0.0756173902
 40
0.0868484978
 40
0.0982425761
 40
0.1098151071
 40
0.1215801427
 40
0.1335502755
 40
0.14573663
 40
0.1581488731
 40
0.1707952387
 40
0.1836825636
 40
0.1968163327
 40
0.2102007302
 40
0.2238386943
 40
0.2377319754
 40
0.2518811944
 40
0.2662859012
 40
0.2809446328
 40
0.2958549695
 40
0.3110135902
 40
0.3264163246
 40
0.3420582042
 40
0.357933511
 40
0.3740358243
 40
0.3903580646
 40
0.4068925368
 40
0.4236309708
 40
0.4405645605
 40
0.4576840014
 40
0.4749795271
 40
0.4924409433
 40
0.5100576625
 40
0.5278187356
 40
0.5457128844
 40
0.5637285318
 40
0.5818538323
 40
0.6000767012
 40
0.6367641439
 40
0.6736921554
 40
0.7107583244
 40
0.7478590906
 40
0.7848906068
 40
0.8217496002
 40
0.8583342368
 40
0.8764933018
 40
0.8945467033
 40
0.9124825129
 40
0.9302890619
 40
0.9479549666
 40
0.9654691731
 40
0.9828209507
 40
1.0
 40
1.0
 40
1.0
 40
1.0
 10
14.6859778167
 20
11.7196968179
 30
0.0
 10
14.6850682558
 20
11.7167534797
 30
0.0
 10
14.6834131032
 20
11.7108077863
 30
0.0
 10
14.6814329985
 20
11.7017488265
 30
0.0
 10
14.6799562753
 20
11.6925545317
 30
0.0
 10
14.6789845466
 20
11.6832350277
 30
0.0
 10
14.6785187218
 20
11.6738000855
 30
0.0
 10
14.6785591951
 20
11.6642597006
 30
0.0
 10
14.6791058027
 20
11.654623917
 30
0.0
 10
14.6801578442
 20
11.6449028584
 30
0.0
 10
14.6817140866
 20
11.6351067061
 30
0.0
 10
14.6837727731
 20
11.6252456928
 30
0.0
 10
14.6863316299
 20
11.615330095
 30
0.0
 10
14.6893878722
 20
11.6053702253
 30
0.0
 10
14.6929382098
 20
11.5953764264
 30
0.0
 10
14.6969788519
 20
11.5853590643
 30
0.0
 10
14.7015055112
 20
11.5753285208
 30
0.0
 10
14.7065134078
 20
11.5652951862
 30
0.0
 10
14.7119972739
 20
11.5552694512
 30
0.0
 10
14.7179513575
 20
11.5452616981
 30
0.0
 10
14.7243694273
 20
11.5352822916
 30
0.0
 10
14.7312447775
 20
11.5253415692
 30
0.0
 10
14.7385702338
 20
11.5154498315
 30
0.0
 10
14.7463381593
 20
11.5056173315
 30
0.0
 10
14.7545404615
 20
11.4958542646
 30
0.0
 10
14.7631685993
 20
11.4861707576
 30
0.0
 10
14.7722135915
 20
11.4765768587
 30
0.0
 10
14.7816660252
 20
11.4670825262
 30
0.0
 10
14.7915160647
 20
11.4576976184
 30
0.0
 10
14.8017534618
 20
11.448431883
 30
0.0
 10
14.8123675655
 20
11.4392949463
 30
0.0
 10
14.8233473332
 20
11.4302963036
 30
0.0
 10
14.8346813416
 20
11.4214453083
 30
0.0
 10
14.8463577985
 20
11.4127511623
 30
0.0
 10
14.8583645552
 20
11.4042229063
 30
0.0
 10
14.8706891183
 20
11.3958694097
 30
0.0
 10
14.8833186637
 20
11.3876993616
 30
0.0
 10
14.8962400488
 20
11.3797212615
 30
0.0
 10
14.9094398272
 20
11.3719434096
 30
0.0
 10
14.9229042607
 20
11.3643738999
 30
0.0
 10
14.9366193406
 20
11.3570206066
 30
0.0
 10
14.9505707761
 20
11.3498911919
 30
0.0
 10
14.9647441073
 20
11.3429930401
 30
0.0
 10
14.9839600018
 20
11.3340940467
 30
0.0
 10
15.0084385741
 20
11.3235982684
 30
0.0
 10
15.0383918662
 20
11.3120637647
 30
0.0
 10
15.068865899
 20
11.3016092793
 30
0.0
 10
15.0997337566
 20
11.2922783642
 30
0.0
 10
15.1308673707
 20
11.2841097327
 30
0.0
 10
15.1621370696
 20
11.2771373952
 30
0.0
 10
15.1882652039
 20
11.2723362035
 30
0.0
 10
15.2091262909
 20
11.2691215024
 30
0.0
 10
15.2246869688
 20
11.2670316963
 30
0.0
 10
15.240184099
 20
11.2652594367
 30
0.0
 10
15.2556016245
 20
11.263806565
 30
0.0
 10
15.2709234757
 20
11.2626745943
 30
0.0
 10
15.2861337344
 20
11.2618647049
 30
0.0
 10
15.3012164812
 20
11.2613777389
 30
0.0
 10
15.3112284076
 20
11.2612681483
 30
0.0
 10
15.3162091711
 20
11.2612681483
 30
0.0
  0
SPLINE
  5
2A5
100
AcDbEntity
  8
02___PRT_ALL_AXES
100
AcDbSpline
 62
7
  6
CONTINUOUS
 70
0
 71
3
 72
39
 73
35
 74
0
 42
0.0000001
 43
0.0000001
 44
0.0000000001
 40
0.0
 40
0.0
 40
0.0
 40
0.0
 40
0.0248034971
 40
0.049664333
 40
0.0746391942
 40
0.0997834849
 40
0.125150743
 40
0.1507921173
 40
0.1767559197
 40
0.2030872596
 40
0.2298277622
 40
0.2570153685
 40
0.2846842112
 40
0.3128645577
 40
0.3415828103
 40
0.3708615541
 40
0.4007196424
 40
0.4311723101
 40
0.4622313082
 40
0.4939050521
 40
0.5261987782
 40
0.5591147042
 40
0.5926521905
 40
0.6268078997
 40
0.6615759521
 40
0.6969480774
 40
0.7329137595
 40
0.7694603768
 40
0.8065733348
 40
0.8442361973
 40
0.8824307936
 40
0.9211373856
 40
0.9603346296
 40
1.0
 40
1.0
 40
1.0
 40
1.0
 10
15.6413986588
 20
11.4244494471
 30
0.0
 10
15.6404512135
 20
11.4213835149
 30
0.0
 10
15.6383731662
 20
11.4152988191
 30
0.0
 10
15.634719998
 20
11.4063543033
 30
0.0
 10
15.6305333173
 20
11.3975975452
 30
0.0
 10
15.6258181502
 20
11.3890390096
 30
0.0
 10
15.6205799793
 20
11.3806883655
 30
0.0
 10
15.6148249325
 20
11.372555147
 30
0.0
 10
15.6085597101
 20
11.3646485612
 30
0.0
 10
15.601791582
 20
11.3569775313
 30
0.0
 10
15.5945283686
 20
11.3495506789
 30
0.0
 10
15.5867784282
 20
11.342376325
 30
0.0
 10
15.578550644
 20
11.3354624868
 30
0.0
 10
15.5698544143
 20
11.3288168755
 30
0.0
 10
15.560699642
 20
11.3224468938
 30
0.0
 10
15.5510967261
 20
11.3163596323
 30
0.0
 10
15.541056552
 20
11.310561865
 30
0.0
 10
15.5305904827
 20
11.3050600449
 30
0.0
 10
15.5197103486
 20
11.2998602978
 30
0.0
 10
15.5084284372
 20
11.294968417
 30
0.0
 10
15.4967574814
 20
11.2903898565
 30
0.0
 10
15.4847106479
 20
11.2861297255
 30
0.0
 10
15.4723015235
 20
11.2821927813
 30
0.0
 10
15.4595441019
 20
11.2785834243
 30
0.0
 10
15.4464527688
 20
11.2753056917
 30
0.0
 10
15.4330422866
 20
11.2723632525
 30
0.0
 10
15.4193277783
 20
11.2697594026
 30
0.0
 10
15.4053247111
 20
11.2674970603
 30
0.0
 10
15.3910488796
 20
11.2655787623
 30
0.0
 10
15.3765163867
 20
11.2640066609
 30
0.0
 10
15.3617436317
 20
11.2627825185
 30
0.0
 10
15.3467472637
 20
11.2619077115
 30
0.0
 10
15.3315442973
 20
11.2613832163
 30
0.0
 10
15.3213409324
 20
11.2612681483
 30
0.0
 10
15.3162091711
 20
11.2612681483
 30
0.0
  0
SPLINE
  5
2A6
100
AcDbEntity
  8
LAYER_CHAMFER_FEAT
100
AcDbSpline
 62
7
  6
CONTINUOUS
 70
0
 71
3
 72
15
 73
11
 74
0
 42
0.0000001
 43
0.0000001
 44
0.0000000001
 40
0.0
 40
0.0
 40
0.0
 40
0.0
 40
0.1317635653
 40
0.2617725907
 40
0.3899187777
 40
0.5161209853
 40
0.6402989329
 40
0.7623789534
 40
0.8822974978
 40
1.0
 40
1.0
 40
1.0
 40
1.0
 10
15.0759887011
 20
11.7507859983
 30
0.0
 10
15.0726692013
 20
11.7507859983
 30
0.0
 10
15.0660740679
 20
11.7507023124
 30
0.0
 10
15.0562572267
 20
11.7503203721
 30
0.0
 10
15.0465939269
 20
11.749683276
 30
0.0
 10
15.0370982481
 20
11.7487919681
 30
0.0
 10
15.0277836115
 20
11.7476477356
 30
0.0
 10
15.0186633199
 20
11.7462521662
 30
0.0
 10
15.0097505527
 20
11.7446072596
 30
0.0
 10
15.003899919
 20
11.7433339096
 30
0.0
 10
15.0010134088
 20
11.7426550615
 30
0.0
  0
SPLINE
  5
2A7
100
AcDbEntity
  8
LAYER_CHAMFER_FEAT
100
AcDbSpline
 62
7
  6
CONTINUOUS
 70
0
 71
3
 72
39
 73
35
 74
0
 42
0.0000001
 43
0.0000001
 44
0.0000000001
 40
0.0
 40
0.0
 40
0.0
 40
0.0
 40
0.0305397675
 40
0.0614592341
 40
0.0927264684
 40
0.1243126207
 40
0.15618588
 40
0.188313565
 40
0.2206623624
 40
0.2531980733
 40
0.2858858932
 40
0.3186905365
 40
0.3515763204
 40
0.3845072972
 40
0.41744738
 40
0.4503604462
 40
0.4832104619
 40
0.5159616035
 40
0.5485783616
 40
0.5810256712
 40
0.6132690393
 40
0.6452746457
 40
0.6770094786
 40
0.7084414821
 40
0.7395396569
 40
0.7702741975
 40
0.8006166708
 40
0.8305401271
 40
0.860019239
 40
0.889030512
 40
0.9175524263
 40
0.945565583
 40
0.9730529377
 40
1.0
 40
1.0
 40
1.0
 40
1.0
 10
15.0759887011
 20
11.7507859983
 30
0.0
 10
15.0795775248
 20
11.7507859983
 30
0.0
 10
15.0868001465
 20
11.7506869231
 30
0.0
 10
15.0976890736
 20
11.7502482074
 30
0.0
 10
15.1086856951
 20
11.7495190532
 30
0.0
 10
15.1197718147
 20
11.7485007092
 30
0.0
 10
15.1309295359
 20
11.7471948146
 30
0.0
 10
15.1421406378
 20
11.745603507
 30
0.0
 10
15.1533868478
 20
11.743729374
 30
0.0
 10
15.1646498457
 20
11.7415754628
 30
0.0
 10
15.1759112769
 20
11.7391453018
 30
0.0
 10
15.1871527869
 20
11.7364428431
 30
0.0
 10
15.1983560513
 20
11.7334724781
 30
0.0
 10
15.2095028154
 20
11.7302390672
 30
0.0
 10
15.2205749116
 20
11.7267478791
 30
0.0
 10
15.2315542881
 20
11.7230045854
 30
0.0
 10
15.242423055
 20
11.7190153026
 30
0.0
 10
15.253163501
 20
11.7147865382
 30
0.0
 10
15.2637581145
 20
11.7103251666
 30
0.0
 10
15.2741896312
 20
11.7056384644
 30
0.0
 10
15.2844410578
 20
11.7007340814
 30
0.0
 10
15.2944956829
 20
11.6956199967
 30
0.0
 10
15.3043371198
 20
11.6903045371
 30
0.0
 10
15.3139493429
 20
11.6847963788
 30
0.0
 10
15.3233166892
 20
11.6791044882
 30
0.0
 10
15.3324238892
 20
11.6732381202
 30
0.0
 10
15.3412561192
 20
11.6672068437
 30
0.0
 10
15.3497989957
 20
11.661020477
 30
0.0
 10
15.3580385913
 20
11.6546890705
 30
0.0
 10
15.3659614992
 20
11.6482229327
 30
0.0
 10
15.3735548166
 20
11.6416325943
 30
0.0
 10
15.3808061969
 20
11.6349287202
 30
0.0
 10
15.3877037189
 20
11.6281223183
 30
0.0
 10
15.3921032591
 20
11.623476681
 30
0.0
 10
15.394239383
 20
11.6211390446
 30
0.0
  0
SPLINE
  5
2A8
100
AcDbEntity
  8
LAYER_FEATURE
100
AcDbSpline
 62
7
  6
CONTINUOUS
 70
0
 71
3
 72
45
 73
41
 74
0
 42
0.0000001
 43
0.0000001
 44
0.0000000001
 40
0.0
 40
0.0
 40
0.0
 40
0.0
 40
0.0396645436
 40
0.0788615828
 40
0.1175674278
 40
0.1557615213
 40
0.1934238189
 40
0.2305362315
 40
0.2670823102
 40
0.303047461
 40
0.3384190666
 40
0.3731866093
 40
0.4073418166
 40
0.4408788073
 40
0.4737942471
 40
0.5060874983
 40
0.5377607785
 40
0.5688193218
 40
0.5992715405
 40
0.6291291875
 40
0.6584075
 40
0.672836003
 40
0.6871270513
 40
0.7153069849
 40
0.7429754203
 40
0.7701626246
 40
0.7969027326
 40
0.8232336854
 40
0.8491971072
 40
0.8748381049
 40
0.8875539134
 40
0.9002074847
 40
0.9128052936
 40
0.9253539676
 40
0.9378602702
 40
0.9503310765
 40
0.9627733671
 40
0.9751941982
 40
0.9876006892
 40
1.0
 40
1.0
 40
1.0
 40
1.0
 10
15.0158418131
 20
12.6010180112
 30
0.0
 10
15.0062249513
 20
12.6010180112
 30
0.0
 10
14.9871038145
 20
12.6008023632
 30
0.0
 10
14.9586134667
 20
12.5998194792
 30
0.0
 10
14.9305102128
 20
12.5981800684
 30
0.0
 10
14.9028261003
 20
12.5958860412
 30
0.0
 10
14.8755921967
 20
12.5929399212
 30
0.0
 10
14.8488392912
 20
12.5893450315
 30
0.0
 10
14.8225975445
 20
12.5851053987
 30
0.0
 10
14.796896557
 20
12.5802257822
 30
0.0
 10
14.771765313
 20
12.5747116522
 30
0.0
 10
14.7472321534
 20
12.568569184
 30
0.0
 10
14.723324745
 20
12.56180525
 30
0.0
 10
14.7000700479
 20
12.5544274134
 30
0.0
 10
14.6774942834
 20
12.5464439255
 30
0.0
 10
14.6556229128
 20
12.5378637042
 30
0.0
 10
14.6344806056
 20
12.5286963205
 30
0.0
 10
14.6140912423
 20
12.5189520047
 30
0.0
 10
14.5944777918
 20
12.508641566
 30
0.0
 10
14.5756626455
 20
12.4977766412
 30
0.0
 10
14.5605933736
 20
12.4882242512
 30
0.0
 10
14.5489656453
 20
12.4803147759
 30
0.0
 10
14.5377307307
 20
12.4723072977
 30
0.0
 10
14.5242137973
 20
12.461977755
 30
0.0
 10
14.5087950502
 20
12.4490213073
 30
0.0
 10
14.4942716322
 20
12.4355765385
 30
0.0
 10
14.4806603905
 20
12.4216586376
 30
0.0
 10
14.4679768804
 20
12.4072830686
 30
0.0
 10
14.4562359774
 20
12.392466343
 30
0.0
 10
14.4472232535
 20
12.3797291718
 30
0.0
 10
14.4405067106
 20
12.3693425687
 30
0.0
 10
14.4357262405
 20
12.3614743649
 30
0.0
 10
14.4311905942
 20
12.3535091905
 30
0.0
 10
14.4269010199
 20
12.3454492314
 30
0.0
 10
14.4228587177
 20
12.3372968097
 30
0.0
 10
14.4190648905
 20
12.329054203
 30
0.0
 10
14.4155205689
 20
12.3207237844
 30
0.0
 10
14.4122267883
 20
12.3123078755
 30
0.0
 10
14.4091845145
 20
12.3038089663
 30
0.0
 10
14.4073243046
 20
12.2980885144
 30
0.0
 10
14.4064367111
 20
12.295216258
 30
0.0
  0
SPLINE
  5
2A9
100
AcDbEntity
  8
LAYER_FEATURE
100
AcDbSpline
 62
7
  6
CONTINUOUS
 70
0
 71
3
 72
45
 73
41
 74
0
 42
0.0000001
 43
0.0000001
 44
0.0000000001
 40
0.0
 40
0.0
 40
0.0
 40
0.0
 40
0.0396645436
 40
0.0788615828
 40
0.1175674278
 40
0.1557615213
 40
0.1934238189
 40
0.2305362315
 40
0.2670823102
 40
0.303047461
 40
0.3384190666
 40
0.3731866093
 40
0.4073418166
 40
0.4408788073
 40
0.4737942471
 40
0.5060874983
 40
0.5377607785
 40
0.5688193218
 40
0.5992715405
 40
0.6291291875
 40
0.6584075
 40
0.672836003
 40
0.6871270513
 40
0.7153069849
 40
0.7429754203
 40
0.7701626246
 40
0.7969027326
 40
0.8232336854
 40
0.8491971072
 40
0.8748381049
 40
0.8875539134
 40
0.9002074847
 40
0.9128052936
 40
0.9253539676
 40
0.9378602702
 40
0.9503310765
 40
0.9627733671
 40
0.9751941982
 40
0.9876006892
 40
1.0
 40
1.0
 40
1.0
 40
1.0
 10
15.3740999717
 20
13.7603418375
 30
0.0
 10
15.36448311
 20
13.7603418375
 30
0.0
 10
15.3453619731
 20
13.7601261895
 30
0.0
 10
15.3168716253
 20
13.7591433055
 30
0.0
 10
15.2887683714
 20
13.7575038947
 30
0.0
 10
15.2610842589
 20
13.7552098674
 30
0.0
 10
15.2338503554
 20
13.7522637474
 30
0.0
 10
15.2070974499
 20
13.7486688577
 30
0.0
 10
15.1808557032
 20
13.744429225
 30
0.0
 10
15.1551547156
 20
13.7395496085
 30
0.0
 10
15.1300234716
 20
13.7340354784
 30
0.0
 10
15.105490312
 20
13.7278930103
 30
0.0
 10
15.0815829036
 20
13.7211290762
 30
0.0
 10
15.0583282065
 20
13.7137512396
 30
0.0
 10
15.035752442
 20
13.7057677517
 30
0.0
 10
15.0138810715
 20
13.6971875305
 30
0.0
 10
14.9927387642
 20
13.6880201467
 30
0.0
 10
14.972349401
 20
13.678275831
 30
0.0
 10
14.9527359504
 20
13.6679653922
 30
0.0
 10
14.9339208041
 20
13.6571004674
 30
0.0
 10
14.9188515323
 20
13.6475480774
 30
0.0
 10
14.907223804
 20
13.6396386021
 30
0.0
 10
14.8959888894
 20
13.631631124
 30
0.0
 10
14.8824719559
 20
13.6213015813
 30
0.0
 10
14.8670532088
 20
13.6083451336
 30
0.0
 10
14.8525297908
 20
13.5949003648
 30
0.0
 10
14.8389185491
 20
13.5809824638
 30
0.0
 10
14.8262350391
 20
13.5666068948
 30
0.0
 10
14.814494136
 20
13.5517901692
 30
0.0
 10
14.8054814121
 20
13.5390529981
 30
0.0
 10
14.7987648693
 20
13.528666395
 30
0.0
 10
14.7939843991
 20
13.5207981912
 30
0.0
 10
14.7894487529
 20
13.5128330167
 30
0.0
 10
14.7851591785
 20
13.5047730577
 30
0.0
 10
14.7811168763
 20
13.4966206359
 30
0.0
 10
14.7773230491
 20
13.4883780293
 30
0.0
 10
14.7737787275
 20
13.4800476107
 30
0.0
 10
14.770484947
 20
13.4716317018
 30
0.0
 10
14.7674426732
 20
13.4631327925
 30
0.0
 10
14.7655824633
 20
13.4574123406
 30
0.0
 10
14.7646948697
 20
13.4545400843
 30
0.0
  0
SPLINE
  5
2AA
100
AcDbEntity
  8
LAYER_FEATURE
100
AcDbSpline
 62
7
  6
CONTINUOUS
 70
0
 71
3
 72
77
 73
73
 74
0
 42
0.0000001
 43
0.0000001
 44
0.0000000001
 40
0.0
 40
0.0
 40
0.0
 40
0.0
 40
0.0171786384
 40
0.0345303065
 40
0.0520441323
 40
0.0697097603
 40
0.087516005
 40
0.1054515097
 40
0.1235046065
 40
0.141663363
 40
0.1599156243
 40
0.178249032
 40
0.1966510546
 40
0.2151090165
 40
0.2336101252
 40
0.2521414984
 40
0.2706901905
 40
0.2892432201
 40
0.3077875972
 40
0.3263103499
 40
0.3447985501
 40
0.363239342
 40
0.3816199692
 40
0.3999278015
 40
0.4181503619
 40
0.4362753549
 40
0.4542906965
 40
0.4721845422
 40
0.4899453151
 40
0.5075617357
 40
0.5250228553
 40
0.5423180877
 40
0.5594372392
 40
0.5763705427
 40
0.5931086924
 40
0.6096428838
 40
0.6259648478
 40
0.6420668893
 40
0.6579419273
 40
0.6735835408
 40
0.6889860137
 40
0.7041443784
 40
0.7190544635
 40
0.733712946
 40
0.7481174076
 40
0.7622663869
 40
0.7761594337
 40
0.7897971671
 40
0.8031813365
 40
0.8163148825
 40
0.8292019896
 40
0.8418481418
 40
0.8542601741
 40
0.8603812579
 40
0.8664470199
 40
0.8784169498
 40
0.8901817869
 40
0.8959915749
 40
0.9017549381
 40
0.9131488226
 40
0.9243797396
 40
0.9354645469
 40
0.9464213959
 40
0.9572696215
 40
0.9626598376
 40
0.9680306188
 40
0.9733846479
 40
0.9787246486
 40
0.9840533836
 40
0.9893736427
 40
0.9946882389
 40
1.0
 40
1.0
 40
1.0
 40
1.0
 10
15.0158418131
 20
12.6010180112
 30
0.0
 10
15.0251756987
 20
12.6010180112
 30
0.0
 10
15.0439380835
 20
12.6008126271
 30
0.0
 10
15.0722031414
 20
12.5999000727
 30
0.0
 10
15.1007072317
 20
12.5983823193
 30
0.0
 10
15.1294203487
 20
12.5962610216
 30
0.0
 10
15.1583127957
 20
12.5935383371
 30
0.0
 10
15.1873544379
 20
12.5902171181
 30
0.0
 10
15.2165150648
 20
12.5863008257
 30
0.0
 10
15.2457643242
 20
12.5817935364
 30
0.0
 10
15.2750717708
 20
12.5766999412
 30
0.0
 10
15.3044068982
 20
12.5710253346
 30
0.0
 10
15.3337391711
 20
12.5647756292
 30
0.0
 10
15.3630380566
 20
12.5579573342
 30
0.0
 10
15.3922730558
 20
12.5505775469
 30
0.0
 10
15.4214137347
 20
12.5426439447
 30
0.0
 10
15.450429757
 20
12.5341647835
 30
0.0
 10
15.4792909189
 20
12.525148897
 30
0.0
 10
15.5079671767
 20
12.5156056717
 30
0.0
 10
15.5364286783
 20
12.5055450406
 30
0.0
 10
15.5646457929
 20
12.4949774702
 30
0.0
 10
15.5925891482
 20
12.4839139646
 30
0.0
 10
15.6202296584
 20
12.4723660447
 30
0.0
 10
15.6475385516
 20
12.4603457312
 30
0.0
 10
15.6744873994
 20
12.4478655324
 30
0.0
 10
15.7010481485
 20
12.4349384344
 30
0.0
 10
15.7271931562
 20
12.4215778984
 30
0.0
 10
15.7528952115
 20
12.4077978309
 30
0.0
 10
15.7781275635
 20
12.393612572
 30
0.0
 10
15.8028639474
 20
12.3790368772
 30
0.0
 10
15.8270786207
 20
12.3640859148
 30
0.0
 10
15.8507463882
 20
12.3487752445
 30
0.0
 10
15.8738426217
 20
12.3331207941
 30
0.0
 10
15.8963432858
 20
12.3171388447
 30
0.0
 10
15.9182249639
 20
12.3008460127
 30
0.0
 10
15.9394648936
 20
12.2842592459
 30
0.0
 10
15.9600409791
 20
12.2673957901
 30
0.0
 10
15.9799318129
 20
12.2502731736
 30
0.0
 10
15.9991166952
 20
12.2329091854
 30
0.0
 10
16.0175756658
 20
12.2153218658
 30
0.0
 10
16.0352895253
 20
12.1975294862
 30
0.0
 10
16.0522398432
 20
12.179550521
 30
0.0
 10
16.0684089769
 20
12.1614036312
 30
0.0
 10
16.0837800883
 20
12.1431076419
 30
0.0
 10
16.0983371773
 20
12.1246815355
 30
0.0
 10
16.1120650828
 20
12.1061444194
 30
0.0
 10
16.1249494932
 20
12.0875155074
 30
0.0
 10
16.1369769566
 20
12.0688141009
 30
0.0
 10
16.1481349054
 20
12.0500595666
 30
0.0
 10
16.1584116641
 20
12.0312713497
 30
0.0
 10
16.1677964793
 20
12.0124688422
 30
0.0
 10
16.1762793911
 20
11.9936717476
 30
0.0
 10
16.1826186203
 20
11.9779557965
 30
0.0
 10
16.1872235013
 20
11.9654075408
 30
0.0
 10
16.1914806846
 20
11.9529908016
 30
0.0
 10
16.1962323224
 20
11.9375059578
 30
0.0
 10
16.2002450523
 20
11.9219564994
 30
0.0
 10
16.2029797867
 20
11.9095732915
 30
0.0
 10
16.2053809315
 20
11.8973265024
 30
0.0
 10
16.2078020181
 20
11.8820864387
 30
0.0
 10
16.2097735137
 20
11.8638693464
 30
0.0
 10
16.2107978588
 20
11.8458117875
 30
0.0
 10
16.2108737401
 20
11.8279333357
 30
0.0
 10
16.2101446361
 20
11.8131670736
 30
0.0
 10
16.2090853626
 20
11.8014725221
 30
0.0
 10
16.2080561058
 20
11.7927760794
 30
0.0
 10
16.2067906789
 20
11.7841384788
 30
0.0
 10
16.205289359
 20
11.7755619057
 30
0.0
 10
16.2035525924
 20
11.7670486233
 30
0.0
 10
16.2015807891
 20
11.7586008363
 30
0.0
 10
16.1993744894
 20
11.7502208453
 30
0.0
 10
16.1977474876
 20
11.7446801299
 30
0.0
 10
16.1968953731
 20
11.7419226839
 30
0.0
  0
SPLINE
  5
2AB
100
AcDbEntity
  8
LAYER_CHAMFER_FEAT
100
AcDbSpline
 62
7
  6
CONTINUOUS
 70
0
 71
3
 72
80
 73
76
 74
0
 42
0.0000001
 43
0.0000001
 44
0.0000000001
 40
0.0
 40
0.0
 40
0.0
 40
0.0
 40
0.0157579564
 40
0.0311474214
 40
0.0461647188
 40
0.0608089271
 40
0.0750820955
 40
0.0889894672
 40
0.1025397149
 40
0.1091852627
 40
0.1157464494
 40
0.128623136
 40
0.1411911263
 40
0.1534744922
 40
0.1655013301
 40
0.1773036412
 40
0.1889170921
 40
0.1946660483
 40
0.2003826431
 40
0.2060721675
 40
0.2117400375
 40
0.2173917821
 40
0.2230330027
 40
0.2286693566
 40
0.2343065237
 40
0.2399501811
 40
0.2456059723
 40
0.2512794804
 40
0.2569762064
 40
0.2627015303
 40
0.268460705
 40
0.2800988694
 40
0.2919312126
 40
0.3039928964
 40
0.3163153725
 40
0.3289261634
 40
0.3353478961
 40
0.3418501686
 40
0.3551040499
 40
0.3687047479
 40
0.3826640255
 40
0.3969900552
 40
0.4116876127
 40
0.4267583045
 40
0.442200799
 40
0.458011043
 40
0.4741824583
 40
0.490706143
 40
0.507571074
 40
0.5247642844
 40
0.5422710222
 40
0.5600749035
 40
0.5781580758
 40
0.5965013582
 40
0.6150843695
 40
0.6338856489
 40
0.6528827897
 40
0.6720525575
 40
0.691370999
 40
0.7108135482
 40
0.7303551408
 40
0.749970321
 40
0.7696333417
 40
0.7893182654
 40
0.808999071
 40
0.8286497548
 40
0.8482444288
 40
0.8677574228
 40
0.8871633995
 40
0.9064374304
 40
0.9255551482
 40
0.9444928426
 40
0.9632272715
 40
0.9817371202
 40
1.0
 40
1.0
 40
1.0
 40
1.0
 10
15.0010134088
 20
11.7426550615
 30
0.0
 10
14.9977015172
 20
11.7418761725
 30
0.0
 10
14.9911838213
 20
11.7402111702
 30
0.0
 10
14.9816319913
 20
11.7373539509
 30
0.0
 10
14.9724372076
 20
11.7341716056
 30
0.0
 10
14.9636176881
 20
11.7306703151
 30
0.0
 10
14.9551906361
 20
11.7268567714
 30
0.0
 10
14.9471727734
 20
11.7227383882
 30
0.0
 10
14.9408042922
 20
11.7190350501
 30
0.0
 10
14.9359345013
 20
11.715925893
 30
0.0
 10
14.9312747476
 20
11.7127622741
 30
0.0
 10
14.9257267803
 20
11.7086352423
 30
0.0
 10
14.9194947822
 20
11.7033817097
 30
0.0
 10
14.9137424782
 20
11.6978682186
 30
0.0
 10
14.9084815715
 20
11.6921054388
 30
0.0
 10
14.9037228896
 20
11.686104811
 30
0.0
 10
14.9001716
 20
11.6808974915
 30
0.0
 10
14.8975972199
 20
11.6766299884
 30
0.0
 10
14.8958036567
 20
11.6733882705
 30
0.0
 10
14.8941419508
 20
11.6700966639
 30
0.0
 10
14.8926129456
 20
11.6667567252
 30
0.0
 10
14.8912173575
 20
11.6633701485
 30
0.0
 10
14.8899559113
 20
11.6599385938
 30
0.0
 10
14.8888292465
 20
11.6564637631
 30
0.0
 10
14.887837875
 20
11.6529473947
 30
0.0
 10
14.8869823498
 20
11.6493912164
 30
0.0
 10
14.8862630493
 20
11.6457970074
 30
0.0
 10
14.8856803264
 20
11.6421665445
 30
0.0
 10
14.8852345064
 20
11.6385016402
 30
0.0
 10
14.8849257462
 20
11.6348040593
 30
0.0
 10
14.884696254
 20
11.6298160381
 30
0.0
 10
14.8847564928
 20
11.623499333
 30
0.0
 10
14.8853788317
 20
11.6158468127
 30
0.0
 10
14.8865497431
 20
11.6081094801
 30
0.0
 10
14.8882665222
 20
11.6003030928
 30
0.0
 10
14.8901376665
 20
11.5937922194
 30
0.0
 10
14.8918976535
 20
11.5885668541
 30
0.0
 10
14.8938589881
 20
11.5832653208
 30
0.0
 10
14.8966500036
 20
11.576621666
 30
0.0
 10
14.9005028937
 20
11.5686921432
 30
0.0
 10
14.9048730011
 20
11.5607702396
 30
0.0
 10
14.9097515586
 20
11.5528715583
 30
0.0
 10
14.9151289153
 20
11.5450114152
 30
0.0
 10
14.9209944411
 20
11.5372051265
 30
0.0
 10
14.9273365876
 20
11.5294679015
 30
0.0
 10
14.9341428933
 20
11.5218148405
 30
0.0
 10
14.9413999883
 20
11.5142608873
 30
0.0
 10
14.9490936156
 20
11.5068207976
 30
0.0
 10
14.9572086753
 20
11.499509123
 30
0.0
 10
14.9657292489
 20
11.4923401791
 30
0.0
 10
14.9746386194
 20
11.4853280113
 30
0.0
 10
14.9839192935
 20
11.4784863525
 30
0.0
 10
14.9935530551
 20
11.4718286154
 30
0.0
 10
15.0035209976
 20
11.4653678614
 30
0.0
 10
15.0138035576
 20
11.4591167748
 30
0.0
 10
15.0243805397
 20
11.4530876158
 30
0.0
 10
15.0352311727
 20
11.4472922178
 30
0.0
 10
15.0463341495
 20
11.4417419617
 30
0.0
 10
15.0576676687
 20
11.436447757
 30
0.0
 10
15.0692094652
 20
11.431419995
 30
0.0
 10
15.080936865
 20
11.4266685472
 30
0.0
 10
15.0928268315
 20
11.4222027478
 30
0.0
 10
15.1048560105
 20
11.4180313794
 30
0.0
 10
15.1170007687
 20
11.4141626342
 30
0.0
 10
15.1292372444
 20
11.4106041052
 30
0.0
 10
15.1415413989
 20
11.4073627832
 30
0.0
 10
15.1538890618
 20
11.4044450442
 30
0.0
 10
15.1662559772
 20
11.4018566212
 30
0.0
 10
15.1786178483
 20
11.3996025914
 30
0.0
 10
15.1909503943
 20
11.3976873786
 30
0.0
 10
15.2032294042
 20
11.3961147503
 30
0.0
 10
15.2154307086
 20
11.3948878207
 30
0.0
 10
15.2275305072
 20
11.3940089378
 30
0.0
 10
15.2395047519
 20
11.3934799166
 30
0.0
 10
15.2474446963
 20
11.3933602666
 30
0.0
 10
15.2513877744
 20
11.3933602666
 30
0.0
  0
SPLINE
  5
2AC
100
AcDbEntity
  8
LAYER_FEATURE
100
AcDbSpline
 62
7
  6
CONTINUOUS
 70
0
 71
3
 72
19
 73
15
 74
0
 42
0.0000001
 43
0.0000001
 44
0.0000000001
 40
0.0
 40
0.0
 40
0.0
 40
0.0
 40
0.059422943
 40
0.1190432713
 40
0.1789143177
 40
0.2390877003
 40
0.2996130455
 40
0.3605376432
 40
0.4219062829
 40
0.4837608444
 40
0.6090558846
 40
0.7367228409
 40
0.866981952
 40
1.0
 40
1.0
 40
1.0
 40
1.0
 10
14.9294780843
 20
11.9910929471
 30
0.0
 10
14.9290491545
 20
11.992294582
 30
0.0
 10
14.9282432658
 20
11.9947212818
 30
0.0
 10
14.9271942157
 20
11.9984180358
 30
0.0
 10
14.9263043168
 20
12.0021729204
 30
0.0
 10
14.9255744805
 20
12.0059819167
 30
0.0
 10
14.9250054874
 20
12.0098410936
 30
0.0
 10
14.9245978715
 20
12.0137464001
 30
0.0
 10
14.9243520994
 20
12.017693851
 30
0.0
 10
14.9242399342
 20
12.0230299621
 30
0.0
 10
14.9245106898
 20
12.0297919382
 30
0.0
 10
14.9254821433
 20
12.0379706644
 30
0.0
 10
14.9270967832
 20
12.0462155003
 30
0.0
 10
14.9285816721
 20
12.0516756387
 30
0.0
 10
14.9294249239
 20
12.0544044025
 30
0.0
  0
SPLINE
  5
2AD
100
AcDbEntity
  8
02___PRT_ALL_AXES
100
AcDbSpline
 62
7
  6
CONTINUOUS
 70
0
 71
3
 72
55
 73
51
 74
0
 42
0.0000001
 43
0.0000001
 44
0.0000000001
 40
0.0
 40
0.0
 40
0.0
 40
0.0
 40
0.0107160621
 40
0.021513924
 40
0.0324205002
 40
0.043461372
 40
0.0546606454
 40
0.0660404975
 40
0.0776212415
 40
0.0894208388
 40
0.1137319402
 40
0.1262733677
 40
0.1390824976
 40
0.1521655588
 40
0.1655265751
 40
0.1791672068
 40
0.1930871933
 40
0.2072840909
 40
0.2217537805
 40
0.2364903489
 40
0.2514864031
 40
0.2667331985
 40
0.2822207648
 40
0.297938208
 40
0.3138737168
 40
0.3300148909
 40
0.3463487715
 40
0.3795390709
 40
0.4133388752
 40
0.4476403825
 40
0.4823390243
 40
0.5173355089
 40
0.5525371453
 40
0.5878585296
 40
0.6232218322
 40
0.6585567858
 40
0.693800524
 40
0.7288973562
 40
0.7637986386
 40
0.7984625889
 40
0.8156963833
 40
0.8328583568
 40
0.8499451922
 40
0.86695404
 40
0.9007236805
 40
0.9341571974
 40
0.9507474445
 40
0.9672513796
 40
0.9836695814
 40
1.0
 40
1.0
 40
1.0
 40
1.0
 10
14.9289621009
 20
11.9908951301
 30
0.0
 10
14.9284645014
 20
11.9919091263
 30
0.0
 10
14.92752156
 20
11.9939729011
 30
0.0
 10
14.9262722882
 20
11.9971552935
 30
0.0
 10
14.9251845493
 20
12.0004326114
 30
0.0
 10
14.9242590123
 20
12.0038031838
 30
0.0
 10
14.9234962288
 20
12.0072653201
 30
0.0
 10
14.9228965702
 20
12.0108170354
 30
0.0
 10
14.9224603755
 20
12.0144562474
 30
0.0
 10
14.9220932684
 20
12.0194710836
 30
0.0
 10
14.9220637379
 20
12.0246065814
 30
0.0
 10
14.922351141
 20
12.0298341081
 30
0.0
 10
14.9227317444
 20
12.033868323
 30
0.0
 10
14.923274532
 20
12.0379708957
 30
0.0
 10
14.9239787362
 20
12.0421377522
 30
0.0
 10
14.924843342
 20
12.0463643186
 30
0.0
 10
14.9258672083
 20
12.0506457484
 30
0.0
 10
14.9270489356
 20
12.0549769214
 30
0.0
 10
14.9283869836
 20
12.0593524253
 30
0.0
 10
14.9298795917
 20
12.06376662
 30
0.0
 10
14.9315248294
 20
12.0682136355
 30
0.0
 10
14.9333206035
 20
12.0726874051
 30
0.0
 10
14.935264639
 20
12.0771817115
 30
0.0
 10
14.9373545494
 20
12.0816901873
 30
0.0
 10
14.939587781
 20
12.0862063747
 30
0.0
 10
14.9419617131
 20
12.0907237598
 30
0.0
 10
14.9453286489
 20
12.0967716181
 30
0.0
 10
14.949874108
 20
12.1042906203
 30
0.0
 10
14.9558158
 20
12.1131653754
 30
0.0
 10
14.9622500879
 20
12.1218882665
 30
0.0
 10
14.9691529288
 20
12.130408256
 30
0.0
 10
14.9765002061
 20
12.1386756125
 30
0.0
 10
14.9842675522
 20
12.146641773
 30
0.0
 10
14.9924302395
 20
12.1542594109
 30
0.0
 10
15.0009628858
 20
12.1614823934
 30
0.0
 10
15.0098390913
 20
12.1682657866
 30
0.0
 10
15.0190309656
 20
12.1745659059
 30
0.0
 10
15.0285087779
 20
12.1803405344
 30
0.0
 10
15.0382400793
 20
12.1855490643
 30
0.0
 10
15.0465485127
 20
12.1893935817
 30
0.0
 10
15.0532874488
 20
12.1921479244
 30
0.0
 10
15.0583722139
 20
12.1940456131
 30
0.0
 10
15.0634916056
 20
12.195775223
 30
0.0
 10
15.070339248
 20
12.1978472243
 30
0.0
 10
15.078956828
 20
12.2000028077
 30
0.0
 10
15.0876571874
 20
12.2015653096
 30
0.0
 10
15.09461555
 20
12.202442723
 30
0.0
 10
15.0998142653
 20
12.2029128754
 30
0.0
 10
15.1049990063
 20
12.2031955302
 30
0.0
 10
15.1084511477
 20
12.2032588226
 30
0.0
 10
15.1101724307
 20
12.2032588226
 30
0.0
  0
SPLINE
  5
2AE
100
AcDbEntity
  8
LAYER_FEATURE
100
AcDbSpline
 62
7
  6
CONTINUOUS
 70
0
 71
3
 72
59
 73
55
 74
0
 42
0.0000001
 43
0.0000001
 44
0.0000000001
 40
0.0
 40
0.0
 40
0.0
 40
0.0
 40
0.0146673178
 40
0.0291016489
 40
0.043310648
 40
0.0573073369
 40
0.0711061545
 40
0.0847243346
 40
0.0981816534
 40
0.1115001005
 40
0.1247037485
 40
0.1378184187
 40
0.1508713167
 40
0.1638906353
 40
0.1769051114
 40
0.1899435604
 40
0.2030344105
 40
0.2162052462
 40
0.2294823919
 40
0.2428905422
 40
0.2564524335
 40
0.2701885759
 40
0.2841170728
 40
0.2982534844
 40
0.3126107253
 40
0.3271990444
 40
0.3420260527
 40
0.3570967563
 40
0.3879676531
 40
0.4037746324
 40
0.4198210642
 40
0.4525966974
 40
0.4693147668
 40
0.4862352113
 40
0.5206219142
 40
0.53806406
 40
0.5556475751
 40
0.5911602311
 40
0.6270135725
 40
0.663046478
 40
0.6990933482
 40
0.7349882405
 40
0.7705689954
 40
0.8056813758
 40
0.8230201249
 40
0.840189783
 40
0.8739557044
 40
0.8905326499
 40
0.9068883606
 40
0.9388936336
 40
0.9545389329
 40
0.969938308
 40
0.9850920214
 40
1.0
 40
1.0
 40
1.0
 40
1.0
 10
14.9496303513
 20
12.0747932095
 30
0.0
 10
14.9491149642
 20
12.0731254164
 30
0.0
 10
14.9481786503
 20
12.0697888605
 30
0.0
 10
14.9470573644
 20
12.0647551663
 30
0.0
 10
14.9462334414
 20
12.0597449318
 30
0.0
 10
14.9457089585
 20
12.0547705215
 30
0.0
 10
14.9454852957
 20
12.0498437905
 30
0.0
 10
14.9455630824
 20
12.0449766799
 30
0.0
 10
14.9459422246
 20
12.0401809665
 30
0.0
 10
14.9466219312
 20
12.0354682849
 30
0.0
 10
14.9476006199
 20
12.0308500933
 30
0.0
 10
14.9488759757
 20
12.0263376358
 30
0.0
 10
14.9504449657
 20
12.0219419229
 30
0.0
 10
14.9523038092
 20
12.0176736899
 30
0.0
 10
14.9544479646
 20
12.0135433468
 30
0.0
 10
14.9568721961
 20
12.0095609649
 30
0.0
 10
14.959570585
 20
12.005736253
 30
0.0
 10
14.9625365001
 20
12.0020784928
 30
0.0
 10
14.9657626593
 20
11.9985965314
 30
0.0
 10
14.9692411714
 20
11.9952987787
 30
0.0
 10
14.9729635407
 20
11.9921931759
 30
0.0
 10
14.9769206716
 20
11.9892871488
 30
0.0
 10
14.9811029377
 20
11.9865876385
 30
0.0
 10
14.9855001951
 20
11.9841010964
 30
0.0
 10
14.9901017992
 20
11.9818334239
 30
0.0
 10
14.9948965723
 20
11.9797900004
 30
0.0
 10
14.9998731267
 20
11.9779756313
 30
0.0
 10
15.0067889139
 20
11.9758509777
 30
0.0
 10
15.0139697587
 20
11.9742250381
 30
0.0
 10
15.0213494451
 20
11.9730867195
 30
0.0
 10
15.0289989068
 20
11.9722599833
 30
0.0
 10
15.036803816
 20
11.9719387861
 30
0.0
 10
15.0447079296
 20
11.9721048102
 30
0.0
 10
15.0527903444
 20
11.9726040881
 30
0.0
 10
15.0609217765
 20
11.9735979138
 30
0.0
 10
15.0690528731
 20
11.9750656182
 30
0.0
 10
15.0772543323
 20
11.9768662006
 30
0.0
 10
15.0874620142
 20
11.9797101337
 30
0.0
 10
15.0995057873
 20
11.9840225679
 30
0.0
 10
15.1112712542
 20
11.9892051512
 30
0.0
 10
15.1226454963
 20
11.9952081294
 30
0.0
 10
15.1335199441
 20
12.0019742914
 30
0.0
 10
15.1437902297
 20
12.0094386731
 30
0.0
 10
15.1517981302
 20
12.0162109425
 30
0.0
 10
15.1578103657
 20
12.0219152099
 30
0.0
 10
15.1634854476
 20
12.027732716
 30
0.0
 10
15.1687550477
 20
12.0338120358
 30
0.0
 10
15.173571539
 20
12.0401244226
 30
0.0
 10
15.1779956594
 20
12.0464634954
 30
0.0
 10
15.1819469738
 20
12.0529905724
 30
0.0
 10
15.185375741
 20
12.0596676856
 30
0.0
 10
15.1876517839
 20
12.064675236
 30
0.0
 10
15.1896455853
 20
12.0697072383
 30
0.0
 10
15.1907929126
 20
12.0730980513
 30
0.0
 10
15.1913167561
 20
12.0747932095
 30
0.0
  0
SPLINE
  5
2AF
100
AcDbEntity
  8
LAYER_FEATURE
100
AcDbSpline
 62
7
  6
CONTINUOUS
 70
0
 71
3
 72
32
 73
28
 74
0
 42
0.0000001
 43
0.0000001
 44
0.0000000001
 40
0.0
 40
0.0
 40
0.0
 40
0.0
 40
0.0272333917
 40
0.0549150115
 40
0.0830458847
 40
0.1116259286
 40
0.1700914525
 40
0.1999692104
 40
0.2302510914
 40
0.2609173911
 40
0.2919454922
 40
0.3233101244
 40
0.3549836335
 40
0.4191250877
 40
0.4515392674
 40
0.4841328955
 40
0.5497037989
 40
0.6155523285
 40
0.6484912018
 40
0.6813857007
 40
0.7468807039
 40
0.7794180511
 40
0.8117641766
 40
0.8757359181
 40
0.9073090803
 40
0.9385634214
 40
1.0
 40
1.0
 40
1.0
 40
1.0
 10
14.9294249239
 20
12.0544044025
 30
0.0
 10
14.930079735
 20
12.056523372
 30
0.0
 10
14.9315138818
 20
12.0607618834
 30
0.0
 10
14.9340061472
 20
12.0670518803
 30
0.0
 10
14.936851194
 20
12.0733113009
 30
0.0
 10
14.9411371436
 20
12.0816576963
 30
0.0
 10
14.9460763233
 20
12.0898165944
 30
0.0
 10
14.951606395
 20
12.0977403063
 30
0.0
 10
14.9560946966
 20
12.1036225897
 30
0.0
 10
14.9608821145
 20
12.1093860122
 30
0.0
 10
14.9659572681
 20
12.1150169711
 30
0.0
 10
14.9713080195
 20
12.1205020006
 30
0.0
 10
14.9788230501
 20
12.1276321057
 30
0.0
 10
14.9868055869
 20
12.1343829088
 30
0.0
 10
14.9951989061
 20
12.1407241289
 30
0.0
 10
15.0039128624
 20
12.1468229929
 30
0.0
 10
15.0152639792
 20
12.1538857649
 30
0.0
 10
15.0271120462
 20
12.1601387761
 30
0.0
 10
15.0368500808
 20
12.1646350821
 30
0.0
 10
15.0467145826
 20
12.1687721436
 30
0.0
 10
15.0567631493
 20
12.172370152
 30
0.0
 10
15.0669406914
 20
12.175402719
 30
0.0
 10
15.0771019081
 20
12.1780307932
 30
0.0
 10
15.0873252529
 20
12.1800806098
 30
0.0
 10
15.0975521936
 20
12.1815258689
 30
0.0
 10
15.1076217184
 20
12.1825511327
 30
0.0
 10
15.1151745184
 20
12.1828700157
 30
0.0
 10
15.1201778039
 20
12.1828700157
 30
0.0
  0
SPLINE
  5
2B0
100
AcDbEntity
  8
LAYER_FEATURE
100
AcDbSpline
 62
7
  6
CONTINUOUS
 70
0
 71
3
 72
22
 73
18
 74
0
 42
0.0000001
 43
0.0000001
 44
0.0000000001
 40
0.0
 40
0.0
 40
0.0
 40
0.0
 40
0.1402429347
 40
0.2086926285
 40
0.2759675712
 40
0.3420480113
 40
0.4069293436
 40
0.4706216509
 40
0.5331508636
 40
0.5945591895
 40
0.6549054789
 40
0.71426526
 40
0.7727304169
 40
0.8304084477
 40
0.887421251
 40
0.9439034131
 40
1.0
 40
1.0
 40
1.0
 40
1.0
 10
15.1201778039
 20
12.1828700157
 30
0.0
 10
15.1257018945
 20
12.1828700157
 30
0.0
 10
15.1339306816
 20
12.1824865076
 30
0.0
 10
15.1447225305
 20
12.1811550685
 30
0.0
 10
15.1525541654
 20
12.1797711324
 30
0.0
 10
15.1601626131
 20
12.1779980899
 30
0.0
 10
15.1675246823
 20
12.1758412923
 30
0.0
 10
15.1746174396
 20
12.1733072659
 30
0.0
 10
15.1814188803
 20
12.170403697
 30
0.0
 10
15.1879078318
 20
12.1671394054
 30
0.0
 10
15.1940640545
 20
12.1635243299
 30
0.0
 10
15.1998682884
 20
12.1595695144
 30
0.0
 10
15.2053023228
 20
12.1552870718
 30
0.0
 10
15.2103490213
 20
12.1506902154
 30
0.0
 10
15.2149925114
 20
12.1457930438
 30
0.0
 10
15.2192177904
 20
12.1406112126
 30
0.0
 10
15.2217539794
 20
12.1369674289
 30
0.0
 10
15.2229455329
 20
12.1351066252
 30
0.0
  0
SPLINE
  5
2B1
100
AcDbEntity
  8
LAYER_FEATURE
100
AcDbSpline
 62
7
  6
CONTINUOUS
 70
0
 71
3
 72
59
 73
55
 74
0
 42
0.0000001
 43
0.0000001
 44
0.0000000001
 40
0.0
 40
0.0
 40
0.0
 40
0.0
 40
0.0149079786
 40
0.030061692
 40
0.0454610671
 40
0.0611063664
 40
0.0931116394
 40
0.1094673501
 40
0.1260442956
 40
0.159810217
 40
0.1769798751
 40
0.1943186242
 40
0.2294310046
 40
0.2650117595
 40
0.3009066518
 40
0.336953522
 40
0.3729864275
 40
0.4088397689
 40
0.4443524249
 40
0.46193594
 40
0.4793780858
 40
0.5137647887
 40
0.5306852332
 40
0.5474033026
 40
0.5801789358
 40
0.5962253676
 40
0.6120323469
 40
0.6429032437
 40
0.6579739473
 40
0.6728009556
 40
0.6873892747
 40
0.7017465156
 40
0.7158829272
 40
0.7298114241
 40
0.7435475665
 40
0.7571094578
 40
0.7705176081
 40
0.7837947538
 40
0.7969655895
 40
0.8100564396
 40
0.8230948886
 40
0.8361093647
 40
0.8491286833
 40
0.8621815813
 40
0.8752962515
 40
0.8884998995
 40
0.9018183466
 40
0.9152756654
 40
0.9288938455
 40
0.9426926631
 40
0.956689352
 40
0.9708983511
 40
0.9853326822
 40
1.0
 40
1.0
 40
1.0
 40
1.0
 10
14.9496303513
 20
12.0747932095
 30
0.0
 10
14.9501541948
 20
12.0764883677
 30
0.0
 10
14.951301522
 20
12.0798791806
 30
0.0
 10
14.9532953235
 20
12.0849111829
 30
0.0
 10
14.9555713664
 20
12.0899187334
 30
0.0
 10
14.9590001335
 20
12.0965958465
 30
0.0
 10
14.9629514479
 20
12.1031229235
 30
0.0
 10
14.9673755683
 20
12.1094619964
 30
0.0
 10
14.9721920596
 20
12.1157743831
 30
0.0
 10
14.9774616597
 20
12.121853703
 30
0.0
 10
14.9831367416
 20
12.127671209
 30
0.0
 10
14.9891489772
 20
12.1333754764
 30
0.0
 10
14.9971568776
 20
12.1401477458
 30
0.0
 10
15.0074271633
 20
12.1476121276
 30
0.0
 10
15.018301611
 20
12.1543782895
 30
0.0
 10
15.0296758531
 20
12.1603812677
 30
0.0
 10
15.0414413201
 20
12.165563851
 30
0.0
 10
15.0534850931
 20
12.1698762852
 30
0.0
 10
15.063692775
 20
12.1727202183
 30
0.0
 10
15.0718942343
 20
12.1745208007
 30
0.0
 10
15.0800253309
 20
12.1759885051
 30
0.0
 10
15.0881567629
 20
12.1769823308
 30
0.0
 10
15.0962391778
 20
12.1774816088
 30
0.0
 10
15.1041432913
 20
12.1776476328
 30
0.0
 10
15.1119482005
 20
12.1773264356
 30
0.0
 10
15.1195976622
 20
12.1764996994
 30
0.0
 10
15.1269773486
 20
12.1753613809
 30
0.0
 10
15.1341581934
 20
12.1737354412
 30
0.0
 10
15.1410739806
 20
12.1716107877
 30
0.0
 10
15.146050535
 20
12.1697964185
 30
0.0
 10
15.1508453081
 20
12.1677529951
 30
0.0
 10
15.1554469123
 20
12.1654853225
 30
0.0
 10
15.1598441697
 20
12.1629987804
 30
0.0
 10
15.1640264357
 20
12.1602992702
 30
0.0
 10
15.1679835666
 20
12.157393243
 30
0.0
 10
15.171705936
 20
12.1542876402
 30
0.0
 10
15.1751844481
 20
12.1509898875
 30
0.0
 10
15.1784106073
 20
12.1475079262
 30
0.0
 10
15.1813765223
 20
12.1438501659
 30
0.0
 10
15.1840749113
 20
12.140025454
 30
0.0
 10
15.1864991427
 20
12.1360430721
 30
0.0
 10
15.1886432981
 20
12.131912729
 30
0.0
 10
15.1905021416
 20
12.1276444961
 30
0.0
 10
15.1920711316
 20
12.1232487831
 30
0.0
 10
15.1933464875
 20
12.1187363257
 30
0.0
 10
15.1943251761
 20
12.114118134
 30
0.0
 10
15.1950048827
 20
12.1094054525
 30
0.0
 10
15.1953840249
 20
12.104609739
 30
0.0
 10
15.1954618116
 20
12.0997426285
 30
0.0
 10
15.1952381488
 20
12.0948158974
 30
0.0
 10
15.1947136659
 20
12.0898414871
 30
0.0
 10
15.1938897429
 20
12.0848312526
 30
0.0
 10
15.1927684571
 20
12.0797975584
 30
0.0
 10
15.1918321431
 20
12.0764610026
 30
0.0
 10
15.1913167561
 20
12.0747932095
 30
0.0
  0
SPLINE
  5
2B2
100
AcDbEntity
  8
LAYER_FEATURE
100
AcDbSpline
 62
7
  6
CONTINUOUS
 70
0
 71
3
 72
14
 73
10
 74
0
 42
0.0000001
 43
0.0000001
 44
0.0000000001
 40
0.0
 40
0.0
 40
0.0
 40
0.0
 40
0.1207059121
 40
0.241844287
 40
0.3638384734
 40
0.4870948369
 40
0.6120040593
 40
0.7389378197
 40
1.0
 40
1.0
 40
1.0
 40
1.0
 10
16.3659664023
 20
12.993071487
 30
0.0
 10
16.3660466053
 20
12.9933310314
 30
0.0
 10
16.3661883226
 20
12.9938571323
 30
0.0
 10
16.3663432285
 20
12.9946618768
 30
0.0
 10
16.3664403903
 20
12.9954814274
 30
0.0
 10
16.3664796676
 20
12.9963142313
 30
0.0
 10
16.3664609682
 20
12.997158899
 30
0.0
 10
16.3663579677
 20
12.9983092361
 30
0.0
 10
16.3661945037
 20
12.9991700809
 30
0.0
 10
16.3660512566
 20
12.9997398822
 30
0.0
  0
SPLINE
  5
2B3
100
AcDbEntity
  8
LAYER_CHAMFER_FEAT
100
AcDbSpline
 62
7
  6
CONTINUOUS
 70
0
 71
3
 72
59
 73
55
 74
0
 42
0.0000001
 43
0.0000001
 44
0.0000000001
 40
0.0
 40
0.0
 40
0.0
 40
0.0
 40
0.0357320933
 40
0.0531896095
 40
0.0703713402
 40
0.1039016699
 40
0.1363314936
 40
0.1676818903
 40
0.1979913454
 40
0.2273170453
 40
0.2557358899
 40
0.2696380074
 40
0.2833515581
 40
0.2968917942
 40
0.3102751727
 40
0.323519246
 40
0.3366426166
 40
0.349664795
 40
0.3626061049
 40
0.3754875137
 40
0.388330491
 40
0.4011568236
 40
0.4139884391
 40
0.4268472243
 40
0.4397548295
 40
0.4527325113
 40
0.4658009358
 40
0.4789800646
 40
0.4922889706
 40
0.5057457794
 40
0.5193675062
 40
0.5331700557
 40
0.5471680818
 40
0.5757972091
 40
0.6053535517
 40
0.6359091917
 40
0.6515811577
 40
0.6675210673
 40
0.6837326675
 40
0.7002185645
 40
0.716980416
 40
0.7340188278
 40
0.7513335493
 40
0.7689233661
 40
0.7867862982
 40
0.8049194932
 40
0.823319413
 40
0.8419817129
 40
0.8609014556
 40
0.8800730391
 40
0.8994902851
 40
0.9191461835
 40
0.9591426052
 40
1.0
 40
1.0
 40
1.0
 40
1.0
 10
15.394239383
 20
11.6211390446
 30
0.0
 10
15.3972182798
 20
11.6178791318
 30
0.0
 10
15.4015333799
 20
11.6129150527
 30
0.0
 10
15.4069691213
 20
11.6061251022
 30
0.0
 10
15.412050912
 20
11.599404389
 30
0.0
 10
15.4178982227
 20
11.5909475083
 30
0.0
 10
15.4241264218
 20
11.5806505425
 30
0.0
 10
15.4294873274
 20
11.5703219551
 30
0.0
 10
15.4339624728
 20
11.5599955821
 30
0.0
 10
15.4375361222
 20
11.5497058193
 30
0.0
 10
15.4397685727
 20
11.5411259673
 30
0.0
 10
15.4410806337
 20
11.5343244708
 30
0.0
 10
15.44182599
 20
11.5292913675
 30
0.0
 10
15.4423389904
 20
11.5242937523
 30
0.0
 10
15.4426192407
 20
11.5193357306
 30
0.0
 10
15.4426664018
 20
11.5144214878
 30
0.0
 10
15.4424804533
 20
11.5095551563
 30
0.0
 10
15.4420614564
 20
11.5047408451
 30
0.0
 10
15.4414097949
 20
11.4999826181
 30
0.0
 10
15.4405259323
 20
11.4952845118
 30
0.0
 10
15.4394106633
 20
11.4906504955
 30
0.0
 10
15.4380648573
 20
11.4860845136
 30
0.0
 10
15.436489719
 20
11.4815904172
 30
0.0
 10
15.4346865228
 20
11.4771720365
 30
0.0
 10
15.4326568755
 20
11.472833081
 30
0.0
 10
15.4304024486
 20
11.4685772454
 30
0.0
 10
15.427925238
 20
11.464408078
 30
0.0
 10
15.4252272993
 20
11.4603291202
 30
0.0
 10
15.4223110015
 20
11.4563437463
 30
0.0
 10
15.4191787655
 20
11.4524553279
 30
0.0
 10
15.4158333333
 20
11.4486670699
 30
0.0
 10
15.4122774133
 20
11.4449821148
 30
0.0
 10
15.407222397
 20
11.4401751307
 30
0.0
 10
15.4003747373
 20
11.4344406251
 30
0.0
 10
15.3914321425
 20
11.4280744901
 30
0.0
 10
15.383416723
 20
11.4232132034
 30
0.0
 10
15.3766515999
 20
11.4195691823
 30
0.0
 10
15.3713569508
 20
11.4169401846
 30
0.0
 10
15.3658892583
 20
11.4144408038
 30
0.0
 10
15.3602530028
 20
11.4120729787
 30
0.0
 10
15.3544528866
 20
11.4098387514
 30
0.0
 10
15.3484937578
 20
11.4077398944
 30
0.0
 10
15.3423805637
 20
11.4057782157
 30
0.0
 10
15.3361184151
 20
11.403955268
 30
0.0
 10
15.329712513
 20
11.4022726309
 30
0.0
 10
15.3231682074
 20
11.4007316288
 30
0.0
 10
15.3164909399
 20
11.3993336091
 30
0.0
 10
15.3096862861
 20
11.3980796605
 30
0.0
 10
15.3027599014
 20
11.3969708903
 30
0.0
 10
15.2957175642
 20
11.3960081554
 30
0.0
 10
15.2885651249
 20
11.3951923169
 30
0.0
 10
15.2788337802
 20
11.3942960749
 30
0.0
 10
15.2664306822
 20
11.3935530242
 30
0.0
 10
15.2564371662
 20
11.3933602666
 30
0.0
 10
15.2513877744
 20
11.3933602666
 30
0.0
  0
SPLINE
  5
2B4
100
AcDbEntity
  8
LAYER_FEATURE
100
AcDbSpline
 62
7
  6
CONTINUOUS
 70
0
 71
3
 72
31
 73
27
 74
0
 42
0.0000001
 43
0.0000001
 44
0.0000000001
 40
0.0
 40
0.0
 40
0.0
 40
0.0
 40
0.0219428728
 40
0.0440106621
 40
0.0663283529
 40
0.0890115896
 40
0.1121666545
 40
0.1358887763
 40
0.1602601485
 40
0.1853497211
 40
0.2112126892
 40
0.2378913513
 40
0.2654153167
 40
0.2938023796
 40
0.3230596611
 40
0.3531839226
 40
0.3841631373
 40
0.4159767297
 40
0.481974525
 40
0.5508917911
 40
0.6223396508
 40
0.6958604841
 40
0.7709443056
 40
0.8470440466
 40
0.9235872403
 40
1.0
 40
1.0
 40
1.0
 40
1.0
 10
16.3517419096
 20
12.8168243276
 30
0.0
 10
16.3518438819
 20
12.817154284
 30
0.0
 10
16.352017663
 20
12.8178260228
 30
0.0
 10
16.3521847816
 20
12.8188579029
 30
0.0
 10
16.352258262
 20
12.8199123655
 30
0.0
 10
16.3522379677
 20
12.8209862119
 30
0.0
 10
16.3521240415
 20
12.8220763422
 30
0.0
 10
16.3519169109
 20
12.8231796103
 30
0.0
 10
16.3516173067
 20
12.8242928988
 30
0.0
 10
16.3512261245
 20
12.8254130599
 30
0.0
 10
16.3507445911
 20
12.8265369758
 30
0.0
 10
16.350174102
 20
12.8276615043
 30
0.0
 10
16.3495163154
 20
12.8287835157
 30
0.0
 10
16.3487731329
 20
12.8298998981
 30
0.0
 10
16.3479466403
 20
12.8310075204
 30
0.0
 10
16.3470392144
 20
12.8321033119
 30
0.0
 10
16.3460533827
 20
12.8331842101
 30
0.0
 10
16.3446206838
 20
12.8346189474
 30
0.0
 10
16.3426471507
 20
12.836353375
 30
0.0
 10
16.3400455325
 20
12.8383025706
 30
0.0
 10
16.3372108085
 20
12.840123262
 30
0.0
 10
16.3341748108
 20
12.8417950447
 30
0.0
 10
16.3309714883
 20
12.8432992644
 30
0.0
 10
16.3276367264
 20
12.8446190525
 30
0.0
 10
16.3242080317
 20
12.8457396322
 30
0.0
 10
16.3218768935
 20
12.8463476057
 30
0.0
 10
16.3207043719
 20
12.8466150874
 30
0.0
  0
SPLINE
  5
2B5
100
AcDbEntity
  8
LAYER_FEATURE
100
AcDbSpline
 62
7
  6
CONTINUOUS
 70
0
 71
3
 72
22
 73
18
 74
0
 42
0.0000001
 43
0.0000001
 44
0.0000000001
 40
0.0
 40
0.0
 40
0.0
 40
0.0
 40
0.1381198799
 40
0.2053665018
 40
0.2714548418
 40
0.3364371496
 40
0.400372593
 40
0.4633278335
 40
0.5253764037
 40
0.5865986181
 40
0.6470813095
 40
0.7069174386
 40
0.7662055028
 40
0.8250488576
 40
0.883554958
 40
0.941834416
 40
1.0
 40
1.0
 40
1.0
 40
1.0
 10
15.812040331
 20
11.9950696637
 30
0.0
 10
15.8155118098
 20
11.9879955337
 30
0.0
 10
15.8202952296
 20
11.9772831622
 30
0.0
 10
15.8257508786
 20
11.9627855921
 30
0.0
 10
15.8292983863
 20
11.9520380351
 30
0.0
 10
15.8323339689
 20
11.9413311511
 30
0.0
 10
15.8348547353
 20
11.9306748559
 30
0.0
 10
15.836858107
 20
11.9200794273
 30
0.0
 10
15.83834208
 20
11.909554991
 30
0.0
 10
15.8393051112
 20
11.8991116564
 30
0.0
 10
15.839746126
 20
11.8887594703
 30
0.0
 10
15.8396646113
 20
11.8785084256
 30
0.0
 10
15.8390605439
 20
11.8683684293
 30
0.0
 10
15.8379343918
 20
11.858349344
 30
0.0
 10
15.836287165
 20
11.8484608067
 30
0.0
 10
15.8341205329
 20
11.8387128019
 30
0.0
 10
15.8323303248
 20
11.8323111679
 30
0.0
 10
15.8313505626
 20
11.8291406422
 30
0.0
  0
SPLINE
  5
2B6
100
AcDbEntity
  8
LAYER_FEATURE
100
AcDbSpline
 62
7
  6
CONTINUOUS
 70
0
 71
3
 72
22
 73
18
 74
0
 42
0.0000001
 43
0.0000001
 44
0.0000000001
 40
0.0
 40
0.0
 40
0.0
 40
0.0
 40
0.0532394679
 40
0.106762577
 40
0.1608457233
 40
0.2157508606
 40
0.2717203148
 40
0.3289719474
 40
0.3876964415
 40
0.4480560541
 40
0.5101831476
 40
0.5741823247
 40
0.7080241965
 40
0.7779945417
 40
0.8499956475
 40
0.9240169802
 40
1.0
 40
1.0
 40
1.0
 40
1.0
 10
16.2324431473
 20
13.2113204158
 30
0.0
 10
16.2325411632
 20
13.2116375893
 30
0.0
 10
16.2327093191
 20
13.2122827982
 30
0.0
 10
16.2328751939
 20
13.2132731951
 30
0.0
 10
16.2329545731
 20
13.2142847039
 30
0.0
 10
16.2329473248
 20
13.2153144714
 30
0.0
 10
16.2328535288
 20
13.2163597594
 30
0.0
 10
16.2326735266
 20
13.2174177809
 30
0.0
 10
16.2324078952
 20
13.2184857657
 30
0.0
 10
16.2320573811
 20
13.2195609067
 30
0.0
 10
16.2316229975
 20
13.2206404801
 30
0.0
 10
16.2309231934
 20
13.2221036314
 30
0.0
 10
16.2300666221
 20
13.2235421092
 30
0.0
 10
16.2290734832
 20
13.2249467629
 30
0.0
 10
16.2282414695
 20
13.2260066169
 30
0.0
 10
16.2273357504
 20
13.2270541053
 30
0.0
 10
16.2266926261
 20
13.2277337592
 30
0.0
 10
16.2263598047
 20
13.2280709635
 30
0.0
  0
SPLINE
  5
2B7
100
AcDbEntity
  8
LAYER_FEATURE
100
AcDbSpline
 62
7
  6
CONTINUOUS
 70
0
 71
3
 72
77
 73
73
 74
0
 42
0.0000001
 43
0.0000001
 44
0.0000000001
 40
0.0
 40
0.0
 40
0.0
 40
0.0
 40
0.0171786384
 40
0.0345303065
 40
0.0520441323
 40
0.0697097603
 40
0.087516005
 40
0.1054515097
 40
0.1235046065
 40
0.141663363
 40
0.1599156243
 40
0.178249032
 40
0.1966510546
 40
0.2151090165
 40
0.2336101252
 40
0.2521414984
 40
0.2706901905
 40
0.2892432201
 40
0.3077875972
 40
0.3263103499
 40
0.3447985501
 40
0.363239342
 40
0.3816199692
 40
0.3999278015
 40
0.4181503619
 40
0.4362753549
 40
0.4542906965
 40
0.4721845422
 40
0.4899453151
 40
0.5075617357
 40
0.5250228553
 40
0.5423180877
 40
0.5594372392
 40
0.5763705427
 40
0.5931086924
 40
0.6096428838
 40
0.6259648478
 40
0.6420668893
 40
0.6579419273
 40
0.6735835408
 40
0.6889860137
 40
0.7041443784
 40
0.7190544635
 40
0.733712946
 40
0.7481174076
 40
0.7622663869
 40
0.7761594337
 40
0.7897971671
 40
0.8031813365
 40
0.8163148825
 40
0.8292019896
 40
0.8418481418
 40
0.8542601741
 40
0.8603812579
 40
0.8664470199
 40
0.8784169498
 40
0.8901817869
 40
0.8959915749
 40
0.9017549381
 40
0.9131488226
 40
0.9243797396
 40
0.9354645469
 40
0.9464213959
 40
0.9572696215
 40
0.9626598376
 40
0.9680306188
 40
0.9733846479
 40
0.9787246486
 40
0.9840533836
 40
0.9893736427
 40
0.9946882389
 40
1.0
 40
1.0
 40
1.0
 40
1.0
 10
15.3547346658
 20
13.6976756847
 30
0.0
 10
15.3640685515
 20
13.6976756847
 30
0.0
 10
15.3828309363
 20
13.6974703006
 30
0.0
 10
15.4110959942
 20
13.6965577462
 30
0.0
 10
15.4396000845
 20
13.6950399928
 30
0.0
 10
15.4683132014
 20
13.692918695
 30
0.0
 10
15.4972056485
 20
13.6901960106
 30
0.0
 10
15.5262472907
 20
13.6868747916
 30
0.0
 10
15.5554079175
 20
13.6829584992
 30
0.0
 10
15.5846571769
 20
13.6784512099
 30
0.0
 10
15.6139646236
 20
13.6733576147
 30
0.0
 10
15.643299751
 20
13.6676830081
 30
0.0
 10
15.6726320239
 20
13.6614333026
 30
0.0
 10
15.7019309094
 20
13.6546150076
 30
0.0
 10
15.7311659086
 20
13.6472352204
 30
0.0
 10
15.7603065875
 20
13.6393016182
 30
0.0
 10
15.7893226098
 20
13.630822457
 30
0.0
 10
15.8181837717
 20
13.6218065705
 30
0.0
 10
15.8468600295
 20
13.6122633452
 30
0.0
 10
15.8753215311
 20
13.6022027141
 30
0.0
 10
15.9035386456
 20
13.5916351436
 30
0.0
 10
15.931482001
 20
13.5805716381
 30
0.0
 10
15.9591225112
 20
13.5690237182
 30
0.0
 10
15.9864314044
 20
13.5570034047
 30
0.0
 10
16.0133802522
 20
13.5445232058
 30
0.0
 10
16.0399410013
 20
13.5315961078
 30
0.0
 10
16.066086009
 20
13.5182355719
 30
0.0
 10
16.0917880643
 20
13.5044555044
 30
0.0
 10
16.1170204163
 20
13.4902702455
 30
0.0
 10
16.1417568001
 20
13.4756945507
 30
0.0
 10
16.1659714735
 20
13.4607435882
 30
0.0
 10
16.189639241
 20
13.4454329179
 30
0.0
 10
16.2127354745
 20
13.4297784676
 30
0.0
 10
16.2352361386
 20
13.4137965182
 30
0.0
 10
16.2571178166
 20
13.3975036862
 30
0.0
 10
16.2783577463
 20
13.3809169194
 30
0.0
 10
16.2989338319
 20
13.3640534636
 30
0.0
 10
16.3188246657
 20
13.3469308471
 30
0.0
 10
16.338009548
 20
13.3295668589
 30
0.0
 10
16.3564685186
 20
13.3119795392
 30
0.0
 10
16.3741823781
 20
13.2941871597
 30
0.0
 10
16.391132696
 20
13.2762081945
 30
0.0
 10
16.4073018297
 20
13.2580613047
 30
0.0
 10
16.422672941
 20
13.2397653154
 30
0.0
 10
16.4372300301
 20
13.221339209
 30
0.0
 10
16.4509579355
 20
13.2028020929
 30
0.0
 10
16.463842346
 20
13.1841731809
 30
0.0
 10
16.4758698094
 20
13.1654717744
 30
0.0
 10
16.4870277581
 20
13.1467172401
 30
0.0
 10
16.4973045169
 20
13.1279290232
 30
0.0
 10
16.5066893321
 20
13.1091265157
 30
0.0
 10
16.5151722438
 20
13.0903294211
 30
0.0
 10
16.5215114731
 20
13.07461347
 30
0.0
 10
16.5261163541
 20
13.0620652143
 30
0.0
 10
16.5303735373
 20
13.0496484751
 30
0.0
 10
16.5351251752
 20
13.0341636313
 30
0.0
 10
16.5391379051
 20
13.0186141729
 30
0.0
 10
16.5418726394
 20
13.006230965
 30
0.0
 10
16.5442737842
 20
12.9939841758
 30
0.0
 10
16.5466948709
 20
12.9787441121
 30
0.0
 10
16.5486663664
 20
12.9605270199
 30
0.0
 10
16.5496907116
 20
12.942469461
 30
0.0
 10
16.5497665929
 20
12.9245910091
 30
0.0
 10
16.5490374889
 20
12.9098247471
 30
0.0
 10
16.5479782154
 20
12.8981301956
 30
0.0
 10
16.5469489585
 20
12.8894337529
 30
0.0
 10
16.5456835316
 20
12.8807961522
 30
0.0
 10
16.5441822118
 20
12.8722195792
 30
0.0
 10
16.5424454451
 20
12.8637062968
 30
0.0
 10
16.5404736418
 20
12.8552585097
 30
0.0
 10
16.5382673422
 20
12.8468785188
 30
0.0
 10
16.5366403404
 20
12.8413378034
 30
0.0
 10
16.5357882259
 20
12.8385803574
 30
0.0
  0
SPLINE
  5
2B8
100
AcDbEntity
  8
LAYER_FEATURE
100
AcDbSpline
 62
7
  6
CONTINUOUS
 70
0
 71
3
 72
55
 73
51
 74
0
 42
0.0000001
 43
0.0000001
 44
0.0000000001
 40
0.0
 40
0.0
 40
0.0
 40
0.0
 40
0.0412133325
 40
0.081800897
 40
0.1217256713
 40
0.1609537685
 40
0.1994546242
 40
0.2372013657
 40
0.2741711203
 40
0.3103453738
 40
0.3457103401
 40
0.3802573531
 40
0.4139832765
 40
0.4468909287
 40
0.4789895155
 40
0.4947413647
 40
0.5102975646
 40
0.5408333237
 40
0.5558232953
 40
0.5706330637
 40
0.5997297587
 40
0.6281732262
 40
0.6421686561
 40
0.6560221448
 40
0.6697418412
 40
0.6833363913
 40
0.6968149037
 40
0.7101869454
 40
0.7234625022
 40
0.7366519624
 40
0.7497660716
 40
0.7628159037
 40
0.7758128112
 40
0.788768385
 40
0.8016944006
 40
0.8146027698
 40
0.8275054841
 40
0.8404145622
 40
0.8533419924
 40
0.8662996799
 40
0.8792993908
 40
0.892352703
 40
0.9054709542
 40
0.9186651997
 40
0.9319461655
 40
0.9453242163
 40
0.958809315
 40
0.9724110011
 40
0.9861383573
 40
1.0
 40
1.0
 40
1.0
 40
1.0
 10
15.3844220854
 20
13.5733487736
 30
0.0
 10
15.3740266302
 20
13.5733487736
 30
0.0
 10
15.353392213
 20
13.5730542016
 30
0.0
 10
15.3227138546
 20
13.5717069563
 30
0.0
 10
15.2925898654
 20
13.5694599728
 30
0.0
 10
15.263075179
 20
13.5663172885
 30
0.0
 10
15.2342231851
 20
13.5622845445
 30
0.0
 10
15.2060861758
 20
13.5573689815
 30
0.0
 10
15.1787151046
 20
13.551579415
 30
0.0
 10
15.1521595394
 20
13.544926219
 30
0.0
 10
15.126467553
 20
13.5374212935
 30
0.0
 10
15.1016856913
 20
13.5290780601
 30
0.0
 10
15.0778587297
 20
13.5199113488
 30
0.0
 10
15.0550302032
 20
13.5099376626
 30
0.0
 10
15.0367591255
 20
13.5009123225
 30
0.0
 10
15.0226919469
 20
13.4932996724
 30
0.0
 10
15.0091638675
 20
13.4855301981
 30
0.0
 10
14.9961026595
 20
13.4773419313
 30
0.0
 10
14.983550141
 20
13.4687341455
 30
0.0
 10
14.9715362575
 20
13.45999285
 30
0.0
 10
14.9572423347
 20
13.4486299904
 30
0.0
 10
14.9438066296
 20
13.4365675694
 30
0.0
 10
14.933699191
 20
13.4265922531
 30
0.0
 10
14.9264744642
 20
13.4189909621
 30
0.0
 10
14.9195687649
 20
13.4112336142
 30
0.0
 10
14.9129851549
 20
13.4033236803
 30
0.0
 10
14.9067266998
 20
13.3952647465
 30
0.0
 10
14.9007962464
 20
13.3870604874
 30
0.0
 10
14.8951965449
 20
13.3787146177
 30
0.0
 10
14.8899301515
 20
13.370230951
 30
0.0
 10
14.8849995109
 20
13.3616133406
 30
0.0
 10
14.8804068772
 20
13.3528657289
 30
0.0
 10
14.8761543834
 20
13.3439921018
 30
0.0
 10
14.8722439743
 20
13.3349965233
 30
0.0
 10
14.8686774637
 20
13.3258831031
 30
0.0
 10
14.8654564813
 20
13.3166560185
 30
0.0
 10
14.8625825155
 20
13.3073194929
 30
0.0
 10
14.8600568764
 20
13.2978778073
 30
0.0
 10
14.8578807222
 20
13.2883352875
 30
0.0
 10
14.8560550402
 20
13.2786963078
 30
0.0
 10
14.8545806557
 20
13.2689652847
 30
0.0
 10
14.8534582321
 20
13.2591466751
 30
0.0
 10
14.8526882612
 20
13.2492449741
 30
0.0
 10
14.8522710827
 20
13.2392647111
 30
0.0
 10
14.852206856
 20
13.2292104491
 30
0.0
 10
14.8524955991
 20
13.2190867783
 30
0.0
 10
14.8531371397
 20
13.2088983274
 30
0.0
 10
14.8541311826
 20
13.1986497078
 30
0.0
 10
14.855477204
 20
13.1883457215
 30
0.0
 10
14.8566031574
 20
13.1814770543
 30
0.0
 10
14.8572234929
 20
13.1780361299
 30
0.0
  0
SPLINE
  5
2B9
100
AcDbEntity
  8
LAYER_FEATURE
100
AcDbSpline
 62
7
  6
CONTINUOUS
 70
0
 71
3
 72
84
 73
80
 74
0
 42
0.0000001
 43
0.0000001
 44
0.0000000001
 40
0.0
 40
0.0
 40
0.0
 40
0.0
 40
0.0178440605
 40
0.0358906884
 40
0.0541255213
 40
0.0725342555
 40
0.0911017027
 40
0.1098123584
 40
0.1286502626
 40
0.1475991075
 40
0.1666422748
 40
0.1857628865
 40
0.2049438541
 40
0.2241679258
 40
0.2434177338
 40
0.262675841
 40
0.2819247878
 40
0.3011471395
 40
0.3203255329
 40
0.3394427229
 40
0.3584816305
 40
0.3774253896
 40
0.3962573959
 40
0.4149613563
 40
0.4335213392
 40
0.4519218255
 40
0.470147761
 40
0.4881846097
 40
0.50601841
 40
0.5236358324
 40
0.5410242399
 40
0.5581717505
 40
0.575067302
 40
0.5917007198
 40
0.6080627886
 40
0.6241453275
 40
0.6399412698
 40
0.6554447469
 40
0.6706511758
 40
0.6855573494
 40
0.7001615323
 40
0.714463559
 40
0.7284649356
 40
0.7421689417
 40
0.7555807337
 40
0.7687074396
 40
0.78155825
 40
0.7941444948
 40
0.8064797044
 40
0.8185796456
 40
0.830462327
 40
0.836329017
 40
0.8421491563
 40
0.8479256038
 40
0.8536613401
 40
0.8593594712
 40
0.8650232089
 40
0.8706558773
 40
0.8762608934
 40
0.8818417646
 40
0.8874020769
 40
0.8929454824
 40
0.898475692
 40
0.9039964585
 40
0.9095115689
 40
0.9150248282
 40
0.9205400483
 40
0.9260610339
 40
0.931591571
 40
0.9371354115
 40
0.9426962649
 40
0.9482777813
 40
0.9538835448
 40
0.9595170602
 40
0.965181742
 40
0.9708809112
 40
0.9766177766
 40
0.9882156622
 40
1.0
 40
1.0
 40
1.0
 40
1.0
 10
15.3844220854
 20
13.5733487736
 30
0.0
 10
15.3934967502
 20
13.5733487736
 30
0.0
 10
15.4117498439
 20
13.5731212672
 30
0.0
 10
15.4392595721
 20
13.5721121801
 30
0.0
 10
15.467024428
 20
13.5704345644
 30
0.0
 10
15.4950066767
 20
13.5680907433
 30
0.0
 10
15.5231687749
 20
13.5650838352
 30
0.0
 10
15.5514727244
 20
13.5614179142
 30
0.0
 10
15.5798804083
 20
13.5570979099
 30
0.0
 10
15.6083535443
 20
13.5521296454
 30
0.0
 10
15.6368537664
 20
13.5465198175
 30
0.0
 10
15.6653426696
 20
13.540275987
 30
0.0
 10
15.693781863
 20
13.5334065686
 30
0.0
 10
15.7221330219
 20
13.5259208192
 30
0.0
 10
15.7503579395
 20
13.5178288259
 30
0.0
 10
15.7784185779
 20
13.509141492
 30
0.0
 10
15.8062771209
 20
13.4998705243
 30
0.0
 10
15.8338960258
 20
13.490028419
 30
0.0
 10
15.8612380729
 20
13.4796284406
 30
0.0
 10
15.8882664163
 20
13.4686846045
 30
0.0
 10
15.9149446334
 20
13.457211658
 30
0.0
 10
15.9412367738
 20
13.4452250603
 30
0.0
 10
15.9671074078
 20
13.4327409607
 30
0.0
 10
15.9925216765
 20
13.4197761802
 30
0.0
 10
16.0174453386
 20
13.4063481875
 30
0.0
 10
16.0418448155
 20
13.3924750725
 30
0.0
 10
16.0656872364
 20
13.378175522
 30
0.0
 10
16.0889404824
 20
13.3634687942
 30
0.0
 10
16.1115732297
 20
13.3483746923
 30
0.0
 10
16.1335549914
 20
13.3329135362
 30
0.0
 10
16.154856162
 20
13.3171061385
 30
0.0
 10
16.1754480559
 20
13.3009737731
 30
0.0
 10
16.1953029433
 20
13.2845381443
 30
0.0
 10
16.2143940877
 20
13.2678213573
 30
0.0
 10
16.2326957799
 20
13.250845887
 30
0.0
 10
16.2501833724
 20
13.2336345473
 30
0.0
 10
16.2668333106
 20
13.216210458
 30
0.0
 10
16.2826231675
 20
13.1985970169
 30
0.0
 10
16.2975316688
 20
13.1808178635
 30
0.0
 10
16.3115387166
 20
13.1628968465
 30
0.0
 10
16.3246254131
 20
13.1448579918
 30
0.0
 10
16.336774082
 20
13.126725471
 30
0.0
 10
16.3479682872
 20
13.1085235694
 30
0.0
 10
16.3581928505
 20
13.0902766558
 30
0.0
 10
16.3674338724
 20
13.0720091557
 30
0.0
 10
16.3756787391
 20
13.0537455245
 30
0.0
 10
16.3829161355
 20
13.0355102094
 30
0.0
 10
16.3891360518
 20
13.0173276783
 30
0.0
 10
16.3943298144
 20
12.9992222157
 30
0.0
 10
16.3984900318
 20
12.981218573
 30
0.0
 10
16.4011017245
 20
12.9662563284
 30
0.0
 10
16.4026614892
 20
12.9543705219
 30
0.0
 10
16.4035652569
 20
12.9455343281
 30
0.0
 10
16.4042075245
 20
12.9367420952
 30
0.0
 10
16.4045880346
 20
12.9279967132
 30
0.0
 10
16.404706705
 20
12.9193011645
 30
0.0
 10
16.4045634167
 20
12.9106583842
 30
0.0
 10
16.4041582664
 20
12.9020713009
 30
0.0
 10
16.4034913439
 20
12.8935428233
 30
0.0
 10
16.402562874
 20
12.8850758434
 30
0.0
 10
16.4013731861
 20
12.8766732282
 30
0.0
 10
16.3999226269
 20
12.868337836
 30
0.0
 10
16.3982117484
 20
12.8600724836
 30
0.0
 10
16.3962410584
 20
12.8518799895
 30
0.0
 10
16.3940112792
 20
12.8437631221
 30
0.0
 10
16.3915231334
 20
12.8357246437
 30
0.0
 10
16.3887774685
 20
12.827767283
 30
0.0
 10
16.3857752441
 20
12.8198937293
 30
0.0
 10
16.3825174315
 20
12.8121066736
 30
0.0
 10
16.3790052031
 20
12.804408729
 30
0.0
 10
16.3752396934
 20
12.7968025327
 30
0.0
 10
16.3712222343
 20
12.789290637
 30
0.0
 10
16.3669541701
 20
12.7818755977
 30
0.0
 10
16.3624369506
 20
12.7745599217
 30
0.0
 10
16.3576721542
 20
12.7673460772
 30
0.0
 10
16.3526613083
 20
12.7602364792
 30
0.0
 10
16.345629577
 20
12.7508659377
 30
0.0
 10
16.3362199187
 20
12.7394198654
 30
0.0
 10
16.3281515753
 20
12.7306751198
 30
0.0
 10
16.3239686801
 20
12.7263833749
 30
0.0
  0
SPLINE
  5
2BA
100
AcDbEntity
  8
LAYER_FEATURE
100
AcDbSpline
 62
7
  6
CONTINUOUS
 70
0
 71
3
 72
23
 73
19
 74
0
 42
0.0000001
 43
0.0000001
 44
0.0000000001
 40
0.0
 40
0.0
 40
0.0
 40
0.0
 40
0.0613095112
 40
0.1236419331
 40
0.1868241663
 40
0.250675045
 40
0.3150072137
 40
0.3796289434
 40
0.4443459049
 40
0.5089629192
 40
0.5732856997
 40
0.6371226008
 40
0.7002863981
 40
0.7625960897
 40
0.8238788197
 40
0.8839717183
 40
0.9427242805
 40
1.0
 40
1.0
 40
1.0
 40
1.0
 10
16.1928817789
 20
13.0833694525
 30
0.0
 10
16.1949974151
 20
13.082044324
 30
0.0
 10
16.1993231866
 20
13.0794653313
 30
0.0
 10
16.2060165429
 20
13.0758463677
 30
0.0
 10
16.2129446514
 20
13.0724573123
 30
0.0
 10
16.2200763649
 20
13.0693134247
 30
0.0
 10
16.2273798239
 20
13.0664287393
 30
0.0
 10
16.2348223387
 20
13.0638161706
 30
0.0
 10
16.2423706089
 20
13.0614874075
 30
0.0
 10
16.2499908558
 20
13.0594528715
 30
0.0
 10
16.2576489804
 20
13.0577216664
 30
0.0
 10
16.2653107187
 20
13.0563015382
 30
0.0
 10
16.2729417952
 20
13.0551988409
 30
0.0
 10
16.2805080886
 20
13.054418508
 30
0.0
 10
16.287975754
 20
13.0539640346
 30
0.0
 10
16.2953114969
 20
13.0538374663
 30
0.0
 10
16.3024823098
 20
13.0540393705
 30
0.0
 10
16.3071953805
 20
13.0543972319
 30
0.0
 10
16.3095155601
 20
13.0546329988
 30
0.0
  0
SPLINE
  5
2BB
100
AcDbEntity
  8
LAYER_FEATURE
100
AcDbSpline
 62
7
  6
CONTINUOUS
 70
0
 71
3
 72
29
 73
25
 74
0
 42
0.0000001
 43
0.0000001
 44
0.0000000001
 40
0.0
 40
0.0
 40
0.0
 40
0.0
 40
0.023513912
 40
0.0471072882
 40
0.0708582031
 40
0.0948422824
 40
0.1191313146
 40
0.1437925953
 40
0.1944495079
 40
0.2205743851
 40
0.2472818965
 40
0.2746089039
 40
0.3025854429
 40
0.3312358531
 40
0.3605779865
 40
0.4213686857
 40
0.4850103295
 40
0.5514647038
 40
0.6206284967
 40
0.692342271
 40
0.7663997012
 40
0.8425523951
 40
0.9205232243
 40
1.0
 40
1.0
 40
1.0
 40
1.0
 10
15.967995375
 20
13.3962833199
 30
0.0
 10
15.9680733192
 20
13.3965355436
 30
0.0
 10
15.9682115505
 20
13.3970465823
 30
0.0
 10
15.968364437
 20
13.3978279234
 30
0.0
 10
15.9684628471
 20
13.398623326
 30
0.0
 10
15.9685065585
 20
13.3994313835
 30
0.0
 10
15.9684955646
 20
13.4002507825
 30
0.0
 10
15.9684072556
 20
13.4013662253
 30
0.0
 10
15.9682082142
 20
13.402491069
 30
0.0
 10
15.967906654
 20
13.4036135731
 30
0.0
 10
15.9676245583
 20
13.4044686992
 30
0.0
 10
15.9672893444
 20
13.4053266974
 30
0.0
 10
15.9669016246
 20
13.4061862515
 30
0.0
 10
15.9664620022
 20
13.4070459236
 30
0.0
 10
15.965799917
 20
13.4082040182
 30
0.0
 10
15.9648427153
 20
13.409643575
 30
0.0
 10
15.9635145634
 20
13.4113281119
 30
0.0
 10
15.962002222
 20
13.4129791544
 30
0.0
 10
15.9603157146
 20
13.4145859284
 30
0.0
 10
15.9584660837
 20
13.4161380495
 30
0.0
 10
15.9564654744
 20
13.417625376
 30
0.0
 10
15.9543269849
 20
13.4190382298
 30
0.0
 10
15.9520647409
 20
13.4203672734
 30
0.0
 10
15.9504966314
 20
13.4211850359
 30
0.0
 10
15.9496957002
 20
13.421578348
 30
0.0
  0
SPLINE
  5
2BC
100
AcDbEntity
  8
LAYER_FEATURE
100
AcDbSpline
 62
7
  6
CONTINUOUS
 70
0
 71
3
 72
40
 73
36
 74
0
 42
0.0000001
 43
0.0000001
 44
0.0000000001
 40
0.0
 40
0.0
 40
0.0
 40
0.0
 40
0.0259994492
 40
0.052992824
 40
0.0809737213
 40
0.109919997
 40
0.1397955702
 40
0.1705520912
 40
0.2021304667
 40
0.2344622548
 40
0.2674709446
 40
0.3010731392
 40
0.3351796595
 40
0.3696965844
 40
0.4045262419
 40
0.4395681632
 40
0.4747200099
 40
0.5098784842
 40
0.5449402308
 40
0.5798027377
 40
0.6143652454
 40
0.6485296708
 40
0.682201558
 40
0.7152910635
 40
0.7477139895
 40
0.7793928788
 40
0.8102581867
 40
0.8402495464
 40
0.8693171518
 40
0.8974232536
 40
0.924543844
 40
0.937733146
 40
0.950674193
 40
0.9758156074
 40
1.0
 40
1.0
 40
1.0
 40
1.0
 10
15.9447187069
 20
13.3210535152
 30
0.0
 10
15.9457182704
 20
13.3194097053
 30
0.0
 10
15.9478790806
 20
13.3161330218
 30
0.0
 10
15.9515057635
 20
13.3113586755
 30
0.0
 10
15.9555631317
 20
13.306652707
 30
0.0
 10
15.9600332425
 20
13.302035723
 30
0.0
 10
15.96489668
 20
13.29752754
 30
0.0
 10
15.9701322497
 20
13.2931476877
 30
0.0
 10
15.9757171621
 20
13.2889151453
 30
0.0
 10
15.9816270943
 20
13.2848482963
 30
0.0
 10
15.9878363001
 20
13.280964827
 30
0.0
 10
15.9943177179
 20
13.2772816453
 30
0.0
 10
16.001043089
 20
13.2738148003
 30
0.0
 10
16.0079830808
 20
13.2705794081
 30
0.0
 10
16.0151074166
 20
13.2675895819
 30
0.0
 10
16.0223850088
 20
13.2648583674
 30
0.0
 10
16.0297840968
 20
13.2623976845
 30
0.0
 10
16.037272387
 20
13.2602182727
 30
0.0
 10
16.0448171967
 20
13.2583296442
 30
0.0
 10
16.0523855984
 20
13.2567400413
 30
0.0
 10
16.0599445662
 20
13.2554564008
 30
0.0
 10
16.067461123
 20
13.2544843241
 30
0.0
 10
16.0749024865
 20
13.2538280545
 30
0.0
 10
16.0822362158
 20
13.2534904604
 30
0.0
 10
16.0894303562
 20
13.2534730268
 30
0.0
 10
16.0964535796
 20
13.2537758527
 30
0.0
 10
16.1032753309
 20
13.2543976599
 30
0.0
 10
16.1098659372
 20
13.2553358002
 30
0.0
 10
16.1161968254
 20
13.2565863054
 30
0.0
 10
16.1222403264
 20
13.2581438269
 30
0.0
 10
16.1270595989
 20
13.2597065068
 30
0.0
 10
16.1307430749
 20
13.261107891
 30
0.0
 10
16.1342412682
 20
13.2625780452
 30
0.0
 10
16.1383923645
 20
13.2645871541
 30
0.0
 10
16.1415496532
 20
13.2664275291
 30
0.0
 10
16.1430561524
 20
13.2673934276
 30
0.0
  0
SPLINE
  5
2BD
100
AcDbEntity
  8
LAYER_FEATURE
100
AcDbSpline
 62
7
  6
CONTINUOUS
 70
0
 71
3
 72
31
 73
27
 74
0
 42
0.0000001
 43
0.0000001
 44
0.0000000001
 40
0.0
 40
0.0
 40
0.0
 40
0.0
 40
0.0217307366
 40
0.0435989465
 40
0.0657364492
 40
0.0882707298
 40
0.1113153374
 40
0.1349705322
 40
0.1844057948
 40
0.2103459614
 40
0.2371480632
 40
0.2648382716
 40
0.293430023
 40
0.3229245433
 40
0.3533124257
 40
0.3845744312
 40
0.4166822829
 40
0.4496000292
 40
0.4832843757
 40
0.552736571
 40
0.6245929628
 40
0.6983242563
 40
0.7733506253
 40
0.8490593122
 40
0.9248185163
 40
1.0
 40
1.0
 40
1.0
 40
1.0
 10
15.6332048937
 20
13.5055874238
 30
0.0
 10
15.6333118144
 20
13.5059334464
 30
0.0
 10
15.6334925568
 20
13.5066386329
 30
0.0
 10
15.6336606555
 20
13.5077228549
 30
0.0
 10
15.6337257072
 20
13.5088315612
 30
0.0
 10
15.6336875848
 20
13.5099610063
 30
0.0
 10
15.6335465356
 20
13.5111077139
 30
0.0
 10
15.6332173446
 20
13.5126772873
 30
0.0
 10
15.632683012
 20
13.5142467369
 30
0.0
 10
15.631969474
 20
13.5157937998
 30
0.0
 10
15.6313285575
 20
13.5169723092
 30
0.0
 10
15.6305927092
 20
13.5181462222
 30
0.0
 10
15.6297641548
 20
13.5193121085
 30
0.0
 10
15.6288455223
 20
13.520466366
 30
0.0
 10
15.6278396554
 20
13.5216054622
 30
0.0
 10
15.6267496675
 20
13.5227258842
 30
0.0
 10
15.6255789598
 20
13.5238241994
 30
0.0
 10
15.6243311256
 20
13.5248970199
 30
0.0
 10
15.6225516707
 20
13.5263032432
 30
0.0
 10
15.6201568934
 20
13.5279732242
 30
0.0
 10
15.6170729093
 20
13.5298045609
 30
0.0
 10
15.6137873309
 20
13.5314611253
 30
0.0
 10
15.6103407512
 20
13.5329224582
 30
0.0
 10
15.6067755486
 20
13.5341705838
 30
0.0
 10
15.6031358729
 20
13.5351901067
 30
0.0
 10
15.6006729891
 20
13.5357125094
 30
0.0
 10
15.5994393552
 20
13.535931826
 30
0.0
  0
SPLINE
  5
2BE
100
AcDbEntity
  8
02___PRT_ALL_AXES
100
AcDbSpline
 62
7
  6
CONTINUOUS
 70
0
 71
3
 72
39
 73
35
 74
0
 42
0.0000001
 43
0.0000001
 44
0.0000000001
 40
0.0
 40
0.0
 40
0.0
 40
0.0
 40
0.0396653704
 40
0.0788626144
 40
0.1175692064
 40
0.1557638027
 40
0.1934266652
 40
0.2305396232
 40
0.2670862405
 40
0.3030519226
 40
0.3384240479
 40
0.3731921003
 40
0.4073478095
 40
0.4408852958
 40
0.4738012218
 40
0.5060949479
 40
0.5377686918
 40
0.5688276899
 40
0.5992803576
 40
0.6291384459
 40
0.6584171897
 40
0.6871354423
 40
0.7153157888
 40
0.7429846315
 40
0.7701722378
 40
0.7969127404
 40
0.8232440803
 40
0.8492078827
 40
0.874849257
 40
0.9002165151
 40
0.9253608058
 40
0.950335667
 40
0.9751965029
 40
1.0
 40
1.0
 40
1.0
 40
1.0
 10
15.0111673044
 20
11.8828781166
 30
0.0
 10
15.0060355431
 20
11.8828781166
 30
0.0
 10
14.9958321782
 20
11.8827630486
 30
0.0
 10
14.9806292118
 20
11.8822385534
 30
0.0
 10
14.9656328438
 20
11.8813637464
 30
0.0
 10
14.9508600888
 20
11.880139604
 30
0.0
 10
14.9363275959
 20
11.8785675027
 30
0.0
 10
14.9220517644
 20
11.8766492046
 30
0.0
 10
14.9080486972
 20
11.8743868623
 30
0.0
 10
14.8943341889
 20
11.8717830124
 30
0.0
 10
14.8809237067
 20
11.8688405732
 30
0.0
 10
14.8678323736
 20
11.8655628406
 30
0.0
 10
14.855074952
 20
11.8619534836
 30
0.0
 10
14.8426658276
 20
11.8580165395
 30
0.0
 10
14.8306189941
 20
11.8537564084
 30
0.0
 10
14.8189480383
 20
11.8491778479
 30
0.0
 10
14.8076661269
 20
11.8442859671
 30
0.0
 10
14.7967859928
 20
11.83908622
 30
0.0
 10
14.7863199235
 20
11.8335843999
 30
0.0
 10
14.7762797494
 20
11.8277866327
 30
0.0
 10
14.7666768335
 20
11.8216993711
 30
0.0
 10
14.7575220612
 20
11.8153293894
 30
0.0
 10
14.7488258315
 20
11.8086837782
 30
0.0
 10
14.7405980473
 20
11.8017699399
 30
0.0
 10
14.7328481069
 20
11.794595586
 30
0.0
 10
14.7255848935
 20
11.7871687337
 30
0.0
 10
14.7188167654
 20
11.7794977037
 30
0.0
 10
14.712551543
 20
11.7715911179
 30
0.0
 10
14.7067964962
 20
11.7634578994
 30
0.0
 10
14.7015583253
 20
11.7551072554
 30
0.0
 10
14.6968431582
 20
11.7465487198
 30
0.0
 10
14.6926564775
 20
11.7377919616
 30
0.0
 10
14.6890033093
 20
11.7288474458
 30
0.0
 10
14.686925262
 20
11.72276275
 30
0.0
 10
14.6859778167
 20
11.7196968179
 30
0.0
  0
SPLINE
  5
2BF
100
AcDbEntity
  8
LAYER_FEATURE
100
AcDbSpline
 62
7
  6
CONTINUOUS
 70
0
 71
3
 72
72
 73
68
 74
0
 42
0.0000001
 43
0.0000001
 44
0.0000000001
 40
0.0
 40
0.0
 40
0.0
 40
0.0
 40
0.0111362697
 40
0.0223382187
 40
0.0336578282
 40
0.0451437395
 40
0.05684085
 40
0.0687899474
 40
0.0810269521
 40
0.093582729
 40
0.0999892199
 40
0.1064846088
 40
0.1197500618
 40
0.1333963728
 40
0.1474345766
 40
0.1618713146
 40
0.1767090917
 40
0.1919466286
 40
0.2075791776
 40
0.2235987722
 40
0.2399945084
 40
0.2567528439
 40
0.2738578225
 40
0.2912912688
 40
0.3090330466
 40
0.3270612599
 40
0.3453524089
 40
0.3638815849
 40
0.3826226617
 40
0.40154844
 40
0.4206307948
 40
0.4398408547
 40
0.4591491417
 40
0.4785257048
 40
0.497940279
 40
0.5173624258
 40
0.5367616649
 40
0.5561076263
 40
0.5753701915
 40
0.594519624
 40
0.6135267285
 40
0.6323630011
 40
0.6510007621
 40
0.6694133182
 40
0.6875751464
 40
0.7054620346
 40
0.7230512484
 40
0.7403217537
 40
0.7572543951
 40
0.7738320772
 40
0.7900400108
 40
0.8058659713
 40
0.8213005075
 40
0.8363372105
 40
0.8509730485
 40
0.8652086299
 40
0.8790484875
 40
0.8925014225
 40
0.9055808073
 40
0.9183048058
 40
0.9306965891
 40
0.9427844943
 40
0.9546019616
 40
0.9661873796
 40
0.9775837558
 40
0.9888378374
 40
1.0
 40
1.0
 40
1.0
 40
1.0
 10
15.6323911386
 20
13.50303916
 30
0.0
 10
15.6320918596
 20
13.5019912961
 30
0.0
 10
15.6315801994
 20
13.499862915
 30
0.0
 10
15.6310811005
 20
13.49660362
 30
0.0
 10
15.6308500438
 20
13.4932800224
 30
0.0
 10
15.6308874616
 20
13.4899003786
 30
0.0
 10
15.6311930534
 20
13.4864727008
 30
0.0
 10
15.6317658825
 20
13.4830051214
 30
0.0
 10
15.6326043342
 20
13.4795058512
 30
0.0
 10
15.6335164692
 20
13.476589701
 30
0.0
 10
15.6343735541
 20
13.4742502016
 30
0.0
 10
15.6353294781
 20
13.4718742568
 30
0.0
 10
15.6366889551
 20
13.4688988887
 30
0.0
 10
15.6385624273
 20
13.465354254
 30
0.0
 10
15.6406849606
 20
13.4618186263
 30
0.0
 10
15.64305152
 20
13.4583002585
 30
0.0
 10
15.6456565511
 20
13.4548072325
 30
0.0
 10
15.6484939543
 20
13.4513476183
 30
0.0
 10
15.6515571197
 20
13.4479294206
 30
0.0
 10
15.6548389065
 20
13.4445605529
 30
0.0
 10
15.6583316598
 20
13.4412488133
 30
0.0
 10
15.6620272506
 20
13.4380018869
 30
0.0
 10
15.6659170828
 20
13.4348273229
 30
0.0
 10
15.6699920895
 20
13.4317324875
 30
0.0
 10
15.6742427798
 20
13.4287245747
 30
0.0
 10
15.6786592614
 20
13.4258105925
 30
0.0
 10
15.683231245
 20
13.4229973223
 30
0.0
 10
15.6879480729
 20
13.4202913062
 30
0.0
 10
15.6927987577
 20
13.4176988519
 30
0.0
 10
15.697772
 20
13.4152260092
 30
0.0
 10
15.7028562021
 20
13.4128785292
 30
0.0
 10
15.7080395127
 20
13.4106618819
 30
0.0
 10
15.7133098537
 20
13.4085812459
 30
0.0
 10
15.7186549365
 20
13.4066414679
 30
0.0
 10
15.7240622964
 20
13.4048470618
 30
0.0
 10
15.7295193287
 20
13.4032022172
 30
0.0
 10
15.7350133127
 20
13.4017107774
 30
0.0
 10
15.740531436
 20
13.400376207
 30
0.0
 10
15.7460608342
 20
13.3992016165
 30
0.0
 10
15.7515886194
 20
13.398189757
 30
0.0
 10
15.7571019046
 20
13.3973429811
 30
0.0
 10
15.7625878388
 20
13.3966632548
 30
0.0
 10
15.7680336379
 20
13.3961521707
 30
0.0
 10
15.7734266127
 20
13.3958109284
 30
0.0
 10
15.7787541987
 20
13.3956403115
 30
0.0
 10
15.7840039877
 20
13.395640721
 30
0.0
 10
15.7891637544
 20
13.3958121753
 30
0.0
 10
15.7942214876
 20
13.3961542732
 30
0.0
 10
15.7991654187
 20
13.3966662211
 30
0.0
 10
15.803984045
 20
13.3973468519
 30
0.0
 10
15.808666159
 20
13.3981946064
 30
0.0
 10
15.813200879
 20
13.3992075245
 30
0.0
 10
15.8175776659
 20
13.4003832867
 30
0.0
 10
15.8217863432
 20
13.4017192202
 30
0.0
 10
15.8258171327
 20
13.4032122647
 30
0.0
 10
15.8296606655
 20
13.4048590162
 30
0.0
 10
15.8333079883
 20
13.4066557489
 30
0.0
 10
15.836750591
 20
13.4085983949
 30
0.0
 10
15.8399804271
 20
13.4106825464
 30
0.0
 10
15.8429899021
 20
13.4129034946
 30
0.0
 10
15.8457718812
 20
13.4152562263
 30
0.0
 10
15.8483197314
 20
13.4177353804
 30
0.0
 10
15.8506273155
 20
13.4203352888
 30
0.0
 10
15.8526889808
 20
13.4230499454
 30
0.0
 10
15.8544996417
 20
13.4258730865
 30
0.0
 10
15.8560547302
 20
13.4287977322
 30
0.0
 10
15.856920928
 20
13.4308163754
 30
0.0
 10
15.8573088749
 20
13.4318374595
 30
0.0
  0
SPLINE
  5
2C0
100
AcDbEntity
  8
02___PRT_ALL_AXES
100
AcDbSpline
 62
7
  6
CONTINUOUS
 70
0
 71
3
 72
39
 73
35
 74
0
 42
0.0000001
 43
0.0000001
 44
0.0000000001
 40
0.0
 40
0.0
 40
0.0
 40
0.0
 40
0.0248034971
 40
0.0496643331
 40
0.0746391948
 40
0.099783486
 40
0.1251507443
 40
0.1507921182
 40
0.1767559197
 40
0.2030872593
 40
0.2298277628
 40
0.2570153701
 40
0.2846842128
 40
0.3128645581
 40
0.3415828091
 40
0.3708615524
 40
0.4007196423
 40
0.4311723119
 40
0.4622313107
 40
0.4939050539
 40
0.5261987784
 40
0.5591147036
 40
0.5926521912
 40
0.6268079018
 40
0.6615759544
 40
0.6969480785
 40
0.7329137585
 40
0.7694603751
 40
0.806573337
 40
0.8442361872
 40
0.8824308367
 40
0.9211372771
 40
0.9603348313
 40
1.0
 40
1.0
 40
1.0
 40
1.0
 10
14.8045903163
 20
12.1035270032
 30
0.0
 10
14.8055377636
 20
12.1065929348
 30
0.0
 10
14.8076158059
 20
12.1126776322
 30
0.0
 10
14.8112689748
 20
12.1216221479
 30
0.0
 10
14.8154556571
 20
12.1303789054
 30
0.0
 10
14.820170826
 20
12.1389374401
 30
0.0
 10
14.8254089976
 20
12.1472880838
 30
0.0
 10
14.8311640435
 20
12.1554213026
 30
0.0
 10
14.8374292644
 20
12.1633278893
 30
0.0
 10
14.8441973918
 20
12.1709989198
 30
0.0
 10
14.8514606064
 20
12.1784257713
 30
0.0
 10
14.8592105479
 20
12.1856001244
 30
0.0
 10
14.8674383321
 20
12.1925139624
 30
0.0
 10
14.8761345608
 20
12.1991595744
 30
0.0
 10
14.8852893316
 20
12.2055295573
 30
0.0
 10
14.894892247
 20
12.2116168195
 30
0.0
 10
14.9049324222
 20
12.2174145856
 30
0.0
 10
14.9153984928
 20
12.2229164045
 30
0.0
 10
14.9262786273
 20
12.228116151
 30
0.0
 10
14.9375605383
 20
12.2330080322
 30
0.0
 10
14.9492314931
 20
12.2375865938
 30
0.0
 10
14.9612783263
 20
12.2418467256
 30
0.0
 10
14.9736874512
 20
12.2457836688
 30
0.0
 10
14.9864448734
 20
12.2493930248
 30
0.0
 10
14.9995362065
 20
12.2526707571
 30
0.0
 10
15.0129466882
 20
12.255613197
 30
0.0
 10
15.0266611957
 20
12.2582170483
 30
0.0
 10
15.0406642628
 20
12.2604793917
 30
0.0
 10
15.0549400933
 20
12.2623976876
 30
0.0
 10
15.0694725919
 20
12.2639697906
 30
0.0
 10
15.0842453329
 20
12.265193926
 30
0.0
 10
15.0992417278
 20
12.2660687435
 30
0.0
 10
15.1144446888
 20
12.2665932297
 30
0.0
 10
15.1246480677
 20
12.2667083023
 30
0.0
 10
15.1297798029
 20
12.2667083023
 30
0.0
  0
SPLINE
  5
2C1
100
AcDbEntity
  8
LAYER_FEATURE
100
AcDbSpline
 62
7
  6
CONTINUOUS
 70
0
 71
3
 72
78
 73
74
 74
0
 42
0.0000001
 43
0.0000001
 44
0.0000000001
 40
0.0
 40
0.0
 40
0.0
 40
0.0
 40
0.0053541106
 40
0.0107129108
 40
0.0160810689
 40
0.0214632146
 40
0.0268639154
 40
0.0322876637
 40
0.0377388519
 40
0.0432217636
 40
0.0487405522
 40
0.0542992308
 40
0.0655500316
 40
0.077004616
 40
0.0828172549
 40
0.0886903356
 40
0.1006274892
 40
0.1128373051
 40
0.1190503831
 40
0.1253376644
 40
0.1381401091
 40
0.1512565215
 40
0.164694861
 40
0.1784604062
 40
0.1925559097
 40
0.206981757
 40
0.2217361247
 40
0.236815135
 40
0.2522130057
 40
0.2679221922
 40
0.2839335227
 40
0.3002363257
 40
0.3168185513
 40
0.3336668846
 40
0.3507668541
 40
0.368102934
 40
0.3856586412
 40
0.4034166292
 40
0.4213587774
 40
0.4394662771
 40
0.4577197144
 40
0.4760991512
 40
0.4945842032
 40
0.5131541175
 40
0.5317878476
 40
0.550464128
 40
0.5691615484
 40
0.5878586264
 40
0.6065338813
 40
0.6251659062
 40
0.6437334419
 40
0.66221545
 40
0.6805911881
 40
0.6988402847
 40
0.7169428166
 40
0.734879388
 40
0.7526312108
 40
0.7701801881
 40
0.7875089999
 40
0.8046011926
 40
0.8214412723
 40
0.8380148023
 40
0.8543085059
 40
0.8703103746
 40
0.8860097827
 40
0.9013976086
 40
0.9164663614
 40
0.93121032
 40
0.9456256628
 40
0.9597106578
 40
0.9734656985
 40
0.986893761
 40
1.0
 40
1.0
 40
1.0
 40
1.0
 10
14.7574575422
 20
12.1609986851
 30
0.0
 10
14.7581123801
 20
12.1631177506
 30
0.0
 10
14.7594993589
 20
12.1673344633
 30
0.0
 10
14.7618083156
 20
12.1735845528
 30
0.0
 10
14.7643451543
 20
12.1797583157
 30
0.0
 10
14.7671087988
 20
12.185852961
 30
0.0
 10
14.7700979982
 20
12.1918659262
 30
0.0
 10
14.773311517
 20
12.1977945861
 30
0.0
 10
14.7767479121
 20
12.2036364312
 30
0.0
 10
14.7804057221
 20
12.2093889146
 30
0.0
 10
14.7842833941
 20
12.2150496458
 30
0.0
 10
14.7897659724
 20
12.2225009191
 30
0.0
 10
14.7971740617
 20
12.2315793279
 30
0.0
 10
14.8052215395
 20
12.2402391923
 30
0.0
 10
14.8120651624
 20
12.246953196
 30
0.0
 10
14.8192560846
 20
12.2535923218
 30
0.0
 10
14.8287673267
 20
12.2616155896
 30
0.0
 10
14.8388309279
 20
12.2691697917
 30
0.0
 10
14.8472599764
 20
12.2749794082
 30
0.0
 10
14.8560457835
 20
12.2806976067
 30
0.0
 10
14.8675082605
 20
12.2875364843
 30
0.0
 10
14.8819092801
 20
12.2951928795
 30
0.0
 10
14.8970142185
 20
12.3023354913
 30
0.0
 10
14.9127970283
 20
12.3089522043
 30
0.0
 10
14.9292308584
 20
12.3150319771
 30
0.0
 10
14.9462876754
 20
12.3205645934
 30
0.0
 10
14.9639384177
 20
12.3255407582
 30
0.0
 10
14.9821530077
 20
12.3299520954
 30
0.0
 10
15.0009004081
 20
12.3337911704
 30
0.0
 10
15.0201486694
 20
12.3370515051
 30
0.0
 10
15.039864983
 20
12.3397275925
 30
0.0
 10
15.0600157353
 20
12.3418149089
 30
0.0
 10
15.0805665649
 20
12.3433099247
 30
0.0
 10
15.1014824207
 20
12.3442101123
 30
0.0
 10
15.1227276214
 20
12.3445139524
 30
0.0
 10
15.1442659169
 20
12.3442209387
 30
0.0
 10
15.1660605506
 20
12.3433315813
 30
0.0
 10
15.1880743225
 20
12.3418474056
 30
0.0
 10
15.2102696539
 20
12.3397709499
 30
0.0
 10
15.2326086516
 20
12.3371057627
 30
0.0
 10
15.2550531736
 20
12.3338563965
 30
0.0
 10
15.2775648943
 20
12.3300284008
 30
0.0
 10
15.3001053706
 20
12.3256283129
 30
0.0
 10
15.322636108
 20
12.3206636469
 30
0.0
 10
15.3451186267
 20
12.315142881
 30
0.0
 10
15.3675145279
 20
12.3090754446
 30
0.0
 10
15.3897855604
 20
12.3024717012
 30
0.0
 10
15.4118936859
 20
12.2953429305
 30
0.0
 10
15.4338011443
 20
12.2877013084
 30
0.0
 10
15.4554705186
 20
12.2795598866
 30
0.0
 10
15.4768647995
 20
12.2709325702
 30
0.0
 10
15.4979474481
 20
12.2618340929
 30
0.0
 10
15.5186824593
 20
12.2522799928
 30
0.0
 10
15.5390344234
 20
12.2422865841
 30
0.0
 10
15.5589685868
 20
12.23187093
 30
0.0
 10
15.5784509125
 20
12.2210508134
 30
0.0
 10
15.597448138
 20
12.2098447049
 30
0.0
 10
15.6159278319
 20
12.1982717303
 30
0.0
 10
15.6338584494
 20
12.1863516371
 30
0.0
 10
15.6512093857
 20
12.1741047598
 30
0.0
 10
15.6679510282
 20
12.161551984
 30
0.0
 10
15.6840548068
 20
12.1487147094
 30
0.0
 10
15.6994932415
 20
12.135614812
 30
0.0
 10
15.7142399884
 20
12.1222746046
 30
0.0
 10
15.7282698844
 20
12.1087167981
 30
0.0
 10
15.7415589874
 20
12.0949644606
 30
0.0
 10
15.7540846162
 20
12.0810409751
 30
0.0
 10
15.765825376
 20
12.0669700014
 30
0.0
 10
15.7767612197
 20
12.0527754185
 30
0.0
 10
15.7868733927
 20
12.0384813516
 30
0.0
 10
15.7961446831
 20
12.0241118787
 30
0.0
 10
15.8045588535
 20
12.0096918575
 30
0.0
 10
15.8096485123
 20
11.9999436778
 30
0.0
 10
15.812040331
 20
11.9950696637
 30
0.0
  0
SPLINE
  5
2C2
100
AcDbEntity
  8
LAYER_CHAMFER_FEAT
100
AcDbSpline
 62
7
  6
CONTINUOUS
 70
0
 71
3
 72
47
 73
43
 74
0
 42
0.0000001
 43
0.0000001
 44
0.0000000001
 40
0.0
 40
0.0
 40
0.0
 40
0.0
 40
0.010625939
 40
0.0212745225
 40
0.0319681592
 40
0.0427287838
 40
0.0535776619
 40
0.0645351623
 40
0.0756206375
 40
0.0868522224
 40
0.0982467945
 40
0.1098198178
 40
0.121585362
 40
0.1335560059
 40
0.1581502212
 40
0.1707971273
 40
0.1836850088
 40
0.2101999729
 40
0.2238385146
 40
0.2377324001
 40
0.2662840738
 40
0.2958512793
 40
0.326411109
 40
0.3579270614
 40
0.3903506312
 40
0.4236227674
 40
0.4576752099
 40
0.4924317166
 40
0.5278092006
 40
0.5637187912
 40
0.6000668361
 40
0.6367558535
 40
0.6736854497
 40
0.7107532091
 40
0.7478555669
 40
0.7848886724
 40
0.8217492461
 40
0.858335458
 40
0.8945477583
 40
0.930289929
 40
0.9654695739
 40
1.0
 40
1.0
 40
1.0
 40
1.0
 10
14.933910517
 20
11.6752597335
 30
0.0
 10
14.9334557323
 20
11.6737880657
 30
0.0
 10
14.9326281705
 20
11.6708152152
 30
0.0
 10
14.9316381
 20
11.6662857393
 30
0.0
 10
14.9308997582
 20
11.661688589
 30
0.0
 10
14.9304138716
 20
11.6570288391
 30
0.0
 10
14.9301809831
 20
11.6523113673
 30
0.0
 10
14.9302011953
 20
11.6475411744
 30
0.0
 10
14.930474523
 20
11.6427232841
 30
0.0
 10
14.9310005218
 20
11.6378627535
 30
0.0
 10
14.9317786637
 20
11.6329646755
 30
0.0
 10
14.9328079847
 20
11.6280341858
 30
0.0
 10
14.9340874527
 20
11.6230763122
 30
0.0
 10
14.9361432087
 20
11.616376774
 30
0.0
 10
14.938684676
 20
11.6097003214
 30
0.0
 10
14.9416743474
 20
11.603075634
 30
0.0
 10
14.9450446579
 20
11.5963232112
 30
0.0
 10
14.948867772
 20
11.589642989
 30
0.0
 10
14.9531062868
 20
11.5830525076
 30
0.0
 10
14.9577317231
 20
11.57636489
 30
0.0
 10
14.96408704
 20
11.5680740891
 30
0.0
 10
14.9725112509
 20
11.5583550299
 30
0.0
 10
14.9817668775
 20
11.5488162281
 30
0.0
 10
14.9918152948
 20
11.539497179
 30
0.0
 10
15.0026149185
 20
11.5304361835
 30
0.0
 10
15.0141209711
 20
11.5216706641
 30
0.0
 10
15.0262857606
 20
11.5132368536
 30
0.0
 10
15.0390588399
 20
11.5051696687
 30
0.0
 10
15.052387221
 20
11.4975025404
 30
0.0
 10
15.0662155911
 20
11.4902672681
 30
0.0
 10
15.0804865443
 20
11.4834938778
 30
0.0
 10
15.0951408218
 20
11.4772104913
 30
0.0
 10
15.1101175608
 20
11.4714432038
 30
0.0
 10
15.1253545502
 20
11.4662159718
 30
0.0
 10
15.1407884924
 20
11.4615505102
 30
0.0
 10
15.1563552708
 20
11.457466201
 30
0.0
 10
15.171990218
 20
11.4539800094
 30
0.0
 10
15.1876283967
 20
11.4511064198
 30
0.0
 10
15.2032048426
 20
11.4488573591
 30
0.0
 10
15.218654968
 20
11.4472421871
 30
0.0
 10
15.2339142873
 20
11.4462675944
 30
0.0
 10
15.2440206613
 20
11.4460453995
 30
0.0
 10
15.2490261915
 20
11.4460453995
 30
0.0
  0
SPLINE
  5
2C3
100
AcDbEntity
  8
LAYER_CUT_FEAT
100
AcDbSpline
 62
7
  6
CONTINUOUS
 70
0
 71
3
 72
78
 73
74
 74
0
 42
0.0000001
 43
0.0000001
 44
0.0000000001
 40
0.0
 40
0.0
 40
0.0
 40
0.0
 40
0.0053541106
 40
0.0107129108
 40
0.0160810689
 40
0.0214632146
 40
0.0268639154
 40
0.0322876637
 40
0.0377388519
 40
0.0432217636
 40
0.0487405522
 40
0.0542992308
 40
0.0655500316
 40
0.077004616
 40
0.0828172549
 40
0.0886903356
 40
0.1006274892
 40
0.1128373051
 40
0.1190503831
 40
0.1253376644
 40
0.1381401091
 40
0.1512565215
 40
0.164694861
 40
0.1784604062
 40
0.1925559097
 40
0.206981757
 40
0.2217361247
 40
0.236815135
 40
0.2522130057
 40
0.2679221922
 40
0.2839335227
 40
0.3002363257
 40
0.3168185513
 40
0.3336668846
 40
0.3507668541
 40
0.368102934
 40
0.3856586412
 40
0.4034166292
 40
0.4213587774
 40
0.4394662771
 40
0.4577197144
 40
0.4760991512
 40
0.4945842032
 40
0.5131541175
 40
0.5317878476
 40
0.550464128
 40
0.5691615484
 40
0.5878586264
 40
0.6065338813
 40
0.6251659062
 40
0.6437334419
 40
0.66221545
 40
0.6805911881
 40
0.6988402847
 40
0.7169428166
 40
0.734879388
 40
0.7526312108
 40
0.7701801881
 40
0.7875089999
 40
0.8046011926
 40
0.8214412723
 40
0.8380148023
 40
0.8543085059
 40
0.8703103746
 40
0.8860097827
 40
0.9013976086
 40
0.9164663614
 40
0.93121032
 40
0.9456256628
 40
0.9597106578
 40
0.9734656985
 40
0.986893761
 40
1.0
 40
1.0
 40
1.0
 40
1.0
 10
14.745354226
 20
12.1218323396
 30
0.0
 10
14.7460090639
 20
12.1239514052
 30
0.0
 10
14.7473960427
 20
12.1281681178
 30
0.0
 10
14.7497049994
 20
12.1344182073
 30
0.0
 10
14.7522418381
 20
12.1405919702
 30
0.0
 10
14.7550054826
 20
12.1466866155
 30
0.0
 10
14.757994682
 20
12.1526995808
 30
0.0
 10
14.7612082009
 20
12.1586282406
 30
0.0
 10
14.7646445959
 20
12.1644700857
 30
0.0
 10
14.7683024059
 20
12.1702225691
 30
0.0
 10
14.7721800779
 20
12.1758833003
 30
0.0
 10
14.7776626562
 20
12.1833345736
 30
0.0
 10
14.7850707455
 20
12.1924129824
 30
0.0
 10
14.7931182234
 20
12.2010728468
 30
0.0
 10
14.7999618462
 20
12.2077868505
 30
0.0
 10
14.8071527684
 20
12.2144259763
 30
0.0
 10
14.8166640106
 20
12.2224492442
 30
0.0
 10
14.8267276117
 20
12.2300034462
 30
0.0
 10
14.8351566602
 20
12.2358130627
 30
0.0
 10
14.8439424673
 20
12.2415312612
 30
0.0
 10
14.8554049443
 20
12.2483701389
 30
0.0
 10
14.8698059639
 20
12.256026534
 30
0.0
 10
14.8849109023
 20
12.2631691458
 30
0.0
 10
14.9006937121
 20
12.2697858589
 30
0.0
 10
14.9171275423
 20
12.2758656316
 30
0.0
 10
14.9341843593
 20
12.2813982479
 30
0.0
 10
14.9518351015
 20
12.2863744127
 30
0.0
 10
14.9700496915
 20
12.2907857499
 30
0.0
 10
14.9887970919
 20
12.2946248249
 30
0.0
 10
15.0080453532
 20
12.2978851596
 30
0.0
 10
15.0277616668
 20
12.300561247
 30
0.0
 10
15.0479124191
 20
12.3026485634
 30
0.0
 10
15.0684632488
 20
12.3041435793
 30
0.0
 10
15.0893791045
 20
12.3050437668
 30
0.0
 10
15.1106243052
 20
12.3053476069
 30
0.0
 10
15.1321626008
 20
12.3050545932
 30
0.0
 10
15.1539572344
 20
12.3041652359
 30
0.0
 10
15.1759710064
 20
12.3026810601
 30
0.0
 10
15.1981663377
 20
12.3006046045
 30
0.0
 10
15.2205053354
 20
12.2979394173
 30
0.0
 10
15.2429498574
 20
12.2946900511
 30
0.0
 10
15.2654615782
 20
12.2908620554
 30
0.0
 10
15.2880020545
 20
12.2864619674
 30
0.0
 10
15.3105327919
 20
12.2814973014
 30
0.0
 10
15.3330153105
 20
12.2759765355
 30
0.0
 10
15.3554112117
 20
12.2699090991
 30
0.0
 10
15.3776822443
 20
12.2633053558
 30
0.0
 10
15.3997903697
 20
12.256176585
 30
0.0
 10
15.4216978281
 20
12.2485349629
 30
0.0
 10
15.4433672025
 20
12.2403935412
 30
0.0
 10
15.4647614833
 20
12.2317662247
 30
0.0
 10
15.4858441319
 20
12.2226677475
 30
0.0
 10
15.5065791432
 20
12.2131136473
 30
0.0
 10
15.5269311073
 20
12.2031202386
 30
0.0
 10
15.5468652706
 20
12.1927045845
 30
0.0
 10
15.5663475963
 20
12.1818844679
 30
0.0
 10
15.5853448218
 20
12.1706783594
 30
0.0
 10
15.6038245158
 20
12.1591053848
 30
0.0
 10
15.6217551332
 20
12.1471852916
 30
0.0
 10
15.6391060695
 20
12.1349384143
 30
0.0
 10
15.655847712
 20
12.1223856385
 30
0.0
 10
15.6719514907
 20
12.1095483639
 30
0.0
 10
15.6873899254
 20
12.0964484665
 30
0.0
 10
15.7021366722
 20
12.0831082591
 30
0.0
 10
15.7161665682
 20
12.0695504526
 30
0.0
 10
15.7294556712
 20
12.0557981151
 30
0.0
 10
15.7419813
 20
12.0418746296
 30
0.0
 10
15.7537220598
 20
12.027803656
 30
0.0
 10
15.7646579035
 20
12.013609073
 30
0.0
 10
15.7747700766
 20
11.9993150061
 30
0.0
 10
15.7840413669
 20
11.9849455332
 30
0.0
 10
15.7924555373
 20
11.970525512
 30
0.0
 10
15.7975451961
 20
11.9607773323
 30
0.0
 10
15.7999370148
 20
11.9559033182
 30
0.0
  0
SPLINE
  5
2C4
100
AcDbEntity
  8
02___PRT_ALL_AXES
100
AcDbSpline
 62
7
  6
CONTINUOUS
 70
0
 71
3
 72
64
 73
60
 74
0
 42
0.0000001
 43
0.0000001
 44
0.0000000001
 40
0.0
 40
0.0
 40
0.0
 40
0.0
 40
0.0171789488
 40
0.0345308826
 40
0.0520450156
 40
0.0697109426
 40
0.0875174869
 40
0.1054532966
 40
0.1235066991
 40
0.1416657636
 40
0.1782503998
 40
0.2151093936
 40
0.2521409097
 40
0.289241676
 40
0.3263078449
 40
0.3632358567
 40
0.399923299
 40
0.4181461676
 40
0.4362714683
 40
0.4542871162
 40
0.4721812648
 40
0.4899423374
 40
0.5075590563
 40
0.525020473
 40
0.5423159992
 40
0.55943544
 40
0.5763690291
 40
0.5931074628
 40
0.6096419356
 40
0.6259641768
 40
0.6420664898
 40
0.6579417959
 40
0.6735836752
 40
0.6889864101
 40
0.7041450318
 40
0.7190553683
 40
0.7337140989
 40
0.7481188053
 40
0.7622680248
 40
0.7761613069
 40
0.7897992708
 40
0.8031836672
 40
0.8163174359
 40
0.8292047612
 40
0.8418511276
 40
0.8542633706
 40
0.8664497242
 40
0.8784198566
 40
0.8901848926
 40
0.9017574243
 40
0.9131515025
 40
0.9243826097
 40
0.9354676043
 40
0.9464246386
 40
0.9572730485
 40
0.9680332135
 40
0.97872639
 40
0.9893745168
 40
1.0
 40
1.0
 40
1.0
 40
1.0
 10
15.1297798029
 20
12.2667083023
 30
0.0
 10
15.1347605372
 20
12.2667083023
 30
0.0
 10
15.1447724796
 20
12.2665987067
 30
0.0
 10
15.1598552215
 20
12.2661117497
 30
0.0
 10
15.1750655102
 20
12.2653018503
 30
0.0
 10
15.1903873456
 20
12.2641698867
 30
0.0
 10
15.2058048762
 20
12.2627170141
 30
0.0
 10
15.2213020052
 20
12.2609447539
 30
0.0
 10
15.2368626831
 20
12.2588549467
 30
0.0
 10
15.2577237701
 20
12.2556402455
 30
0.0
 10
15.2838519049
 20
12.2508390574
 30
0.0
 10
15.3151216028
 20
12.2438667158
 30
0.0
 10
15.3462552174
 20
12.2356980865
 30
0.0
 10
15.3771230751
 20
12.226367172
 30
0.0
 10
15.4075971068
 20
12.2159126835
 30
0.0
 10
15.4375504004
 20
12.204378184
 30
0.0
 10
15.4620289713
 20
12.1938824026
 30
0.0
 10
15.4812448654
 20
12.184983409
 30
0.0
 10
15.4954181972
 20
12.178085258
 30
0.0
 10
15.5093696334
 20
12.1709558445
 30
0.0
 10
15.5230847128
 20
12.1636025505
 30
0.0
 10
15.5365491453
 20
12.1560330396
 30
0.0
 10
15.5497489235
 20
12.1482551876
 30
0.0
 10
15.5626703093
 20
12.1402770883
 30
0.0
 10
15.5752998557
 20
12.1321070415
 30
0.0
 10
15.5876244185
 20
12.1237535443
 30
0.0
 10
15.599631174
 20
12.1152252873
 30
0.0
 10
15.6113076307
 20
12.1065311413
 30
0.0
 10
15.62264164
 20
12.0976801466
 30
0.0
 10
15.6336214091
 20
12.088681505
 30
0.0
 10
15.6442355123
 20
12.0795445679
 30
0.0
 10
15.654472908
 20
12.0702788316
 30
0.0
 10
15.6643229471
 20
12.0608939236
 30
0.0
 10
15.6737753818
 20
12.0513995917
 30
0.0
 10
15.6828203756
 20
12.0418056937
 30
0.0
 10
15.6914485128
 20
12.0321221864
 30
0.0
 10
15.6996508132
 20
12.0223591186
 30
0.0
 10
15.7074187382
 20
12.0125266185
 30
0.0
 10
15.7147441955
 20
12.0026348812
 30
0.0
 10
15.7216195475
 20
11.9926941597
 30
0.0
 10
15.7280376165
 20
11.9827147528
 30
0.0
 10
15.733991698
 20
11.9727069991
 30
0.0
 10
15.7394755633
 20
11.962681264
 30
0.0
 10
15.744483461
 20
11.9526479297
 30
0.0
 10
15.7490101223
 20
11.9426173868
 30
0.0
 10
15.7530507638
 20
11.9326000245
 30
0.0
 10
15.7566010991
 20
11.9226062253
 30
0.0
 10
15.7596573406
 20
11.9126463557
 30
0.0
 10
15.7622161986
 20
11.9027307579
 30
0.0
 10
15.7642748876
 20
11.8928697449
 30
0.0
 10
15.7658311296
 20
11.8830735924
 30
0.0
 10
15.7668831688
 20
11.8733525339
 30
0.0
 10
15.7674297757
 20
11.8637167504
 30
0.0
 10
15.7674702503
 20
11.8541763654
 30
0.0
 10
15.7670044283
 20
11.8447414229
 30
0.0
 10
15.7660326992
 20
11.8354219189
 30
0.0
 10
15.764555974
 20
11.8262276244
 30
0.0
 10
15.7625758669
 20
11.8171686655
 30
0.0
 10
15.7609207189
 20
11.8112229708
 30
0.0
 10
15.7600111561
 20
11.8082796331
 30
0.0
  0
SPLINE
  5
2C5
100
AcDbEntity
  8
LAYER_CHAMFER_FEAT
100
AcDbSpline
 62
7
  6
CONTINUOUS
 70
0
 71
3
 72
38
 73
34
 74
0
 42
0.0000001
 43
0.0000001
 44
0.0000000001
 40
0.0
 40
0.0
 40
0.0
 40
0.0
 40
0.02480383
 40
0.0496649978
 40
0.0746401918
 40
0.0997848225
 40
0.1251524132
 40
0.1507941396
 40
0.1767582796
 40
0.2030899811
 40
0.2298308345
 40
0.2570188071
 40
0.2846880215
 40
0.312868737
 40
0.3708531372
 40
0.4007116428
 40
0.4311647015
 40
0.4622241294
 40
0.4938982887
 40
0.5261924495
 40
0.5591088197
 40
0.5926467444
 40
0.6268029216
 40
0.661571423
 40
0.6969440485
 40
0.7329101799
 40
0.7694572705
 40
0.8065708095
 40
0.8442342332
 40
0.8824289072
 40
0.9211360526
 40
0.960335734
 40
1.0
 40
1.0
 40
1.0
 40
1.0
 10
15.4116209327
 20
11.5276360497
 30
0.0
 10
15.4111472056
 20
11.526103085
 30
0.0
 10
15.4101081875
 20
11.5230607353
 30
0.0
 10
15.4082815967
 20
11.5185884803
 30
0.0
 10
15.4061882675
 20
11.5142100956
 30
0.0
 10
15.4038306685
 20
11.509930837
 30
0.0
 10
15.4012116014
 20
11.5057555029
 30
0.0
 10
15.3983340594
 20
11.5016889076
 30
0.0
 10
15.3952014641
 20
11.4977356012
 30
0.0
 10
15.3918173889
 20
11.4939000985
 30
0.0
 10
15.3881857846
 20
11.4901866615
 30
0.0
 10
15.3843108316
 20
11.4865995005
 30
0.0
 10
15.3801968634
 20
11.4831425321
 30
0.0
 10
15.3743444331
 20
11.478670099
 30
0.0
 10
15.3680779289
 20
11.474519627
 30
0.0
 10
15.3614499736
 20
11.4706923308
 30
0.0
 10
15.3562168203
 20
11.4679413254
 30
0.0
 10
15.3507767826
 20
11.4653414866
 30
0.0
 10
15.3451358201
 20
11.4628955329
 30
0.0
 10
15.3393003442
 20
11.460606256
 30
0.0
 10
15.3332769257
 20
11.4584761944
 30
0.0
 10
15.3270723664
 20
11.4565077126
 30
0.0
 10
15.320693653
 20
11.4547030477
 30
0.0
 10
15.3141479892
 20
11.4530641648
 30
0.0
 10
15.3074427457
 20
11.4515929625
 30
0.0
 10
15.3005854959
 20
11.4502910229
 30
0.0
 10
15.2935839585
 20
11.4491598603
 30
0.0
 10
15.2864460352
 20
11.4482007077
 30
0.0
 10
15.2791798071
 20
11.447414663
 30
0.0
 10
15.2717934523
 20
11.4468025872
 30
0.0
 10
15.2642951708
 20
11.4463651679
 30
0.0
 10
15.2566936664
 20
11.4461029553
 30
0.0
 10
15.2515919664
 20
11.4460453995
 30
0.0
 10
15.2490261915
 20
11.4460453995
 30
0.0
  0
SPLINE
  5
2C6
100
AcDbEntity
  8
LAYER_CUT_FEAT
100
AcDbSpline
 62
7
  6
CONTINUOUS
 70
0
 71
3
 72
22
 73
18
 74
0
 42
0.0000001
 43
0.0000001
 44
0.0000000001
 40
0.0
 40
0.0
 40
0.0
 40
0.0
 40
0.1381198799
 40
0.2053665018
 40
0.2714548418
 40
0.3364371496
 40
0.400372593
 40
0.4633278335
 40
0.5253764037
 40
0.5865986181
 40
0.6470813095
 40
0.7069174386
 40
0.7662055028
 40
0.8250488576
 40
0.883554958
 40
0.941834416
 40
1.0
 40
1.0
 40
1.0
 40
1.0
 10
15.7999370148
 20
11.9559033182
 30
0.0
 10
15.8034084936
 20
11.9488291883
 30
0.0
 10
15.8081919134
 20
11.9381168167
 30
0.0
 10
15.8136475624
 20
11.9236192466
 30
0.0
 10
15.8171950702
 20
11.9128716896
 30
0.0
 10
15.8202306527
 20
11.9021648056
 30
0.0
 10
15.8227514191
 20
11.8915085104
 30
0.0
 10
15.8247547908
 20
11.8809130818
 30
0.0
 10
15.8262387639
 20
11.8703886456
 30
0.0
 10
15.8272017951
 20
11.8599453109
 30
0.0
 10
15.8276428098
 20
11.8495931248
 30
0.0
 10
15.8275612951
 20
11.8393420801
 30
0.0
 10
15.8269572277
 20
11.8292020838
 30
0.0
 10
15.8258310756
 20
11.8191829985
 30
0.0
 10
15.8241838489
 20
11.8092944612
 30
0.0
 10
15.8220172168
 20
11.7995464564
 30
0.0
 10
15.8202270086
 20
11.7931448224
 30
0.0
 10
15.8192472464
 20
11.7899742967
 30
0.0
  0
SPLINE
  5
2C7
100
AcDbEntity
  8
LAYER_FEATURE
100
AcDbSpline
 62
7
  6
CONTINUOUS
 70
0
 71
3
 72
29
 73
25
 74
0
 42
0.0000001
 43
0.0000001
 44
0.0000000001
 40
0.0
 40
0.0
 40
0.0
 40
0.0
 40
0.0470590301
 40
0.0717932215
 40
0.09735454
 40
0.1237527094
 40
0.1509857815
 40
0.1790422973
 40
0.2079017161
 40
0.2375353986
 40
0.2679072148
 40
0.2989747297
 40
0.3306896773
 40
0.395832717
 40
0.4628710053
 40
0.5312737446
 40
0.6004737429
 40
0.6698832847
 40
0.7389093308
 40
0.8069685625
 40
0.8735030955
 40
0.9379946584
 40
0.9693379512
 40
1.0
 40
1.0
 40
1.0
 40
1.0
 10
16.3563693274
 20
13.0317559991
 30
0.0
 10
16.356080826
 20
13.0325733248
 30
0.0
 10
16.3555435348
 20
13.0337878024
 30
0.0
 10
16.3546624682
 20
13.0353502158
 30
0.0
 10
16.3538937751
 20
13.0365364645
 30
0.0
 10
16.3530309464
 20
13.037713381
 30
0.0
 10
16.35207661
 20
13.0388774378
 30
0.0
 10
16.3510338494
 20
13.0400249309
 30
0.0
 10
16.3499059744
 20
13.0411522744
 30
0.0
 10
16.3486965447
 20
13.0422558901
 30
0.0
 10
16.3474094192
 20
13.0433323098
 30
0.0
 10
16.3460486558
 20
13.0443781401
 30
0.0
 10
16.3441248575
 20
13.0457393719
 30
0.0
 10
16.3415622604
 20
13.0473405269
 30
0.0
 10
16.3382959189
 20
13.0490727877
 30
0.0
 10
16.3348519907
 20
13.0506112589
 30
0.0
 10
16.3312740419
 20
13.0519364794
 30
0.0
 10
16.3276071697
 20
13.0530317543
 30
0.0
 10
16.3238976701
 20
13.0538832519
 30
0.0
 10
16.3201922763
 20
13.0544802353
 30
0.0
 10
16.3165378825
 20
13.0548151436
 30
0.0
 10
16.3135447605
 20
13.0548729375
 30
0.0
 10
16.3112162094
 20
13.0547811973
 30
0.0
 10
16.3100774109
 20
13.0546900917
 30
0.0
 10
16.3095155601
 20
13.0546329988
 30
0.0
  0
SPLINE
  5
2C8
100
AcDbEntity
  8
LAYER_FEATURE
100
AcDbSpline
 62
7
  6
CONTINUOUS
 70
0
 71
3
 72
45
 73
41
 74
0
 42
0.0000001
 43
0.0000001
 44
0.0000000001
 40
0.0
 40
0.0
 40
0.0
 40
0.0
 40
0.0396645436
 40
0.0788615828
 40
0.1175674278
 40
0.1557615213
 40
0.1934238189
 40
0.2305362315
 40
0.2670823102
 40
0.303047461
 40
0.3384190666
 40
0.3731866093
 40
0.4073418166
 40
0.4408788073
 40
0.4737942471
 40
0.5060874983
 40
0.5377607785
 40
0.5688193218
 40
0.5992715405
 40
0.6291291875
 40
0.6584075
 40
0.672836003
 40
0.6871270513
 40
0.7153069849
 40
0.7429754203
 40
0.7701626246
 40
0.7969027326
 40
0.8232336854
 40
0.8491971072
 40
0.8748381049
 40
0.8875539134
 40
0.9002074847
 40
0.9128052936
 40
0.9253539676
 40
0.9378602702
 40
0.9503310765
 40
0.9627733671
 40
0.9751941982
 40
0.9876006892
 40
1.0
 40
1.0
 40
1.0
 40
1.0
 10
14.9964765072
 20
12.5383518585
 30
0.0
 10
14.9868596455
 20
12.5383518585
 30
0.0
 10
14.9677385086
 20
12.5381362105
 30
0.0
 10
14.9392481608
 20
12.5371533264
 30
0.0
 10
14.9111449069
 20
12.5355139157
 30
0.0
 10
14.8834607944
 20
12.5332198884
 30
0.0
 10
14.8562268909
 20
12.5302737684
 30
0.0
 10
14.8294739854
 20
12.5266788787
 30
0.0
 10
14.8032322386
 20
12.522439246
 30
0.0
 10
14.7775312511
 20
12.5175596294
 30
0.0
 10
14.7524000071
 20
12.5120454994
 30
0.0
 10
14.7278668475
 20
12.5059030313
 30
0.0
 10
14.7039594391
 20
12.4991390972
 30
0.0
 10
14.680704742
 20
12.4917612606
 30
0.0
 10
14.6581289775
 20
12.4837777727
 30
0.0
 10
14.636257607
 20
12.4751975515
 30
0.0
 10
14.6151152997
 20
12.4660301677
 30
0.0
 10
14.5947259365
 20
12.456285852
 30
0.0
 10
14.5751124859
 20
12.4459754132
 30
0.0
 10
14.5562973396
 20
12.4351104884
 30
0.0
 10
14.5412280677
 20
12.4255580984
 30
0.0
 10
14.5296003394
 20
12.4176486231
 30
0.0
 10
14.5183654249
 20
12.409641145
 30
0.0
 10
14.5048484914
 20
12.3993116023
 30
0.0
 10
14.4894297443
 20
12.3863551546
 30
0.0
 10
14.4749063263
 20
12.3729103858
 30
0.0
 10
14.4612950846
 20
12.3589924848
 30
0.0
 10
14.4486115745
 20
12.3446169158
 30
0.0
 10
14.4368706715
 20
12.3298001902
 30
0.0
 10
14.4278579476
 20
12.3170630191
 30
0.0
 10
14.4211414047
 20
12.306676416
 30
0.0
 10
14.4163609346
 20
12.2988082121
 30
0.0
 10
14.4118252884
 20
12.2908430377
 30
0.0
 10
14.407535714
 20
12.2827830787
 30
0.0
 10
14.4034934118
 20
12.2746306569
 30
0.0
 10
14.3996995846
 20
12.2663880503
 30
0.0
 10
14.396155263
 20
12.2580576317
 30
0.0
 10
14.3928614825
 20
12.2496417227
 30
0.0
 10
14.3898192087
 20
12.2411428135
 30
0.0
 10
14.3879589988
 20
12.2354223616
 30
0.0
 10
14.3870714052
 20
12.2325501052
 30
0.0
  0
SPLINE
  5
2C9
100
AcDbEntity
  8
LAYER_FEATURE
100
AcDbSpline
 62
7
  6
CONTINUOUS
 70
0
 71
3
 72
29
 73
25
 74
0
 42
0.0000001
 43
0.0000001
 44
0.0000000001
 40
0.0
 40
0.0
 40
0.0
 40
0.0
 40
0.0298780767
 40
0.0604716306
 40
0.0917272375
 40
0.123597286
 40
0.1889436789
 40
0.2560298124
 40
0.3243163951
 40
0.3932321945
 40
0.4621898988
 40
0.5306011388
 40
0.5978914865
 40
0.6635159333
 40
0.7269751025
 40
0.7577597258
 40
0.7878459615
 40
0.8171923621
 40
0.8457642491
 40
0.8735342872
 40
0.9004833971
 40
0.9266011107
 40
0.9518877387
 40
1.0
 40
1.0
 40
1.0
 40
1.0
 10
16.194812733
 20
13.2583108236
 30
0.0
 10
16.1944030082
 20
13.2586830008
 30
0.0
 10
16.1935567922
 20
13.2594178005
 30
0.0
 10
16.1922276452
 20
13.2604773663
 30
0.0
 10
16.1908271991
 20
13.2615044835
 30
0.0
 10
16.1888546717
 20
13.2628372548
 30
0.0
 10
16.1862383797
 20
13.2643986663
 30
0.0
 10
16.1829176998
 20
13.2660783597
 30
0.0
 10
16.1794314793
 20
13.2675585356
 30
0.0
 10
16.1758238198
 20
13.2688204645
 30
0.0
 10
16.1721402007
 20
13.2698482467
 30
0.0
 10
16.1684271264
 20
13.2706289046
 30
0.0
 10
16.1647313687
 20
13.2711525894
 30
0.0
 10
16.1610996612
 20
13.2714126836
 30
0.0
 10
16.1581347364
 20
13.2714070025
 30
0.0
 10
16.1558352566
 20
13.2712643031
 30
0.0
 10
16.1541723045
 20
13.2710916024
 30
0.0
 10
16.152558977
 20
13.2708526884
 30
0.0
 10
16.1510003578
 20
13.2705483271
 30
0.0
 10
16.1495013694
 20
13.2701794485
 30
0.0
 10
16.1480668146
 20
13.2697472016
 30
0.0
 10
16.1467010455
 20
13.2692528804
 30
0.0
 10
16.1450063656
 20
13.2685254329
 30
0.0
 10
16.1438065041
 20
13.267874519
 30
0.0
 10
16.1430561524
 20
13.2673934276
 30
0.0
  0
SPLINE
  5
2CA
100
AcDbEntity
  8
LAYER_FEATURE
100
AcDbSpline
 62
7
  6
CONTINUOUS
 70
0
 71
3
 72
31
 73
27
 74
0
 42
0.0000001
 43
0.0000001
 44
0.0000000001
 40
0.0
 40
0.0
 40
0.0
 40
0.0
 40
0.075372094
 40
0.1512555824
 40
0.227029314
 40
0.3020699836
 40
0.3757744263
 40
0.4475730639
 40
0.5169472178
 40
0.5505882534
 40
0.583461551
 40
0.6155251368
 40
0.6467442549
 40
0.6770917561
 40
0.7065495471
 40
0.7351091206
 40
0.7627726154
 40
0.7895541793
 40
0.8154804531
 40
0.8649094333
 40
0.8885718056
 40
0.9116300386
 40
0.9341836817
 40
0.9563450749
 40
0.9782397767
 40
1.0
 40
1.0
 40
1.0
 40
1.0
 10
15.9035105399
 20
13.4431143639
 30
0.0
 10
15.902370987
 20
13.4436183236
 30
0.0
 10
15.9000503916
 20
13.4445550699
 30
0.0
 10
15.8964856219
 20
13.4457367287
 30
0.0
 10
15.8928584403
 20
13.4466894547
 30
0.0
 10
15.8892131293
 20
13.4474015589
 30
0.0
 10
15.8855939145
 20
13.4478644092
 30
0.0
 10
15.8820449073
 20
13.4480723549
 30
0.0
 10
15.8791521914
 20
13.4480307036
 30
0.0
 10
15.8769113884
 20
13.4478642815
 30
0.0
 10
15.8752920919
 20
13.4476765305
 30
0.0
 10
15.8737219617
 20
13.4474251602
 30
0.0
 10
15.8722057614
 20
13.4471109402
 30
0.0
 10
15.8707481253
 20
13.446734781
 30
0.0
 10
15.8693534944
 20
13.4462978339
 30
0.0
 10
15.8680261101
 20
13.4458013842
 30
0.0
 10
15.8667700707
 20
13.4452469188
 30
0.0
 10
15.8655890578
 20
13.4446359939
 30
0.0
 10
15.8641429181
 20
13.4437629112
 30
0.0
 10
15.8628307969
 20
13.4427719848
 30
0.0
 10
15.8616860559
 20
13.4416670582
 30
0.0
 10
15.8609306625
 20
13.4408043621
 30
0.0
 10
15.8602687946
 20
13.4398985076
 30
0.0
 10
15.8597025409
 20
13.4389522057
 30
0.0
 10
15.8592338556
 20
13.4379685334
 30
0.0
 10
15.8589871725
 20
13.4372889029
 30
0.0
 10
15.8588809576
 20
13.4369452112
 30
0.0
  0
SPLINE
  5
2CB
100
AcDbEntity
  8
02___PRT_ALL_AXES
100
AcDbSpline
 62
7
  6
CONTINUOUS
 70
0
 71
3
 72
23
 73
19
 74
0
 42
0.0000001
 43
0.0000001
 44
0.0000000001
 40
0.0
 40
0.0
 40
0.0
 40
0.0
 40
0.0662849021
 40
0.1319535552
 40
0.1970255044
 40
0.2615242711
 40
0.3254762887
 40
0.3889092992
 40
0.4518510454
 40
0.5143282561
 40
0.5763658671
 40
0.6379865673
 40
0.6992107977
 40
0.7600569106
 40
0.8205418706
 40
0.8806821668
 40
0.9404950421
 40
1.0
 40
1.0
 40
1.0
 40
1.0
 10
15.1101724307
 20
12.2032588226
 30
0.0
 10
15.113246089
 20
12.2032588226
 30
0.0
 10
15.1193668517
 20
12.2030584642
 30
0.0
 10
15.1284642606
 20
12.2021489977
 30
0.0
 10
15.1373979377
 20
12.2006386951
 30
0.0
 10
15.1461297194
 20
12.1985385138
 30
0.0
 10
15.1546232616
 20
12.1958633991
 30
0.0
 10
15.1628435299
 20
12.1926318532
 30
0.0
 10
15.1707572101
 20
12.1888654794
 30
0.0
 10
15.1783327411
 20
12.1845884966
 30
0.0
 10
15.1855403255
 20
12.1798272783
 30
0.0
 10
15.1923518439
 20
12.1746099351
 30
0.0
 10
15.1987407131
 20
12.1689659723
 30
0.0
 10
15.2046817291
 20
12.1629260015
 30
0.0
 10
15.2101508658
 20
12.1565216144
 30
0.0
 10
15.2151252404
 20
12.1497850387
 30
0.0
 10
15.2195826045
 20
12.1427499413
 30
0.0
 10
15.2222024994
 20
12.1378702182
 30
0.0
 10
15.223418079
 20
12.1353931364
 30
0.0
  0
SPLINE
  5
2CC
100
AcDbEntity
  8
LAYER_FEATURE
100
AcDbSpline
 62
7
  6
CONTINUOUS
 70
0
 71
3
 72
29
 73
25
 74
0
 42
0.0000001
 43
0.0000001
 44
0.0000000001
 40
0.0
 40
0.0
 40
0.0
 40
0.0
 40
0.0794880042
 40
0.1574364914
 40
0.2335409424
 40
0.3075327608
 40
0.3791715425
 40
0.4482588938
 40
0.5146428527
 40
0.5782269908
 40
0.6389791366
 40
0.6969411996
 40
0.7249204283
 40
0.7522571947
 40
0.77898174
 40
0.8051307927
 40
0.8307473156
 40
0.8558805119
 40
0.8805858633
 40
0.9049243797
 40
0.9289625607
 40
0.9527711583
 40
0.9764246837
 40
1.0
 40
1.0
 40
1.0
 40
1.0
 10
15.5491965699
 20
13.5438303558
 30
0.0
 10
15.5483228278
 20
13.54394965
 30
0.0
 10
15.5465862439
 20
13.5441442556
 30
0.0
 10
15.5439990999
 20
13.5443030953
 30
0.0
 10
15.5414680109
 20
13.5443253823
 30
0.0
 10
15.5390093935
 20
13.5442109778
 30
0.0
 10
15.5366390162
 20
13.5439605671
 30
0.0
 10
15.5343721177
 20
13.5435757173
 30
0.0
 10
15.5322232405
 20
13.5430588098
 30
0.0
 10
15.5302061119
 20
13.5424129977
 30
0.0
 10
15.5283337921
 20
13.5416422772
 30
0.0
 10
15.5268872387
 20
13.5408909291
 30
0.0
 10
15.5258174229
 20
13.5402306355
 30
0.0
 10
15.5250679665
 20
13.5397134365
 30
0.0
 10
15.5243633042
 20
13.5391692943
 30
0.0
 10
15.5237045717
 20
13.5385990732
 30
0.0
 10
15.5230928551
 20
13.5380036885
 30
0.0
 10
15.5225291873
 20
13.5373840751
 30
0.0
 10
15.5220144805
 20
13.5367412572
 30
0.0
 10
15.5215496435
 20
13.5360762405
 30
0.0
 10
15.521135416
 20
13.5353901479
 30
0.0
 10
15.5207725501
 20
13.5346840609
 30
0.0
 10
15.520461635
 20
13.533959222
 30
0.0
 10
15.520289232
 20
13.5334638939
 30
0.0
 10
15.5202120132
 20
13.5332140057
 30
0.0
  0
SPLINE
  5
2CD
100
AcDbEntity
  8
LAYER_FEATURE
100
AcDbSpline
 62
7
  6
CONTINUOUS
 70
0
 71
3
 72
39
 73
35
 74
0
 42
0.0000001
 43
0.0000001
 44
0.0000000001
 40
0.0
 40
0.0
 40
0.0
 40
0.0
 40
0.0242881031
 40
0.0495254557
 40
0.0757360674
 40
0.1029260664
 40
0.1310848543
 40
0.1601872716
 40
0.1901951301
 40
0.2210588174
 40
0.252718699
 40
0.2851064226
 40
0.3181461124
 40
0.3517554769
 40
0.3858468453
 40
0.4203281469
 40
0.4551038461
 40
0.4900758443
 40
0.5251443582
 40
0.5602087834
 40
0.5951685499
 40
0.6299239788
 40
0.6643771465
 40
0.6984327646
 40
0.7319990839
 40
0.764988833
 40
0.7973202014
 40
0.8289178815
 40
0.8597141827
 40
0.8896502346
 40
0.9186772958
 40
0.9467581834
 40
0.9738688346
 40
1.0
 40
1.0
 40
1.0
 40
1.0
 10
15.3039230953
 20
13.5235380565
 30
0.0
 10
15.3046428603
 20
13.5219101047
 30
0.0
 10
15.3062482095
 20
13.5186500228
 30
0.0
 10
15.3090689567
 20
13.5138646197
 30
0.0
 10
15.3123355598
 20
13.5091114758
 30
0.0
 10
15.3160337412
 20
13.5044109128
 30
0.0
 10
15.320147765
 20
13.4997824964
 30
0.0
 10
15.3246600855
 20
13.4952457157
 30
0.0
 10
15.3295515242
 20
13.4908196824
 30
0.0
 10
15.3348012915
 20
13.4865230986
 30
0.0
 10
15.3403870788
 20
13.4823741534
 30
0.0
 10
15.3462851417
 20
13.47839044
 30
0.0
 10
15.3524703994
 20
13.474588873
 30
0.0
 10
15.3589165391
 20
13.4709856098
 30
0.0
 10
15.3655961284
 20
13.4675959767
 30
0.0
 10
15.3724807324
 20
13.4644343999
 30
0.0
 10
15.3795410356
 20
13.4615143401
 30
0.0
 10
15.3867469691
 20
13.4588482333
 30
0.0
 10
15.3940678396
 20
13.4564474358
 30
0.0
 10
15.401472462
 20
13.4543221744
 30
0.0
 10
15.408929295
 20
13.452481502
 30
0.0
 10
15.4164065766
 20
13.4509332588
 30
0.0
 10
15.4238724624
 20
13.4496840388
 30
0.0
 10
15.4312951636
 20
13.4487391625
 30
0.0
 10
15.4386430844
 20
13.4481026554
 30
0.0
 10
15.4458849604
 20
13.4477772331
 30
0.0
 10
15.4529899934
 20
13.4477642927
 30
0.0
 10
15.4599279867
 20
13.4480639118
 30
0.0
 10
15.4666694721
 20
13.4486748528
 30
0.0
 10
15.4731858498
 20
13.4495945825
 30
0.0
 10
15.4794494619
 20
13.4508192726
 30
0.0
 10
15.4854338752
 20
13.4523439071
 30
0.0
 10
15.4911133829
 20
13.4541620462
 30
0.0
 10
15.4947478021
 20
13.4555914072
 30
0.0
 10
15.4965038769
 20
13.4563553276
 30
0.0
  0
SPLINE
  5
2CE
100
AcDbEntity
  8
LAYER_FEATURE
100
AcDbSpline
 62
7
  6
CONTINUOUS
 70
0
 71
3
 72
29
 73
25
 74
0
 42
0.0000001
 43
0.0000001
 44
0.0000000001
 40
0.0
 40
0.0
 40
0.0
 40
0.0
 40
0.0483909827
 40
0.0738214978
 40
0.1000829453
 40
0.1271733982
 40
0.1550803685
 40
0.1837829743
 40
0.2132522754
 40
0.2434521691
 40
0.274339956
 40
0.3379698773
 40
0.4037117263
 40
0.471061099
 40
0.5394698044
 40
0.6083619459
 40
0.6771493165
 40
0.7452463613
 40
0.8120852076
 40
0.877131579
 40
0.9088339519
 40
0.9399113999
 40
0.9703174429
 40
1.0
 40
1.0
 40
1.0
 40
1.0
 10
15.3039230953
 20
13.5235380565
 30
0.0
 10
15.3035601094
 20
13.5243590517
 30
0.0
 10
15.3029152286
 20
13.5255729244
 30
0.0
 10
15.3018996032
 20
13.5271276933
 30
0.0
 10
15.3010309691
 20
13.5283040335
 30
0.0
 10
15.3000711372
 20
13.5294671479
 30
0.0
 10
15.2990230298
 20
13.5306135155
 30
0.0
 10
15.2978900222
 20
13.5317394902
 30
0.0
 10
15.29667571
 20
13.5328415403
 30
0.0
 10
15.2953839126
 20
13.533916181
 30
0.0
 10
15.2935456301
 20
13.5353217521
 30
0.0
 10
15.2910781812
 20
13.5369855398
 30
0.0
 10
15.2879094537
 20
13.5388013773
 30
0.0
 10
15.2845435195
 20
13.5404333801
 30
0.0
 10
15.2810229423
 20
13.5418609044
 30
0.0
 10
15.277392082
 20
13.5430659782
 30
0.0
 10
15.2736967793
 20
13.5440333896
 30
0.0
 10
15.2699836113
 20
13.5447509363
 30
0.0
 10
15.2662995506
 20
13.5452095452
 30
0.0
 10
15.2632664159
 20
13.5453725344
 30
0.0
 10
15.2608947404
 20
13.5453656764
 30
0.0
 10
15.2591671636
 20
13.5452933945
 30
0.0
 10
15.2574813081
 20
13.5451541626
 30
0.0
 10
15.2563749158
 20
13.5450153022
 30
0.0
 10
15.2558302773
 20
13.5449343937
 30
0.0
  0
SPLINE
  5
2CF
100
AcDbEntity
  8
LAYER_FEATURE
100
AcDbSpline
 62
7
  6
CONTINUOUS
 70
0
 71
3
 72
22
 73
18
 74
0
 42
0.0000001
 43
0.0000001
 44
0.0000000001
 40
0.0
 40
0.0
 40
0.0
 40
0.0
 40
0.075793495
 40
0.1496386866
 40
0.2214816051
 40
0.2913155839
 40
0.4249663825
 40
0.4889158787
 40
0.5510265778
 40
0.6114038657
 40
0.6701797093
 40
0.7275149976
 40
0.7835975313
 40
0.8386413705
 40
0.8928835484
 40
0.9465799392
 40
1.0
 40
1.0
 40
1.0
 40
1.0
 10
15.2130398837
 20
13.5373859796
 30
0.0
 10
15.2125853112
 20
13.5372925892
 30
0.0
 10
15.2116915858
 20
13.5370893221
 30
0.0
 10
15.210383611
 20
13.5367296647
 30
0.0
 10
15.209128627
 20
13.5363199228
 30
0.0
 10
15.2075537926
 20
13.5357172408
 30
0.0
 10
15.2060710462
 20
13.5350127907
 30
0.0
 10
15.2047015013
 20
13.5342030945
 30
0.0
 10
15.2037567994
 20
13.5335608365
 30
0.0
 10
15.2028820337
 20
13.5328764012
 30
0.0
 10
15.2020794608
 20
13.5321513989
 30
0.0
 10
15.201351154
 20
13.5313876697
 30
0.0
 10
15.2006990672
 20
13.5305870812
 30
0.0
 10
15.2001249323
 20
13.5297516802
 30
0.0
 10
15.1996303065
 20
13.5288835702
 30
0.0
 10
15.1992165827
 20
13.5279850967
 30
0.0
 10
15.1989951773
 20
13.5273666849
 30
0.0
 10
15.1988986061
 20
13.5270541873
 30
0.0
  0
SPLINE
  5
2D0
100
AcDbEntity
  8
LAYER_FEATURE
100
AcDbSpline
 62
7
  6
CONTINUOUS
 70
0
 71
3
 72
23
 73
19
 74
0
 42
0.0000001
 43
0.0000001
 44
0.0000000001
 40
0.0
 40
0.0
 40
0.0
 40
0.0
 40
0.0574496993
 40
0.1163186094
 40
0.1764745137
 40
0.2377732112
 40
0.3000588211
 40
0.3631665438
 40
0.4269240624
 40
0.491153372
 40
0.5556723762
 40
0.6202965063
 40
0.6848402997
 40
0.7491189764
 40
0.8129500191
 40
0.8761547749
 40
0.9385600905
 40
1.0
 40
1.0
 40
1.0
 40
1.0
 10
15.0491167592
 20
13.4393686261
 30
0.0
 10
15.0508767013
 20
13.4379110752
 30
0.0
 10
15.0545131861
 20
13.4350472303
 30
0.0
 10
15.0602240128
 20
13.4309617349
 30
0.0
 10
15.0662374864
 20
13.4270480642
 30
0.0
 10
15.072527843
 20
13.4233229786
 30
0.0
 10
15.0790683881
 20
13.4198022744
 30
0.0
 10
15.0858312685
 20
13.4165009365
 30
0.0
 10
15.0927877045
 20
13.4134330128
 30
0.0
 10
15.0999080766
 20
13.4106115646
 30
0.0
 10
15.1071620649
 20
13.4080486062
 30
0.0
 10
15.1145187769
 20
13.4057550525
 30
0.0
 10
15.1219468807
 20
13.4037406715
 30
0.0
 10
15.1294147454
 20
13.4020140416
 30
0.0
 10
15.1368905572
 20
13.4005825162
 30
0.0
 10
15.1443425353
 20
13.3994521876
 30
0.0
 10
15.1517387835
 20
13.3986278809
 30
0.0
 10
15.1566543845
 20
13.3982816794
 30
0.0
 10
15.1590952949
 20
13.3981617918
 30
0.0
  0
SPLINE
  5
2D1
100
AcDbEntity
  8
LAYER_FEATURE
100
AcDbSpline
 62
7
  6
CONTINUOUS
 70
0
 71
3
 72
29
 73
25
 74
0
 42
0.0000001
 43
0.0000001
 44
0.0000000001
 40
0.0
 40
0.0
 40
0.0
 40
0.0
 40
0.0308610022
 40
0.0623940396
 40
0.1272328735
 40
0.1940652376
 40
0.262366803
 40
0.3315753344
 40
0.4011047871
 40
0.4703609981
 40
0.5387567502
 40
0.6057270371
 40
0.6707450496
 40
0.7023779655
 40
0.7333516088
 40
0.7636188121
 40
0.7931383989
 40
0.8218756696
 40
0.8498036065
 40
0.8769034904
 40
0.9031659022
 40
0.9285911676
 40
0.9531915161
 40
1.0
 40
1.0
 40
1.0
 40
1.0
 10
15.0491167592
 20
13.4393686261
 30
0.0
 10
15.048679706
 20
13.4397305852
 30
0.0
 10
15.0477804453
 20
13.4404437197
 30
0.0
 10
15.0458901463
 20
13.441823093
 30
0.0
 10
15.0433645774
 20
13.4434497686
 30
0.0
 10
15.0401361195
 20
13.4452159525
 30
0.0
 10
15.0367221603
 20
13.4467922593
 30
0.0
 10
15.0331659116
 20
13.4481587419
 30
0.0
 10
15.0295121849
 20
13.4492981911
 30
0.0
 10
15.0258071124
 20
13.4501962237
 30
0.0
 10
15.0220973852
 20
13.4508415141
 30
0.0
 10
15.0184299286
 20
13.4512258984
 30
0.0
 10
15.0154198663
 20
13.4513256965
 30
0.0
 10
15.0130732858
 20
13.4512678332
 30
0.0
 10
15.011368573
 20
13.4511577446
 30
0.0
 10
15.0097085442
 20
13.4509809462
 30
0.0
 10
15.0080984319
 20
13.4507379947
 30
0.0
 10
15.0065433433
 20
13.4504296197
 30
0.0
 10
15.0050481972
 20
13.4500568105
 30
0.0
 10
15.0036177074
 20
13.4496207013
 30
0.0
 10
15.0022564653
 20
13.4491226529
 30
0.0
 10
15.000968582
 20
13.4485641282
 30
0.0
 10
14.9993817743
 20
13.447754939
 30
0.0
 10
14.9982713302
 20
13.4470433052
 30
0.0
 10
14.9975851653
 20
13.4465236714
 30
0.0
  0
SPLINE
  5
2D2
100
AcDbEntity
  8
LAYER_FEATURE
100
AcDbSpline
 62
7
  6
CONTINUOUS
 70
0
 71
3
 72
14
 73
10
 74
0
 42
0.0000001
 43
0.0000001
 44
0.0000000001
 40
0.0
 40
0.0
 40
0.0
 40
0.0
 40
0.2603605465
 40
0.3871665448
 40
0.5120758836
 40
0.6354395343
 40
0.7576255707
 40
0.8790143287
 40
1.0
 40
1.0
 40
1.0
 40
1.0
 10
14.9720499269
 20
13.425257564
 30
0.0
 10
14.9716346824
 20
13.4248765699
 30
0.0
 10
14.971048749
 20
13.4242736001
 30
0.0
 10
14.9703552815
 20
13.4234082358
 30
0.0
 10
14.9698895418
 20
13.4227424919
 30
0.0
 10
14.9694746103
 20
13.4220556399
 30
0.0
 10
14.9691111228
 20
13.4213487426
 30
0.0
 10
14.9687997188
 20
13.4206230352
 30
0.0
 10
14.9686270861
 20
13.4201270927
 30
0.0
 10
14.9685497684
 20
13.4198768953
 30
0.0
  0
SPLINE
  5
2D3
100
AcDbEntity
  8
LAYER_FEATURE
100
AcDbSpline
 62
7
  6
CONTINUOUS
 70
0
 71
3
 72
28
 73
24
 74
0
 42
0.0000001
 43
0.0000001
 44
0.0000000001
 40
0.0
 40
0.0
 40
0.0
 40
0.0
 40
0.077718818
 40
0.1550457741
 40
0.2314686629
 40
0.3064961893
 40
0.3796654487
 40
0.4505542261
 40
0.5187932916
 40
0.5840803165
 40
0.6461955946
 40
0.7050199938
 40
0.7332037671
 40
0.7605769564
 40
0.8129674742
 40
0.8380875115
 40
0.8625516338
 40
0.8864261956
 40
0.9097885595
 40
0.9327266512
 40
0.9553372712
 40
0.9777245187
 40
1.0
 40
1.0
 40
1.0
 40
1.0
 10
14.9232648685
 20
13.2733325308
 30
0.0
 10
14.9221910184
 20
13.2736805413
 30
0.0
 10
14.9200284428
 20
13.2743139167
 30
0.0
 10
14.916751583
 20
13.2750735283
 30
0.0
 10
14.9134745019
 20
13.275635048
 30
0.0
 10
14.9102296449
 20
13.2759929045
 30
0.0
 10
14.9070488982
 20
13.276143572
 30
0.0
 10
14.9039635125
 20
13.2760855358
 30
0.0
 10
14.901003742
 20
13.2758193027
 30
0.0
 10
14.8981984511
 20
13.2753473183
 30
0.0
 10
14.8955751897
 20
13.2746740107
 30
0.0
 10
14.8935332451
 20
13.2739398706
 30
0.0
 10
14.8920190809
 20
13.2732542585
 30
0.0
 10
14.8906286376
 20
13.2725285312
 30
0.0
 10
14.8893408317
 20
13.2717057514
 30
0.0
 10
14.8881787108
 20
13.2707858928
 30
0.0
 10
14.8873899387
 20
13.2700659754
 30
0.0
 10
14.8866740022
 20
13.269308307
 30
0.0
 10
14.8860327237
 20
13.2685146857
 30
0.0
 10
14.8854678035
 20
13.2676870885
 30
0.0
 10
14.8849807154
 20
13.2668275795
 30
0.0
 10
14.8845728014
 20
13.2659384136
 30
0.0
 10
14.8843541062
 20
13.2653266518
 30
0.0
 10
14.8842585845
 20
13.2650175319
 30
0.0
  0
SPLINE
  5
2D4
100
AcDbEntity
  8
LAYER_FEATURE
100
AcDbSpline
 62
7
  6
CONTINUOUS
 70
0
 71
3
 72
45
 73
41
 74
0
 42
0.0000001
 43
0.0000001
 44
0.0000000001
 40
0.0
 40
0.0
 40
0.0
 40
0.0
 40
0.0396645436
 40
0.0788615828
 40
0.1175674278
 40
0.1557615213
 40
0.1934238189
 40
0.2305362315
 40
0.2670823102
 40
0.303047461
 40
0.3384190666
 40
0.3731866093
 40
0.4073418166
 40
0.4408788073
 40
0.4737942471
 40
0.5060874983
 40
0.5377607785
 40
0.5688193218
 40
0.5992715405
 40
0.6291291875
 40
0.6584075
 40
0.672836003
 40
0.6871270513
 40
0.7153069849
 40
0.7429754203
 40
0.7701626246
 40
0.7969027326
 40
0.8232336854
 40
0.8491971072
 40
0.8748381049
 40
0.8875539134
 40
0.9002074847
 40
0.9128052936
 40
0.9253539676
 40
0.9378602702
 40
0.9503310765
 40
0.9627733671
 40
0.9751941982
 40
0.9876006892
 40
1.0
 40
1.0
 40
1.0
 40
1.0
 10
15.3547346658
 20
13.6976756847
 30
0.0
 10
15.3451178041
 20
13.6976756847
 30
0.0
 10
15.3259966673
 20
13.6974600367
 30
0.0
 10
15.2975063195
 20
13.6964771527
 30
0.0
 10
15.2694030655
 20
13.6948377419
 30
0.0
 10
15.241718953
 20
13.6925437146
 30
0.0
 10
15.2144850495
 20
13.6895975946
 30
0.0
 10
15.187732144
 20
13.686002705
 30
0.0
 10
15.1614903973
 20
13.6817630722
 30
0.0
 10
15.1357894097
 20
13.6768834557
 30
0.0
 10
15.1106581658
 20
13.6713693257
 30
0.0
 10
15.0861250061
 20
13.6652268575
 30
0.0
 10
15.0622175977
 20
13.6584629235
 30
0.0
 10
15.0389629007
 20
13.6510850869
 30
0.0
 10
15.0163871362
 20
13.6431015989
 30
0.0
 10
14.9945157656
 20
13.6345213777
 30
0.0
 10
14.9733734583
 20
13.6253539939
 30
0.0
 10
14.9529840951
 20
13.6156096782
 30
0.0
 10
14.9333706446
 20
13.6052992395
 30
0.0
 10
14.9145554982
 20
13.5944343147
 30
0.0
 10
14.8994862264
 20
13.5848819246
 30
0.0
 10
14.8878584981
 20
13.5769724494
 30
0.0
 10
14.8766235835
 20
13.5689649712
 30
0.0
 10
14.8631066501
 20
13.5586354285
 30
0.0
 10
14.8476879029
 20
13.5456789808
 30
0.0
 10
14.8331644849
 20
13.532234212
 30
0.0
 10
14.8195532433
 20
13.5183163111
 30
0.0
 10
14.8068697332
 20
13.5039407421
 30
0.0
 10
14.7951288301
 20
13.4891240164
 30
0.0
 10
14.7861161062
 20
13.4763868453
 30
0.0
 10
14.7793995634
 20
13.4660002422
 30
0.0
 10
14.7746190933
 20
13.4581320384
 30
0.0
 10
14.770083447
 20
13.450166864
 30
0.0
 10
14.7657938727
 20
13.4421069049
 30
0.0
 10
14.7617515705
 20
13.4339544831
 30
0.0
 10
14.7579577433
 20
13.4257118765
 30
0.0
 10
14.7544134217
 20
13.4173814579
 30
0.0
 10
14.7511196411
 20
13.408965549
 30
0.0
 10
14.7480773673
 20
13.4004666398
 30
0.0
 10
14.7462171574
 20
13.3947461879
 30
0.0
 10
14.7453295639
 20
13.3918739315
 30
0.0
  0
SPLINE
  5
2D5
100
AcDbEntity
  8
LAYER_FEATURE
100
AcDbSpline
 62
7
  6
CONTINUOUS
 70
0
 71
3
 72
88
 73
84
 74
0
 42
0.0000001
 43
0.0000001
 44
0.0000000001
 40
0.0
 40
0.0
 40
0.0
 40
0.0
 40
0.0182295751
 40
0.036714537
 40
0.055431973
 40
0.0743576933
 40
0.0934666329
 40
0.1127328618
 40
0.1321297597
 40
0.1516301298
 40
0.1712063278
 40
0.1908303835
 40
0.2104741226
 40
0.2301092871
 40
0.2497076552
 40
0.2692411621
 40
0.2886820205
 40
0.3080028433
 40
0.3271767672
 40
0.3461775793
 40
0.3649798466
 40
0.3835590493
 40
0.4018917186
 40
0.4199555807
 40
0.437729706
 40
0.4551946676
 40
0.472332707
 40
0.489127911
 40
0.5055663987
 40
0.5216365218
 40
0.5373290769
 40
0.552637532
 40
0.5675582655
 40
0.5820908171
 40
0.5962381469
 40
0.603169893
 40
0.6100081487
 40
0.6167543686
 40
0.6234102573
 40
0.6299777967
 40
0.636459235
 40
0.649172628
 40
0.661575553
 40
0.667670131
 40
0.6736980608
 40
0.6796635693
 40
0.6855711605
 40
0.6914255901
 40
0.6972318669
 40
0.7029952235
 40
0.7087211075
 40
0.7144151519
 40
0.7200831551
 40
0.7257310511
 40
0.7313648804
 40
0.7369907599
 40
0.7426148484
 40
0.748243315
 40
0.7538823055
 40
0.7595379074
 40
0.765216122
 40
0.7709228278
 40
0.7766637591
 40
0.782444472
 40
0.7882703282
 40
0.7941464672
 40
0.800077794
 40
0.8060689605
 40
0.8121243543
 40
0.8182480917
 40
0.824444005
 40
0.837064658
 40
0.8500130325
 40
0.8633095577
 40
0.8769702399
 40
0.8910068477
 40
0.9054271404
 40
0.9202351198
 40
0.9354312912
 40
0.9510129241
 40
0.9669743061
 40
0.9833069845
 40
1.0
 40
1.0
 40
1.0
 40
1.0
 10
15.0503705591
 20
12.4923576383
 30
0.0
 10
15.0618196156
 20
12.4923576383
 30
0.0
 10
15.0848795919
 20
12.4919950944
 30
0.0
 10
15.1196615905
 20
12.4903930943
 30
0.0
 10
15.1548172969
 20
12.4877323687
 30
0.0
 10
15.1902711977
 20
12.4840185899
 30
0.0
 10
15.22594764
 20
12.4792597137
 30
0.0
 10
15.2617703694
 20
12.473465905
 30
0.0
 10
15.2976628386
 20
12.4666495502
 30
0.0
 10
15.3335483377
 20
12.4588252166
 30
0.0
 10
15.3693501685
 20
12.4500096277
 30
0.0
 10
15.4049918075
 20
12.4402216259
 30
0.0
 10
15.4403970716
 20
12.4294821324
 30
0.0
 10
15.4754902821
 20
12.4178141027
 30
0.0
 10
15.5101964275
 20
12.4052424769
 30
0.0
 10
15.5444413253
 20
12.3917941261
 30
0.0
 10
15.5781517817
 20
12.3774977944
 30
0.0
 10
15.6112557493
 20
12.3623840362
 30
0.0
 10
15.6436824821
 20
12.34648515
 30
0.0
 10
15.675362687
 20
12.329835107
 30
0.0
 10
15.7062286733
 20
12.3124694778
 30
0.0
 10
15.7362144978
 20
12.2944253532
 30
0.0
 10
15.7652561057
 20
12.2757412631
 30
0.0
 10
15.7932914679
 20
12.2564570913
 30
0.0
 10
15.8202607129
 20
12.236613986
 30
0.0
 10
15.8461062536
 20
12.216254269
 30
0.0
 10
15.8707729085
 20
12.1954213398
 30
0.0
 10
15.894208016
 20
12.1741595789
 30
0.0
 10
15.9163615434
 20
12.1525142456
 30
0.0
 10
15.9371861845
 20
12.1305313811
 30
0.0
 10
15.9566374616
 20
12.1082576876
 30
0.0
 10
15.9746737729
 20
12.0857404852
 30
0.0
 10
15.9912565908
 20
12.063027387
 30
0.0
 10
16.0063500753
 20
12.0401669929
 30
0.0
 10
16.0177366525
 20
12.02090417
 30
0.0
 10
16.026054965
 20
12.0054675579
 30
0.0
 10
16.0318601495
 20
11.9939623188
 30
0.0
 10
16.0372707424
 20
11.9824574981
 30
0.0
 10
16.0422838059
 20
11.9709591658
 30
0.0
 10
16.0468967238
 20
11.9594733465
 30
0.0
 10
16.0524740258
 20
11.9442828425
 30
0.0
 10
16.0584555365
 20
11.9253463144
 30
0.0
 10
16.0631392503
 20
11.9062960559
 30
0.0
 10
16.066044961
 20
11.8911667837
 30
0.0
 10
16.0677986239
 20
11.8799403505
 30
0.0
 10
16.0691380948
 20
11.8687753019
 30
0.0
 10
16.0700627225
 20
11.857677511
 30
0.0
 10
16.0705718851
 20
11.8466529635
 30
0.0
 10
16.07066535
 20
11.8357075836
 30
0.0
 10
16.070342958
 20
11.8248472628
 30
0.0
 10
16.0696049122
 20
11.8140778522
 30
0.0
 10
16.0684515299
 20
11.8034051627
 30
0.0
 10
16.066883442
 20
11.7928349535
 30
0.0
 10
16.0649014559
 20
11.7823729364
 30
0.0
 10
16.0625066259
 20
11.7720247675
 30
0.0
 10
16.0597002536
 20
11.7617960363
 30
0.0
 10
16.0564838167
 20
11.7516922838
 30
0.0
 10
16.0528591043
 20
11.7417189546
 30
0.0
 10
16.0488280217
 20
11.7318814599
 30
0.0
 10
16.0443928279
 20
11.7221850813
 30
0.0
 10
16.0395558633
 20
11.7126350821
 30
0.0
 10
16.0343198314
 20
11.7032365695
 30
0.0
 10
16.0286875154
 20
11.6939946371
 30
0.0
 10
16.0226620353
 20
11.6849142144
 30
0.0
 10
16.01624662
 20
11.6760002029
 30
0.0
 10
16.0094447836
 20
11.6672573541
 30
0.0
 10
16.0022601968
 20
11.6586903603
 30
0.0
 10
15.9946967468
 20
11.6503037892
 30
0.0
 10
15.9867585584
 20
11.6421021298
 30
0.0
 10
15.9784497929
 20
11.63408969
 30
0.0
 10
15.9668130013
 20
11.6236009181
 30
0.0
 10
15.9513379995
 20
11.6109863653
 30
0.0
 10
15.9314787621
 20
11.5967685243
 30
0.0
 10
15.9102586901
 20
11.5834062552
 30
0.0
 10
15.8877240159
 20
11.5709278522
 30
0.0
 10
15.8639228865
 20
11.5593591141
 30
0.0
 10
15.8389062303
 20
11.54872417
 30
0.0
 10
15.8127274314
 20
11.5390451952
 30
0.0
 10
15.7854423064
 20
11.5303424278
 30
0.0
 10
15.7571090428
 20
11.5226341055
 30
0.0
 10
15.727787891
 20
11.5159363972
 30
0.0
 10
15.6975418524
 20
11.5102634511
 30
0.0
 10
15.6770213151
 20
11.507205025
 30
0.0
 10
15.6666260183
 20
11.5058439463
 30
0.0
  0
SPLINE
  5
2D6
100
AcDbEntity
  8
LAYER_FEATURE
100
AcDbSpline
 62
7
  6
CONTINUOUS
 70
0
 71
3
 72
72
 73
68
 74
0
 42
0.0000001
 43
0.0000001
 44
0.0000000001
 40
0.0
 40
0.0
 40
0.0
 40
0.0
 40
0.0202776002
 40
0.0403375133
 40
0.0601690009
 40
0.0797633647
 40
0.0991118063
 40
0.1182062512
 40
0.1370393301
 40
0.1556043291
 40
0.1738953001
 40
0.191907086
 40
0.209635362
 40
0.2270766989
 40
0.2442286173
 40
0.2610896306
 40
0.2776593026
 40
0.2939383181
 40
0.3099285304
 40
0.3256330141
 40
0.3410561317
 40
0.3562035921
 40
0.3710824899
 40
0.3784242017
 40
0.3857020997
 40
0.4000709416
 40
0.4142012777
 40
0.4281061381
 40
0.4418000747
 40
0.4552991446
 40
0.4686208598
 40
0.4817841236
 40
0.4948091451
 40
0.5077173143
 40
0.5205310523
 40
0.5332736414
 40
0.5459690286
 40
0.5586416069
 40
0.5713159877
 40
0.5840167653
 40
0.5967682809
 40
0.6095943974
 40
0.6225182842
 40
0.6355622209
 40
0.648747432
 40
0.6620939441
 40
0.6756204629
 40
0.6893442888
 40
0.7032812604
 40
0.7174457109
 40
0.7318504469
 40
0.7465067608
 40
0.7614244482
 40
0.7766118268
 40
0.7920757824
 40
0.8078218227
 40
0.8238541229
 40
0.840175573
 40
0.8567878492
 40
0.8736914712
 40
0.8908858476
 40
0.9083693396
 40
0.9261393249
 40
0.9441922441
 40
0.9625236461
 40
0.9811282513
 40
1.0
 40
1.0
 40
1.0
 40
1.0
 10
15.0503705591
 20
12.4923576383
 30
0.0
 10
15.0428442096
 20
12.4923576383
 30
0.0
 10
15.0278718108
 20
12.4922028408
 30
0.0
 10
15.0055486289
 20
12.4914980938
 30
0.0
 10
14.9834990717
 20
12.490322595
 30
0.0
 10
14.9617443493
 20
12.4886775125
 30
0.0
 10
14.9403048905
 20
12.4865643623
 30
0.0
 10
14.9192010563
 20
12.4839851527
 30
0.0
 10
14.8984528361
 20
12.4809423198
 30
0.0
 10
14.8780798792
 20
12.4774387113
 30
0.0
 10
14.8581014813
 20
12.4734776445
 30
0.0
 10
14.8385365596
 20
12.4690628557
 30
0.0
 10
14.8194036451
 20
12.4641984888
 30
0.0
 10
14.8007208566
 20
12.4588891194
 30
0.0
 10
14.7825058802
 20
12.4531397552
 30
0.0
 10
14.7647759653
 20
12.4469557978
 30
0.0
 10
14.7475479099
 20
12.4403430396
 30
0.0
 10
14.7308380286
 20
12.4333077028
 30
0.0
 10
14.714662147
 20
12.4258563915
 30
0.0
 10
14.6990356163
 20
12.4179960875
 30
0.0
 10
14.68397322
 20
12.4097341261
 30
0.0
 10
14.6694893959
 20
12.40107836
 30
0.0
 10
14.6578617609
 20
12.3935103502
 30
0.0
 10
14.6488676095
 20
12.3872656278
 30
0.0
 10
14.6401547791
 20
12.380951585
 30
0.0
 10
14.629643177
 20
12.3728303126
 30
0.0
 10
14.6176053085
 20
12.362683643
 30
0.0
 10
14.6062090721
 20
12.3521870991
 30
0.0
 10
14.5954655362
 20
12.3413506343
 30
0.0
 10
14.5853849967
 20
12.3301844406
 30
0.0
 10
14.5759771985
 20
12.3186990603
 30
0.0
 10
14.5672512735
 20
12.3069053482
 30
0.0
 10
14.5592156901
 20
12.2948145125
 30
0.0
 10
14.5518782686
 20
12.2824380754
 30
0.0
 10
14.5452461852
 20
12.2697878582
 30
0.0
 10
14.5393259282
 20
12.2568759884
 30
0.0
 10
14.5341232568
 20
12.2437148914
 30
0.0
 10
14.5296432376
 20
12.2303172491
 30
0.0
 10
14.5258902332
 20
12.2166959861
 30
0.0
 10
14.5228678332
 20
12.2028642654
 30
0.0
 10
14.5205788913
 20
12.188835447
 30
0.0
 10
14.5190255463
 20
12.1746230639
 30
0.0
 10
14.5182091943
 20
12.160240809
 30
0.0
 10
14.5181304653
 20
12.1457025112
 30
0.0
 10
14.5187892882
 20
12.1310221117
 30
0.0
 10
14.5201848964
 20
12.116213655
 30
0.0
 10
14.522315779
 20
12.1012912708
 30
0.0
 10
14.52517973
 20
12.0862691609
 30
0.0
 10
14.528773878
 20
12.0711615944
 30
0.0
 10
14.5330946665
 20
12.0559828974
 30
0.0
 10
14.5381378329
 20
12.0407474336
 30
0.0
 10
14.5438984675
 20
12.0254696074
 30
0.0
 10
14.550371015
 20
12.0101638583
 30
0.0
 10
14.5575492316
 20
11.9948446338
 30
0.0
 10
14.5654262218
 20
11.9795263882
 30
0.0
 10
14.5739944625
 20
11.9642235806
 30
0.0
 10
14.5832457876
 20
11.9489506577
 30
0.0
 10
14.5931713689
 20
11.933722025
 30
0.0
 10
14.6037617667
 20
11.9185520576
 30
0.0
 10
14.6150069336
 20
11.9034550886
 30
0.0
 10
14.6268961864
 20
11.8884453724
 30
0.0
 10
14.639418235
 20
11.8735370846
 30
0.0
 10
14.6525612132
 20
11.8587443177
 30
0.0
 10
14.6663126597
 20
11.8440810705
 30
0.0
 10
14.6806595566
 20
11.8295611725
 30
0.0
 10
14.6955881883
 20
11.8151984572
 30
0.0
 10
14.7058474181
 20
11.8058027546
 30
0.0
 10
14.7110687972
 20
11.8011336155
 30
0.0
  0
SPLINE
  5
2D7
100
AcDbEntity
  8
LAYER_FEATURE
100
AcDbSpline
 62
7
  6
CONTINUOUS
 70
0
 71
3
 72
77
 73
73
 74
0
 42
0.0000001
 43
0.0000001
 44
0.0000000001
 40
0.0
 40
0.0
 40
0.0
 40
0.0
 40
0.0171786384
 40
0.0345303065
 40
0.0520441323
 40
0.0697097603
 40
0.087516005
 40
0.1054515097
 40
0.1235046065
 40
0.141663363
 40
0.1599156243
 40
0.178249032
 40
0.1966510546
 40
0.2151090165
 40
0.2336101252
 40
0.2521414984
 40
0.2706901905
 40
0.2892432201
 40
0.3077875972
 40
0.3263103499
 40
0.3447985501
 40
0.363239342
 40
0.3816199692
 40
0.3999278015
 40
0.4181503619
 40
0.4362753549
 40
0.4542906965
 40
0.4721845422
 40
0.4899453151
 40
0.5075617357
 40
0.5250228553
 40
0.5423180877
 40
0.5594372392
 40
0.5763705427
 40
0.5931086924
 40
0.6096428838
 40
0.6259648478
 40
0.6420668893
 40
0.6579419273
 40
0.6735835408
 40
0.6889860137
 40
0.7041443784
 40
0.7190544635
 40
0.733712946
 40
0.7481174076
 40
0.7622663869
 40
0.7761594337
 40
0.7897971671
 40
0.8031813365
 40
0.8163148825
 40
0.8292019896
 40
0.8418481418
 40
0.8542601741
 40
0.8603812579
 40
0.8664470199
 40
0.8784169498
 40
0.8901817869
 40
0.8959915749
 40
0.9017549381
 40
0.9131488226
 40
0.9243797396
 40
0.9354645469
 40
0.9464213959
 40
0.9572696215
 40
0.9626598376
 40
0.9680306188
 40
0.9733846479
 40
0.9787246486
 40
0.9840533836
 40
0.9893736427
 40
0.9946882389
 40
1.0
 40
1.0
 40
1.0
 40
1.0
 10
14.9964765072
 20
12.5383518585
 30
0.0
 10
15.0058103929
 20
12.5383518585
 30
0.0
 10
15.0245727777
 20
12.5381464743
 30
0.0
 10
15.0528378355
 20
12.5372339199
 30
0.0
 10
15.0813419258
 20
12.5357161665
 30
0.0
 10
15.1100550428
 20
12.5335948688
 30
0.0
 10
15.1389474899
 20
12.5308721843
 30
0.0
 10
15.167989132
 20
12.5275509653
 30
0.0
 10
15.1971497589
 20
12.523634673
 30
0.0
 10
15.2263990183
 20
12.5191273836
 30
0.0
 10
15.2557064649
 20
12.5140337884
 30
0.0
 10
15.2850415924
 20
12.5083591818
 30
0.0
 10
15.3143738652
 20
12.5021094764
 30
0.0
 10
15.3436727507
 20
12.4952911814
 30
0.0
 10
15.37290775
 20
12.4879113942
 30
0.0
 10
15.4020484288
 20
12.4799777919
 30
0.0
 10
15.4310644511
 20
12.4714986308
 30
0.0
 10
15.4599256131
 20
12.4624827443
 30
0.0
 10
15.4886018709
 20
12.4529395189
 30
0.0
 10
15.5170633724
 20
12.4428788878
 30
0.0
 10
15.545280487
 20
12.4323113174
 30
0.0
 10
15.5732238424
 20
12.4212478118
 30
0.0
 10
15.6008643526
 20
12.409699892
 30
0.0
 10
15.6281732457
 20
12.3976795784
 30
0.0
 10
15.6551220935
 20
12.3851993796
 30
0.0
 10
15.6816828426
 20
12.3722722816
 30
0.0
 10
15.7078278503
 20
12.3589117457
 30
0.0
 10
15.7335299057
 20
12.3451316781
 30
0.0
 10
15.7587622576
 20
12.3309464192
 30
0.0
 10
15.7834986415
 20
12.3163707245
 30
0.0
 10
15.8077133148
 20
12.301419762
 30
0.0
 10
15.8313810823
 20
12.2861090917
 30
0.0
 10
15.8544773159
 20
12.2704546413
 30
0.0
 10
15.87697798
 20
12.2544726919
 30
0.0
 10
15.898859658
 20
12.2381798599
 30
0.0
 10
15.9200995877
 20
12.2215930931
 30
0.0
 10
15.9406756732
 20
12.2047296373
 30
0.0
 10
15.960566507
 20
12.1876070208
 30
0.0
 10
15.9797513894
 20
12.1702430327
 30
0.0
 10
15.99821036
 20
12.152655713
 30
0.0
 10
16.0159242195
 20
12.1348633334
 30
0.0
 10
16.0328745373
 20
12.1168843682
 30
0.0
 10
16.049043671
 20
12.0987374785
 30
0.0
 10
16.0644147824
 20
12.0804414891
 30
0.0
 10
16.0789718714
 20
12.0620153827
 30
0.0
 10
16.0926997769
 20
12.0434782666
 30
0.0
 10
16.1055841873
 20
12.0248493546
 30
0.0
 10
16.1176116507
 20
12.0061479481
 30
0.0
 10
16.1287695995
 20
11.9873934138
 30
0.0
 10
16.1390463583
 20
11.9686051969
 30
0.0
 10
16.1484311734
 20
11.9498026895
 30
0.0
 10
16.1569140852
 20
11.9310055948
 30
0.0
 10
16.1632533145
 20
11.9152896438
 30
0.0
 10
16.1678581954
 20
11.902741388
 30
0.0
 10
16.1721153787
 20
11.8903246489
 30
0.0
 10
16.1768670166
 20
11.8748398051
 30
0.0
 10
16.1808797465
 20
11.8592903467
 30
0.0
 10
16.1836144808
 20
11.8469071388
 30
0.0
 10
16.1860156256
 20
11.8346603496
 30
0.0
 10
16.1884367122
 20
11.8194202859
 30
0.0
 10
16.1904082078
 20
11.8012031936
 30
0.0
 10
16.1914325529
 20
11.7831456347
 30
0.0
 10
16.1915084342
 20
11.7652671829
 30
0.0
 10
16.1907793302
 20
11.7505009209
 30
0.0
 10
16.1897200567
 20
11.7388063693
 30
0.0
 10
16.1886907999
 20
11.7301099266
 30
0.0
 10
16.187425373
 20
11.721472326
 30
0.0
 10
16.1859240531
 20
11.7128957529
 30
0.0
 10
16.1841872865
 20
11.7043824705
 30
0.0
 10
16.1822154832
 20
11.6959346835
 30
0.0
 10
16.1800091835
 20
11.6875546925
 30
0.0
 10
16.1783821817
 20
11.6820139772
 30
0.0
 10
16.1775300672
 20
11.6792565311
 30
0.0
  0
SPLINE
  5
2D8
100
AcDbEntity
  8
02___PRT_ALL_AXES
100
AcDbSpline
 62
7
  6
CONTINUOUS
 70
0
 71
3
 72
64
 73
60
 74
0
 42
0.0000001
 43
0.0000001
 44
0.0000000001
 40
0.0
 40
0.0
 40
0.0
 40
0.0
 40
0.0171790493
 40
0.0345308269
 40
0.0520450334
 40
0.0697109381
 40
0.0875174871
 40
0.1054532967
 40
0.1235066982
 40
0.1416657632
 40
0.1782503998
 40
0.2151093932
 40
0.2521409094
 40
0.2892416756
 40
0.3263078446
 40
0.3632358561
 40
0.3999232988
 40
0.4181461677
 40
0.4362714682
 40
0.4542871156
 40
0.4721812644
 40
0.4899423375
 40
0.5075590567
 40
0.5250204729
 40
0.5423159986
 40
0.5594354395
 40
0.5763690292
 40
0.5931074632
 40
0.6096419354
 40
0.6259641757
 40
0.642066489
 40
0.6579417958
 40
0.6735836754
 40
0.6889864098
 40
0.7041450305
 40
0.7190553672
 40
0.7337140988
 40
0.7481188056
 40
0.7622680246
 40
0.7761613057
 40
0.7897992698
 40
0.8031836673
 40
0.8163174364
 40
0.8292047613
 40
0.8418511269
 40
0.85426337
 40
0.8664497245
 40
0.8784198573
 40
0.8901848929
 40
0.9017574239
 40
0.9131515022
 40
0.9243826098
 40
0.9354676047
 40
0.9464246388
 40
0.9572730482
 40
0.9680332132
 40
0.9787263899
 40
0.9893745168
 40
1.0
 40
1.0
 40
1.0
 40
1.0
 10
15.0111673044
 20
11.8828781166
 30
0.0
 10
15.0161480679
 20
11.8828781166
 30
0.0
 10
15.0261599943
 20
11.882768526
 30
0.0
 10
15.0412427411
 20
11.8822815601
 30
0.0
 10
15.0564529998
 20
11.8814716706
 30
0.0
 10
15.071774851
 20
11.8803396999
 30
0.0
 10
15.0871923765
 20
11.8788868282
 30
0.0
 10
15.1026895067
 20
11.8771145686
 30
0.0
 10
15.1182501846
 20
11.8750247625
 30
0.0
 10
15.1391112716
 20
11.8718100615
 30
0.0
 10
15.1652394059
 20
11.8670088697
 30
0.0
 10
15.1965091048
 20
11.8600365322
 30
0.0
 10
15.2276427189
 20
11.8518679007
 30
0.0
 10
15.2585105765
 20
11.8425369857
 30
0.0
 10
15.2889846093
 20
11.8320825002
 30
0.0
 10
15.3189379014
 20
11.8205479966
 30
0.0
 10
15.3434164737
 20
11.8100522182
 30
0.0
 10
15.3626323682
 20
11.8011532249
 30
0.0
 10
15.3768056994
 20
11.7942550731
 30
0.0
 10
15.3907571349
 20
11.7871256583
 30
0.0
 10
15.4044722148
 20
11.7797723651
 30
0.0
 10
15.4179366483
 20
11.7722028553
 30
0.0
 10
15.4311364267
 20
11.7644250035
 30
0.0
 10
15.4440578118
 20
11.7564469033
 30
0.0
 10
15.4566873572
 20
11.7482768552
 30
0.0
 10
15.4690119203
 20
11.7399233587
 30
0.0
 10
15.4810186769
 20
11.7313951026
 30
0.0
 10
15.4926951339
 20
11.7227009567
 30
0.0
 10
15.5040291423
 20
11.7138499614
 30
0.0
 10
15.51500891
 20
11.7048513186
 30
0.0
 10
15.5256230137
 20
11.695714382
 30
0.0
 10
15.5358604108
 20
11.6864486465
 30
0.0
 10
15.5457104503
 20
11.6770637387
 30
0.0
 10
15.555162884
 20
11.6675694062
 30
0.0
 10
15.5642078762
 20
11.6579755073
 30
0.0
 10
15.572836014
 20
11.6482920003
 30
0.0
 10
15.5810383162
 20
11.6385289334
 30
0.0
 10
15.5888062417
 20
11.6286964334
 30
0.0
 10
15.596131698
 20
11.6188046957
 30
0.0
 10
15.6030070482
 20
11.6088639734
 30
0.0
 10
15.609425118
 20
11.5988845668
 30
0.0
 10
15.6153792016
 20
11.5888768137
 30
0.0
 10
15.6208630677
 20
11.5788510787
 30
0.0
 10
15.6258709643
 20
11.5688177441
 30
0.0
 10
15.6303976236
 20
11.5587872006
 30
0.0
 10
15.6344382657
 20
11.5487698385
 30
0.0
 10
15.6379886033
 20
11.5387760397
 30
0.0
 10
15.6410448456
 20
11.52881617
 30
0.0
 10
15.6436037024
 20
11.5189005721
 30
0.0
 10
15.6456623889
 20
11.5090395589
 30
0.0
 10
15.6472186313
 20
11.4992434065
 30
0.0
 10
15.6482706728
 20
11.489522348
 30
0.0
 10
15.6488172804
 20
11.4798865643
 30
0.0
 10
15.6488577537
 20
11.4703461794
 30
0.0
 10
15.6483919289
 20
11.4609112372
 30
0.0
 10
15.6474202002
 20
11.4515917333
 30
0.0
 10
15.645943477
 20
11.4423974384
 30
0.0
 10
15.6439633723
 20
11.4333384787
 30
0.0
 10
15.6423082197
 20
11.4273927853
 30
0.0
 10
15.6413986588
 20
11.4244494471
 30
0.0
  0
ENDSEC
  0
SECTION
  2
OBJECTS
  0
DICTIONARY
  5
C
100
AcDbDictionary
280
0
281
1
  3
ACAD_GROUP
350
D
  3
ACAD_MLINESTYLE
350
17
  3
ACAD_LAYOUT
350
1A
  3
ACAD_PLOTSETTINGS
350
19
  3
ACAD_PLOTSTYLENAME
350
E
  0
DICTIONARY
  5
D
102
{ACAD_REACTORS
330
C
102
}
100
AcDbDictionary
280
0
281
1
  0
ACDBDICTIONARYWDFLT
  5
E
102
{ACAD_REACTORS
330
C
102
}
100
AcDbDictionary
281
1
  3
Normal
350
F
100
AcDbDictionaryWithDefault
340
F
  0
DICTIONARY
  5
17
102
{ACAD_REACTORS
330
C
102
}
100
AcDbDictionary
280
0
281
1
  3
Standard
350
18
  0
DICTIONARY
  5
19
102
{ACAD_REACTORS
330
C
102
}
100
AcDbDictionary
281
1
  0
DICTIONARY
  5
1A
102
{ACAD_REACTORS
330
C
102
}
100
AcDbDictionary
281
1
  3
Model
350
2D9
  3
Layout1
350
2DA
  0
ACDBPLACEHOLDER
  5
F
102
{ACAD_REACTORS
330
E
102
}
  0
MLINESTYLE
  5
18
102
{ACAD_REACTORS
330
17
102
}
100
AcDbMlineStyle
  2
STANDARD
 70
0
  3

 62
256
 51
90.0
 52
90.0
 71
2
 49
0.5
 62
256
  6
BYLAYER
 49
-0.5
 62
256
  6
BYLAYER
  0
LAYOUT
  5
2D9
102
{ACAD_REACTORS
330
1A
102
}
100
AcDbPlotSettings
  1

  2
none_device
  4
ANSI_C_(22.00_x_17.00_Inches)
  6

 40
0.0
 41
0.0
 42
0.0
 43
0.0
 44
558.8
 45
431.8
 46
0.0
 47
0.0
 48
0.0
 49
0.0
140
0.0
141
0.0
142
1.0
143
1.0
 70
1024
 72
0
 73
0
 74
0
  7

 75
0
147
1.0
148
0.0
149
0.0
100
AcDbLayout
  1
Model
 70
0
 71
0
 10
0.0
 20
0.0
 11
22.0
 21
17.0
 12
0.0
 22
0.0
 32
0.0
 14
0.0
 24
0.0
 34
0.0
 15
0.0
 25
0.0
 35
0.0
146
0.0
 13
0.0
 23
0.0
 33
0.0
 16
1.0
 26
0.0
 36
0.0
 17
0.0
 27
1.0
 37
0.0
 76
0
330
222
345
0
346
0
  0
LAYOUT
  5
2DA
102
{ACAD_REACTORS
330
1A
102
}
100
AcDbPlotSettings
  1

  2
none_device
  4
ANSI_C_(22.00_x_17.00_Inches)
  6

 40
0.0
 41
0.0
 42
0.0
 43
0.0
 44
558.8
 45
431.8
 46
0.0
 47
0.0
 48
0.0
 49
0.0
140
0.0
141
0.0
142
1.0
143
1.0
 70
0
 72
0
 73
0
 74
0
  7

 75
0
147
1.0
148
0.0
149
0.0
100
AcDbLayout
  1
Layout1
 70
0
 71
1
 10
0.0
 20
0.0
 11
22.0
 21
17.0
 12
0.0
 22
0.0
 32
0.0
 14
0.0
 24
0.0
 34
0.0
 15
0.0
 25
0.0
 35
0.0
146
0.0
 13
0.0
 23
0.0
 33
0.0
 16
1.0
 26
0.0
 36
0.0
 17
0.0
 27
1.0
 37
0.0
 76
0
330
223
345
0
346
0
  0
ENDSEC
  0
EOF