999
DXF file: _cgs_temp_output.dxf
999
Pro/ENGINEER 2015110 by Parametric Technology Corporation
  0
SECTION
  2
HEADER
  9
$ACADVER
  1
AC1021
  9
$DWGCODEPAGE
  3
ANSI_1252
  9
$EXTMAX
 10
22.0
 20
17.0
 30
0.0
  9
$EXTMIN
 10
0.0
 20
0.0
 30
0.0
  9
$LIMMIN
 10
0.0
 20
0.0
  9
$LIMMAX
 10
22.0
 20
17.0
  9
$VIEWCTR
 10
11.0
 20
8.5
  9
$VIEWSIZE
 40
17.0
  9
$CLAYER
  8
0
  9
$LTSCALE
 40
1.21
  9
$CELTYPE
  6
BYLAYER
  9
$DIMSCALE
 40
1.0
  9
$DIMASZ
 40
0.1875
  9
$DIMEXO
 40
0.0625
  9
$DIMDLI
 40
0.836
  9
$DIMEXE
 40
0.125
  9
$DIMCEN
 40
0.198
  9
$DIMLFAC
 40
1.0
  9
$DIMBLK
  1
_CLOSED
  9
$DIMALT
 70
0
  9
$DIMALTF
 40
25.4
  9
$DIMTXT
 40
0.15625
  9
$DIMTOL
 70
0
  9
$DIMLIM
 70
0
  9
$DIMTFAC
 40
1.0
  9
$DIMGAP
 40
0.09
  9
$DIMDSEP
 70
46
  9
$AUNITS
 70
0
  9
$PDMODE
 70
3
  9
$PDSIZE
 40
0.3125
  9
$HANDSEED
  5
2CE
  9
$TILEMODE
 70
1
  9
$MEASUREMENT
 70
0
  9
$INSUNITS
 70
1
  0
ENDSEC
  0
SECTION
  2
CLASSES
  0
CLASS
  1
ACDBDICTIONARYWDFLT
  2
AcDbDictionaryWithDefault
  3
AutoCAD 2000
 90
0
 91
1
280
0
281
0
  0
CLASS
  1
ACDBPLACEHOLDER
  2
AcDbPlaceHolder
  3
AutoCAD 2000
 90
0
 91
1
280
0
281
0
  0
CLASS
  1
LAYOUT
  2
AcDbLayout
  3
AutoCAD 2000
 90
0
 91
0
280
0
281
0
  0
ENDSEC
  0
SECTION
  2
TABLES
  0
TABLE
  2
VPORT
  5
8
100
AcDbSymbolTable
 70
2
  0
VPORT
  5
1F4
100
AcDbSymbolTableRecord
100
AcDbViewportTableRecord
  2
*ACTIVE
 70
0
 10
0.0
 20
0.0
 11
1.0
 21
1.0
 12
11.0
 22
8.5
 13
0.0
 23
0.0
 14
1.0
 24
1.0
 15
0.0
 25
0.0
 16
0.0
 26
0.0
 36
1.0
 17
0.0
 27
0.0
 37
0.0
 40
17.0
 41
1.2941176471
 42
50.0
 43
0.0
 44
0.0
 50
0.0
 51
0.0
 71
0
 72
100
 73
1
 74
1
 75
0
 76
0
 77
0
 78
0
  0
ENDTAB
  0
TABLE
  2
LTYPE
  5
5
100
AcDbSymbolTable
 70
6
  0
LTYPE
  5
14
100
AcDbSymbolTableRecord
100
AcDbLinetypeTableRecord
  2
BYBLOCK
 70
0
  3

 72
65
 73
0
 40
0.0
  0
LTYPE
  5
15
100
AcDbSymbolTableRecord
100
AcDbLinetypeTableRecord
  2
BYLAYER
 70
0
  3

 72
65
 73
0
 40
0.0
  0
LTYPE
  5
16
100
AcDbSymbolTableRecord
100
AcDbLinetypeTableRecord
  2
CONTINUOUS
 70
64
  3
Solid line
 72
65
 73
0
 40
0.0
  0
LTYPE
  5
1F5
100
AcDbSymbolTableRecord
100
AcDbLinetypeTableRecord
  2
CENTER
 70
64
  3
____ _ ____ _ ____ _ ____ _ ____ _ ____ _ ____
 72
65
 73
4
 40
0.6
 49
0.375
 74
0
 49
-0.075
 74
0
 49
0.075
 74
0
 49
-0.075
 74
0
  0
LTYPE
  5
1F6
100
AcDbSymbolTableRecord
100
AcDbLinetypeTableRecord
  2
HIDDEN
 70
64
  3
- - - - - - - - - - - - - - - - - - - -
 72
65
 73
2
 40
0.2
 49
0.1
 74
0
 49
-0.1
 74
0
  0
LTYPE
  5
1F7
100
AcDbSymbolTableRecord
100
AcDbLinetypeTableRecord
  2
PHANTOM
 70
64
  3
_____ _ _ _____ _ _ _____ _ _ _____
 72
65
 73
6
 40
0.8
 49
0.45
 74
0
 49
-0.05
 74
0
 49
0.1
 74
0
 49
-0.05
 74
0
 49
0.1
 74
0
 49
-0.05
 74
0
  0
LTYPE
  5
1F8
100
AcDbSymbolTableRecord
100
AcDbLinetypeTableRecord
  2
DOT
 70
64
  3
. . . . . . . . . . . . . . . . . . . .
 72
65
 73
2
 40
0.2
 49
0.1
 74
0
 49
-0.1
 74
0
  0
LTYPE
  5
1F9
100
AcDbSymbolTableRecord
100
AcDbLinetypeTableRecord
  2
DASHED
 70
64
  3
- - - - - - - - - - - - - - - - - - - -
 72
65
 73
2
 40
0.2
 49
0.1
 74
0
 49
-0.1
 74
0
  0
ENDTAB
  0
TABLE
  2
LAYER
  5
2
100
AcDbSymbolTable
 70
36
  0
LAYER
  5
10
100
AcDbSymbolTableRecord
100
AcDbLayerTableRecord
  2
0
 70
0
 62
7
  6
CONTINUOUS
370
-3
390
F
  0
LAYER
  5
1FA
100
AcDbSymbolTableRecord
100
AcDbLayerTableRecord
  2
DEFAULT_1
 70
0
 62
7
  6
CENTER
370
-3
390
F
  0
LAYER
  5
1FB
100
AcDbSymbolTableRecord
100
AcDbLayerTableRecord
  2
DEFAULT_2
 70
0
 62
8
  6
HIDDEN
370
-3
390
F
  0
LAYER
  5
1FC
100
AcDbSymbolTableRecord
100
AcDbLayerTableRecord
  2
DEFAULT_3
 70
0
 62
7
  6
PHANTOM
370
-3
390
F
  0
LAYER
  5
1FD
100
AcDbSymbolTableRecord
100
AcDbLayerTableRecord
  2
01_ALL_DTM_PLN
 70
0
 62
7
  6
CONTINUOUS
370
-3
390
F
  0
LAYER
  5
1FE
100
AcDbSymbolTableRecord
100
AcDbLayerTableRecord
  2
01__ASM_ALL_DTM_PLN
 70
0
 62
7
  6
CONTINUOUS
370
-3
390
F
  0
LAYER
  5
1FF
100
AcDbSymbolTableRecord
100
AcDbLayerTableRecord
  2
01__ASM_DEF_DTM_PLN
 70
0
 62
7
  6
CONTINUOUS
370
-3
390
F
  0
LAYER
  5
200
100
AcDbSymbolTableRecord
100
AcDbLayerTableRecord
  2
01___PRT_ALL_DTM_PLN
 70
0
 62
7
  6
CONTINUOUS
370
-3
390
F
  0
LAYER
  5
201
100
AcDbSymbolTableRecord
100
AcDbLayerTableRecord
  2
01___PRT_DEF_DTM_PLN
 70
0
 62
7
  6
CONTINUOUS
370
-3
390
F
  0
LAYER
  5
202
100
AcDbSymbolTableRecord
100
AcDbLayerTableRecord
  2
02_ALL_AXES
 70
0
 62
7
  6
CONTINUOUS
370
-3
390
F
  0
LAYER
  5
203
100
AcDbSymbolTableRecord
100
AcDbLayerTableRecord
  2
02__ASM_ALL_AXES
 70
0
 62
7
  6
CONTINUOUS
370
-3
390
F
  0
LAYER
  5
204
100
AcDbSymbolTableRecord
100
AcDbLayerTableRecord
  2
02___PRT_ALL_AXES
 70
0
 62
7
  6
CONTINUOUS
370
-3
390
F
  0
LAYER
  5
205
100
AcDbSymbolTableRecord
100
AcDbLayerTableRecord
  2
03_ALL_CURVES
 70
0
 62
7
  6
CONTINUOUS
370
-3
390
F
  0
LAYER
  5
206
100
AcDbSymbolTableRecord
100
AcDbLayerTableRecord
  2
03__ASM_ALL_CURVES
 70
0
 62
7
  6
CONTINUOUS
370
-3
390
F
  0
LAYER
  5
207
100
AcDbSymbolTableRecord
100
AcDbLayerTableRecord
  2
03___PRT_ALL_CURVES
 70
0
 62
7
  6
CONTINUOUS
370
-3
390
F
  0
LAYER
  5
208
100
AcDbSymbolTableRecord
100
AcDbLayerTableRecord
  2
04_ALL_DTM_PNT
 70
0
 62
7
  6
CONTINUOUS
370
-3
390
F
  0
LAYER
  5
209
100
AcDbSymbolTableRecord
100
AcDbLayerTableRecord
  2
04__ASM_ALL_DTM_PNT
 70
0
 62
7
  6
CONTINUOUS
370
-3
390
F
  0
LAYER
  5
20A
100
AcDbSymbolTableRecord
100
AcDbLayerTableRecord
  2
04___PRT_ALL_DTM_PNT
 70
0
 62
7
  6
CONTINUOUS
370
-3
390
F
  0
LAYER
  5
20B
100
AcDbSymbolTableRecord
100
AcDbLayerTableRecord
  2
05_ALL_DTM_CSYS
 70
0
 62
7
  6
CONTINUOUS
370
-3
390
F
  0
LAYER
  5
20C
100
AcDbSymbolTableRecord
100
AcDbLayerTableRecord
  2
05__ASM_ALL_DTM_CSYS
 70
0
 62
7
  6
CONTINUOUS
370
-3
390
F
  0
LAYER
  5
20D
100
AcDbSymbolTableRecord
100
AcDbLayerTableRecord
  2
05__ASM_DEF_DTM_CSYS
 70
0
 62
7
  6
CONTINUOUS
370
-3
390
F
  0
LAYER
  5
20E
100
AcDbSymbolTableRecord
100
AcDbLayerTableRecord
  2
05___PRT_ALL_DTM_CSYS
 70
0
 62
7
  6
CONTINUOUS
370
-3
390
F
  0
LAYER
  5
20F
100
AcDbSymbolTableRecord
100
AcDbLayerTableRecord
  2
05___PRT_DEF_DTM_CSYS
 70
0
 62
7
  6
CONTINUOUS
370
-3
390
F
  0
LAYER
  5
210
100
AcDbSymbolTableRecord
100
AcDbLayerTableRecord
  2
06_ALL_SURFS
 70
0
 62
7
  6
CONTINUOUS
370
-3
390
F
  0
LAYER
  5
211
100
AcDbSymbolTableRecord
100
AcDbLayerTableRecord
  2
06__ASM_ALL_SURFS
 70
0
 62
7
  6
CONTINUOUS
370
-3
390
F
  0
LAYER
  5
212
100
AcDbSymbolTableRecord
100
AcDbLayerTableRecord
  2
06___PRT_ALL_SURFS
 70
0
 62
7
  6
CONTINUOUS
370
-3
390
F
  0
LAYER
  5
213
100
AcDbSymbolTableRecord
100
AcDbLayerTableRecord
  2
07__ASM_ALL_SKELETONS
 70
0
 62
7
  6
CONTINUOUS
370
-3
390
F
  0
LAYER
  5
214
100
AcDbSymbolTableRecord
100
AcDbLayerTableRecord
  2
LAYER_AXIS
 70
0
 62
7
  6
CONTINUOUS
370
-3
390
F
  0
LAYER
  5
215
100
AcDbSymbolTableRecord
100
AcDbLayerTableRecord
  2
LAYER_CHAMFER_FEAT
 70
0
 62
7
  6
CONTINUOUS
370
-3
390
F
  0
LAYER
  5
216
100
AcDbSymbolTableRecord
100
AcDbLayerTableRecord
  2
LAYER_CUT_FEAT
 70
0
 62
7
  6
CONTINUOUS
370
-3
390
F
  0
LAYER
  5
217
100
AcDbSymbolTableRecord
100
AcDbLayerTableRecord
  2
LAYER_DATUM
 70
0
 62
7
  6
CONTINUOUS
370
-3
390
F
  0
LAYER
  5
218
100
AcDbSymbolTableRecord
100
AcDbLayerTableRecord
  2
LAYER_DIM
 70
0
 62
7
  6
CONTINUOUS
370
-3
390
F
  0
LAYER
  5
219
100
AcDbSymbolTableRecord
100
AcDbLayerTableRecord
  2
LAYER_FEATURE
 70
0
 62
7
  6
CONTINUOUS
370
-3
390
F
  0
LAYER
  5
21A
100
AcDbSymbolTableRecord
100
AcDbLayerTableRecord
  2
LAYER_GEOM_FEAT
 70
0
 62
7
  6
CONTINUOUS
370
-3
390
F
  0
LAYER
  5
21B
100
AcDbSymbolTableRecord
100
AcDbLayerTableRecord
  2
LAYER_NOGEOM_FEAT
 70
0
 62
7
  6
CONTINUOUS
370
-3
390
F
  0
LAYER
  5
21C
100
AcDbSymbolTableRecord
100
AcDbLayerTableRecord
  2
LAYER_PARAMETER_DIM
 70
0
 62
7
  6
CONTINUOUS
370
-3
390
F
  0
LAYER
  5
21D
100
AcDbSymbolTableRecord
100
AcDbLayerTableRecord
  2
LAYER_PROTRUSION_FEAT
 70
0
 62
7
  6
CONTINUOUS
370
-3
390
F
  0
LAYER
  5
21E
100
AcDbSymbolTableRecord
100
AcDbLayerTableRecord
  2
LAYER_ROUND_FEAT
 70
0
 62
7
  6
CONTINUOUS
370
-3
390
F
  0
ENDTAB
  0
TABLE
  2
STYLE
  5
3
100
AcDbSymbolTable
 70
1
  0
STYLE
  5
11
100
AcDbSymbolTableRecord
100
AcDbTextStyleTableRecord
  2
STANDARD
 70
0
 40
0.0
 41
0.8
 50
0.0
 71
0
 42
0.2
  3
txt
  4

  0
STYLE
  5
21F
100
AcDbSymbolTableRecord
100
AcDbTextStyleTableRecord
  2
TEXTSTYLE_1
 70
0
 40
0.0
 41
0.8
 50
0.0
 71
0
 42
0.2
  3
gdt
  4

  0
ENDTAB
  0
TABLE
  2
VIEW
  5
6
100
AcDbSymbolTable
 70
0
  0
ENDTAB
  0
TABLE
  2
UCS
  5
7
100
AcDbSymbolTable
 70
0
  0
ENDTAB
  0
TABLE
  2
APPID
  5
9
100
AcDbSymbolTable
 70
1
  0
APPID
  5
220
100
AcDbSymbolTableRecord
100
AcDbRegAppTableRecord
  2
ACAD
 70
0
  0
ENDTAB
  0
TABLE
  2
BLOCK_RECORD
  5
1
100
AcDbSymbolTable
 70
0
  0
BLOCK_RECORD
  5
221
100
AcDbSymbolTableRecord
100
AcDbBlockTableRecord
  2
*Model_Space
  0
BLOCK_RECORD
  5
222
100
AcDbSymbolTableRecord
100
AcDbBlockTableRecord
  2
*Paper_Space
  0
ENDTAB
  0
TABLE
  2
DIMSTYLE
  5
A
100
AcDbSymbolTable
 70
1
100
AcDbDimStyleTable
 71
0
  0
DIMSTYLE
105
223
100
AcDbSymbolTableRecord
100
AcDbDimStyleTableRecord
  2
STANDARD
 70
0
  3

  4

 40
1.0
 41
0.1875
 42
0.0625
 43
0.38
 44
0.125
 45
0.0
 46
0.0
 47
0.0001
 48
0.0001
140
0.15625
141
0.09
142
0.0
143
25.4
144
1.0
145
0.0
146
1.0
147
0.09
 71
0.0
 72
0.0
 73
1
 74
1
 75
0
 76
0
 77
0
 78
4
170
0
171
2
172
0
173
0
174
0
175
0
176
0
177
0
178
0
270
2
271
4
272
4
273
2
274
2
275
0
280
0
281
0
282
0
283
1
284
4
285
0
286
0
287
3
288
0
340
11
278
46
  0
ENDTAB
  0
ENDSEC
  0
SECTION
  2
BLOCKS
  0
BLOCK
  5
20
100
AcDbEntity
  8
0
100
AcDbBlockBegin
  2
*Model_Space
 70
0
 10
0.0
 20
0.0
 30
0.0
  3
*Model_Space
  1

  0
ENDBLK
  5
21
100
AcDbEntity
  8
0
100
AcDbBlockEnd
  0
BLOCK
  5
1C
100
AcDbEntity
  8
0
100
AcDbBlockBegin
  2
*Paper_Space
 70
0
 10
0.0
 20
0.0
 30
0.0
  3
*Paper_Space
  1

  0
ENDBLK
  5
1D
100
AcDbEntity
  8
0
100
AcDbBlockEnd
  0
ENDSEC
  0
SECTION
  2
ENTITIES
  0
MTEXT
  5
224
100
AcDbEntity
  8
0
100
AcDbMText
 62
7
  6
CONTINUOUS
  7
STANDARD
 71
1
 72
1
 10
15.9560215477
 20
0.9479130325
 30
0.0
 11
1.0
 21
0.0
 31
0.0
 44
0.9
  1
SCALE: 1:4.000
 40
0.3
 41
3.36
  0
LINE
  5
225
100
AcDbEntity
  8
0
100
AcDbLine
 62
7
  6
CONTINUOUS
 10
0.0
 20
0.0
 11
0.0
 21
17.0
  0
LINE
  5
226
100
AcDbEntity
  8
0
100
AcDbLine
 62
7
  6
CONTINUOUS
 10
0.0
 20
0.0
 11
22.0
 21
0.0
  0
LINE
  5
227
100
AcDbEntity
  8
0
100
AcDbLine
 62
7
  6
CONTINUOUS
 10
0.0
 20
17.0
 11
22.0
 21
17.0
  0
LINE
  5
228
100
AcDbEntity
  8
0
100
AcDbLine
 62
7
  6
CONTINUOUS
 10
22.0
 20
0.0
 11
22.0
 21
17.0
  0
LINE
  5
229
100
AcDbEntity
  8
LAYER_FEATURE
100
AcDbLine
 62
7
  6
CONTINUOUS
 10
5.9511672762
 20
6.5801198968
 11
5.932461951
 21
6.5614145716
  0
LINE
  5
22A
100
AcDbEntity
  8
LAYER_FEATURE
100
AcDbLine
 62
7
  6
CONTINUOUS
 10
6.3095672762
 20
6.5801198968
 11
6.3282726014
 21
6.5614145716
  0
LINE
  5
22B
100
AcDbEntity
  8
LAYER_FEATURE
100
AcDbLine
 62
7
  6
CONTINUOUS
 10
5.9511672762
 20
6.5801198968
 11
6.3095672762
 21
6.5801198968
  0
LINE
  5
22C
100
AcDbEntity
  8
02___PRT_ALL_AXES
100
AcDbLine
 62
7
  6
CONTINUOUS
 10
5.0108721054
 20
11.4760477814
 11
7.1308720624
 21
11.4760477814
  0
LINE
  5
22D
100
AcDbEntity
  8
LAYER_FEATURE
100
AcDbLine
 62
7
  6
CONTINUOUS
 10
5.0088720839
 20
13.6240477814
 11
5.0088720839
 21
13.7240477814
  0
LINE
  5
22E
100
AcDbEntity
  8
02___PRT_ALL_AXES
100
AcDbLine
 62
7
  6
CONTINUOUS
 10
5.0108720839
 20
11.4760477814
 11
5.0108720839
 21
12.2700477814
  0
LINE
  5
22F
100
AcDbEntity
  8
LAYER_CUT_FEAT
100
AcDbLine
 62
7
  6
CONTINUOUS
 10
5.3071005859
 20
13.5360477814
 11
5.3071005859
 21
12.4160477814
  0
LINE
  5
230
100
AcDbEntity
  8
LAYER_CUT_FEAT
100
AcDbLine
 62
7
  6
CONTINUOUS
 10
6.0062088537
 20
11.8320477814
 11
6.135535314
 21
11.8320477814
  0
LINE
  5
231
100
AcDbEntity
  8
LAYER_CUT_FEAT
100
AcDbLine
 62
7
  6
CONTINUOUS
 10
5.4643562941
 20
13.5360477814
 11
5.4643562941
 21
12.4160477814
  0
LINE
  5
232
100
AcDbEntity
  8
LAYER_CHAMFER_FEAT
100
AcDbLine
 62
7
  6
CONTINUOUS
 10
5.0108720839
 20
12.2700477814
 11
5.1568720839
 21
12.4160477814
  0
LINE
  5
233
100
AcDbEntity
  8
LAYER_FEATURE
100
AcDbLine
 62
7
  6
CONTINUOUS
 10
6.9308720839
 20
13.5360477814
 11
7.1328720839
 21
13.6240477814
  0
LINE
  5
234
100
AcDbEntity
  8
LAYER_CUT_FEAT
100
AcDbLine
 62
7
  6
CONTINUOUS
 10
6.135535314
 20
12.0560477814
 11
6.0062088537
 21
12.0560477814
  0
LINE
  5
235
100
AcDbEntity
  8
LAYER_CUT_FEAT
100
AcDbLine
 62
7
  6
CONTINUOUS
 10
5.9415456236
 20
11.9440477814
 11
6.0062088537
 21
11.8320477814
  0
LINE
  5
236
100
AcDbEntity
  8
LAYER_CHAMFER_FEAT
100
AcDbLine
 62
7
  6
CONTINUOUS
 10
5.0108720839
 20
12.2700477814
 11
7.1308720839
 21
12.2700477814
  0
LINE
  5
237
100
AcDbEntity
  8
LAYER_CUT_FEAT
100
AcDbLine
 62
7
  6
CONTINUOUS
 10
5.8014767627
 20
13.5360477814
 11
5.8014767627
 21
12.4160477814
  0
LINE
  5
238
100
AcDbEntity
  8
LAYER_CUT_FEAT
100
AcDbLine
 62
7
  6
CONTINUOUS
 10
6.2001985442
 20
11.9440477814
 11
6.135535314
 21
12.0560477814
  0
LINE
  5
239
100
AcDbEntity
  8
LAYER_CHAMFER_FEAT
100
AcDbLine
 62
7
  6
CONTINUOUS
 10
5.156872166
 20
12.4160477814
 11
6.9848720018
 21
12.4160477814
  0
LINE
  5
23A
100
AcDbEntity
  8
LAYER_CUT_FEAT
100
AcDbLine
 62
7
  6
CONTINUOUS
 10
6.211428625
 20
13.5360477814
 11
6.211428625
 21
12.4160477814
  0
LINE
  5
23B
100
AcDbEntity
  8
LAYER_CUT_FEAT
100
AcDbLine
 62
7
  6
CONTINUOUS
 10
6.0062088537
 20
12.0560477814
 11
5.9415456236
 21
11.9440477814
  0
LINE
  5
23C
100
AcDbEntity
  8
LAYER_CUT_FEAT
100
AcDbLine
 62
7
  6
CONTINUOUS
 10
6.3390293458
 20
13.5360477814
 11
6.3390293458
 21
12.4160477814
  0
LINE
  5
23D
100
AcDbEntity
  8
LAYER_CUT_FEAT
100
AcDbLine
 62
7
  6
CONTINUOUS
 10
6.135535314
 20
11.8320477814
 11
6.2001985442
 21
11.9440477814
  0
LINE
  5
23E
100
AcDbEntity
  8
LAYER_FEATURE
100
AcDbLine
 62
7
  6
CONTINUOUS
 10
5.2108720839
 20
13.5360477814
 11
5.0088720839
 21
13.6240477814
  0
LINE
  5
23F
100
AcDbEntity
  8
LAYER_CHAMFER_FEAT
100
AcDbLine
 62
7
  6
CONTINUOUS
 10
7.1308720839
 20
12.2700477814
 11
6.9848720839
 21
12.4160477814
  0
LINE
  5
240
100
AcDbEntity
  8
LAYER_CUT_FEAT
100
AcDbLine
 62
7
  6
CONTINUOUS
 10
6.6760543421
 20
13.5360477814
 11
6.6760543421
 21
12.4160477814
  0
LINE
  5
241
100
AcDbEntity
  8
LAYER_CUT_FEAT
100
AcDbLine
 62
7
  6
CONTINUOUS
 10
6.8343389816
 20
13.5360477814
 11
6.8343389816
 21
12.4160477814
  0
LINE
  5
242
100
AcDbEntity
  8
LAYER_FEATURE
100
AcDbLine
 62
7
  6
CONTINUOUS
 10
5.2108720839
 20
13.5360477814
 11
6.9308720839
 21
13.5360477814
  0
LINE
  5
243
100
AcDbEntity
  8
LAYER_FEATURE
100
AcDbLine
 62
7
  6
CONTINUOUS
 10
5.0088720839
 20
13.6240477814
 11
7.1328720839
 21
13.6240477814
  0
LINE
  5
244
100
AcDbEntity
  8
02___PRT_ALL_AXES
100
AcDbLine
 62
7
  6
CONTINUOUS
 10
7.1308720839
 20
11.4760477814
 11
7.1308720839
 21
12.2700477814
  0
LINE
  5
245
100
AcDbEntity
  8
LAYER_FEATURE
100
AcDbLine
 62
7
  6
CONTINUOUS
 10
7.1328720839
 20
13.6240477814
 11
7.1328720839
 21
13.7240477814
  0
LINE
  5
246
100
AcDbEntity
  8
LAYER_FEATURE
100
AcDbLine
 62
7
  6
CONTINUOUS
 10
5.0088720839
 20
13.7240477814
 11
7.1328720839
 21
13.7240477814
  0
LINE
  5
247
100
AcDbEntity
  8
LAYER_FEATURE
100
AcDbLine
 62
7
  6
CONTINUOUS
 10
14.7178726093
 20
6.5133420569
 11
14.7251552569
 21
6.5206247044
  0
LINE
  5
248
100
AcDbEntity
  8
02___PRT_ALL_AXES
100
AcDbLine
 62
7
  6
CONTINUOUS
 10
14.4363552569
 20
6.5206247044
 11
14.4363552569
 21
4.4006247044
  0
LINE
  5
249
100
AcDbEntity
  8
LAYER_FEATURE
100
AcDbLine
 62
7
  6
CONTINUOUS
 10
16.6843552569
 20
4.3986247044
 11
16.5843552569
 21
4.3986247044
  0
LINE
  5
24A
100
AcDbEntity
  8
LAYER_CHAMFER_FEAT
100
AcDbLine
 62
7
  6
CONTINUOUS
 10
15.2303552569
 20
4.4006247044
 11
14.4363552569
 21
4.4006247044
  0
LINE
  5
24B
100
AcDbEntity
  8
02___PRT_ALL_AXES
100
AcDbLine
 62
7
  6
CONTINUOUS
 10
15.3763552569
 20
4.6926247044
 11
16.4963552569
 21
4.6926247044
  0
LINE
  5
24C
100
AcDbEntity
  8
LAYER_CUT_FEAT
100
AcDbLine
 62
7
  6
CONTINUOUS
 10
16.4963552569
 20
4.795981639
 11
15.3763552569
 21
4.795981639
  0
LINE
  5
24D
100
AcDbEntity
  8
LAYER_CHAMFER_FEAT
100
AcDbLine
 62
7
  6
CONTINUOUS
 10
15.2303552569
 20
6.5206247044
 11
15.2303552569
 21
4.4006247044
  0
LINE
  5
24E
100
AcDbEntity
  8
LAYER_CUT_FEAT
100
AcDbLine
 62
7
  6
CONTINUOUS
 10
16.4963552569
 20
5.0966091367
 11
15.3763552569
 21
5.0966091367
  0
LINE
  5
24F
100
AcDbEntity
  8
LAYER_CHAMFER_FEAT
100
AcDbLine
 62
7
  6
CONTINUOUS
 10
15.3763552569
 20
6.3746247044
 11
15.3763552569
 21
4.5466247044
  0
LINE
  5
250
100
AcDbEntity
  8
LAYER_CUT_FEAT
100
AcDbLine
 62
7
  6
CONTINUOUS
 10
16.4963552569
 20
5.499408271
 11
15.3763552569
 21
5.499408271
  0
LINE
  5
251
100
AcDbEntity
  8
LAYER_CUT_FEAT
100
AcDbLine
 62
7
  6
CONTINUOUS
 10
16.4963552569
 20
5.6293578358
 11
15.3763552569
 21
5.6293578358
  0
LINE
  5
252
100
AcDbEntity
  8
LAYER_FEATURE
100
AcDbLine
 62
7
  6
CONTINUOUS
 10
15.0908379045
 20
6.5133420569
 11
15.0835552569
 21
6.5206247044
  0
LINE
  5
253
100
AcDbEntity
  8
LAYER_FEATURE
100
AcDbLine
 62
7
  6
CONTINUOUS
 10
16.5843552569
 20
6.5226247044
 11
16.4963552569
 21
6.3206247044
  0
LINE
  5
254
100
AcDbEntity
  8
LAYER_CHAMFER_FEAT
100
AcDbLine
 62
7
  6
CONTINUOUS
 10
15.2303552569
 20
4.4006247044
 11
15.3763552569
 21
4.5466247044
  0
LINE
  5
255
100
AcDbEntity
  8
LAYER_CHAMFER_FEAT
100
AcDbLine
 62
7
  6
CONTINUOUS
 10
15.2303552569
 20
6.5206247044
 11
15.3763552569
 21
6.3746247044
  0
LINE
  5
256
100
AcDbEntity
  8
LAYER_FEATURE
100
AcDbLine
 62
7
  6
CONTINUOUS
 10
16.5843552569
 20
4.3986247044
 11
16.4963552569
 21
4.6006247044
  0
LINE
  5
257
100
AcDbEntity
  8
LAYER_CUT_FEAT
100
AcDbLine
 62
7
  6
CONTINUOUS
 10
16.4963552569
 20
5.9963059656
 11
15.3763552569
 21
5.9963059656
  0
LINE
  5
258
100
AcDbEntity
  8
LAYER_CUT_FEAT
100
AcDbLine
 62
7
  6
CONTINUOUS
 10
16.4963552569
 20
6.2058787973
 11
15.3763552569
 21
6.2058787973
  0
LINE
  5
259
100
AcDbEntity
  8
LAYER_FEATURE
100
AcDbLine
 62
7
  6
CONTINUOUS
 10
16.4963552569
 20
6.3206247044
 11
16.4963552569
 21
4.6006247044
  0
LINE
  5
25A
100
AcDbEntity
  8
LAYER_FEATURE
100
AcDbLine
 62
7
  6
CONTINUOUS
 10
16.5843552569
 20
6.5226247044
 11
16.5843552569
 21
4.3986247044
  0
LINE
  5
25B
100
AcDbEntity
  8
LAYER_FEATURE
100
AcDbLine
 62
7
  6
CONTINUOUS
 10
16.6843552569
 20
6.5226247044
 11
16.6843552569
 21
4.3986247044
  0
LINE
  5
25C
100
AcDbEntity
  8
02___PRT_ALL_AXES
100
AcDbLine
 62
7
  6
CONTINUOUS
 10
15.2303552569
 20
6.5206247044
 11
15.1283552569
 21
6.5206247044
  0
LINE
  5
25D
100
AcDbEntity
  8
02___PRT_ALL_AXES
100
AcDbLine
 62
7
  6
CONTINUOUS
 10
14.6803552569
 20
6.5206247044
 11
14.4363552569
 21
6.5206247044
  0
LINE
  5
25E
100
AcDbEntity
  8
LAYER_FEATURE
100
AcDbLine
 62
7
  6
CONTINUOUS
 10
14.7251553407
 20
6.5206247044
 11
15.0835551731
 21
6.5206247044
  0
LINE
  5
25F
100
AcDbEntity
  8
LAYER_FEATURE
100
AcDbLine
 62
7
  6
CONTINUOUS
 10
16.6843552569
 20
6.5226247044
 11
16.5843552569
 21
6.5226247044
  0
LINE
  5
260
100
AcDbEntity
  8
LAYER_FEATURE
100
AcDbLine
 62
7
  6
CONTINUOUS
 10
14.7034622833
 20
13.6258628469
 11
14.7276689156
 21
13.7041955379
  0
LINE
  5
261
100
AcDbEntity
  8
02___PRT_ALL_AXES
100
AcDbLine
 62
7
  6
CONTINUOUS
 10
14.1854146623
 20
11.9426861503
 11
14.3776153231
 21
12.5646477165
  0
LINE
  5
262
100
AcDbEntity
  8
LAYER_CUT_FEAT
100
AcDbLine
 62
7
  6
CONTINUOUS
 10
14.997335802
 20
13.5393955137
 11
14.7940052837
 21
12.8814177154
  0
LINE
  5
263
100
AcDbEntity
  8
LAYER_CUT_FEAT
100
AcDbLine
 62
7
  6
CONTINUOUS
 10
15.2365558523
 20
13.6846661289
 11
15.0018491994
 21
12.9251551218
  0
LINE
  5
264
100
AcDbEntity
  8
LAYER_CUT_FEAT
100
AcDbLine
 62
7
  6
CONTINUOUS
 10
14.9556560671
 20
12.7429601105
 11
14.8689858598
 21
12.6552274966
  0
LINE
  5
265
100
AcDbEntity
  8
LAYER_CUT_FEAT
100
AcDbLine
 62
7
  6
CONTINUOUS
 10
14.7215342004
 20
11.811337925
 11
14.7118515475
 21
11.7800048486
  0
LINE
  5
266
100
AcDbEntity
  8
LAYER_CUT_FEAT
100
AcDbLine
 62
7
  6
CONTINUOUS
 10
14.8689858598
 20
12.6552274966
 11
14.9120387735
 21
12.5674948827
  0
LINE
  5
267
100
AcDbEntity
  8
LAYER_CUT_FEAT
100
AcDbLine
 62
7
  6
CONTINUOUS
 10
14.8689858598
 20
12.6552274966
 11
14.9014332106
 21
12.5674948827
  0
LINE
  5
268
100
AcDbEntity
  8
LAYER_CUT_FEAT
100
AcDbLine
 62
7
  6
CONTINUOUS
 10
15.0239854452
 20
12.6037194776
 11
14.9881995156
 21
12.5674948827
  0
LINE
  5
269
100
AcDbEntity
  8
LAYER_CUT_FEAT
100
AcDbLine
 62
7
  6
CONTINUOUS
 10
15.0205507687
 20
12.5674948827
 11
15.107220976
 21
12.6552274966
  0
LINE
  5
26A
100
AcDbEntity
  8
LAYER_CUT_FEAT
100
AcDbLine
 62
7
  6
CONTINUOUS
 10
14.9556560671
 20
12.7429601105
 11
15.0239854452
 21
12.6037194776
  0
LINE
  5
26B
100
AcDbEntity
  8
LAYER_CUT_FEAT
100
AcDbLine
 62
7
  6
CONTINUOUS
 10
15.107220976
 20
12.6552274966
 11
15.0747736252
 21
12.7429601105
  0
LINE
  5
26C
100
AcDbEntity
  8
LAYER_CUT_FEAT
100
AcDbLine
 62
7
  6
CONTINUOUS
 10
15.609772112
 20
13.6935802395
 11
15.3693478151
 21
12.9155669297
  0
LINE
  5
26D
100
AcDbEntity
  8
LAYER_CUT_FEAT
100
AcDbLine
 62
7
  6
CONTINUOUS
 10
15.7348617459
 20
13.6596556952
 11
15.4968081391
 21
12.8893139413
  0
LINE
  5
26E
100
AcDbEntity
  8
LAYER_CUT_FEAT
100
AcDbLine
 62
7
  6
CONTINUOUS
 10
14.9014332106
 20
12.5674948827
 11
15.0205507687
 21
12.5674948827
  0
LINE
  5
26F
100
AcDbEntity
  8
LAYER_CUT_FEAT
100
AcDbLine
 62
7
  6
CONTINUOUS
 10
15.0563366983
 20
12.6037194776
 11
15.0239854452
 21
12.6037194776
  0
LINE
  5
270
100
AcDbEntity
  8
LAYER_CUT_FEAT
100
AcDbLine
 62
7
  6
CONTINUOUS
 10
15.0747736252
 20
12.7429601105
 11
14.9556560671
 21
12.7429601105
  0
LINE
  5
271
100
AcDbEntity
  8
LAYER_CUT_FEAT
100
AcDbLine
 62
7
  6
CONTINUOUS
 10
16.1159449249
 20
13.5156604542
 11
15.8761773469
 21
12.7397722874
  0
LINE
  5
272
100
AcDbEntity
  8
LAYER_CUT_FEAT
100
AcDbLine
 62
7
  6
CONTINUOUS
 10
15.6941526198
 20
11.5107761008
 11
15.6844699669
 21
11.4794430244
  0
LINE
  5
273
100
AcDbEntity
  8
LAYER_CHAMFER_FEAT
100
AcDbLine
 62
7
  6
CONTINUOUS
 10
14.790586389
 20
12.8806136663
 11
14.9085385951
 21
12.9083534405
  0
LINE
  5
274
100
AcDbEntity
  8
LAYER_CHAMFER_FEAT
100
AcDbLine
 62
7
  6
CONTINUOUS
 10
16.2403934785
 20
12.43258939
 11
16.1586552741
 21
12.5220381683
  0
LINE
  5
275
100
AcDbEntity
  8
LAYER_CUT_FEAT
100
AcDbLine
 62
7
  6
CONTINUOUS
 10
16.3767614116
 20
13.2812607265
 11
16.1462036965
 21
12.5351756871
  0
LINE
  5
276
100
AcDbEntity
  8
LAYER_FEATURE
100
AcDbLine
 62
7
  6
CONTINUOUS
 10
16.4345037361
 20
13.0308767935
 11
16.4347319667
 21
13.0317054331
  0
LINE
  5
277
100
AcDbEntity
  8
LAYER_CUT_FEAT
100
AcDbLine
 62
7
  6
CONTINUOUS
 10
16.4345038142
 20
13.0308767694
 11
16.2472514287
 21
12.4249278278
  0
LINE
  5
278
100
AcDbEntity
  8
02___PRT_ALL_AXES
100
AcDbLine
 62
7
  6
CONTINUOUS
 10
16.2109068521
 20
11.3167617228
 11
16.4031075129
 21
11.938723289
  0
LINE
  5
279
100
AcDbEntity
  8
LAYER_FEATURE
100
AcDbLine
 62
7
  6
CONTINUOUS
 10
16.7327761565
 20
12.9987574299
 11
16.7569827888
 21
13.0770901209
  0
ARC
  5
27A
100
AcDbEntity
  8
LAYER_FEATURE
100
AcDbCircle
 62
7
  6
CONTINUOUS
 10
6.1303672762
 20
5.5201198968
 40
1.062
100
AcDbArc
 50
86.683181868
 51
93.316818132
  0
ARC
  5
27B
100
AcDbEntity
  8
LAYER_FEATURE
100
AcDbCircle
 62
7
  6
CONTINUOUS
 10
6.1303672762
 20
5.5201198968
 40
1.062
100
AcDbArc
 50
100.6152356097
 51
79.3847643903
  0
CIRCLE
  5
27C
100
AcDbEntity
  8
02___PRT_ALL_AXES
100
AcDbCircle
 62
7
  6
CONTINUOUS
 10
6.1303672762
 20
5.5201198968
 40
1.06
  0
CIRCLE
  5
27D
100
AcDbEntity
  8
LAYER_CUT_FEAT
100
AcDbCircle
 62
7
  6
CONTINUOUS
 10
6.1303672762
 20
5.5201198968
 40
0.517
  0
CIRCLE
  5
27E
100
AcDbEntity
  8
LAYER_CUT_FEAT
100
AcDbCircle
 62
7
  6
CONTINUOUS
 10
6.1303672762
 20
5.5201198968
 40
0.509
  0
CIRCLE
  5
27F
100
AcDbEntity
  8
LAYER_CHAMFER_FEAT
100
AcDbCircle
 62
7
  6
CONTINUOUS
 10
6.1303672762
 20
5.5201198968
 40
0.2875
  0
CIRCLE
  5
280
100
AcDbEntity
  8
LAYER_CHAMFER_FEAT
100
AcDbCircle
 62
7
  6
CONTINUOUS
 10
6.1303672762
 20
5.5201198968
 40
0.25
  0
CIRCLE
  5
281
100
AcDbEntity
  8
02___PRT_ALL_AXES
100
AcDbCircle
 62
7
  6
CONTINUOUS
 10
6.0708720839
 20
11.9440477814
 40
0.224
  0
CIRCLE
  5
282
100
AcDbEntity
  8
LAYER_FEATURE
100
AcDbCircle
 62
7
  6
CONTINUOUS
 10
6.0708720839
 20
11.9440477814
 40
0.1792
  0
ARC
  5
283
100
AcDbEntity
  8
LAYER_FEATURE
100
AcDbCircle
 62
7
  6
CONTINUOUS
 10
15.4435211968
 20
12.439748244
 40
1.2820884211
100
AcDbArc
 50
78.7154407063
 51
80.9447022462
  0
ARC
  5
284
100
AcDbEntity
  8
LAYER_FEATURE
100
AcDbCircle
 62
7
  6
CONTINUOUS
 10
15.5001125658
 20
12.530647555
 40
1.1769930474
100
AcDbArc
 50
59.4906324757
 51
61.8507134459
  0
ARC
  5
285
100
AcDbEntity
  8
LAYER_FEATURE
100
AcDbCircle
 62
7
  6
CONTINUOUS
 10
15.4291445778
 20
12.9897320504
 40
0.7286863817
100
AcDbArc
 50
100.8542669975
 51
104.1034228021
  0
ARC
  5
286
100
AcDbEntity
  8
LAYER_FEATURE
100
AcDbCircle
 62
7
  6
CONTINUOUS
 10
15.8947955406
 20
12.9815668976
 40
0.5732028616
100
AcDbArc
 50
33.3456922928
 51
37.1587410438
  0
ARC
  5
287
100
AcDbEntity
  8
LAYER_FEATURE
100
AcDbCircle
 62
7
  6
CONTINUOUS
 10
15.2349872437
 20
13.3767210335
 40
0.2886212115
100
AcDbArc
 50
138.7480067201
 51
144.7733138004
  0
ARC
  5
288
100
AcDbEntity
  8
LAYER_FEATURE
100
AcDbCircle
 62
7
  6
CONTINUOUS
 10
16.1863708331
 20
13.0918032755
 40
0.2555291358
100
AcDbArc
 50
346.3971753906
 51
352.9322418265
  0
ARC
  5
289
100
AcDbEntity
  8
LAYER_CUT_FEAT
100
AcDbCircle
 62
7
  6
CONTINUOUS
 10
14.8819977821
 20
11.7617096282
 40
0.1679631105
100
AcDbArc
 50
154.2234396851
 51
162.8141684213
  0
ARC
  5
28A
100
AcDbEntity
  8
LAYER_CUT_FEAT
100
AcDbCircle
 62
7
  6
CONTINUOUS
 10
15.5336866549
 20
11.5603237858
 40
0.167941575
100
AcDbArc
 50
342.8406826921
 51
351.3528324584
  0
SPLINE
  5
28B
100
AcDbEntity
  8
02___PRT_ALL_AXES
100
AcDbSpline
 62
7
  6
CONTINUOUS
 70
0
 71
3
 72
31
 73
27
 74
0
 42
0.0000001
 43
0.0000001
 44
0.0000000001
 40
0.0
 40
0.0
 40
0.0
 40
0.0
 40
0.0097924623
 40
0.0386907453
 40
0.0853472488
 40
0.1477526106
 40
0.184103364
 40
0.2234340353
 40
0.2653787893
 40
0.3095498872
 40
0.355537588
 40
0.4029107657
 40
0.4512195686
 40
0.5000000003
 40
0.548780432
 40
0.5970892349
 40
0.6444624125
 40
0.6904501132
 40
0.734621211
 40
0.776565965
 40
0.8158966363
 40
0.8522473896
 40
0.9146527514
 40
0.9613092548
 40
0.9902075377
 40
1.0
 40
1.0
 40
1.0
 40
1.0
 10
15.1283552569
 20
6.5206247044
 30
0.0
 10
15.1269137652
 20
6.5203200862
 30
0.0
 10
15.1212160692
 20
6.5191271416
 30
0.0
 10
15.1086282363
 20
6.5165887688
 30
0.0
 10
15.0882219033
 20
6.5127844005
 30
0.0
 10
15.0666301294
 20
6.509240499
 30
0.0
 10
15.0460644461
 20
6.5062880067
 30
0.0
 10
15.0285086708
 20
6.504046489
 30
0.0
 10
15.0097477409
 20
6.5019739319
 30
0.0
 10
14.9899546537
 20
6.5001510755
 30
0.0
 10
14.9693153954
 20
6.4986502206
 30
0.0
 10
14.9480283091
 20
6.4975318505
 30
0.0
 10
14.9263025345
 20
6.4968417389
 30
0.0
 10
14.9043552568
 20
6.4966084828
 30
0.0
 10
14.882407979
 20
6.4968417389
 30
0.0
 10
14.8606822045
 20
6.4975318505
 30
0.0
 10
14.8393951182
 20
6.4986502207
 30
0.0
 10
14.81875586
 20
6.5001510755
 30
0.0
 10
14.7989627729
 20
6.5019739319
 30
0.0
 10
14.780201843
 20
6.504046489
 30
0.0
 10
14.7626460676
 20
6.5062880067
 30
0.0
 10
14.7420803843
 20
6.509240499
 30
0.0
 10
14.7204886104
 20
6.5127844005
 30
0.0
 10
14.7000822775
 20
6.5165887688
 30
0.0
 10
14.6874944446
 20
6.5191271416
 30
0.0
 10
14.6817967486
 20
6.5203200862
 30
0.0
 10
14.6803552569
 20
6.5206247044
 30
0.0
  0
SPLINE
  5
28C
100
AcDbEntity
  8
LAYER_CUT_FEAT
100
AcDbSpline
 62
7
  6
CONTINUOUS
 70
0
 71
3
 72
82
 73
78
 74
0
 42
0.0000001
 43
0.0000001
 44
0.0000000001
 40
0.0
 40
0.0
 40
0.0
 40
0.0
 40
0.013106124
 40
0.0265341928
 40
0.0402891277
 40
0.0543740593
 40
0.068789325
 40
0.0835332071
 40
0.098601885
 40
0.1139896335
 40
0.1296889617
 40
0.145690747
 40
0.1619843651
 40
0.1785578091
 40
0.195397803
 40
0.2124899087
 40
0.2298186315
 40
0.2473675182
 40
0.2651192495
 40
0.2830557291
 40
0.3011581689
 40
0.3194071718
 40
0.3377828149
 40
0.3562647274
 40
0.3748321675
 40
0.393464097
 40
0.4121392563
 40
0.4308362383
 40
0.4495335623
 40
0.4682097466
 40
0.4868433811
 40
0.5054132001
 40
0.523898157
 40
0.542277499
 40
0.5605308428
 40
0.5786382502
 40
0.5965803069
 40
0.6143382031
 40
0.6318938185
 40
0.6492298082
 40
0.6663296902
 40
0.6831779385
 40
0.6997600805
 40
0.7160627996
 40
0.7320740466
 40
0.7477831516
 40
0.7631809433
 40
0.7782598769
 40
0.793014169
 40
0.807439941
 40
0.8215353709
 40
0.8353008455
 40
0.8487391174
 40
0.8553375641
 40
0.8618564137
 40
0.8746587933
 40
0.8809460381
 40
0.8871590868
 40
0.8993688382
 40
0.9053709183
 40
0.9113071892
 40
0.9171802427
 40
0.9229928493
 40
0.9287479822
 40
0.9344488012
 40
0.9400986467
 40
0.9457010488
 40
0.9512596979
 40
0.9567784586
 40
0.962261342
 40
0.9677125021
 40
0.9731362228
 40
0.9785368956
 40
0.9839190137
 40
0.9892871443
 40
0.9946459168
 40
1.0
 40
1.0
 40
1.0
 40
1.0
 10
14.7293407112
 20
11.6297239365
 30
0.0
 10
14.7315069591
 20
11.6253095874
 30
0.0
 10
14.7361166432
 20
11.6164807142
 30
0.0
 10
14.743737295
 20
11.6034205848
 30
0.0
 10
14.752134266
 20
11.5904062307
 30
0.0
 10
14.7612927863
 20
11.5774601849
 30
0.0
 10
14.7711973137
 20
11.5646042343
 30
0.0
 10
14.7818308472
 20
11.5518602379
 30
0.0
 10
14.7931752374
 20
11.539249823
 30
0.0
 10
14.8052111022
 20
11.5267944161
 30
0.0
 10
14.8179178956
 20
11.5145151938
 30
0.0
 10
14.8312739332
 20
11.5024330479
 30
0.0
 10
14.8452564261
 20
11.4905685477
 30
0.0
 10
14.8598415189
 20
11.4789419043
 30
0.0
 10
14.8750043247
 20
11.4675729326
 30
0.0
 10
14.8907189643
 20
11.4564810112
 30
0.0
 10
14.9069586164
 20
11.4456850553
 30
0.0
 10
14.9236955625
 20
11.4352034813
 30
0.0
 10
14.9409012336
 20
11.4250541751
 30
0.0
 10
14.9585462588
 20
11.4152544615
 30
0.0
 10
14.9766005121
 20
11.4058210696
 30
0.0
 10
14.9950331636
 20
11.3967701012
 30
0.0
 10
15.013812737
 20
11.3881170097
 30
0.0
 10
15.0329071624
 20
11.3798765712
 30
0.0
 10
15.0522838316
 20
11.3720628595
 30
0.0
 10
15.0719096531
 20
11.3646892231
 30
0.0
 10
15.0917511069
 20
11.3577682553
 30
0.0
 10
15.1117743032
 20
11.3513117734
 30
0.0
 10
15.1319450427
 20
11.3453308039
 30
0.0
 10
15.1522288745
 20
11.3398355622
 30
0.0
 10
15.172591155
 20
11.3348354354
 30
0.0
 10
15.1929971076
 20
11.3303389675
 30
0.0
 10
15.2134118808
 20
11.3263538362
 30
0.0
 10
15.23380061
 20
11.3228868443
 30
0.0
 10
15.2541284778
 20
11.3199439117
 30
0.0
 10
15.2743607732
 20
11.3175300653
 30
0.0
 10
15.2944629506
 20
11.31564943
 30
0.0
 10
15.3144006903
 20
11.3143052238
 30
0.0
 10
15.3341399571
 20
11.3134997425
 30
0.0
 10
15.3536470602
 20
11.313234364
 30
0.0
 10
15.3728887101
 20
11.3135095486
 30
0.0
 10
15.3918320756
 20
11.314324839
 30
0.0
 10
15.4104448391
 20
11.3156788621
 30
0.0
 10
15.4286952535
 20
11.3175693334
 30
0.0
 10
15.4465521982
 20
11.3199930522
 30
0.0
 10
15.463985231
 20
11.3229459192
 30
0.0
 10
15.4809646384
 20
11.3264229458
 30
0.0
 10
15.4974614825
 20
11.3304182651
 30
0.0
 10
15.5134476556
 20
11.3349251477
 30
0.0
 10
15.5288959007
 20
11.3399360037
 30
0.0
 10
15.5437799521
 20
11.3454424337
 30
0.0
 10
15.558074231
 20
11.3514350969
 30
0.0
 10
15.5695435387
 20
11.3568585334
 30
0.0
 10
15.5783948255
 20
11.361434407
 30
0.0
 10
15.5869240934
 20
11.3661071802
 30
0.0
 10
15.5951792334
 20
11.3710324443
 30
0.0
 10
15.6031364421
 20
11.3762113908
 30
0.0
 10
15.6107705123
 20
11.3814730384
 30
0.0
 10
15.6181037933
 20
11.3869778164
 30
0.0
 10
15.625110633
 20
11.3927228956
 30
0.0
 10
15.6301537371
 20
11.3971089499
 30
0.0
 10
15.6350121711
 20
11.4015945228
 30
0.0
 10
15.639683878
 20
11.406177795
 30
0.0
 10
15.6441668471
 20
11.4108567816
 30
0.0
 10
15.6484591616
 20
11.4156294852
 30
0.0
 10
15.652558936
 20
11.4204938996
 30
0.0
 10
15.656464453
 20
11.4254479041
 30
0.0
 10
15.6601739711
 20
11.4304894276
 30
0.0
 10
15.6636859297
 20
11.4356162795
 30
0.0
 10
15.6669987926
 20
11.4408262792
 30
0.0
 10
15.6701111105
 20
11.4461172017
 30
0.0
 10
15.67302158
 20
11.4514867513
 30
0.0
 10
15.6757288766
 20
11.4569326591
 30
0.0
 10
15.6782318904
 20
11.4624525433
 30
0.0
 10
15.6805294988
 20
11.4680440794
 30
0.0
 10
15.6826206915
 20
11.4737047533
 30
0.0
 10
15.6838768832
 20
11.4775237999
 30
0.0
 10
15.6844699663
 20
11.4794430246
 30
0.0
  0
SPLINE
  5
28D
100
AcDbEntity
  8
LAYER_CUT_FEAT
100
AcDbSpline
 62
7
  6
CONTINUOUS
 70
0
 71
3
 72
82
 73
78
 74
0
 42
0.0000001
 43
0.0000001
 44
0.0000000001
 40
0.0
 40
0.0
 40
0.0
 40
0.0
 40
0.013106124
 40
0.0265341928
 40
0.0402891277
 40
0.0543740593
 40
0.068789325
 40
0.0835332071
 40
0.098601885
 40
0.1139896335
 40
0.1296889617
 40
0.145690747
 40
0.1619843651
 40
0.1785578091
 40
0.195397803
 40
0.2124899087
 40
0.2298186315
 40
0.2473675182
 40
0.2651192495
 40
0.2830557291
 40
0.3011581689
 40
0.3194071718
 40
0.3377828149
 40
0.3562647274
 40
0.3748321675
 40
0.393464097
 40
0.4121392563
 40
0.4308362383
 40
0.4495335623
 40
0.4682097466
 40
0.4868433811
 40
0.5054132001
 40
0.523898157
 40
0.542277499
 40
0.5605308428
 40
0.5786382502
 40
0.5965803069
 40
0.6143382031
 40
0.6318938185
 40
0.6492298082
 40
0.6663296902
 40
0.6831779385
 40
0.6997600805
 40
0.7160627996
 40
0.7320740466
 40
0.7477831516
 40
0.7631809433
 40
0.7782598769
 40
0.793014169
 40
0.807439941
 40
0.8215353709
 40
0.8353008455
 40
0.8487391174
 40
0.8553375641
 40
0.8618564137
 40
0.8746587933
 40
0.8809460381
 40
0.8871590868
 40
0.8993688382
 40
0.9053709183
 40
0.9113071892
 40
0.9171802427
 40
0.9229928493
 40
0.9287479822
 40
0.9344488012
 40
0.9400986467
 40
0.9457010488
 40
0.9512596979
 40
0.9567784586
 40
0.962261342
 40
0.9677125021
 40
0.9731362228
 40
0.9785368956
 40
0.9839190137
 40
0.9892871443
 40
0.9946459168
 40
1.0
 40
1.0
 40
1.0
 40
1.0
 10
15.6743492911
 20
11.6297239365
 30
0.0
 10
15.6721489961
 20
11.6342076663
 30
0.0
 10
15.6674668612
 20
11.6431753037
 30
0.0
 10
15.6597264349
 20
11.6564407004
 30
0.0
 10
15.6511974879
 20
11.6696596023
 30
0.0
 10
15.6418950223
 20
11.6828091224
 30
0.0
 10
15.6318348245
 20
11.6958671312
 30
0.0
 10
15.6210341628
 20
11.7088114261
 30
0.0
 10
15.6095114717
 20
11.7216200401
 30
0.0
 10
15.5972864382
 20
11.7342712097
 30
0.0
 10
15.5843799309
 20
11.7467434257
 30
0.0
 10
15.5708139753
 20
11.7590154677
 30
0.0
 10
15.5566117183
 20
11.7710664434
 30
0.0
 10
15.5417973902
 20
11.7828758238
 30
0.0
 10
15.5263962692
 20
11.7944234827
 30
0.0
 10
15.5104346411
 20
11.8056897369
 30
0.0
 10
15.4939397489
 20
11.8166553739
 30
0.0
 10
15.4769397467
 20
11.8273016877
 30
0.0
 10
15.4594636525
 20
11.8376105115
 30
0.0
 10
15.4415412988
 20
11.847564248
 30
0.0
 10
15.4232032851
 20
11.8571459055
 30
0.0
 10
15.4044809259
 20
11.8663391287
 30
0.0
 10
15.3854061923
 20
11.8751282217
 30
0.0
 10
15.366011658
 20
11.883498176
 30
0.0
 10
15.3463304439
 20
11.8914346965
 30
0.0
 10
15.3263961616
 20
11.898924225
 30
0.0
 10
15.3062428578
 20
11.9059539703
 30
0.0
 10
15.285904955
 20
11.9125119293
 30
0.0
 10
15.2654171902
 20
11.9185869023
 30
0.0
 10
15.2448145556
 20
11.9241685132
 30
0.0
 10
15.2241322392
 20
11.9292472274
 30
0.0
 10
15.2034055644
 20
11.9338143667
 30
0.0
 10
15.1826699303
 20
11.9378621327
 30
0.0
 10
15.1619607495
 20
11.9413836157
 30
0.0
 10
15.1413133867
 20
11.9443728026
 30
0.0
 10
15.1207630985
 20
11.9468245877
 30
0.0
 10
15.1003449733
 20
11.948734781
 30
0.0
 10
15.0800938703
 20
11.9501001143
 30
0.0
 10
15.0600443596
 20
11.9509182554
 30
0.0
 10
15.0402306616
 20
11.9511878049
 30
0.0
 10
15.0206865889
 20
11.9509082952
 30
0.0
 10
15.0014454888
 20
11.9500801908
 30
0.0
 10
14.9825401868
 20
11.9487048864
 30
0.0
 10
14.9640029289
 20
11.9467847024
 30
0.0
 10
14.9458653249
 20
11.9443228897
 30
0.0
 10
14.9281582956
 20
11.9413236123
 30
0.0
 10
14.9109120213
 20
11.9377919369
 30
0.0
 10
14.8941558947
 20
11.9337338228
 30
0.0
 10
14.8779184654
 20
11.9291561051
 30
0.0
 10
14.8622274188
 20
11.924066493
 30
0.0
 10
14.8471094335
 20
11.918473518
 30
0.0
 10
14.8325904901
 20
11.9123866675
 30
0.0
 10
14.8209409182
 20
11.9068779903
 30
0.0
 10
14.8119505149
 20
11.9022301974
 30
0.0
 10
14.8032871917
 20
11.8974839817
 30
0.0
 10
14.7949023049
 20
11.8924813068
 30
0.0
 10
14.7868200321
 20
11.8872209623
 30
0.0
 10
14.7790659764
 20
11.8818766169
 30
0.0
 10
14.7716174376
 20
11.8762853198
 30
0.0
 10
14.7645004707
 20
11.8704499446
 30
0.0
 10
14.7593781037
 20
11.8659949544
 30
0.0
 10
14.7544433092
 20
11.8614388813
 30
0.0
 10
14.7496981767
 20
11.8567835734
 30
0.0
 10
14.7451447484
 20
11.8520310467
 30
0.0
 10
14.7407849712
 20
11.8471833301
 30
0.0
 10
14.7366207602
 20
11.8422424613
 30
0.0
 10
14.7326538598
 20
11.8372105942
 30
0.0
 10
14.7288860389
 20
11.8320898326
 30
0.0
 10
14.7253188826
 20
11.8268824015
 30
0.0
 10
14.7219539511
 20
11.8215905157
 30
0.0
 10
14.7187927166
 20
11.8162164353
 30
0.0
 10
14.715836503
 20
11.810762492
 30
0.0
 10
14.7130866555
 20
11.8052309904
 30
0.0
 10
14.7105443017
 20
11.7996243497
 30
0.0
 10
14.7082105815
 20
11.7939449309
 30
0.0
 10
14.7060865214
 20
11.7881952877
 30
0.0
 10
14.7048105859
 20
11.7843162168
 30
0.0
 10
14.7042081813
 20
11.7823668274
 30
0.0
  0
SPLINE
  5
28E
100
AcDbEntity
  8
LAYER_CHAMFER_FEAT
100
AcDbSpline
 62
7
  6
CONTINUOUS
 70
0
 71
3
 72
28
 73
24
 74
0
 42
0.0000001
 43
0.0000001
 44
0.0000000001
 40
0.0
 40
0.0
 40
0.0
 40
0.0
 40
0.0739292658
 40
0.1460640992
 40
0.216409107
 40
0.2849833622
 40
0.3518214881
 40
0.416974772
 40
0.4805118841
 40
0.5425195999
 40
0.6031034592
 40
0.6623878596
 40
0.7205157037
 40
0.7491998793
 40
0.7776566084
 40
0.8059085137
 40
0.8339790615
 40
0.8618926028
 40
0.8896741553
 40
0.9173493429
 40
0.9449443279
 40
0.9724856192
 40
1.0
 40
1.0
 40
1.0
 40
1.0
 10
15.0516367963
 20
11.8036098009
 30
0.0
 10
15.0489586594
 20
11.8027872288
 30
0.0
 10
15.0436997503
 20
11.8010540107
 30
0.0
 10
15.0360268405
 20
11.7981513697
 30
0.0
 10
15.028679895
 20
11.794983003
 30
0.0
 10
15.0216730871
 20
11.791554862
 30
0.0
 10
15.0150197493
 20
11.7878733037
 30
0.0
 10
15.0087326023
 20
11.7839452067
 30
0.0
 10
15.0028236969
 20
11.7797778738
 30
0.0
 10
14.9973044478
 20
11.7753790529
 30
0.0
 10
14.9921855088
 20
11.7707569053
 30
0.0
 10
14.987476992
 20
11.7659202843
 30
0.0
 10
14.9838867818
 20
11.7616994649
 30
0.0
 10
14.9812345264
 20
11.7582276627
 30
0.0
 10
14.97936186
 20
11.75558765
 30
0.0
 10
14.9775980423
 20
11.7529015052
 30
0.0
 10
14.9759439427
 20
11.7501704511
 30
0.0
 10
14.974400329
 20
11.7473958323
 30
0.0
 10
14.9729679493
 20
11.7445789717
 30
0.0
 10
14.9716475398
 20
11.7417212082
 30
0.0
 10
14.9704396834
 20
11.7388239246
 30
0.0
 10
14.9693450054
 20
11.73588856
 30
0.0
 10
14.9686908905
 20
11.7339067356
 30
0.0
 10
14.9683830421
 20
11.7329105358
 30
0.0
  0
SPLINE
  5
28F
100
AcDbEntity
  8
LAYER_CHAMFER_FEAT
100
AcDbSpline
 62
7
  6
CONTINUOUS
 70
0
 71
3
 72
28
 73
24
 74
0
 42
0.0000001
 43
0.0000001
 44
0.0000000001
 40
0.0
 40
0.0
 40
0.0
 40
0.0
 40
0.0739012116
 40
0.1460109598
 40
0.2163342782
 40
0.2848906262
 40
0.3517148998
 40
0.4168585843
 40
0.4803905093
 40
0.5423975003
 40
0.6029849969
 40
0.6622772332
 40
0.7204168331
 40
0.7491082038
 40
0.77757295
 40
0.8058336033
 40
0.8339135669
 40
0.8618371106
 40
0.8896291521
 40
0.9173152348
 40
0.9449214194
 40
0.9724741124
 40
1.0
 40
1.0
 40
1.0
 40
1.0
 10
15.4174209061
 20
11.6904035191
 30
0.0
 10
15.4191598887
 20
11.6882173809
 30
0.0
 10
15.4225082313
 20
11.683827521
 30
0.0
 10
15.4271830859
 20
11.6771151049
 30
0.0
 10
15.4314404106
 20
11.6703677215
 30
0.0
 10
15.4352719438
 20
11.6635982042
 30
0.0
 10
15.4386703261
 20
11.6568192396
 30
0.0
 10
15.4416289905
 20
11.6500436009
 30
0.0
 10
15.4441421717
 20
11.6432840391
 30
0.0
 10
15.446204872
 20
11.6365533105
 30
0.0
 10
15.4478129244
 20
11.6298640779
 30
0.0
 10
15.4489630163
 20
11.6232292762
 30
0.0
 10
15.4495402574
 20
11.6177313829
 30
0.0
 10
15.4497677926
 20
11.6133784488
 30
0.0
 10
15.4498223523
 20
11.6101494854
 30
0.0
 10
15.4497614942
 20
11.606943769
 30
0.0
 10
15.4495852053
 20
11.6037627907
 30
0.0
 10
15.4492936174
 20
11.6006080825
 30
0.0
 10
15.4488868358
 20
11.5974811513
 30
0.0
 10
15.4483650299
 20
11.5943835059
 30
0.0
 10
15.4477284932
 20
11.5913166067
 30
0.0
 10
15.4469775019
 20
11.5882819894
 30
0.0
 10
15.4464006407
 20
11.5862809384
 30
0.0
 10
15.4460934465
 20
11.5852868555
 30
0.0
  0
SPLINE
  5
290
100
AcDbEntity
  8
02___PRT_ALL_AXES
100
AcDbSpline
 62
7
  6
CONTINUOUS
 70
0
 71
3
 72
61
 73
57
 74
0
 42
0.0000001
 43
0.0000001
 44
0.0000000001
 40
0.0
 40
0.0
 40
0.0
 40
0.0
 40
0.0136479927
 40
0.0272743146
 40
0.0408850442
 40
0.0544865091
 40
0.0680852604
 40
0.0816880933
 40
0.0953020046
 40
0.1089341838
 40
0.1225919803
 40
0.1362828725
 40
0.150014439
 40
0.1637942948
 40
0.1776300698
 40
0.1915293207
 40
0.2054995207
 40
0.219547957
 40
0.2336817017
 40
0.2479075356
 40
0.2622319065
 40
0.2766608658
 40
0.2911999977
 40
0.3058544115
 40
0.3206286552
 40
0.3355267169
 40
0.3657022931
 40
0.3964053914
 40
0.4276443284
 40
0.459416347
 40
0.4917075921
 40
0.5244932946
 40
0.5577381141
 40
0.5913965345
 40
0.6083652682
 40
0.6254159312
 40
0.6425402077
 40
0.6597292358
 40
0.6769736659
 40
0.6942636225
 40
0.7115887942
 40
0.7289384128
 40
0.7463013247
 40
0.7636659813
 40
0.7983507464
 40
0.8328965058
 40
0.8500866265
 40
0.8672038204
 40
0.8842352121
 40
0.901167987
 40
0.9179894911
 40
0.9346871416
 40
0.9512484913
 40
0.9676620841
 40
0.9839169764
 40
1.0
 40
1.0
 40
1.0
 40
1.0
 10
15.1941697318
 20
12.743772246
 30
0.0
 10
15.1950477784
 20
12.7419829846
 30
0.0
 10
15.1967263138
 20
12.7383693342
 30
0.0
 10
15.1990074374
 20
12.7328496978
 30
0.0
 10
15.2010461526
 20
12.7272431016
 30
0.0
 10
15.2028391835
 20
12.7215574114
 30
0.0
 10
15.2043834506
 20
12.7158003525
 30
0.0
 10
15.2056763144
 20
12.7099798092
 30
0.0
 10
15.2067152609
 20
12.7041036609
 30
0.0
 10
15.2074982654
 20
12.6981798685
 30
0.0
 10
15.2080234935
 20
12.6922163941
 30
0.0
 10
15.2082895589
 20
12.686221226
 30
0.0
 10
15.2082954034
 20
12.6802023407
 30
0.0
 10
15.2080403143
 20
12.6741676947
 30
0.0
 10
15.2075240756
 20
12.6681251975
 30
0.0
 10
15.2067467032
 20
12.6620827091
 30
0.0
 10
15.20570884
 20
12.6560479832
 30
0.0
 10
15.2044113043
 20
12.6500287044
 30
0.0
 10
15.2028555676
 20
12.6440323918
 30
0.0
 10
15.2010433212
 20
12.6380664615
 30
0.0
 10
15.1989768089
 20
12.6321381312
 30
0.0
 10
15.1966586259
 20
12.6262544522
 30
0.0
 10
15.1940917424
 20
12.6204222823
 30
0.0
 10
15.1912796351
 20
12.6146482471
 30
0.0
 10
15.1882259291
 20
12.6089387179
 30
0.0
 10
15.1838196282
 20
12.6013888874
 30
0.0
 10
15.1777201854
 20
12.5921431198
 30
0.0
 10
15.1695417443
 20
12.5814494977
 30
0.0
 10
15.160516859
 20
12.5711483873
 30
0.0
 10
15.1506943562
 20
12.5612760823
 30
0.0
 10
15.1401260953
 20
12.5518644517
 30
0.0
 10
15.1288668061
 20
12.5429419246
 30
0.0
 10
15.1169738853
 20
12.534533851
 30
0.0
 10
15.1066121478
 20
12.5279919376
 30
0.0
 10
15.098062808
 20
12.5230315304
 30
0.0
 10
15.0915120425
 20
12.519442374
 30
0.0
 10
15.084848381
 20
12.5159969945
 30
0.0
 10
15.0780798468
 20
12.5126974175
 30
0.0
 10
15.0712146138
 20
12.5095456818
 30
0.0
 10
15.0642609753
 20
12.5065436357
 30
0.0
 10
15.0572272988
 20
12.5036931132
 30
0.0
 10
15.0501220869
 20
12.5009957947
 30
0.0
 10
15.0429538713
 20
12.498453308
 30
0.0
 10
15.0333282237
 20
12.4952732761
 30
0.0
 10
15.0211945216
 20
12.4916957061
 30
0.0
 10
15.0089439145
 20
12.4886457189
 30
0.0
 10
14.9991133269
 20
12.486530177
 30
0.0
 10
14.9917512001
 20
12.4851098617
 30
0.0
 10
14.984397349
 20
12.4838542732
 30
0.0
 10
14.9770607777
 20
12.4827642572
 30
0.0
 10
14.9697505385
 20
12.4818405293
 30
0.0
 10
14.9624756587
 20
12.4810837202
 30
0.0
 10
14.9552450623
 20
12.4804943265
 30
0.0
 10
14.948067485
 20
12.480072759
 30
0.0
 10
14.9409519279
 20
12.4798193541
 30
0.0
 10
14.9362292564
 20
12.4797622688
 30
0.0
 10
14.9338805615
 20
12.4797622688
 30
0.0
  0
SPLINE
  5
291
100
AcDbEntity
  8
LAYER_CUT_FEAT
100
AcDbSpline
 62
7
  6
CONTINUOUS
 70
0
 71
3
 72
23
 73
19
 74
0
 42
0.0000001
 43
0.0000001
 44
0.0000000001
 40
0.0
 40
0.0
 40
0.0
 40
0.0
 40
0.0581641125
 40
0.1164420918
 40
0.1749467097
 40
0.2337885831
 40
0.293075135
 40
0.3529097525
 40
0.413390921
 40
0.4746115696
 40
0.5366585848
 40
0.5996122094
 40
0.663546048
 40
0.7285267779
 40
0.7946132338
 40
0.8618582405
 40
0.9303095751
 40
1.0
 40
1.0
 40
1.0
 40
1.0
 10
15.6921133331
 20
11.4770810457
 30
0.0
 10
15.6930146451
 20
11.4799977035
 30
0.0
 10
15.6946614942
 20
11.4858867553
 30
0.0
 10
15.6966546518
 20
11.4948542228
 30
0.0
 10
15.6981699937
 20
11.5039509725
 30
0.0
 10
15.6992059479
 20
11.5131678202
 30
0.0
 10
15.6997616696
 20
11.5224958934
 30
0.0
 10
15.6998366537
 20
11.5319261258
 30
0.0
 10
15.6994309337
 20
11.5414493986
 30
0.0
 10
15.6985450397
 20
11.5510565263
 30
0.0
 10
15.6971798743
 20
11.5607382547
 30
0.0
 10
15.6953369112
 20
11.5704852978
 30
0.0
 10
15.693018006
 20
11.5802883249
 30
0.0
 10
15.6902254479
 20
11.5901379343
 30
0.0
 10
15.6869620881
 20
11.6000247313
 30
0.0
 10
15.6832310125
 20
11.6099394224
 30
0.0
 10
15.6790359738
 20
11.6198722248
 30
0.0
 10
15.6759606662
 20
11.6264402992
 30
0.0
 10
15.6743492911
 20
11.6297239365
 30
0.0
  0
SPLINE
  5
292
100
AcDbEntity
  8
LAYER_CUT_FEAT
100
AcDbSpline
 62
7
  6
CONTINUOUS
 70
0
 71
3
 72
23
 73
19
 74
0
 42
0.0000001
 43
0.0000001
 44
0.0000000001
 40
0.0
 40
0.0
 40
0.0
 40
0.0
 40
0.0581641125
 40
0.1164420918
 40
0.1749467097
 40
0.2337885831
 40
0.293075135
 40
0.3529097525
 40
0.413390921
 40
0.4746115696
 40
0.5366585848
 40
0.5996122094
 40
0.663546048
 40
0.7285267779
 40
0.7946132338
 40
0.8618582405
 40
0.9303095751
 40
1.0
 40
1.0
 40
1.0
 40
1.0
 10
14.7118515481
 20
11.7800048484
 30
0.0
 10
14.7109641828
 20
11.7771333226
 30
0.0
 10
14.7093428168
 20
11.7713353973
 30
0.0
 10
14.7073805012
 20
11.7625066915
 30
0.0
 10
14.7058886075
 20
11.7535507038
 30
0.0
 10
14.7048686836
 20
11.7444764765
 30
0.0
 10
14.7043215611
 20
11.7352927449
 30
0.0
 10
14.7042477372
 20
11.7260084349
 30
0.0
 10
14.7046471791
 20
11.7166325241
 30
0.0
 10
14.7055193649
 20
11.7071740561
 30
0.0
 10
14.7068634059
 20
11.6976421416
 30
0.0
 10
14.7086778512
 20
11.6880459232
 30
0.0
 10
14.7109608739
 20
11.6783945871
 30
0.0
 10
14.7137102203
 20
11.6686973893
 30
0.0
 10
14.7169230832
 20
11.6589635795
 30
0.0
 10
14.7205964245
 20
11.6492023073
 30
0.0
 10
14.7247265497
 20
11.639423204
 30
0.0
 10
14.7277542703
 20
11.6329567632
 30
0.0
 10
14.7293407112
 20
11.6297239365
 30
0.0
  0
SPLINE
  5
293
100
AcDbEntity
  8
LAYER_CHAMFER_FEAT
100
AcDbSpline
 62
7
  6
CONTINUOUS
 70
0
 71
3
 72
39
 73
35
 74
0
 42
0.0000001
 43
0.0000001
 44
0.0000000001
 40
0.0
 40
0.0
 40
0.0
 40
0.0
 40
0.0378630287
 40
0.0752495754
 40
0.1121557706
 40
0.1485787256
 40
0.1845166153
 40
0.2199686505
 40
0.2549352184
 40
0.289417831
 40
0.3234192549
 40
0.3569435051
 40
0.3899959046
 40
0.4225831562
 40
0.4547133235
 40
0.4863959562
 40
0.5176420351
 40
0.5484640838
 40
0.5788761393
 40
0.6088937918
 40
0.6385342078
 40
0.667816085
 40
0.6967597041
 40
0.725386832
 40
0.7537207439
 40
0.7817861222
 40
0.8096090033
 40
0.8372166897
 40
0.8646376194
 40
0.8919012728
 40
0.9190379963
 40
0.9460788734
 40
0.9730555377
 40
1.0
 40
1.0
 40
1.0
 40
1.0
 10
14.7905863901
 20
12.8806136652
 30
0.0
 10
14.7839004546
 20
12.8790412764
 30
0.0
 10
14.7706450129
 20
12.8757769122
 30
0.0
 10
14.7509985309
 20
12.8704854995
 30
0.0
 10
14.7317247963
 20
12.8648329954
 30
0.0
 10
14.7128351648
 20
12.8588226816
 30
0.0
 10
14.6943406045
 20
12.8524580852
 30
0.0
 10
14.6762519222
 20
12.8457428377
 30
0.0
 10
14.6585796405
 20
12.8386808986
 30
0.0
 10
14.6413340825
 20
12.8312763045
 30
0.0
 10
14.6245252913
 20
12.8235333848
 30
0.0
 10
14.6081630742
 20
12.8154566134
 30
0.0
 10
14.5922569857
 20
12.807050652
 30
0.0
 10
14.5768162883
 20
12.7983204104
 30
0.0
 10
14.5618500289
 20
12.7892708832
 30
0.0
 10
14.5473669142
 20
12.7799073763
 30
0.0
 10
14.5333754457
 20
12.77023525
 30
0.0
 10
14.5198837826
 20
12.7602601481
 30
0.0
 10
14.5068998361
 20
12.7499878288
 30
0.0
 10
14.4944312253
 20
12.7394242343
 30
0.0
 10
14.4824852389
 20
12.7285755219
 30
0.0
 10
14.4710689428
 20
12.7174479316
 30
0.0
 10
14.4601889989
 20
12.7060479842
 30
0.0
 10
14.4498518751
 20
12.6943822476
 30
0.0
 10
14.4400636284
 20
12.6824575533
 30
0.0
 10
14.4308300685
 20
12.6702808267
 30
0.0
 10
14.4221566666
 20
12.657859173
 30
0.0
 10
14.4140485318
 20
12.6451998737
 30
0.0
 10
14.4065105359
 20
12.6323103043
 30
0.0
 10
14.3995470803
 20
12.619198061
 30
0.0
 10
14.3931623876
 20
12.6058708259
 30
0.0
 10
14.3873601584
 20
12.5923363822
 30
0.0
 10
14.382143982
 20
12.5786030073
 30
0.0
 10
14.3790584123
 20
12.5693175434
 30
0.0
 10
14.37761533
 20
12.5646477144
 30
0.0
  0
SPLINE
  5
294
100
AcDbEntity
  8
LAYER_CHAMFER_FEAT
100
AcDbSpline
 62
7
  6
CONTINUOUS
 70
0
 71
3
 72
39
 73
35
 74
0
 42
0.0000001
 43
0.0000001
 44
0.0000000001
 40
0.0
 40
0.0
 40
0.0
 40
0.0
 40
0.0378630382
 40
0.0752495783
 40
0.112155775
 40
0.1485787324
 40
0.1845166145
 40
0.2199686599
 40
0.2549352166
 40
0.2894178396
 40
0.3234192559
 40
0.3569435088
 40
0.3899959094
 40
0.4225831548
 40
0.4547133309
 40
0.4863959536
 40
0.5176420421
 40
0.5484640835
 40
0.5788761423
 40
0.6088937948
 40
0.6385342064
 40
0.66781609
 40
0.6967597016
 40
0.7253868365
 40
0.7537207431
 40
0.7817861239
 40
0.8096090046
 40
0.8372166888
 40
0.8646376214
 40
0.8919012715
 40
0.9190379975
 40
0.946078873
 40
0.9730555375
 40
1.0
 40
1.0
 40
1.0
 40
1.0
 10
16.2403934714
 20
12.4325893885
 30
0.0
 10
16.2450266741
 20
12.4275191225
 30
0.0
 10
16.2541294859
 20
12.4173455468
 30
0.0
 10
16.2673654875
 20
12.4018926633
 30
0.0
 10
16.2800900254
 20
12.3863519504
 30
0.0
 10
16.2922955603
 20
12.3707325089
 30
0.0
 10
16.3039750068
 20
12.3550434232
 30
0.0
 10
16.3151215451
 20
12.3392938324
 30
0.0
 10
16.3257286403
 20
12.3234928792
 30
0.0
 10
16.3357901395
 20
12.3076497904
 30
0.0
 10
16.3453001035
 20
12.2917737423
 30
0.0
 10
16.3542530266
 20
12.2758740091
 30
0.0
 10
16.362643619
 20
12.2599598079
 30
0.0
 10
16.3704669896
 20
12.2440404128
 30
0.0
 10
16.3777185453
 20
12.2281250815
 30
0.0
 10
16.3843939959
 20
12.2122230601
 30
0.0
 10
16.390489461
 20
12.1963436245
 30
0.0
 10
16.3960012728
 20
12.1804959873
 30
0.0
 10
16.4009262407
 20
12.1646894041
 30
0.0
 10
16.4052613752
 20
12.1489330592
 30
0.0
 10
16.4090041301
 20
12.1332361508
 30
0.0
 10
16.4121522498
 20
12.11760783
 30
0.0
 10
16.4147038081
 20
12.1020572172
 30
0.0
 10
16.4166573036
 20
12.086593409
 30
0.0
 10
16.4180114503
 20
12.0712254413
 30
0.0
 10
16.4187654761
 20
12.0559623252
 30
0.0
 10
16.4189187986
 20
12.0408130054
 30
0.0
 10
16.4184713225
 20
12.0257863803
 30
0.0
 10
16.4174232348
 20
12.0108912839
 30
0.0
 10
16.4157750841
 20
11.9961364799
 30
0.0
 10
16.413527857
 20
11.9815306777
 30
0.0
 10
16.4106827378
 20
11.9670824136
 30
0.0
 10
16.4072415731
 20
11.9528005208
 30
0.0
 10
16.4045505882
 20
11.9433931203
 30
0.0
 10
16.4031075059
 20
11.9387232911
 30
0.0
  0
SPLINE
  5
295
100
AcDbEntity
  8
LAYER_FEATURE
100
AcDbSpline
 62
7
  6
CONTINUOUS
 70
0
 71
3
 72
39
 73
35
 74
0
 42
0.0000001
 43
0.0000001
 44
0.0000000001
 40
0.0
 40
0.0
 40
0.0
 40
0.0
 40
0.0269002574
 40
0.0538331474
 40
0.0808311045
 40
0.1079261827
 40
0.1351498547
 40
0.162532857
 40
0.1901050144
 40
0.2178950969
 40
0.2459307064
 40
0.2742381316
 40
0.3028423043
 40
0.3317666707
 40
0.3610331816
 40
0.3906622245
 40
0.4206725966
 40
0.4510815265
 40
0.4819046128
 40
0.5131559135
 40
0.5448478865
 40
0.5769914794
 40
0.6095961318
 40
0.6426698049
 40
0.6762190711
 40
0.7102490796
 40
0.7447636966
 40
0.7797654637
 40
0.8152557114
 40
0.8512345797
 40
0.8877010499
 40
0.9246530478
 40
0.9620874051
 40
1.0
 40
1.0
 40
1.0
 40
1.0
 10
14.7034622902
 20
13.6258628448
 30
0.0
 10
14.7020056344
 20
13.6211490915
 30
0.0
 10
14.6992908047
 20
13.6116526398
 30
0.0
 10
14.6958240158
 20
13.5972343613
 30
0.0
 10
14.6929634319
 20
13.5826470136
 30
0.0
 10
14.6907109337
 20
13.5678996514
 30
0.0
 10
14.6890677323
 20
13.5530010236
 30
0.0
 10
14.6880348142
 20
13.537960059
 30
0.0
 10
14.6876127392
 20
13.5227857405
 30
0.0
 10
14.6878016666
 20
13.507487124
 30
0.0
 10
14.6886014876
 20
13.4920733311
 30
0.0
 10
14.690011578
 20
13.4765535311
 30
0.0
 10
14.6920311136
 20
13.4609369597
 30
0.0
 10
14.6946587631
 20
13.4452328816
 30
0.0
 10
14.6978929334
 20
13.4294506165
 30
0.0
 10
14.7017316439
 20
13.4135995186
 30
0.0
 10
14.7061725208
 20
13.3976889604
 30
0.0
 10
14.7112129363
 20
13.3817283751
 30
0.0
 10
14.7168497777
 20
13.3657271727
 30
0.0
 10
14.7230797265
 20
13.3496948355
 30
0.0
 10
14.7298989984
 20
13.3336408132
 30
0.0
 10
14.7373035402
 20
13.3175745963
 30
0.0
 10
14.7452889407
 20
13.3015056762
 30
0.0
 10
14.7538504087
 20
13.2854435196
 30
0.0
 10
14.7629829042
 20
13.2693976419
 30
0.0
 10
14.7726809393
 20
13.253377478
 30
0.0
 10
14.7829388092
 20
13.2373925228
 30
0.0
 10
14.7937503898
 20
13.221452189
 30
0.0
 10
14.8051092832
 20
13.2055659005
 30
0.0
 10
14.8170087674
 20
13.1897430478
 30
0.0
 10
14.829441755
 20
13.1739929569
 30
0.0
 10
14.842400947
 20
13.1583249503
 30
0.0
 10
14.8558785363
 20
13.1427483272
 30
0.0
 10
14.8651457134
 20
13.1324953943
 30
0.0
 10
14.8698621748
 20
13.1273860712
 30
0.0
  0
SPLINE
  5
296
100
AcDbEntity
  8
LAYER_FEATURE
100
AcDbSpline
 62
7
  6
CONTINUOUS
 70
0
 71
3
 72
39
 73
35
 74
0
 42
0.0000001
 43
0.0000001
 44
0.0000000001
 40
0.0
 40
0.0
 40
0.0
 40
0.0
 40
0.0270225915
 40
0.0540766307
 40
0.0811933832
 40
0.1084037565
 40
0.1357381337
 40
0.1632261965
 40
0.1908968023
 40
0.2187778115
 40
0.2468960067
 40
0.2752769512
 40
0.3039449252
 40
0.3329228481
 40
0.3622322045
 40
0.3918930455
 40
0.4219238982
 40
0.452341828
 40
0.4831623577
 40
0.5143995412
 40
0.5460659355
 40
0.5781726362
 40
0.6107293285
 40
0.6437442649
 40
0.6772243851
 40
0.7111752585
 40
0.745601224
 40
0.7805053508
 40
0.8158895382
 40
0.85175454
 40
0.8880999903
 40
0.9249245023
 40
0.9622256279
 40
1.0
 40
1.0
 40
1.0
 40
1.0
 10
16.7327761495
 20
12.998757432
 30
0.0
 10
16.731349476
 20
12.9941407018
 30
0.0
 10
16.7283016332
 20
12.9849601955
 30
0.0
 10
16.7231563787
 20
12.9713793341
 30
0.0
 10
16.717439335
 20
12.9579923251
 30
0.0
 10
16.7111539385
 20
12.9448071413
 30
0.0
 10
16.7043037389
 20
12.9318312776
 30
0.0
 10
16.6968927796
 20
12.9190721355
 30
0.0
 10
16.6889252643
 20
12.9065370414
 30
0.0
 10
16.6804058689
 20
12.8942330962
 30
0.0
 10
16.6713394555
 20
12.8821673406
 30
0.0
 10
16.661731281
 20
12.8703466093
 30
0.0
 10
16.6515868703
 20
12.8587776122
 30
0.0
 10
16.640912034
 20
12.847466926
 30
0.0
 10
16.6297129367
 20
12.836420912
 30
0.0
 10
16.6179959439
 20
12.8256458732
 30
0.0
 10
16.6057678154
 20
12.8151478324
 30
0.0
 10
16.593035489
 20
12.8049327792
 30
0.0
 10
16.5798062716
 20
12.7950064267
 30
0.0
 10
16.5660876841
 20
12.7853744052
 30
0.0
 10
16.5518875483
 20
12.7760421396
 30
0.0
 10
16.537213958
 20
12.7670148729
 30
0.0
 10
16.5220752388
 20
12.7582977376
 30
0.0
 10
16.5064800289
 20
12.749895589
 30
0.0
 10
16.490437159
 20
12.7418132347
 30
0.0
 10
16.4739557739
 20
12.7340551663
 30
0.0
 10
16.4570452116
 20
12.726625816
 30
0.0
 10
16.4397150888
 20
12.7195293412
 30
0.0
 10
16.4219752408
 20
12.7127697585
 30
0.0
 10
16.4038357321
 20
12.7063508998
 30
0.0
 10
16.3853068777
 20
12.7002763534
 30
0.0
 10
16.3663991504
 20
12.6945496019
 30
0.0
 10
16.3471234101
 20
12.6891738404
 30
0.0
 10
16.3341160647
 20
12.6858468437
 30
0.0
 10
16.3275548443
 20
12.6842414862
 30
0.0
  0
SPLINE
  5
297
100
AcDbEntity
  8
02___PRT_ALL_AXES
100
AcDbSpline
 62
7
  6
CONTINUOUS
 70
0
 71
3
 72
39
 73
35
 74
0
 42
0.0000001
 43
0.0000001
 44
0.0000000001
 40
0.0
 40
0.0
 40
0.0
 40
0.0
 40
0.0379368337
 40
0.075471629
 40
0.1125815435
 40
0.1492511603
 40
0.1854674172
 40
0.2212177272
 40
0.2564907537
 40
0.2912778177
 40
0.3255720659
 40
0.3593690611
 40
0.3926663077
 40
0.4254640513
 40
0.457764701
 40
0.4895735631
 40
0.5208982814
 40
0.5517495206
 40
0.5821404265
 40
0.6120872147
 40
0.6416086726
 40
0.6707266352
 40
0.6994655207
 40
0.7278526293
 40
0.7559177347
 40
0.7836932278
 40
0.8112137315
 40
0.8385160301
 40
0.8656387175
 40
0.892621975
 40
0.9195072254
 40
0.9463367565
 40
0.9731533835
 40
1.0
 40
1.0
 40
1.0
 40
1.0
 10
14.9338805615
 20
12.4797622688
 30
0.0
 10
14.9317923629
 20
12.4797622688
 30
0.0
 10
14.9276379465
 20
12.4798069218
 30
0.0
 10
14.9214438405
 20
12.4800101532
 30
0.0
 10
14.915325496
 20
12.4803492645
 30
0.0
 10
14.9092889669
 20
12.4808240265
 30
0.0
 10
14.9033398202
 20
12.4814342032
 30
0.0
 10
14.8974835387
 20
12.4821794279
 30
0.0
 10
14.8917255196
 20
12.4830593565
 30
0.0
 10
14.8860709905
 20
12.4840734692
 30
0.0
 10
14.8805249885
 20
12.4852212788
 30
0.0
 10
14.8750923798
 20
12.4865021367
 30
0.0
 10
14.8697778651
 20
12.4879154361
 30
0.0
 10
14.8645859583
 20
12.4894604012
 30
0.0
 10
14.8595210066
 20
12.4911363084
 30
0.0
 10
14.8545871613
 20
12.4929422655
 30
0.0
 10
14.8497884189
 20
12.4948774398
 30
0.0
 10
14.8451285738
 20
12.4969408285
 30
0.0
 10
14.8406112814
 20
12.4991314917
 30
0.0
 10
14.8362399914
 20
12.5014483189
 30
0.0
 10
14.8320180328
 20
12.5038902605
 30
0.0
 10
14.8279485261
 20
12.5064560981
 30
0.0
 10
14.8240344913
 20
12.5091446646
 30
0.0
 10
14.8202787401
 20
12.5119546255
 30
0.0
 10
14.8166840016
 20
12.5148846821
 30
0.0
 10
14.8132527977
 20
12.5179333722
 30
0.0
 10
14.8099875793
 20
12.5210992467
 30
0.0
 10
14.8068905947
 20
12.5243806975
 30
0.0
 10
14.8039640278
 20
12.5277761013
 30
0.0
 10
14.8012098639
 20
12.5312836851
 30
0.0
 10
14.7986300249
 20
12.5349016213
 30
0.0
 10
14.7962262266
 20
12.5386279755
 30
0.0
 10
14.7940001736
 20
12.5424605951
 30
0.0
 10
14.7926369716
 20
12.5450824964
 30
0.0
 10
14.7919859574
 20
12.5464091156
 30
0.0
  0
SPLINE
  5
298
100
AcDbEntity
  8
02___PRT_ALL_AXES
100
AcDbSpline
 62
7
  6
CONTINUOUS
 70
0
 71
3
 72
82
 73
78
 74
0
 42
0.0000001
 43
0.0000001
 44
0.0000000001
 40
0.0
 40
0.0
 40
0.0
 40
0.0
 40
0.0053117365
 40
0.0106263082
 40
0.0159465426
 40
0.0212752528
 40
0.0266152291
 40
0.0319692331
 40
0.0373399895
 40
0.0427301811
 40
0.0481424405
 40
0.053579347
 40
0.0590434178
 40
0.0645371061
 40
0.0700627939
 40
0.0756227903
 40
0.0812193251
 40
0.0868545483
 40
0.0925305253
 40
0.0982492357
 40
0.104012571
 40
0.1098223329
 40
0.1215871146
 40
0.1335569891
 40
0.1396227243
 40
0.1457437794
 40
0.1581557548
 40
0.1708018476
 40
0.1836888945
 40
0.1968223804
 40
0.2102064891
 40
0.223844159
 40
0.2377371405
 40
0.2518860542
 40
0.2662904502
 40
0.2809488654
 40
0.2958588805
 40
0.3110171741
 40
0.3264195762
 40
0.3420611183
 40
0.3579360826
 40
0.3740380486
 40
0.3903599368
 40
0.4068940525
 40
0.4236321255
 40
0.44056535
 40
0.4576844218
 40
0.4749795744
 40
0.492440614
 40
0.5100569531
 40
0.5278176431
 40
0.5457114058
 40
0.5637266645
 40
0.5818515739
 40
0.6000740496
 40
0.6183817969
 40
0.6367623392
 40
0.655203046
 40
0.6736911606
 40
0.6922138274
 40
0.7107581188
 40
0.7293110627
 40
0.7478596689
 40
0.7663909562
 40
0.7848919794
 40
0.803349856
 40
0.8217517933
 40
0.8400851158
 40
0.8583372928
 40
0.8764959661
 40
0.8945489781
 40
0.9124844008
 40
0.9302905658
 40
0.947956089
 40
0.9654699191
 40
0.9828213187
 40
1.0
 40
1.0
 40
1.0
 40
1.0
 10
14.1854146637
 20
11.9426861498
 30
0.0
 10
14.1844506925
 20
11.9395667337
 30
0.0
 10
14.1826101001
 20
11.9332986927
 30
0.0
 10
14.1801141937
 20
11.9238186562
 30
0.0
 10
14.1778835475
 20
11.9142619295
 30
0.0
 10
14.1759187896
 20
11.9046311083
 30
0.0
 10
14.1742204035
 20
11.8949286904
 30
0.0
 10
14.1727888541
 20
11.8851572183
 30
0.0
 10
14.1716244858
 20
11.8753192499
 30
0.0
 10
14.170727624
 20
11.8654173564
 30
0.0
 10
14.1700984698
 20
11.855454129
 30
0.0
 10
14.169737208
 20
11.8454321709
 30
0.0
 10
14.1696438999
 20
11.8353541018
 30
0.0
 10
14.1698185857
 20
11.8252225546
 30
0.0
 10
14.1702611912
 20
11.8150401743
 30
0.0
 10
14.1709716095
 20
11.8048096199
 30
0.0
 10
14.1719496339
 20
11.7945335598
 30
0.0
 10
14.1731950088
 20
11.7842146763
 30
0.0
 10
14.1747073979
 20
11.7738556556
 30
0.0
 10
14.1764863936
 20
11.7634592134
 30
0.0
 10
14.1785315444
 20
11.7530280005
 30
0.0
 10
14.1816252701
 20
11.7390193219
 30
0.0
 10
14.1861647445
 20
11.7214286485
 30
0.0
 10
14.1915401265
 20
11.7039111181
 30
0.0
 10
14.1963561615
 20
11.6898644353
 30
0.0
 10
14.2015655198
 20
11.6756689673
 30
0.0
 10
14.2087369068
 20
11.6578899861
 30
0.0
 10
14.2183333636
 20
11.6366253945
 30
0.0
 10
14.2289501214
 20
11.6153546809
 30
0.0
 10
14.240575913
 20
11.5941001349
 30
0.0
 10
14.2531985716
 20
11.5728836949
 30
0.0
 10
14.2668048791
 20
11.551727354
 30
0.0
 10
14.2813806216
 20
11.5306530224
 30
0.0
 10
14.2969105889
 20
11.5096825385
 30
0.0
 10
14.3133785909
 20
11.4888376385
 30
0.0
 10
14.3307674713
 20
11.4681399365
 30
0.0
 10
14.3490591232
 20
11.4476109017
 30
0.0
 10
14.3682345064
 20
11.4272718359
 30
0.0
 10
14.3882736655
 20
11.4071438509
 30
0.0
 10
14.409155749
 20
11.3872478463
 30
0.0
 10
14.4308590307
 20
11.3676044871
 30
0.0
 10
14.4533609307
 20
11.3482341814
 30
0.0
 10
14.4766380384
 20
11.3291570588
 30
0.0
 10
14.5006661365
 20
11.3103929488
 30
0.0
 10
14.5254202257
 20
11.2919613596
 30
0.0
 10
14.5508745502
 20
11.273881457
 30
0.0
 10
14.5770026245
 20
11.2561720446
 30
0.0
 10
14.603777261
 20
11.2388515429
 30
0.0
 10
14.6311705977
 20
11.2219379707
 30
0.0
 10
14.6591541276
 20
11.2054489252
 30
0.0
 10
14.6876987282
 20
11.1894015637
 30
0.0
 10
14.7167746917
 20
11.1738125853
 30
0.0
 10
14.7463517563
 20
11.1586982134
 30
0.0
 10
14.7763991371
 20
11.1440741785
 30
0.0
 10
14.8068855592
 20
11.1299557015
 30
0.0
 10
14.8377792894
 20
11.116357478
 30
0.0
 10
14.8690481697
 20
11.1032936624
 30
0.0
 10
14.9006596512
 20
11.0907778534
 30
0.0
 10
14.9325808274
 20
11.0788230795
 30
0.0
 10
14.9647784692
 20
11.0674417853
 30
0.0
 10
14.9972190592
 20
11.0566458189
 30
0.0
 10
15.0298688269
 20
11.0464464186
 30
0.0
 10
15.062693784
 20
11.0368542021
 30
0.0
 10
15.0956597598
 20
11.0278791546
 30
0.0
 10
15.1287324371
 20
11.0195306192
 30
0.0
 10
15.1618773877
 20
11.0118172863
 30
0.0
 10
15.1950601089
 20
11.0047471854
 30
0.0
 10
15.2282460592
 20
10.9983276759
 30
0.0
 10
15.2614006944
 20
10.9925654404
 30
0.0
 10
15.294489504
 20
10.987466477
 30
0.0
 10
15.3274780473
 20
10.9830360935
 30
0.0
 10
15.3603319881
 20
10.9792789017
 30
0.0
 10
15.3930171354
 20
10.9761988141
 30
0.0
 10
15.4254994625
 20
10.9737990357
 30
0.0
 10
15.4577452089
 20
10.9720820704
 30
0.0
 10
15.4897206325
 20
10.971049702
 30
0.0
 10
15.5109459156
 20
10.9708173702
 30
0.0
 10
15.5215051358
 20
10.9708173702
 30
0.0
  0
SPLINE
  5
299
100
AcDbEntity
  8
02___PRT_ALL_AXES
100
AcDbSpline
 62
7
  6
CONTINUOUS
 70
0
 71
3
 72
50
 73
46
 74
0
 42
0.0000001
 43
0.0000001
 44
0.0000000001
 40
0.0
 40
0.0
 40
0.0
 40
0.0
 40
0.0123991726
 40
0.0248055256
 40
0.0372262185
 40
0.0496683701
 40
0.0621390386
 40
0.0746452007
 40
0.0871937359
 40
0.0997914041
 40
0.1124448341
 40
0.1251605024
 40
0.1379447228
 40
0.1508036307
 40
0.1637431709
 40
0.1767690898
 40
0.1898869199
 40
0.2031019805
 40
0.2164193601
 40
0.2298439222
 40
0.24338029
 40
0.2570328524
 40
0.2847009794
 40
0.3128805971
 40
0.3271714889
 40
0.3415998273
 40
0.3708778147
 40
0.4007351318
 40
0.4311870129
 40
0.4622452087
 40
0.4939181342
 40
0.5262110255
 40
0.5591261004
 40
0.5926627193
 40
0.6268175451
 40
0.6615846987
 40
0.6969559097
 40
0.7329206624
 40
0.7694663354
 40
0.8065783344
 40
0.8442402234
 40
0.8824338324
 40
0.9211394252
 40
0.9603356509
 40
1.0
 40
1.0
 40
1.0
 40
1.0
 10
16.2109068507
 20
11.3167617232
 30
0.0
 10
16.2099027431
 20
11.3135124256
 30
0.0
 10
16.2077983532
 20
11.3070410467
 30
0.0
 10
16.2043567137
 20
11.2974264875
 30
0.0
 10
16.2006305537
 20
11.2879058244
 30
0.0
 10
16.1966209844
 20
11.2784818646
 30
0.0
 10
16.192329119
 20
11.2691572619
 30
0.0
 10
16.187756206
 20
11.2599346591
 30
0.0
 10
16.1829035253
 20
11.2508166813
 30
0.0
 10
16.1777724815
 20
11.241805902
 30
0.0
 10
16.1723645205
 20
11.2329048837
 30
0.0
 10
16.1666811947
 20
11.2241161398
 30
0.0
 10
16.1607241185
 20
11.2154421604
 30
0.0
 10
16.1544949868
 20
11.2068854003
 30
0.0
 10
16.1479955805
 20
11.1984482723
 30
0.0
 10
16.1412277364
 20
11.1901331705
 30
0.0
 10
16.1341933949
 20
11.181942429
 30
0.0
 10
16.1268945387
 20
11.1738783765
 30
0.0
 10
16.1193332551
 20
11.1659432685
 30
0.0
 10
16.1115116895
 20
11.1581393696
 30
0.0
 10
16.1034320212
 20
11.1504688243
 30
0.0
 10
16.0922692049
 20
11.1403779621
 30
0.0
 10
16.0776690305
 20
11.1281093188
 30
0.0
 10
16.0623778882
 20
11.1164239488
 30
0.0
 10
16.0496681386
 20
11.107365322
 30
0.0
 10
16.0365140535
 20
11.09841756
 30
0.0
 10
16.0194666302
 20
11.0876112333
 30
0.0
 10
15.9981816181
 20
11.0753200717
 30
0.0
 10
15.9759935069
 20
11.0636561848
 30
0.0
 10
15.952927634
 20
11.0526327296
 30
0.0
 10
15.9290099781
 20
11.0422619403
 30
0.0
 10
15.9042675529
 20
11.0325553928
 30
0.0
 10
15.8787282659
 20
11.0235239143
 30
0.0
 10
15.8524209229
 20
11.0151775921
 30
0.0
 10
15.8253751897
 20
11.0075257546
 30
0.0
 10
15.7976215638
 20
11.0005769612
 30
0.0
 10
15.7691913414
 20
10.9943389902
 30
0.0
 10
15.7401165836
 20
10.9888188286
 30
0.0
 10
15.7104300809
 20
10.9840226633
 30
0.0
 10
15.680165318
 20
10.9799558717
 30
0.0
 10
15.6493564329
 20
10.976623017
 30
0.0
 10
15.618038192
 20
10.9740278352
 30
0.0
 10
15.5862458929
 20
10.9721732445
 30
0.0
 10
15.5540156043
 20
10.9710613141
 30
0.0
 10
15.5323844709
 20
10.9708173702
 30
0.0
 10
15.5215051358
 20
10.9708173702
 30
0.0
  0
SPLINE
  5
29A
100
AcDbEntity
  8
LAYER_CHAMFER_FEAT
100
AcDbSpline
 62
7
  6
CONTINUOUS
 70
0
 71
3
 72
15
 73
11
 74
0
 42
0.0000001
 43
0.0000001
 44
0.0000000001
 40
0.0
 40
0.0
 40
0.0
 40
0.0
 40
0.131763246
 40
0.2617726251
 40
0.389918871
 40
0.5161209296
 40
0.6402989255
 40
0.7623789514
 40
0.8822974787
 40
1.0
 40
1.0
 40
1.0
 40
1.0
 10
15.1104612205
 20
11.8084368024
 30
0.0
 10
15.1071417288
 20
11.8084368024
 30
0.0
 10
15.1005465945
 20
11.8083531146
 30
0.0
 10
15.0907297507
 20
11.8079711772
 30
0.0
 10
15.0810664441
 20
11.8073340806
 30
0.0
 10
15.0715707666
 20
11.8064427696
 30
0.0
 10
15.0622561317
 20
11.8052985421
 30
0.0
 10
15.0531358397
 20
11.8039029683
 30
0.0
 10
15.0442230721
 20
11.8022580628
 30
0.0
 10
15.0383724378
 20
11.8009847144
 30
0.0
 10
15.0354859269
 20
11.8003058669
 30
0.0
  0
SPLINE
  5
29B
100
AcDbEntity
  8
LAYER_CHAMFER_FEAT
100
AcDbSpline
 62
7
  6
CONTINUOUS
 70
0
 71
3
 72
39
 73
35
 74
0
 42
0.0000001
 43
0.0000001
 44
0.0000000001
 40
0.0
 40
0.0
 40
0.0
 40
0.0
 40
0.0305397023
 40
0.0614592497
 40
0.0927264804
 40
0.1243126111
 40
0.1561858814
 40
0.1883135653
 40
0.220662362
 40
0.253198073
 40
0.2858858922
 40
0.3186905367
 40
0.3515763197
 40
0.3845072964
 40
0.4174473797
 40
0.4503604447
 40
0.4832104616
 40
0.5159616034
 40
0.5485783586
 40
0.5810256711
 40
0.6132690405
 40
0.6452746409
 40
0.6770094777
 40
0.7084414854
 40
0.7395396507
 40
0.7702741947
 40
0.8006166762
 40
0.8305401211
 40
0.8600192334
 40
0.8890305185
 40
0.9175524226
 40
0.9455655739
 40
0.9730529436
 40
1.0
 40
1.0
 40
1.0
 40
1.0
 10
15.1104612205
 20
11.8084368024
 30
0.0
 10
15.1140500366
 20
11.8084368024
 30
0.0
 10
15.1212726601
 20
11.8083377253
 30
0.0
 10
15.1321615887
 20
11.8078990122
 30
0.0
 10
15.1431582168
 20
11.8071698585
 30
0.0
 10
15.1542443343
 20
11.8061515106
 30
0.0
 10
15.1654020544
 20
11.8048456189
 30
0.0
 10
15.1766131578
 20
11.8032543133
 30
0.0
 10
15.1878593668
 20
11.8013801753
 30
0.0
 10
15.1991223648
 20
11.7992262662
 30
0.0
 10
15.2103837971
 20
11.7967961091
 30
0.0
 10
15.2216253056
 20
11.7940936443
 30
0.0
 10
15.2328285702
 20
11.7911232803
 30
0.0
 10
15.2439753359
 20
11.7878898751
 30
0.0
 10
15.2550474303
 20
11.7843986814
 30
0.0
 10
15.2660268062
 20
11.7806553861
 30
0.0
 10
15.2768955758
 20
11.7766661103
 30
0.0
 10
15.2876360205
 20
11.7724373428
 30
0.0
 10
15.2982306315
 20
11.7679759657
 30
0.0
 10
15.3086621518
 20
11.7632892713
 30
0.0
 10
15.3189135787
 20
11.7583848889
 30
0.0
 10
15.3289681987
 20
11.7532707946
 30
0.0
 10
15.3388096397
 20
11.7479553424
 30
0.0
 10
15.3484218655
 20
11.7424471887
 30
0.0
 10
15.3577892041
 20
11.7367552859
 30
0.0
 10
15.3668964077
 20
11.7308889235
 30
0.0
 10
15.3757286434
 20
11.7248576549
 30
0.0
 10
15.3842715108
 20
11.7186712762
 30
0.0
 10
15.3925111077
 20
11.7123398715
 30
0.0
 10
15.4004340244
 20
11.7058737439
 30
0.0
 10
15.4080273339
 20
11.6992833966
 30
0.0
 10
15.4152787093
 20
11.6925795179
 30
0.0
 10
15.4221762487
 20
11.6857731324
 30
0.0
 10
15.4265757728
 20
11.6811274785
 30
0.0
 10
15.4287119028
 20
11.6787898487
 30
0.0
  0
SPLINE
  5
29C
100
AcDbEntity
  8
LAYER_FEATURE
100
AcDbSpline
 62
7
  6
CONTINUOUS
 70
0
 71
3
 72
82
 73
78
 74
0
 42
0.0000001
 43
0.0000001
 44
0.0000000001
 40
0.0
 40
0.0
 40
0.0
 40
0.0
 40
0.0171785369
 40
0.0345301562
 40
0.0520438908
 40
0.0697094359
 40
0.0875156016
 40
0.1054510215
 40
0.1235040348
 40
0.1416627071
 40
0.1599148845
 40
0.1782482074
 40
0.1966501445
 40
0.2151080208
 40
0.2336090442
 40
0.2521403317
 40
0.2706889377
 40
0.2892418815
 40
0.3077861731
 40
0.3263088397
 40
0.3447969541
 40
0.3632376611
 40
0.3816182038
 40
0.3999259507
 40
0.418148426
 40
0.4362733358
 40
0.4542885951
 40
0.4721823574
 40
0.4899430468
 40
0.5075593861
 40
0.5250204266
 40
0.5423155788
 40
0.5594346496
 40
0.5763678742
 40
0.5931059482
 40
0.6096400637
 40
0.6259619508
 40
0.6420639167
 40
0.6579388824
 40
0.6735804248
 40
0.6889828255
 40
0.7041411189
 40
0.7190511353
 40
0.7337095512
 40
0.7481139459
 40
0.762262859
 40
0.7761558414
 40
0.7897935123
 40
0.8031776198
 40
0.8163111046
 40
0.8291981522
 40
0.8418442461
 40
0.8542562206
 40
0.8603772765
 40
0.86644301
 40
0.8784128849
 40
0.8901776678
 40
0.8959874284
 40
0.9017507646
 40
0.9074694749
 40
0.9131454512
 40
0.9187806756
 40
0.9243772095
 40
0.9299372059
 40
0.9354628944
 40
0.9409565817
 40
0.9464206534
 40
0.9518575593
 40
0.9572698188
 40
0.9626600108
 40
0.9680307667
 40
0.9733847708
 40
0.9787247473
 40
0.9840534572
 40
0.9893736919
 40
0.9946882635
 40
1.0
 40
1.0
 40
1.0
 40
1.0
 10
15.4183713898
 20
14.0507926157
 30
0.0
 10
15.4289504442
 20
14.0507926157
 30
0.0
 10
15.450215821
 20
14.0505598298
 30
0.0
 10
15.4822515639
 20
14.0495255404
 30
0.0
 10
15.51455824
 20
14.0478053103
 30
0.0
 10
15.5471018107
 20
14.0454010235
 30
0.0
 10
15.5798486398
 20
14.0423151178
 30
0.0
 10
15.6127645681
 20
14.0385508326
 30
0.0
 10
15.6458153526
 20
14.0341120924
 30
0.0
 10
15.678966595
 20
14.0290035132
 30
0.0
 10
15.7121837857
 20
14.023230404
 30
0.0
 10
15.7454323503
 20
14.0167987777
 30
0.0
 10
15.7786776804
 20
14.0097153371
 30
0.0
 10
15.8118851695
 20
14.0019874556
 30
0.0
 10
15.8450202479
 20
13.9936231681
 30
0.0
 10
15.8780484223
 20
13.9846311815
 30
0.0
 10
15.9109353129
 20
13.9750208657
 30
0.0
 10
15.9436466851
 20
13.9648022255
 30
0.0
 10
15.9761484843
 20
13.953985891
 30
0.0
 10
16.0084068744
 20
13.9425831179
 30
0.0
 10
16.0403882786
 20
13.9306057867
 30
0.0
 10
16.0720594058
 20
13.9180663666
 30
0.0
 10
16.1033872856
 20
13.9049779058
 30
0.0
 10
16.1343393036
 20
13.8913540209
 30
0.0
 10
16.1648832461
 20
13.8772089035
 30
0.0
 10
16.1949873217
 20
13.8625572787
 30
0.0
 10
16.2246201944
 20
13.8474143934
 30
0.0
 10
16.2537510159
 20
13.8317959981
 30
0.0
 10
16.2823494721
 20
13.8157183558
 30
0.0
 10
16.3103858022
 20
13.7991982005
 30
0.0
 10
16.3378308276
 20
13.7822527203
 30
0.0
 10
16.36465598
 20
13.7648995358
 30
0.0
 10
16.3908333493
 20
13.7471567061
 30
0.0
 10
16.4163357012
 20
13.7290426912
 30
0.0
 10
16.4411365
 20
13.7105763296
 30
0.0
 10
16.465209933
 20
13.6917768146
 30
0.0
 10
16.4885309557
 20
13.6726636939
 30
0.0
 10
16.5110753122
 20
13.6532568407
 30
0.0
 10
16.5328195482
 20
13.6335764224
 30
0.0
 10
16.5537410327
 20
13.6136428788
 30
0.0
 10
16.5738179968
 20
13.5934769129
 30
0.0
 10
16.5930295593
 20
13.5730994712
 30
0.0
 10
16.6113557286
 20
13.5525317053
 30
0.0
 10
16.6287774208
 20
13.5317949528
 30
0.0
 10
16.6452764887
 20
13.5109107193
 30
0.0
 10
16.6608357556
 20
13.4899006677
 30
0.0
 10
16.6754390036
 20
13.4687865752
 30
0.0
 10
16.6890709878
 20
13.447590319
 30
0.0
 10
16.7017174562
 20
13.4263338451
 30
0.0
 10
16.7133651795
 20
13.4050391953
 30
0.0
 10
16.7240019714
 20
13.3837283493
 30
0.0
 10
16.7336165438
 20
13.362423639
 30
0.0
 10
16.7408014493
 20
13.3446111072
 30
0.0
 10
16.7460206483
 20
13.3303888608
 30
0.0
 10
16.750845753
 20
13.3163156692
 30
0.0
 10
16.7562312845
 20
13.2987650898
 30
0.0
 10
16.7607793369
 20
13.2811412291
 30
0.0
 10
16.7638788839
 20
13.2671061151
 30
0.0
 10
16.7659279023
 20
13.2566552228
 30
0.0
 10
16.7677102556
 20
13.2462391647
 30
0.0
 10
16.7692254866
 20
13.2358605969
 30
0.0
 10
16.7704732286
 20
13.2255222463
 30
0.0
 10
16.7714530854
 20
13.2152267957
 30
0.0
 10
16.7721648436
 20
13.2049769388
 30
0.0
 10
16.7726082993
 20
13.1947753471
 30
0.0
 10
16.7727832914
 20
13.1846246831
 30
0.0
 10
16.7726898289
 20
13.1745275991
 30
0.0
 10
16.7723278734
 20
13.1644867317
 30
0.0
 10
16.7716975309
 20
13.1545047061
 30
0.0
 10
16.7707989884
 20
13.1445841287
 30
0.0
 10
16.7696324117
 20
13.1347275993
 30
0.0
 10
16.7681981625
 20
13.1249376907
 30
0.0
 10
16.766496584
 20
13.115216964
 30
0.0
 10
16.7645280979
 20
13.1055679757
 30
0.0
 10
16.7622932649
 20
13.0959932127
 30
0.0
 10
16.7597926357
 20
13.0864952925
 30
0.0
 10
16.7579485706
 20
13.0802154252
 30
0.0
 10
16.7569827818
 20
13.077090123
 30
0.0
  0
SPLINE
  5
29D
100
AcDbEntity
  8
LAYER_CHAMFER_FEAT
100
AcDbSpline
 62
7
  6
CONTINUOUS
 70
0
 71
3
 72
17
 73
13
 74
0
 42
0.0000001
 43
0.0000001
 44
0.0000000001
 40
0.0
 40
0.0
 40
0.0
 40
0.0
 40
0.131765487
 40
0.2617698171
 40
0.3899157462
 40
0.5161176412
 40
0.6402942861
 40
0.7016019882
 40
0.7623769654
 40
0.8226114644
 40
0.8822983907
 40
1.0
 40
1.0
 40
1.0
 40
1.0
 10
15.1468948351
 20
12.9342027426
 30
0.0
 10
15.136341483
 20
12.9342027426
 30
0.0
 10
15.1153747629
 20
12.9339367452
 30
0.0
 10
15.0841657755
 20
12.9327224324
 30
0.0
 10
15.0534450546
 20
12.9306970288
 30
0.0
 10
15.0232571019
 20
12.9278635028
 30
0.0
 10
14.9984759479
 20
12.9248193062
 30
0.0
 10
14.978957607
 20
12.9219783958
 30
0.0
 10
14.9645405006
 20
12.9196576195
 30
0.0
 10
14.9502884542
 20
12.9171385675
 30
0.0
 10
14.9316007845
 20
12.913533727
 30
0.0
 10
14.917715189
 20
12.9105115669
 30
0.0
 10
14.9085385965
 20
12.908353439
 30
0.0
  0
SPLINE
  5
29E
100
AcDbEntity
  8
LAYER_CHAMFER_FEAT
100
AcDbSpline
 62
7
  6
CONTINUOUS
 70
0
 71
3
 72
40
 73
36
 74
0
 42
0.0000001
 43
0.0000001
 44
0.0000000001
 40
0.0
 40
0.0
 40
0.0
 40
0.0
 40
0.0152210609
 40
0.0305410034
 40
0.061459639
 40
0.0927271105
 40
0.124313263
 40
0.1561864384
 40
0.1883141302
 40
0.2206629011
 40
0.2531985848
 40
0.2858863854
 40
0.3186910058
 40
0.351576766
 40
0.3845077214
 40
0.4174477811
 40
0.4503608245
 40
0.4832108188
 40
0.515961936
 40
0.548578671
 40
0.5810259609
 40
0.6132693048
 40
0.6452748875
 40
0.6770097033
 40
0.7084416848
 40
0.739539834
 40
0.7702743584
 40
0.8006168117
 40
0.8305402401
 40
0.8600193347
 40
0.8890305914
 40
0.9175524792
 40
0.9455656167
 40
0.9730529601
 40
1.0
 40
1.0
 40
1.0
 40
1.0
 10
15.1468948351
 20
12.9342027426
 30
0.0
 10
15.1525812687
 20
12.9342027426
 30
0.0
 10
15.1639912421
 20
12.9341247089
 30
0.0
 10
15.1869477494
 20
12.9336588986
 30
0.0
 10
15.2158834078
 20
12.9324930005
 30
0.0
 10
15.2508427365
 20
12.9301749692
 30
0.0
 10
15.2860870854
 20
12.9269375174
 30
0.0
 10
15.3215589203
 20
12.9227859096
 30
0.0
 10
15.3572004643
 20
12.9177269273
 30
0.0
 10
15.3929536386
 20
12.911768808
 30
0.0
 10
15.4287601805
 20
12.9049212653
 30
0.0
 10
15.4645617372
 20
12.8971954571
 30
0.0
 10
15.5002999613
 20
12.8886039749
 30
0.0
 10
15.5359166066
 20
12.8791608204
 30
0.0
 10
15.5713536237
 20
12.8688813836
 30
0.0
 10
15.6065532552
 20
12.8577824186
 30
0.0
 10
15.6414581309
 20
12.8458820159
 30
0.0
 10
15.6760113614
 20
12.8331995715
 30
0.0
 10
15.7101566314
 20
12.8197557561
 30
0.0
 10
15.7438382921
 20
12.80557248
 30
0.0
 10
15.7770014521
 20
12.7906728579
 30
0.0
 10
15.8095920674
 20
12.7750811699
 30
0.0
 10
15.84155703
 20
12.758822822
 30
0.0
 10
15.8728442542
 20
12.7419243037
 30
0.0
 10
15.9034027626
 20
12.7244131437
 30
0.0
 10
15.9331827686
 20
12.7063178645
 30
0.0
 10
15.9621357584
 20
12.6876679347
 30
0.0
 10
15.9902145703
 20
12.6684937204
 30
0.0
 10
16.0173734719
 20
12.6488264325
 30
0.0
 10
16.0435682304
 20
12.6286980775
 30
0.0
 10
16.068756196
 20
12.608141391
 30
0.0
 10
16.0928963266
 20
12.5871898281
 30
0.0
 10
16.115949411
 20
12.5658773386
 30
0.0
 10
16.137877557
 20
12.54423892
 30
0.0
 10
16.1518642496
 20
12.5294698123
 30
0.0
 10
16.1586552708
 20
12.5220381676
 30
0.0
  0
SPLINE
  5
29F
100
AcDbEntity
  8
LAYER_FEATURE
100
AcDbSpline
 62
7
  6
CONTINUOUS
 70
0
 71
3
 72
51
 73
47
 74
0
 42
0.0000001
 43
0.0000001
 44
0.0000000001
 40
0.0
 40
0.0
 40
0.0
 40
0.0
 40
0.039663978
 40
0.0788605751
 40
0.1175658885
 40
0.1557594871
 40
0.1934212958
 40
0.2305332192
 40
0.2670788219
 40
0.3030435048
 40
0.3384146505
 40
0.3731817379
 40
0.4073364956
 40
0.4408730488
 40
0.473788062
 40
0.5060808943
 40
0.5377537589
 40
0.5688118921
 40
0.5992637133
 40
0.6291209742
 40
0.6583989076
 40
0.6728272154
 40
0.6871180816
 40
0.715297643
 40
0.7291947673
 40
0.7429676401
 40
0.7566201783
 40
0.77015652
 40
0.7835810543
 40
0.7968984118
 40
0.8101134435
 40
0.8232312507
 40
0.8362571439
 40
0.8491966583
 40
0.8620555435
 40
0.8748397373
 40
0.8875553823
 40
0.9002087878
 40
0.9128064313
 40
0.9253549433
 40
0.9378610806
 40
0.9503317253
 40
0.9627738532
 40
0.9751945219
 40
0.9876008513
 40
1.0
 40
1.0
 40
1.0
 40
1.0
 10
15.4183713898
 20
14.0507926157
 30
0.0
 10
15.4074716088
 20
14.0507926157
 30
0.0
 10
15.3857996206
 20
14.0505481967
 30
0.0
 10
15.3535085338
 20
14.0494341955
 30
0.0
 10
15.321656167
 20
14.0475760771
 30
0.0
 10
15.290278875
 20
14.0449760195
 30
0.0
 10
15.2594118462
 20
14.0416368732
 30
0.0
 10
15.229089984
 20
14.0375624047
 30
0.0
 10
15.199347471
 20
14.0327571873
 30
0.0
 10
15.1702178548
 20
14.0272266105
 30
0.0
 10
15.1417339888
 20
14.0209768742
 30
0.0
 10
15.1139279972
 20
14.0140149708
 30
0.0
 10
15.0868312366
 20
14.0063486913
 30
0.0
 10
15.0604742583
 20
13.9979866197
 30
0.0
 10
15.0348867823
 20
13.9889381031
 30
0.0
 10
15.0100976699
 20
13.9792132465
 30
0.0
 10
14.9861348867
 20
13.9688228892
 30
0.0
 10
14.9630254968
 20
13.9577786297
 30
0.0
 10
14.940795524
 20
13.9460927354
 30
0.0
 10
14.9194703468
 20
13.9337783798
 30
0.0
 10
14.9023907648
 20
13.922951684
 30
0.0
 10
14.889211843
 20
13.913987006
 30
0.0
 10
14.8764782076
 20
13.9049113837
 30
0.0
 10
14.8641655341
 20
13.895502062
 30
0.0
 10
14.8523027058
 20
13.8857626289
 30
0.0
 10
14.8436976413
 20
13.8783513373
 30
0.0
 10
14.8353465071
 20
13.8708021779
 30
0.0
 10
14.8272516227
 20
13.8631171849
 30
0.0
 10
14.8194153017
 20
13.8552985449
 30
0.0
 10
14.8118397365
 20
13.8473484837
 30
0.0
 10
14.8045271266
 20
13.8392691981
 30
0.0
 10
14.7974795003
 20
13.8310630143
 30
0.0
 10
14.7906988901
 20
13.8227322203
 30
0.0
 10
14.7841872272
 20
13.8142791684
 30
0.0
 10
14.7779463284
 20
13.8057062739
 30
0.0
 10
14.7719780273
 20
13.7970159178
 30
0.0
 10
14.7662839695
 20
13.7882105977
 30
0.0
 10
14.7608658048
 20
13.7792927846
 30
0.0
 10
14.7557250881
 20
13.7702649993
 30
0.0
 10
14.7508632386
 20
13.7611298247
 30
0.0
 10
14.7462817077
 20
13.7518898155
 30
0.0
 10
14.7419817438
 20
13.7425476199
 30
0.0
 10
14.7379645986
 20
13.7331058833
 30
0.0
 10
14.7342314271
 20
13.7235672494
 30
0.0
 10
14.7307832718
 20
13.7139345576
 30
0.0
 10
14.7286749233
 20
13.7074509644
 30
0.0
 10
14.7276689226
 20
13.7041955357
 30
0.0
  0
SPLINE
  5
2A0
100
AcDbEntity
  8
LAYER_FEATURE
100
AcDbSpline
 62
7
  6
CONTINUOUS
 70
0
 71
3
 72
20
 73
16
 74
0
 42
0.0000001
 43
0.0000001
 44
0.0000000001
 40
0.0
 40
0.0
 40
0.0
 40
0.0
 40
0.0564833473
 40
0.1131326517
 40
0.170111632
 40
0.2275790377
 40
0.285687269
 40
0.344579582
 40
0.4043895485
 40
0.4652396453
 40
0.5272403093
 40
0.5904898468
 40
0.7210184271
 40
0.8574131998
 40
1.0
 40
1.0
 40
1.0
 40
1.0
 10
16.3767614069
 20
13.281260728
 30
0.0
 10
16.3768516222
 20
13.2815526747
 30
0.0
 10
16.3770129819
 20
13.2821436026
 30
0.0
 10
16.3771963384
 20
13.2830460808
 30
0.0
 10
16.3773208966
 20
13.2839639364
 30
0.0
 10
16.3773865291
 20
13.2848957617
 30
0.0
 10
16.377393094
 20
13.2858402057
 30
0.0
 10
16.3773406649
 20
13.2867958821
 30
0.0
 10
16.3772293044
 20
13.2877614032
 30
0.0
 10
16.3770592068
 20
13.2887353644
 30
0.0
 10
16.3768306523
 20
13.2897163946
 30
0.0
 10
16.3764443998
 20
13.2910457048
 30
0.0
 10
16.3758121892
 20
13.2927197732
 30
0.0
 10
16.3748355467
 20
13.2947114023
 30
0.0
 10
16.3740552019
 20
13.296005659
 30
0.0
 10
16.3736315912
 20
13.2966503108
 30
0.0
  0
SPLINE
  5
2A1
100
AcDbEntity
  8
02___PRT_ALL_AXES
100
AcDbSpline
 62
7
  6
CONTINUOUS
 70
0
 71
3
 72
53
 73
49
 74
0
 42
0.0000001
 43
0.0000001
 44
0.0000000001
 40
0.0
 40
0.0
 40
0.0
 40
0.0
 40
0.011432216
 40
0.0229207563
 40
0.0344870221
 40
0.0461514863
 40
0.0579336093
 40
0.0698515092
 40
0.0819219881
 40
0.094160217
 40
0.1065798286
 40
0.1191927144
 40
0.1320090797
 40
0.1450374191
 40
0.1717506481
 40
0.1854488107
 40
0.1993762084
 40
0.2135331987
 40
0.2279188411
 40
0.2425308151
 40
0.2573656168
 40
0.2724186171
 40
0.2876841476
 40
0.3031556797
 40
0.3188258038
 40
0.3346864652
 40
0.3507289338
 40
0.3669440078
 40
0.3833220156
 40
0.3998529583
 40
0.4165265559
 40
0.4502571736
 40
0.4844314631
 40
0.5189641658
 40
0.5537712752
 40
0.5887711791
 40
0.6238855693
 40
0.6590400597
 40
0.6941647231
 40
0.7291944122
 40
0.7640691213
 40
0.7987342063
 40
0.8331406722
 40
0.8672453903
 40
0.9010112854
 40
0.9344076588
 40
0.9674097579
 40
1.0
 40
1.0
 40
1.0
 40
1.0
 10
14.7919859574
 20
12.5464091156
 30
0.0
 10
14.7912594333
 20
12.5478896065
 30
0.0
 10
14.7898796397
 20
12.550896285
 30
0.0
 10
14.7880392596
 20
12.5555204889
 30
0.0
 10
14.7864256817
 20
12.5602641359
 30
0.0
 10
14.7850401846
 20
12.5651233022
 30
0.0
 10
14.7838838772
 20
12.5700940862
 30
0.0
 10
14.7829575246
 20
12.5751722853
 30
0.0
 10
14.7822618226
 20
12.5803535071
 30
0.0
 10
14.7817971061
 20
12.5856331076
 30
0.0
 10
14.7815636017
 20
12.5910062205
 30
0.0
 10
14.7815612274
 20
12.5964676974
 30
0.0
 10
14.7817897194
 20
12.602012294
 30
0.0
 10
14.7824065756
 20
12.609570479
 30
0.0
 10
14.7834853147
 20
12.6172123628
 30
0.0
 10
14.7849983072
 20
12.6249047097
 30
0.0
 10
14.7863685601
 20
12.6307755512
 30
0.0
 10
14.7879629045
 20
12.6366920978
 30
0.0
 10
14.7897794356
 20
12.6426475568
 30
0.0
 10
14.7918159155
 20
12.648634744
 30
0.0
 10
14.7940699073
 20
12.6546463611
 30
0.0
 10
14.7965387502
 20
12.6606749403
 30
0.0
 10
14.7992195308
 20
12.6667129082
 30
0.0
 10
14.8021091788
 20
12.6727525516
 30
0.0
 10
14.8052043551
 20
12.6787861083
 30
0.0
 10
14.8085016007
 20
12.6848057033
 30
0.0
 10
14.81199721
 20
12.6908034548
 30
0.0
 10
14.8156873641
 20
12.6967714178
 30
0.0
 10
14.8195680397
 20
12.702701646
 30
0.0
 10
14.8236351186
 20
12.7085862401
 30
0.0
 10
14.8293222172
 20
12.7163904279
 30
0.0
 10
14.8368729135
 20
12.7259809399
 30
0.0
 10
14.8465715458
 20
12.7371373249
 30
0.0
 10
14.8569048594
 20
12.747924936
 30
0.0
 10
14.8678327394
 20
12.7582837173
 30
0.0
 10
14.8793136093
 20
12.7681554394
 30
0.0
 10
14.8913040988
 20
12.7774836167
 30
0.0
 10
14.9037589832
 20
12.786213842
 30
0.0
 10
14.9166309841
 20
12.7942940341
 30
0.0
 10
14.9298705885
 20
12.801674779
 30
0.0
 10
14.9434258658
 20
12.8083097157
 30
0.0
 10
14.9572423485
 20
12.8141559966
 30
0.0
 10
14.971262965
 20
12.8191748061
 30
0.0
 10
14.9854281161
 20
12.8233319101
 30
0.0
 10
14.9996757456
 20
12.8265982524
 30
0.0
 10
15.0139419623
 20
12.8289504366
 30
0.0
 10
15.0281601516
 20
12.8303713461
 30
0.0
 10
15.0376249858
 20
12.8306927243
 30
0.0
 10
15.0423262744
 20
12.8306927243
 30
0.0
  0
SPLINE
  5
2A2
100
AcDbEntity
  8
LAYER_FEATURE
100
AcDbSpline
 62
7
  6
CONTINUOUS
 70
0
 71
3
 72
11
 73
7
 74
0
 42
0.0000001
 43
0.0000001
 44
0.0000000001
 40
0.0
 40
0.0
 40
0.0
 40
0.0
 40
0.2420120886
 40
0.489427975
 40
0.7421519254
 40
1.0
 40
1.0
 40
1.0
 40
1.0
 10
16.0809675761
 20
13.402694008
 30
0.0
 10
16.082015849
 20
13.4014255834
 30
0.0
 10
16.0841870861
 20
13.3989023849
 30
0.0
 10
16.0876208823
 20
13.3952032092
 30
0.0
 10
16.0912618089
 20
13.3915540245
 30
0.0
 10
16.0937978619
 20
13.3891821754
 30
0.0
 10
16.0950978813
 20
13.3880058737
 30
0.0
  0
SPLINE
  5
2A3
100
AcDbEntity
  8
LAYER_FEATURE
100
AcDbSpline
 62
7
  6
CONTINUOUS
 70
0
 71
3
 72
29
 73
25
 74
0
 42
0.0000001
 43
0.0000001
 44
0.0000000001
 40
0.0
 40
0.0
 40
0.0
 40
0.0
 40
0.0241851958
 40
0.0484373779
 40
0.0728226159
 40
0.097405236
 40
0.122246856
 40
0.147406028
 40
0.1729371666
 40
0.1988906048
 40
0.2522232405
 40
0.3077309398
 40
0.3363820615
 40
0.3656557642
 40
0.3955686106
 40
0.4261330801
 40
0.4892333243
 40
0.5549874419
 40
0.623357373
 40
0.6942555959
 40
0.7675524223
 40
0.8430777739
 40
0.9206390444
 40
1.0
 40
1.0
 40
1.0
 40
1.0
 10
16.1159449248
 20
13.5156604543
 30
0.0
 10
16.1160324988
 20
13.5159438404
 30
0.0
 10
16.1161896523
 20
13.5165172175
 30
0.0
 10
16.1163701296
 20
13.517392485
 30
0.0
 10
16.1164952414
 20
13.5182823163
 30
0.0
 10
16.1165648065
 20
13.5191854277
 30
0.0
 10
16.1165787878
 20
13.5201005855
 30
0.0
 10
16.1165371246
 20
13.5210265186
 30
0.0
 10
16.1164399488
 20
13.5219619862
 30
0.0
 10
16.1162347052
 20
13.5232315751
 30
0.0
 10
16.1158356802
 20
13.5248392786
 30
0.0
 10
16.1152645635
 20
13.5264287585
 30
0.0
 10
16.1147044211
 20
13.5277025636
 30
0.0
 10
16.1142269007
 20
13.5286685981
 30
0.0
 10
16.1136971267
 20
13.5296338076
 30
0.0
 10
16.1129137317
 20
13.5309316189
 30
0.0
 10
16.1118043096
 20
13.5325439923
 30
0.0
 10
16.1102918056
 20
13.5344339193
 30
0.0
 10
16.1085922666
 20
13.5362893392
 30
0.0
 10
16.1067149198
 20
13.538100305
 30
0.0
 10
16.1046698702
 20
13.539857158
 30
0.0
 10
16.1024680919
 20
13.5415505716
 30
0.0
 10
16.1001215222
 20
13.5431713304
 30
0.0
 10
16.0984859366
 20
13.5441871465
 30
0.0
 10
16.0976474868
 20
13.5446814063
 30
0.0
  0
SPLINE
  5
2A4
100
AcDbEntity
  8
LAYER_FEATURE
100
AcDbSpline
 62
7
  6
CONTINUOUS
 70
0
 71
3
 72
41
 73
37
 74
0
 42
0.0000001
 43
0.0000001
 44
0.0000000001
 40
0.0
 40
0.0
 40
0.0
 40
0.0
 40
0.0113143918
 40
0.0226688097
 40
0.0455358549
 40
0.0686866383
 40
0.0921978947
 40
0.1161403135
 40
0.140577533
 40
0.1655657119
 40
0.1911533982
 40
0.2041863931
 40
0.2173839121
 40
0.2442851199
 40
0.2718854051
 40
0.3002033635
 40
0.3292509831
 40
0.3590340178
 40
0.3895522636
 40
0.4208002021
 40
0.45276725
 40
0.4854381378
 40
0.5187934423
 40
0.5528097273
 40
0.5874599918
 40
0.6227140241
 40
0.6585385177
 40
0.6948975375
 40
0.7317527069
 40
0.769063329
 40
0.806786916
 40
0.8448793227
 40
0.8832941549
 40
0.9219845177
 40
0.9609048312
 40
1.0
 40
1.0
 40
1.0
 40
1.0
 10
15.7315139014
 20
13.6490755189
 30
0.0
 10
15.7313929927
 20
13.6484754706
 30
0.0
 10
15.7311735957
 20
13.6472685032
 30
0.0
 10
15.7308247831
 20
13.6448293735
 30
0.0
 10
15.7305588311
 20
13.6417338007
 30
0.0
 10
15.7305126997
 20
13.6379693605
 30
0.0
 10
15.7307385626
 20
13.6341531735
 30
0.0
 10
15.7312358671
 20
13.6302928152
 30
0.0
 10
15.7320034907
 20
13.6263956915
 30
0.0
 10
15.7330397147
 20
13.6224693598
 30
0.0
 10
15.7341187249
 20
13.619199378
 30
0.0
 10
15.7351111037
 20
13.6165772076
 30
0.0
 10
15.7362040447
 20
13.6139183083
 30
0.0
 10
15.737736533
 20
13.6105897051
 30
0.0
 10
15.7398210932
 20
13.6066215076
 30
0.0
 10
15.7421587842
 20
13.6026615821
 30
0.0
 10
15.7447450577
 20
13.5987175295
 30
0.0
 10
15.7475749636
 20
13.5947968292
 30
0.0
 10
15.7506430275
 20
13.5909069085
 30
0.0
 10
15.7539433884
 20
13.5870551773
 30
0.0
 10
15.7574697267
 20
13.5832489696
 30
0.0
 10
15.7612152701
 20
13.5794955106
 30
0.0
 10
15.7651728779
 20
13.5758019819
 30
0.0
 10
15.7693349663
 20
13.5721754153
 30
0.0
 10
15.773693566
 20
13.5686227219
 30
0.0
 10
15.7782403609
 20
13.5651507153
 30
0.0
 10
15.7829666324
 20
13.5617660025
 30
0.0
 10
15.7878633434
 20
13.5584750596
 30
0.0
 10
15.7929211341
 20
13.5552842
 30
0.0
 10
15.7981303063
 20
13.552199495
 30
0.0
 10
15.8034809102
 20
13.5492268643
 30
0.0
 10
15.8089626919
 20
13.5463720142
 30
0.0
 10
15.8145651243
 20
13.5436403766
 30
0.0
 10
15.8202776228
 20
13.5410371562
 30
0.0
 10
15.8260890537
 20
13.53856745
 30
0.0
 10
15.8300147367
 20
13.5370159
 30
0.0
 10
15.8319913808
 20
13.5362633654
 30
0.0
  0
SPLINE
  5
2A5
100
AcDbEntity
  8
LAYER_FEATURE
100
AcDbSpline
 62
7
  6
CONTINUOUS
 70
0
 71
3
 72
39
 73
35
 74
0
 42
0.0000001
 43
0.0000001
 44
0.0000000001
 40
0.0
 40
0.0
 40
0.0
 40
0.0
 40
0.0109032668
 40
0.0218226025
 40
0.0437694246
 40
0.0659778125
 40
0.0885693398
 40
0.1116543216
 40
0.1353309429
 40
0.1596835591
 40
0.1847819053
 40
0.2106810522
 40
0.2374222945
 40
0.2650332959
 40
0.2935294188
 40
0.3229146191
 40
0.3531821184
 40
0.384315932
 40
0.416291188
 40
0.4490753645
 40
0.4826290598
 40
0.5169064093
 40
0.5518562741
 40
0.5874224088
 40
0.6235443281
 40
0.6601578732
 40
0.6971955456
 40
0.7345872865
 40
0.7722606562
 40
0.8481461775
 40
0.8862153931
 40
0.9242646713
 40
0.9622215965
 40
1.0
 40
1.0
 40
1.0
 40
1.0
 10
15.7348617313
 20
13.6596556997
 30
0.0
 10
15.7349267517
 20
13.6598660971
 30
0.0
 10
15.735046857
 20
13.6602903878
 30
0.0
 10
15.7352468572
 20
13.6611517538
 30
0.0
 10
15.7354207887
 20
13.6622522578
 30
0.0
 10
15.7355061785
 20
13.6635995066
 30
0.0
 10
15.735468646
 20
13.6649719011
 30
0.0
 10
15.7353083348
 20
13.6663651379
 30
0.0
 10
15.7350259467
 20
13.6677750113
 30
0.0
 10
15.7346224668
 20
13.6691972992
 30
0.0
 10
15.7340992089
 20
13.670627774
 30
0.0
 10
15.7334578841
 20
13.672062235
 30
0.0
 10
15.7327004404
 20
13.6734964447
 30
0.0
 10
15.7318292222
 20
13.6749262061
 30
0.0
 10
15.7308468581
 20
13.6763473187
 30
0.0
 10
15.7297562774
 20
13.6777555852
 30
0.0
 10
15.7285607726
 20
13.679146884
 30
0.0
 10
15.7272638787
 20
13.6805170807
 30
0.0
 10
15.7258694759
 20
13.6818621401
 30
0.0
 10
15.7243817162
 20
13.6831780826
 30
0.0
 10
15.7228050105
 20
13.6844609842
 30
0.0
 10
15.7211440745
 20
13.6857070677
 30
0.0
 10
15.7194038331
 20
13.6869126031
 30
0.0
 10
15.7175894761
 20
13.6880740179
 30
0.0
 10
15.7157064117
 20
13.6891878638
 30
0.0
 10
15.7137602325
 20
13.6902508005
 30
0.0
 10
15.7117567622
 20
13.6912596891
 30
0.0
 10
15.7097019251
 20
13.692211516
 30
0.0
 10
15.7068953886
 20
13.6934034868
 30
0.0
 10
15.7040204987
 20
13.694465835
 30
0.0
 10
15.7010937645
 20
13.6953941057
 30
0.0
 10
15.6988764762
 20
13.6960217537
 30
0.0
 10
15.6966463398
 20
13.696578086
 30
0.0
 10
15.6951509359
 20
13.6969013561
 30
0.0
 10
15.6944026567
 20
13.6970505993
 30
0.0
  0
SPLINE
  5
2A6
100
AcDbEntity
  8
LAYER_CUT_FEAT
100
AcDbSpline
 62
7
  6
CONTINUOUS
 70
0
 71
3
 72
23
 73
19
 74
0
 42
0.0000001
 43
0.0000001
 44
0.0000000001
 40
0.0
 40
0.0
 40
0.0
 40
0.0
 40
0.0581641125
 40
0.1164420918
 40
0.1749467097
 40
0.2337885831
 40
0.293075135
 40
0.3529097525
 40
0.413390921
 40
0.4746115696
 40
0.5366585848
 40
0.5996122094
 40
0.663546048
 40
0.7285267779
 40
0.7946132338
 40
0.8618582405
 40
0.9303095751
 40
1.0
 40
1.0
 40
1.0
 40
1.0
 10
14.7042081813
 20
11.7823668274
 30
0.0
 10
14.7033068693
 20
11.7794501695
 30
0.0
 10
14.7016600201
 20
11.7735611177
 30
0.0
 10
14.6996668626
 20
11.7645936503
 30
0.0
 10
14.6981515206
 20
11.7554969006
 30
0.0
 10
14.6971155665
 20
11.7462800528
 30
0.0
 10
14.6965598448
 20
11.7369519797
 30
0.0
 10
14.6964848607
 20
11.7275217473
 30
0.0
 10
14.6968905807
 20
11.7179984744
 30
0.0
 10
14.6977764747
 20
11.7083913468
 30
0.0
 10
14.6991416401
 20
11.6987096183
 30
0.0
 10
14.7009846032
 20
11.6889625753
 30
0.0
 10
14.7033035084
 20
11.6791595482
 30
0.0
 10
14.7060960664
 20
11.6693099387
 30
0.0
 10
14.7093594263
 20
11.6594231417
 30
0.0
 10
14.7130905018
 20
11.6495084506
 30
0.0
 10
14.7172855405
 20
11.6395756483
 30
0.0
 10
14.7203608482
 20
11.6330075738
 30
0.0
 10
14.7219722233
 20
11.6297239365
 30
0.0
  0
SPLINE
  5
2A7
100
AcDbEntity
  8
02___PRT_ALL_AXES
100
AcDbSpline
 62
7
  6
CONTINUOUS
 70
0
 71
3
 72
30
 73
26
 74
0
 42
0.0000001
 43
0.0000001
 44
0.0000000001
 40
0.0
 40
0.0
 40
0.0
 40
0.0
 40
0.0678896179
 40
0.1349652733
 40
0.201225412
 40
0.2666767665
 40
0.3313335608
 40
0.3952169259
 40
0.4583540751
 40
0.5207777316
 40
0.5825255522
 40
0.6131638868
 40
0.6436494661
 40
0.67398822
 40
0.7041863689
 40
0.7342503626
 40
0.7641869647
 40
0.7940031936
 40
0.8237063729
 40
0.8533040969
 40
0.8828043007
 40
0.9122152266
 40
0.9415454718
 40
0.9708039616
 40
1.0
 40
1.0
 40
1.0
 40
1.0
 10
15.0423262744
 20
12.8306927243
 30
0.0
 10
15.0464991528
 20
12.8306927243
 30
0.0
 10
15.0547972452
 20
12.8304426452
 30
0.0
 10
15.0671209141
 20
12.8293037008
 30
0.0
 10
15.0792003622
 20
12.8274097457
 30
0.0
 10
15.0909872088
 20
12.8247717226
 30
0.0
 10
15.1024349304
 20
12.8214047283
 30
0.0
 10
15.1134981484
 20
12.817327784
 30
0.0
 10
15.1241332435
 20
12.8125634226
 30
0.0
 10
15.1342979286
 20
12.8071377337
 30
0.0
 10
15.1423651675
 20
12.8020752429
 30
0.0
 10
15.1485398658
 20
12.797724188
 30
0.0
 10
15.1530177154
 20
12.7943230434
 30
0.0
 10
15.1573493177
 20
12.7907801731
 30
0.0
 10
15.1615304601
 20
12.7870999942
 30
0.0
 10
15.1655568659
 20
12.7832869877
 30
0.0
 10
15.1694244942
 20
12.7793458296
 30
0.0
 10
15.1731293378
 20
12.7752812167
 30
0.0
 10
15.1766675937
 20
12.771098022
 30
0.0
 10
15.1800355087
 20
12.7668011455
 30
0.0
 10
15.1832295266
 20
12.762395632
 30
0.0
 10
15.1862461542
 20
12.7578865695
 30
0.0
 10
15.1890821017
 20
12.7532791355
 30
0.0
 10
15.19173411
 20
12.7485786706
 30
0.0
 10
15.1933791513
 20
12.7453832714
 30
0.0
 10
15.1941697318
 20
12.743772246
 30
0.0
  0
SPLINE
  5
2A8
100
AcDbEntity
  8
LAYER_CUT_FEAT
100
AcDbSpline
 62
7
  6
CONTINUOUS
 70
0
 71
3
 72
15
 73
11
 74
0
 42
0.0000001
 43
0.0000001
 44
0.0000000001
 40
0.0
 40
0.0
 40
0.0
 40
0.0
 40
0.1233605043
 40
0.2470387538
 40
0.3711118855
 40
0.4956556957
 40
0.6207445816
 40
0.7464513703
 40
0.8728468693
 40
1.0
 40
1.0
 40
1.0
 40
1.0
 10
14.7099079841
 20
11.7982809043
 30
0.0
 10
14.7095476852
 20
11.796556589
 30
0.0
 10
14.7088794863
 20
11.7930921299
 30
0.0
 10
14.7080361656
 20
11.7878594814
 30
0.0
 10
14.7073510062
 20
11.7825866996
 30
0.0
 10
14.7068241879
 20
11.7772755315
 30
0.0
 10
14.7064558764
 20
11.771927649
 30
0.0
 10
14.7062462239
 20
11.7665447389
 30
0.0
 10
14.7061952377
 20
11.7611285699
 30
0.0
 10
14.7062668223
 20
11.7575080699
 30
0.0
 10
14.7063287921
 20
11.7556934144
 30
0.0
  0
SPLINE
  5
2A9
100
AcDbEntity
  8
LAYER_CUT_FEAT
100
AcDbSpline
 62
7
  6
CONTINUOUS
 70
0
 71
3
 72
82
 73
78
 74
0
 42
0.0000001
 43
0.0000001
 44
0.0000000001
 40
0.0
 40
0.0
 40
0.0
 40
0.0
 40
0.013106124
 40
0.0265341928
 40
0.0402891277
 40
0.0543740593
 40
0.068789325
 40
0.0835332071
 40
0.098601885
 40
0.1139896335
 40
0.1296889617
 40
0.145690747
 40
0.1619843651
 40
0.1785578091
 40
0.195397803
 40
0.2124899087
 40
0.2298186315
 40
0.2473675182
 40
0.2651192495
 40
0.2830557291
 40
0.3011581689
 40
0.3194071718
 40
0.3377828149
 40
0.3562647274
 40
0.3748321675
 40
0.393464097
 40
0.4121392563
 40
0.4308362383
 40
0.4495335623
 40
0.4682097466
 40
0.4868433811
 40
0.5054132001
 40
0.523898157
 40
0.542277499
 40
0.5605308428
 40
0.5786382502
 40
0.5965803069
 40
0.6143382031
 40
0.6318938185
 40
0.6492298082
 40
0.6663296902
 40
0.6831779385
 40
0.6997600805
 40
0.7160627996
 40
0.7320740466
 40
0.7477831516
 40
0.7631809433
 40
0.7782598769
 40
0.793014169
 40
0.807439941
 40
0.8215353709
 40
0.8353008455
 40
0.8487391174
 40
0.8553375641
 40
0.8618564137
 40
0.8746587933
 40
0.8809460381
 40
0.8871590868
 40
0.8993688382
 40
0.9053709183
 40
0.9113071892
 40
0.9171802427
 40
0.9229928493
 40
0.9287479822
 40
0.9344488012
 40
0.9400986467
 40
0.9457010488
 40
0.9512596979
 40
0.9567784586
 40
0.962261342
 40
0.9677125021
 40
0.9731362228
 40
0.9785368956
 40
0.9839190137
 40
0.9892871443
 40
0.9946459168
 40
1.0
 40
1.0
 40
1.0
 40
1.0
 10
15.6669808031
 20
11.6297239365
 30
0.0
 10
15.6648145552
 20
11.6341382856
 30
0.0
 10
15.6602048712
 20
11.6429671588
 30
0.0
 10
15.6525842194
 20
11.6560272882
 30
0.0
 10
15.6441872484
 20
11.6690416423
 30
0.0
 10
15.6350287281
 20
11.6819876882
 30
0.0
 10
15.6251242007
 20
11.6948436388
 30
0.0
 10
15.6144906671
 20
11.7075876351
 30
0.0
 10
15.6031462769
 20
11.7201980501
 30
0.0
 10
15.5911104122
 20
11.7326534569
 30
0.0
 10
15.5784036187
 20
11.7449326793
 30
0.0
 10
15.5650475812
 20
11.7570148251
 30
0.0
 10
15.5510650883
 20
11.7688793253
 30
0.0
 10
15.5364799955
 20
11.7805059687
 30
0.0
 10
15.5213171897
 20
11.7918749404
 30
0.0
 10
15.5056025501
 20
11.8029668618
 30
0.0
 10
15.489362898
 20
11.8137628178
 30
0.0
 10
15.4726259519
 20
11.8242443917
 30
0.0
 10
15.4554202808
 20
11.8343936979
 30
0.0
 10
15.4377752556
 20
11.8441934115
 30
0.0
 10
15.4197210023
 20
11.8536268034
 30
0.0
 10
15.4012883508
 20
11.8626777718
 30
0.0
 10
15.3825087774
 20
11.8713308634
 30
0.0
 10
15.363414352
 20
11.8795713019
 30
0.0
 10
15.3440376828
 20
11.8873850135
 30
0.0
 10
15.3244118613
 20
11.8947586499
 30
0.0
 10
15.3045704075
 20
11.9016796178
 30
0.0
 10
15.2845472112
 20
11.9081360997
 30
0.0
 10
15.2643764717
 20
11.9141170692
 30
0.0
 10
15.2440926399
 20
11.9196123108
 30
0.0
 10
15.2237303594
 20
11.9246124376
 30
0.0
 10
15.2033244068
 20
11.9291089055
 30
0.0
 10
15.1829096336
 20
11.9330940368
 30
0.0
 10
15.1625209044
 20
11.9365610288
 30
0.0
 10
15.1421930366
 20
11.9395039613
 30
0.0
 10
15.1219607412
 20
11.9419178078
 30
0.0
 10
15.1018585638
 20
11.943798443
 30
0.0
 10
15.081920824
 20
11.9451426492
 30
0.0
 10
15.0621815573
 20
11.9459481305
 30
0.0
 10
15.0426744542
 20
11.9462135091
 30
0.0
 10
15.0234328042
 20
11.9459383244
 30
0.0
 10
15.0044894388
 20
11.9451230341
 30
0.0
 10
14.9858766753
 20
11.9437690109
 30
0.0
 10
14.9676262608
 20
11.9418785396
 30
0.0
 10
14.9497693161
 20
11.9394548208
 30
0.0
 10
14.9323362834
 20
11.9365019539
 30
0.0
 10
14.915356876
 20
11.9330249272
 30
0.0
 10
14.8988600319
 20
11.929029608
 30
0.0
 10
14.8828738587
 20
11.9245227253
 30
0.0
 10
14.8674256136
 20
11.9195118693
 30
0.0
 10
14.8525415623
 20
11.9140054393
 30
0.0
 10
14.8382472834
 20
11.9080127761
 30
0.0
 10
14.8267779757
 20
11.9025893396
 30
0.0
 10
14.8179266889
 20
11.898013466
 30
0.0
 10
14.8093974209
 20
11.8933406928
 30
0.0
 10
14.8011422809
 20
11.8884154287
 30
0.0
 10
14.7931850723
 20
11.8832364822
 30
0.0
 10
14.785551002
 20
11.8779748346
 30
0.0
 10
14.7782177211
 20
11.8724700566
 30
0.0
 10
14.7712108813
 20
11.8667249774
 30
0.0
 10
14.7661677772
 20
11.8623389232
 30
0.0
 10
14.7613093433
 20
11.8578533502
 30
0.0
 10
14.7566376363
 20
11.853270078
 30
0.0
 10
14.7521546673
 20
11.8485910914
 30
0.0
 10
14.7478623528
 20
11.8438183878
 30
0.0
 10
14.7437625784
 20
11.8389539735
 30
0.0
 10
14.7398570613
 20
11.833999969
 30
0.0
 10
14.7361475432
 20
11.8289584455
 30
0.0
 10
14.7326355847
 20
11.8238315936
 30
0.0
 10
14.7293227218
 20
11.8186215938
 30
0.0
 10
14.7262104039
 20
11.8133306713
 30
0.0
 10
14.7232999344
 20
11.8079611217
 30
0.0
 10
14.7205926378
 20
11.802515214
 30
0.0
 10
14.718089624
 20
11.7969953298
 30
0.0
 10
14.7157920155
 20
11.7914037936
 30
0.0
 10
14.7137008229
 20
11.7857431197
 30
0.0
 10
14.7124446311
 20
11.7819240732
 30
0.0
 10
14.7118515481
 20
11.7800048484
 30
0.0
  0
SPLINE
  5
2AA
100
AcDbEntity
  8
LAYER_CUT_FEAT
100
AcDbSpline
 62
7
  6
CONTINUOUS
 70
0
 71
3
 72
23
 73
19
 74
0
 42
0.0000001
 43
0.0000001
 44
0.0000000001
 40
0.0
 40
0.0
 40
0.0
 40
0.0
 40
0.0581641125
 40
0.1164420918
 40
0.1749467097
 40
0.2337885831
 40
0.293075135
 40
0.3529097525
 40
0.413390921
 40
0.4746115696
 40
0.5366585848
 40
0.5996122094
 40
0.663546048
 40
0.7285267779
 40
0.7946132338
 40
0.8618582405
 40
0.9303095751
 40
1.0
 40
1.0
 40
1.0
 40
1.0
 10
15.6844699663
 20
11.4794430246
 30
0.0
 10
15.6853573316
 20
11.4823145504
 30
0.0
 10
15.6869786975
 20
11.4881124757
 30
0.0
 10
15.6889410132
 20
11.4969411816
 30
0.0
 10
15.6904329069
 20
11.5058971692
 30
0.0
 10
15.6914528308
 20
11.5149713965
 30
0.0
 10
15.6919999533
 20
11.5241551281
 30
0.0
 10
15.6920737771
 20
11.5334394381
 30
0.0
 10
15.6916743352
 20
11.5428153489
 30
0.0
 10
15.6908021494
 20
11.5522738169
 30
0.0
 10
15.6894581085
 20
11.5618057314
 30
0.0
 10
15.6876436631
 20
11.5714019498
 30
0.0
 10
15.6853606404
 20
11.581053286
 30
0.0
 10
15.6826112941
 20
11.5907504837
 30
0.0
 10
15.6793984311
 20
11.6004842935
 30
0.0
 10
15.6757250898
 20
11.6102455658
 30
0.0
 10
15.6715949647
 20
11.6200246691
 30
0.0
 10
15.668567244
 20
11.6264911099
 30
0.0
 10
15.6669808031
 20
11.6297239365
 30
0.0
  0
SPLINE
  5
2AB
100
AcDbEntity
  8
02___PRT_ALL_AXES
100
AcDbSpline
 62
7
  6
CONTINUOUS
 70
0
 71
3
 72
82
 73
78
 74
0
 42
0.0000001
 43
0.0000001
 44
0.0000000001
 40
0.0
 40
0.0
 40
0.0
 40
0.0
 40
0.0171786813
 40
0.0345300809
 40
0.052043911
 40
0.0697094342
 40
0.0875155992
 40
0.1054510219
 40
0.1235040339
 40
0.1416627072
 40
0.1599148842
 40
0.1782482067
 40
0.196650144
 40
0.2151080206
 40
0.2336090438
 40
0.2521403311
 40
0.2706889373
 40
0.2892418812
 40
0.3077861726
 40
0.3263088394
 40
0.344796954
 40
0.3632376608
 40
0.3816182031
 40
0.3999259504
 40
0.4181484261
 40
0.4362733355
 40
0.4542885942
 40
0.4721823569
 40
0.4899430469
 40
0.507559386
 40
0.5250204256
 40
0.5423155782
 40
0.55943465
 40
0.5763678745
 40
0.5931059475
 40
0.6096400632
 40
0.6259619514
 40
0.6420639174
 40
0.6579388817
 40
0.6735804238
 40
0.6889828259
 40
0.7041411195
 40
0.7190511346
 40
0.7337095498
 40
0.7481139458
 40
0.7622628595
 40
0.776155841
 40
0.7897935109
 40
0.8031776196
 40
0.8163111055
 40
0.8291981524
 40
0.8418442452
 40
0.8542562206
 40
0.8603772757
 40
0.8664430109
 40
0.8784128854
 40
0.8901776671
 40
0.895987429
 40
0.9017507643
 40
0.9074694747
 40
0.9131454517
 40
0.9187806749
 40
0.9243772097
 40
0.9299372061
 40
0.9354628939
 40
0.9409565822
 40
0.946420653
 40
0.9518575595
 40
0.9572698189
 40
0.9626600105
 40
0.9680307669
 40
0.9733847709
 40
0.9787247472
 40
0.9840534574
 40
0.9893736918
 40
0.9946882635
 40
1.0
 40
1.0
 40
1.0
 40
1.0
 10
14.8748163786
 20
12.2886305029
 30
0.0
 10
14.8853755987
 20
12.2886305029
 30
0.0
 10
14.9066008819
 20
12.2883981711
 30
0.0
 10
14.9385763055
 20
12.2873658026
 30
0.0
 10
14.9708220519
 20
12.2856488374
 30
0.0
 10
15.003304379
 20
12.283249059
 30
0.0
 10
15.0359895262
 20
12.2801689714
 30
0.0
 10
15.0688434671
 20
12.2764117796
 30
0.0
 10
15.1018320103
 20
12.2719813961
 30
0.0
 10
15.13492082
 20
12.2668824326
 30
0.0
 10
15.1680754552
 20
12.2611201971
 30
0.0
 10
15.2012614055
 20
12.2547006877
 30
0.0
 10
15.2344441267
 20
12.2476305867
 30
0.0
 10
15.2675890773
 20
12.2399172539
 30
0.0
 10
15.3006617546
 20
12.2315687184
 30
0.0
 10
15.3336277304
 20
12.222593671
 30
0.0
 10
15.3664526875
 20
12.2130014544
 30
0.0
 10
15.3991024552
 20
12.2028020541
 30
0.0
 10
15.4315430452
 20
12.1920060877
 30
0.0
 10
15.463740687
 20
12.1806247936
 30
0.0
 10
15.4956618632
 20
12.1686700196
 30
0.0
 10
15.5272733446
 20
12.1561542106
 30
0.0
 10
15.558542225
 20
12.143090395
 30
0.0
 10
15.5894359551
 20
12.1294921715
 30
0.0
 10
15.6199223772
 20
12.1153736946
 30
0.0
 10
15.6499697581
 20
12.1007496596
 30
0.0
 10
15.6795468226
 20
12.0856352877
 30
0.0
 10
15.7086227862
 20
12.0700463093
 30
0.0
 10
15.7371673868
 20
12.0539989478
 30
0.0
 10
15.7651509167
 20
12.0375099023
 30
0.0
 10
15.7925442534
 20
12.0205963301
 30
0.0
 10
15.8193188899
 20
12.0032758285
 30
0.0
 10
15.8454469642
 20
11.985566416
 30
0.0
 10
15.8709012887
 20
11.9674865135
 30
0.0
 10
15.8956553778
 20
11.9490549242
 30
0.0
 10
15.919683476
 20
11.9302908143
 30
0.0
 10
15.9429605837
 20
11.9112136917
 30
0.0
 10
15.9654624836
 20
11.8918433859
 30
0.0
 10
15.9871657653
 20
11.8722000267
 30
0.0
 10
16.0080478489
 20
11.8523040221
 30
0.0
 10
16.028087008
 20
11.8321760371
 30
0.0
 10
16.0472623912
 20
11.8118369713
 30
0.0
 10
16.0655540431
 20
11.7913079365
 30
0.0
 10
16.0829429235
 20
11.7706102345
 30
0.0
 10
16.0994109255
 20
11.7497653345
 30
0.0
 10
16.1149408928
 20
11.7287948506
 30
0.0
 10
16.1295166353
 20
11.707720519
 30
0.0
 10
16.1431229428
 20
11.6865641781
 30
0.0
 10
16.1557456013
 20
11.6653477381
 30
0.0
 10
16.167371393
 20
11.6440931921
 30
0.0
 10
16.1779881507
 20
11.6228224786
 30
0.0
 10
16.1875846076
 20
11.6015578869
 30
0.0
 10
16.1947559945
 20
11.5837789057
 30
0.0
 10
16.1999653529
 20
11.5695834378
 30
0.0
 10
16.2047813879
 20
11.555536755
 30
0.0
 10
16.2101567698
 20
11.5380192245
 30
0.0
 10
16.2146962443
 20
11.5204285511
 30
0.0
 10
16.2177899699
 20
11.5064198726
 30
0.0
 10
16.2198351208
 20
11.4959886596
 30
0.0
 10
16.2216141165
 20
11.4855922174
 30
0.0
 10
16.2231265056
 20
11.4752331967
 30
0.0
 10
16.2243718805
 20
11.4649143133
 30
0.0
 10
16.2253499049
 20
11.4546382531
 30
0.0
 10
16.2260603232
 20
11.4444076988
 30
0.0
 10
16.2265029287
 20
11.4342253184
 30
0.0
 10
16.2266776145
 20
11.4240937712
 30
0.0
 10
16.2265843064
 20
11.4140157021
 30
0.0
 10
16.2262230445
 20
11.4039937441
 30
0.0
 10
16.2255938904
 20
11.3940305166
 30
0.0
 10
16.2246970286
 20
11.3841286231
 30
0.0
 10
16.2235326602
 20
11.3742906547
 30
0.0
 10
16.2221011108
 20
11.3645191826
 30
0.0
 10
16.2204027248
 20
11.3548167647
 30
0.0
 10
16.2184379668
 20
11.3451859435
 30
0.0
 10
16.2162073207
 20
11.3356292169
 30
0.0
 10
16.2137114142
 20
11.3261491804
 30
0.0
 10
16.2118708219
 20
11.3198811393
 30
0.0
 10
16.2109068507
 20
11.3167617232
 30
0.0
  0
SPLINE
  5
2AC
100
AcDbEntity
  8
LAYER_CHAMFER_FEAT
100
AcDbSpline
 62
7
  6
CONTINUOUS
 70
0
 71
3
 72
87
 73
83
 74
0
 42
0.0000001
 43
0.0000001
 44
0.0000000001
 40
0.0
 40
0.0
 40
0.0
 40
0.0
 40
0.0157577581
 40
0.0311470306
 40
0.0461641438
 40
0.0608081723
 40
0.0750811594
 40
0.0889883565
 40
0.0958079582
 40
0.1025396559
 40
0.1091851176
 40
0.1157462288
 40
0.1286227515
 40
0.1411905831
 40
0.1473669136
 40
0.153475433
 40
0.1595197903
 40
0.1655038642
 40
0.1714317693
 40
0.1773078671
 40
0.1831367191
 40
0.1889231041
 40
0.194671992
 40
0.2003885144
 40
0.2060779673
 40
0.2117457685
 40
0.2173974415
 40
0.2230385926
 40
0.2286748761
 40
0.2343119736
 40
0.23995556
 40
0.2456112813
 40
0.25128472
 40
0.2569813725
 40
0.2627066282
 40
0.2684657299
 40
0.2742637732
 40
0.2801056726
 40
0.2859961396
 40
0.2919396933
 40
0.2979406121
 40
0.3040029483
 40
0.3163252747
 40
0.3289359142
 40
0.3418583521
 40
0.3551120624
 40
0.3687125952
 40
0.3826717061
 40
0.3969975542
 40
0.4116949215
 40
0.4267654293
 40
0.4422077388
 40
0.458017784
 40
0.4741889909
 40
0.4907124726
 40
0.5075771999
 40
0.5247701955
 40
0.5422767094
 40
0.5600803709
 40
0.5781633228
 40
0.5965063769
 40
0.6150891527
 40
0.6338901993
 40
0.6528871066
 40
0.6720566359
 40
0.6913748349
 40
0.7108171429
 40
0.7303584937
 40
0.7499734297
 40
0.7696362053
 40
0.7893208848
 40
0.8090014457
 40
0.8286518847
 40
0.8482463153
 40
0.8677590674
 40
0.8871648027
 40
0.9064385909
 40
0.9255560771
 40
0.9444935327
 40
0.9632277153
 40
0.9817373806
 40
1.0
 40
1.0
 40
1.0
 40
1.0
 10
15.0354859269
 20
11.8003058669
 30
0.0
 10
15.0321740357
 20
11.7995269788
 30
0.0
 10
15.0256563423
 20
11.7978619721
 30
0.0
 10
15.01610451
 20
11.7950047511
 30
0.0
 10
15.0069097343
 20
11.7918224144
 30
0.0
 10
14.998090178
 20
11.7883211074
 30
0.0
 10
14.9896632549
 20
11.7845076311
 30
0.0
 10
14.9829381803
 20
11.7810532583
 30
0.0
 10
14.9777749323
 20
11.7781385433
 30
0.0
 10
14.9740358986
 20
11.7758935836
 30
0.0
 10
14.9704070138
 20
11.773576683
 30
0.0
 10
14.9657472571
 20
11.7704130827
 30
0.0
 10
14.9601993832
 20
11.7662861252
 30
0.0
 10
14.9549758357
 20
11.7618826525
 30
0.0
 10
14.9510436657
 20
11.7582302812
 30
0.0
 10
14.9482329324
 20
11.7554433384
 30
0.0
 10
14.9455451213
 20
11.7525944817
 30
0.0
 10
14.9429815381
 20
11.7496850745
 30
0.0
 10
14.9405434942
 20
11.746716527
 30
0.0
 10
14.9382321522
 20
11.7436903351
 30
0.0
 10
14.9360487012
 20
11.7406079558
 30
0.0
 10
14.9339942237
 20
11.7374709137
 30
0.0
 10
14.9320697113
 20
11.7342807751
 30
0.0
 10
14.9302761804
 20
11.7310390808
 30
0.0
 10
14.9286144814
 20
11.7277474604
 30
0.0
 10
14.9270854498
 20
11.7244075365
 30
0.0
 10
14.9256898878
 20
11.7210209478
 30
0.0
 10
14.9244284312
 20
11.717589398
 30
0.0
 10
14.9233017548
 20
11.7141145702
 30
0.0
 10
14.9223104126
 20
11.710598194
 30
0.0
 10
14.9214548556
 20
11.7070420238
 30
0.0
 10
14.9207355703
 20
11.7034478102
 30
0.0
 10
14.9201528584
 20
11.6998173491
 30
0.0
 10
14.9197070084
 20
11.696152438
 30
0.0
 10
14.9193982773
 20
11.6924548916
 30
0.0
 10
14.9192267449
 20
11.6887265469
 30
0.0
 10
14.9191925348
 20
11.684969246
 30
0.0
 10
14.9192956486
 20
11.681184851
 30
0.0
 10
14.9195359845
 20
11.6773752252
 30
0.0
 10
14.9199134732
 20
11.6735422668
 30
0.0
 10
14.9204278791
 20
11.6696878162
 30
0.0
 10
14.9213006023
 20
11.6644947286
 30
0.0
 10
14.9227390806
 20
11.6579536908
 30
0.0
 10
14.9249980466
 20
11.6500934601
 30
0.0
 10
14.927794444
 20
11.6421945266
 30
0.0
 10
14.9311224768
 20
11.634272559
 30
0.0
 10
14.9349754203
 20
11.6263429201
 30
0.0
 10
14.9393455267
 20
11.6184210544
 30
0.0
 10
14.9442240829
 20
11.6105223623
 30
0.0
 10
14.9496014268
 20
11.6026622155
 30
0.0
 10
14.9554669575
 20
11.5948559284
 30
0.0
 10
14.9618091136
 20
11.5871187095
 30
0.0
 10
14.9686154172
 20
11.5794656476
 30
0.0
 10
14.9758725019
 20
11.5719116866
 30
0.0
 10
14.9835661321
 20
11.5644715993
 30
0.0
 10
14.9916811993
 20
11.5571599307
 30
0.0
 10
15.0002017726
 20
11.5499909871
 30
0.0
 10
15.0091111347
 20
11.5429788107
 30
0.0
 10
15.0183918104
 20
11.5361371539
 30
0.0
 10
15.0280255773
 20
11.5294794225
 30
0.0
 10
15.0379935207
 20
11.52301867
 30
0.0
 10
15.0482760744
 20
11.5167675748
 30
0.0
 10
15.0588530573
 20
11.5107384171
 30
0.0
 10
15.0697036937
 20
11.5049430241
 30
0.0
 10
15.0808066716
 20
11.4993927704
 30
0.0
 10
15.0921401866
 20
11.4940985578
 30
0.0
 10
15.1036819834
 20
11.4890707965
 30
0.0
 10
15.1154093852
 20
11.4843193529
 30
0.0
 10
15.1272993525
 20
11.4798535559
 30
0.0
 10
15.1393285293
 20
11.4756821812
 30
0.0
 10
15.1514732875
 20
11.471813436
 30
0.0
 10
15.1637097642
 20
11.4682549104
 30
0.0
 10
15.176013919
 20
11.4650135904
 30
0.0
 10
15.188361581
 20
11.4620958469
 30
0.0
 10
15.2007284964
 20
11.4595074236
 30
0.0
 10
15.2130903675
 20
11.4572533965
 30
0.0
 10
15.2254229142
 20
11.4553381841
 30
0.0
 10
15.2377019237
 20
11.4537655542
 30
0.0
 10
15.2499032259
 20
11.4525386245
 30
0.0
 10
15.2620030309
 20
11.451659741
 30
0.0
 10
15.2739772757
 20
11.4511307225
 30
0.0
 10
15.281917223
 20
11.4510110706
 30
0.0
 10
15.2858602938
 20
11.4510110706
 30
0.0
  0
SPLINE
  5
2AD
100
AcDbEntity
  8
LAYER_CHAMFER_FEAT
100
AcDbSpline
 62
7
  6
CONTINUOUS
 70
0
 71
3
 72
61
 73
57
 74
0
 42
0.0000001
 43
0.0000001
 44
0.0000000001
 40
0.0
 40
0.0
 40
0.0
 40
0.0
 40
0.0106255388
 40
0.0212737229
 40
0.0319669538
 40
0.0427271782
 40
0.0535756414
 40
0.0645327369
 40
0.0756177863
 40
0.0868489568
 40
0.0982430917
 40
0.1098156863
 40
0.1215807819
 40
0.1335509785
 40
0.1457373971
 40
0.1581497041
 40
0.1707961387
 40
0.1836835273
 40
0.1968173704
 40
0.2102018319
 40
0.2238398748
 40
0.2377332209
 40
0.2518825228
 40
0.2662872963
 40
0.280946114
 40
0.2958565203
 40
0.3110152294
 40
0.3264180369
 40
0.342060006
 40
0.3579353902
 40
0.3740377935
 40
0.3903601155
 40
0.4068946779
 40
0.4236331979
 40
0.4405668777
 40
0.4576864086
 40
0.4749820244
 40
0.4924435339
 40
0.5278196849
 40
0.5637279223
 40
0.6000745974
 40
0.6367622324
 40
0.6736904375
 40
0.710756801
 40
0.7478577618
 40
0.7848894731
 40
0.8217486592
 40
0.8583334932
 40
0.8764926368
 40
0.8945461364
 40
0.9124820951
 40
0.9302887237
 40
0.9479544923
 40
0.9654689276
 40
0.9828216525
 40
1.0
 40
1.0
 40
1.0
 40
1.0
 10
14.9683830421
 20
11.7329105358
 30
0.0
 10
14.9679282628
 20
11.7314388664
 30
0.0
 10
14.967100667
 20
11.7284660247
 30
0.0
 10
14.9661106424
 20
11.723936539
 30
0.0
 10
14.965372254
 20
11.7193393958
 30
0.0
 10
14.9648864156
 20
11.7146796415
 30
0.0
 10
14.9646534793
 20
11.7099621713
 30
0.0
 10
14.9646737377
 20
11.7051919793
 30
0.0
 10
14.9649470229
 20
11.7003740862
 30
0.0
 10
14.9654730593
 20
11.6955135589
 30
0.0
 10
14.9662511686
 20
11.6906154807
 30
0.0
 10
14.9672805204
 20
11.6856849761
 30
0.0
 10
14.9685599439
 20
11.6807271759
 30
0.0
 10
14.9700880664
 20
11.6757472416
 30
0.0
 10
14.971863237
 20
11.6707503431
 30
0.0
 10
14.9738835531
 20
11.6657416599
 30
0.0
 10
14.9761468901
 20
11.6607263921
 30
0.0
 10
14.9786508284
 20
11.6557097193
 30
0.0
 10
14.981392773
 20
11.6506968592
 30
0.0
 10
14.9843698013
 20
11.6456929738
 30
0.0
 10
14.9875788504
 20
11.6407032811
 30
0.0
 10
14.9910165103
 20
11.6357329082
 30
0.0
 10
14.9946792536
 20
11.6307870522
 30
0.0
 10
14.9985632011
 20
11.6258707888
 30
0.0
 10
15.0026643667
 20
11.6209892693
 30
0.0
 10
15.0069784218
 20
11.6161475021
 30
0.0
 10
15.0115009305
 20
11.6113505661
 30
0.0
 10
15.0162271361
 20
11.6066033873
 30
0.0
 10
15.0211521655
 20
11.601910945
 30
0.0
 10
15.026270856
 20
11.5972780673
 30
0.0
 10
15.0315779143
 20
11.5927096076
 30
0.0
 10
15.0370677933
 20
11.5882102797
 30
0.0
 10
15.0427348008
 20
11.5837847868
 30
0.0
 10
15.0485730271
 20
11.5794377115
 30
0.0
 10
15.054576407
 20
11.5751735832
 30
0.0
 10
15.0607386846
 20
11.5709968403
 30
0.0
 10
15.0670534735
 20
11.5669117987
 30
0.0
 10
15.0757048153
 20
11.5615701908
 30
0.0
 10
15.0868598251
 20
11.5551533042
 30
0.0
 10
15.100688091
 20
11.5479180866
 30
0.0
 10
15.1149590716
 20
11.5411446807
 30
0.0
 10
15.1296133409
 20
11.5348612975
 30
0.0
 10
15.1445900809
 20
11.5290940082
 30
0.0
 10
15.1598270712
 20
11.5238667754
 30
0.0
 10
15.1752610063
 20
11.5192013147
 30
0.0
 10
15.1908278109
 20
11.5151169991
 30
0.0
 10
15.206462661
 20
11.51163083
 30
0.0
 10
15.2195267255
 20
11.5092302315
 30
0.0
 10
15.2299572684
 20
11.5076228867
 30
0.0
 10
15.2377376119
 20
11.5065779737
 30
0.0
 10
15.2454861849
 20
11.5056918583
 30
0.0
 10
15.2531949191
 20
11.5049654128
 30
0.0
 10
15.2608558294
 20
11.5043994312
 30
0.0
 10
15.2684610687
 20
11.5039944686
 30
0.0
 10
15.2760024722
 20
11.5037510215
 30
0.0
 10
15.2810084441
 20
11.5036962036
 30
0.0
 10
15.283498711
 20
11.5036962036
 30
0.0
  0
SPLINE
  5
2AE
100
AcDbEntity
  8
LAYER_CUT_FEAT
100
AcDbSpline
 62
7
  6
CONTINUOUS
 70
0
 71
3
 72
82
 73
78
 74
0
 42
0.0000001
 43
0.0000001
 44
0.0000000001
 40
0.0
 40
0.0
 40
0.0
 40
0.0
 40
0.013106124
 40
0.0265341928
 40
0.0402891277
 40
0.0543740593
 40
0.068789325
 40
0.0835332071
 40
0.098601885
 40
0.1139896335
 40
0.1296889617
 40
0.145690747
 40
0.1619843651
 40
0.1785578091
 40
0.195397803
 40
0.2124899087
 40
0.2298186315
 40
0.2473675182
 40
0.2651192495
 40
0.2830557291
 40
0.3011581689
 40
0.3194071718
 40
0.3377828149
 40
0.3562647274
 40
0.3748321675
 40
0.393464097
 40
0.4121392563
 40
0.4308362383
 40
0.4495335623
 40
0.4682097466
 40
0.4868433811
 40
0.5054132001
 40
0.523898157
 40
0.542277499
 40
0.5605308428
 40
0.5786382502
 40
0.5965803069
 40
0.6143382031
 40
0.6318938185
 40
0.6492298082
 40
0.6663296902
 40
0.6831779385
 40
0.6997600805
 40
0.7160627996
 40
0.7320740466
 40
0.7477831516
 40
0.7631809433
 40
0.7782598769
 40
0.793014169
 40
0.807439941
 40
0.8215353709
 40
0.8353008455
 40
0.8487391174
 40
0.8553375641
 40
0.8618564137
 40
0.8746587933
 40
0.8809460381
 40
0.8871590868
 40
0.8993688382
 40
0.9053709183
 40
0.9113071892
 40
0.9171802427
 40
0.9229928493
 40
0.9287479822
 40
0.9344488012
 40
0.9400986467
 40
0.9457010488
 40
0.9512596979
 40
0.9567784586
 40
0.962261342
 40
0.9677125021
 40
0.9731362228
 40
0.9785368956
 40
0.9839190137
 40
0.9892871443
 40
0.9946459168
 40
1.0
 40
1.0
 40
1.0
 40
1.0
 10
14.7219722233
 20
11.6297239365
 30
0.0
 10
14.7241725183
 20
11.6252402067
 30
0.0
 10
14.7288546532
 20
11.6162725693
 30
0.0
 10
14.7365950795
 20
11.6030071726
 30
0.0
 10
14.7451240265
 20
11.5897882707
 30
0.0
 10
14.7544264921
 20
11.5766387507
 30
0.0
 10
14.7644866898
 20
11.5635807419
 30
0.0
 10
14.7752873516
 20
11.550636447
 30
0.0
 10
14.7868100426
 20
11.537827833
 30
0.0
 10
14.7990350762
 20
11.5251766633
 30
0.0
 10
14.8119415835
 20
11.5127044473
 30
0.0
 10
14.8255075391
 20
11.5004324053
 30
0.0
 10
14.8397097961
 20
11.4883814296
 30
0.0
 10
14.8545241242
 20
11.4765720492
 30
0.0
 10
14.8699252452
 20
11.4650243903
 30
0.0
 10
14.8858868732
 20
11.4537581362
 30
0.0
 10
14.9023817655
 20
11.4427924992
 30
0.0
 10
14.9193817677
 20
11.4321461854
 30
0.0
 10
14.9368578619
 20
11.4218373616
 30
0.0
 10
14.9547802156
 20
11.411883625
 30
0.0
 10
14.9731182292
 20
11.4023019676
 30
0.0
 10
14.9918405885
 20
11.3931087443
 30
0.0
 10
15.0109153221
 20
11.3843196513
 30
0.0
 10
15.0303098564
 20
11.3759496971
 30
0.0
 10
15.0499910704
 20
11.3680131765
 30
0.0
 10
15.0699253528
 20
11.3605236481
 30
0.0
 10
15.0900786566
 20
11.3534939027
 30
0.0
 10
15.1104165593
 20
11.3469359437
 30
0.0
 10
15.1309043242
 20
11.3408609707
 30
0.0
 10
15.1515069588
 20
11.3352793598
 30
0.0
 10
15.1721892752
 20
11.3302006456
 30
0.0
 10
15.19291595
 20
11.3256335063
 30
0.0
 10
15.2136515841
 20
11.3215857403
 30
0.0
 10
15.2343607648
 20
11.3180642573
 30
0.0
 10
15.2550081276
 20
11.3150750705
 30
0.0
 10
15.2755584158
 20
11.3126232854
 30
0.0
 10
15.2959765411
 20
11.310713092
 30
0.0
 10
15.3162276441
 20
11.3093477588
 30
0.0
 10
15.3362771548
 20
11.3085296176
 30
0.0
 10
15.3560908527
 20
11.3082600681
 30
0.0
 10
15.3756349255
 20
11.3085395779
 30
0.0
 10
15.3948760256
 20
11.3093676822
 30
0.0
 10
15.4137813276
 20
11.3107429867
 30
0.0
 10
15.4323185855
 20
11.3126631707
 30
0.0
 10
15.4504561895
 20
11.3151249833
 30
0.0
 10
15.4681632188
 20
11.3181242607
 30
0.0
 10
15.4854094931
 20
11.3216559362
 30
0.0
 10
15.5021656196
 20
11.3257140502
 30
0.0
 10
15.5184030489
 20
11.3302917679
 30
0.0
 10
15.5340940955
 20
11.33538138
 30
0.0
 10
15.5492120809
 20
11.3409743551
 30
0.0
 10
15.5637310243
 20
11.3470612055
 30
0.0
 10
15.5753805961
 20
11.3525698827
 30
0.0
 10
15.5843709995
 20
11.3572176757
 30
0.0
 10
15.5930343227
 20
11.3619638913
 30
0.0
 10
15.6014192095
 20
11.3669665663
 30
0.0
 10
15.6095014823
 20
11.3722269107
 30
0.0
 10
15.6172555379
 20
11.3775712562
 30
0.0
 10
15.6247040768
 20
11.3831625532
 30
0.0
 10
15.6318210437
 20
11.3889979284
 30
0.0
 10
15.6369434107
 20
11.3934529186
 30
0.0
 10
15.6418782051
 20
11.3980089917
 30
0.0
 10
15.6466233377
 20
11.4026642997
 30
0.0
 10
15.6511767659
 20
11.4074168263
 30
0.0
 10
15.6555365432
 20
11.4122645429
 30
0.0
 10
15.6597007541
 20
11.4172054117
 30
0.0
 10
15.6636676545
 20
11.4222372788
 30
0.0
 10
15.6674354755
 20
11.4273580404
 30
0.0
 10
15.6710026318
 20
11.4325654715
 30
0.0
 10
15.6743675633
 20
11.4378573573
 30
0.0
 10
15.6775287977
 20
11.4432314377
 30
0.0
 10
15.6804850114
 20
11.448685381
 30
0.0
 10
15.6832348588
 20
11.4542168826
 30
0.0
 10
15.6857772127
 20
11.4598235233
 30
0.0
 10
15.6881109329
 20
11.4655029422
 30
0.0
 10
15.690234993
 20
11.4712525854
 30
0.0
 10
15.6915109284
 20
11.4751316563
 30
0.0
 10
15.6921133331
 20
11.4770810457
 30
0.0
  0
SPLINE
  5
2AF
100
AcDbEntity
  8
LAYER_CHAMFER_FEAT
100
AcDbSpline
 62
7
  6
CONTINUOUS
 70
0
 71
3
 72
39
 73
35
 74
0
 42
0.0000001
 43
0.0000001
 44
0.0000000001
 40
0.0
 40
0.0
 40
0.0
 40
0.0
 40
0.024803496
 40
0.0496643352
 40
0.074639193
 40
0.0997834872
 40
0.1251507441
 40
0.1507921176
 40
0.1767559245
 40
0.2030872563
 40
0.2298277704
 40
0.2570153618
 40
0.2846842209
 40
0.3128645514
 40
0.3415828191
 40
0.370861552
 40
0.400719648
 40
0.4311723141
 40
0.4622313092
 40
0.4939050621
 40
0.5261987746
 40
0.5591147187
 40
0.5926521846
 40
0.6268079115
 40
0.6615759495
 40
0.6969480993
 40
0.7329137473
 40
0.7694603499
 40
0.8065734176
 40
0.8442363066
 40
0.8824304289
 40
0.9211371342
 40
0.9603363909
 40
1.0
 40
1.0
 40
1.0
 40
1.0
 10
15.4460934465
 20
11.5852868555
 30
0.0
 10
15.4456197251
 20
11.5837538892
 30
0.0
 10
15.4445807147
 20
11.5807115364
 30
0.0
 10
15.442754112
 20
11.5762392862
 30
0.0
 10
15.4406607852
 20
11.5718609009
 30
0.0
 10
15.4383031937
 20
11.5675816373
 30
0.0
 10
15.4356841097
 20
11.5634063148
 30
0.0
 10
15.4328065905
 20
11.5593397021
 30
0.0
 10
15.4296739704
 20
11.5553864172
 30
0.0
 10
15.4262899192
 20
11.5515508901
 30
0.0
 10
15.422658298
 20
11.5478374795
 30
0.0
 10
15.4187833435
 20
11.5442502845
 30
0.0
 10
15.414669437
 20
11.5407933841
 30
0.0
 10
15.4103213347
 20
11.5374705609
 30
0.0
 10
15.4057439389
 20
11.5342855852
 30
0.0
 10
15.4009424874
 20
11.5312419435
 30
0.0
 10
15.3959223969
 20
11.5283430662
 30
0.0
 10
15.3906893629
 20
11.5255921554
 30
0.0
 10
15.3852492976
 20
11.5229922774
 30
0.0
 10
15.3796083386
 20
11.5205463467
 30
0.0
 10
15.3737728653
 20
11.5182570525
 30
0.0
 10
15.3677494438
 20
11.5161270041
 30
0.0
 10
15.3615448867
 20
11.5141585132
 30
0.0
 10
15.355166172
 20
11.5123538532
 30
0.0
 10
15.3486205081
 20
11.5107149698
 30
0.0
 10
15.3419152654
 20
11.5092437652
 30
0.0
 10
15.3350580152
 20
11.5079418297
 30
0.0
 10
15.3280564771
 20
11.5068106616
 30
0.0
 10
15.3209185533
 20
11.5058515154
 30
0.0
 10
15.313652329
 20
11.5050654651
 30
0.0
 10
15.3062659737
 20
11.5044533922
 30
0.0
 10
15.2987676836
 20
11.5040159709
 30
0.0
 10
15.2911661758
 20
11.5037537611
 30
0.0
 10
15.2860644776
 20
11.5036962036
 30
0.0
 10
15.283498711
 20
11.5036962036
 30
0.0
  0
SPLINE
  5
2B0
100
AcDbEntity
  8
LAYER_CHAMFER_FEAT
100
AcDbSpline
 62
7
  6
CONTINUOUS
 70
0
 71
3
 72
70
 73
66
 74
0
 42
0.0000001
 43
0.0000001
 44
0.0000000001
 40
0.0
 40
0.0
 40
0.0
 40
0.0
 40
0.0180025735
 40
0.0357334334
 40
0.0531901291
 40
0.0703710525
 40
0.0872754438
 40
0.1039034603
 40
0.1202562106
 40
0.1363357985
 40
0.1521453821
 40
0.1676891922
 40
0.1829726125
 40
0.1980021699
 40
0.212785629
 40
0.2273319534
 40
0.2416514028
 40
0.255755464
 40
0.2696569373
 40
0.2833698356
 40
0.296909444
 40
0.3102921864
 40
0.3235356446
 40
0.3366583929
 40
0.3496799648
 40
0.3626206631
 40
0.3755014697
 40
0.3883438425
 40
0.4011695728
 40
0.4140005869
 40
0.4268587658
 40
0.4397657686
 40
0.4527428361
 40
0.4658106528
 40
0.4789891558
 40
0.4922974446
 40
0.5057536131
 40
0.5193747092
 40
0.5331766011
 40
0.5471739794
 40
0.5613802632
 40
0.5758076314
 40
0.5904669703
 40
0.6053679196
 40
0.6359221236
 40
0.6515933455
 40
0.667532514
 40
0.6837433461
 40
0.7002284749
 40
0.7169895338
 40
0.7340271502
 40
0.7513410544
 40
0.7689300482
 40
0.7867921388
 40
0.8049244854
 40
0.8233235389
 40
0.8419849602
 40
0.8609038146
 40
0.8800745075
 40
0.8994908404
 40
0.9191457907
 40
0.9390320754
 40
0.9591425378
 40
0.9794689702
 40
1.0
 40
1.0
 40
1.0
 40
1.0
 10
15.4287119028
 20
11.6787898487
 30
0.0
 10
15.4302128083
 20
11.6771473638
 30
0.0
 10
15.4331512951
 20
11.6738497178
 30
0.0
 10
15.4373962124
 20
11.6688291827
 30
0.0
 10
15.4414416419
 20
11.6637759011
 30
0.0
 10
15.4452841819
 20
11.6586941256
 30
0.0
 10
15.448920629
 20
11.6535880648
 30
0.0
 10
15.4523479426
 20
11.648461966
 30
0.0
 10
15.4555632633
 20
11.6433200907
 30
0.0
 10
15.4585638892
 20
11.6381667039
 30
0.0
 10
15.4613473226
 20
11.6330060963
 30
0.0
 10
15.463911204
 20
11.627842541
 30
0.0
 10
15.4662534062
 20
11.6226803429
 30
0.0
 10
15.4683719171
 20
11.6175237726
 30
0.0
 10
15.4702649872
 20
11.612377135
 30
0.0
 10
15.4719309567
 20
11.6072446889
 30
0.0
 10
15.4733684596
 20
11.6021307261
 30
0.0
 10
15.4745761938
 20
11.5970394857
 30
0.0
 10
15.4755531827
 20
11.5919752331
 30
0.0
 10
15.4762984883
 20
11.5869421809
 30
0.0
 10
15.4768115291
 20
11.5819445553
 30
0.0
 10
15.4770917405
 20
11.5769865346
 30
0.0
 10
15.4771389415
 20
11.5720722918
 30
0.0
 10
15.476952952
 20
11.5672059615
 30
0.0
 10
15.4765339971
 20
11.5623916471
 30
0.0
 10
15.4758822929
 20
11.5576334256
 30
0.0
 10
15.4749984733
 20
11.5529353115
 30
0.0
 10
15.4738831613
 20
11.5483013053
 30
0.0
 10
15.4725373978
 20
11.543735311
 30
0.0
 10
15.4709622178
 20
11.5392412293
 30
0.0
 10
15.469159062
 20
11.5348228318
 30
0.0
 10
15.4671293757
 20
11.530483895
 30
0.0
 10
15.464874986
 20
11.5262280391
 30
0.0
 10
15.4623977401
 20
11.5220588933
 30
0.0
 10
15.4596998345
 20
11.5179799131
 30
0.0
 10
15.4567835052
 20
11.513994562
 30
0.0
 10
15.4536513007
 20
11.5101061222
 30
0.0
 10
15.4503058305
 20
11.5063178787
 30
0.0
 10
15.4467499795
 20
11.5026329363
 30
0.0
 10
15.4429867174
 20
11.4990543927
 30
0.0
 10
15.4390192475
 20
11.4955851703
 30
0.0
 10
15.4348509059
 20
11.4922281845
 30
0.0
 10
15.4304851291
 20
11.4889861244
 30
0.0
 10
15.4243552128
 20
11.4847855931
 30
0.0
 10
15.4178891486
 20
11.4808639584
 30
0.0
 10
15.4111241391
 20
11.477219991
 30
0.0
 10
15.4058294621
 20
11.4745909931
 30
0.0
 10
15.400361781
 20
11.4720916027
 30
0.0
 10
15.3947255193
 20
11.4697237889
 30
0.0
 10
15.3889254073
 20
11.4674895507
 30
0.0
 10
15.3829662755
 20
11.4653907034
 30
0.0
 10
15.3768530838
 20
11.4634290163
 30
0.0
 10
15.3705909335
 20
11.4616060757
 30
0.0
 10
15.3641850326
 20
11.4599234326
 30
0.0
 10
15.357640726
 20
11.4583824355
 30
0.0
 10
15.3509634595
 20
11.456984412
 30
0.0
 10
15.3441588054
 20
11.4557304658
 30
0.0
 10
15.3372324214
 20
11.4546216939
 30
0.0
 10
15.330190078
 20
11.4536589593
 30
0.0
 10
15.323037659
 20
11.452843126
 30
0.0
 10
15.3157811529
 20
11.4521747967
 30
0.0
 10
15.3084265425
 20
11.4516545886
 30
0.0
 10
15.3009798486
 20
11.4512828874
 30
0.0
 10
15.2934475399
 20
11.4510600704
 30
0.0
 10
15.2883977557
 20
11.4510110706
 30
0.0
 10
15.2858602938
 20
11.4510110706
 30
0.0
  0
SPLINE
  5
2B1
100
AcDbEntity
  8
LAYER_FEATURE
100
AcDbSpline
 62
7
  6
CONTINUOUS
 70
0
 71
3
 72
85
 73
81
 74
0
 42
0.0000001
 43
0.0000001
 44
0.0000000001
 40
0.0
 40
0.0
 40
0.0
 40
0.0
 40
0.0149065791
 40
0.0300587657
 40
0.0454566615
 40
0.0611004538
 40
0.0931026229
 40
0.1094567498
 40
0.1260320864
 40
0.1428178425
 40
0.1598016303
 40
0.1769696231
 40
0.1943066919
 40
0.2117965295
 40
0.229421801
 40
0.2471642842
 40
0.265004996
 40
0.2829243191
 40
0.3009021463
 40
0.3189180065
 40
0.3369511886
 40
0.3549808745
 40
0.3729862717
 40
0.390946735
 40
0.408841896
 40
0.4266518008
 40
0.4443570352
 40
0.4619388492
 40
0.4793793008
 40
0.4966613938
 40
0.5137692021
 40
0.5306880059
 40
0.5474044496
 40
0.5639066749
 40
0.5801844511
 40
0.5962293222
 40
0.6120347671
 40
0.6275963203
 40
0.6429116971
 40
0.6579809329
 40
0.6728065068
 40
0.6873934199
 40
0.7017492675
 40
0.7158843047
 40
0.7228737189
 40
0.7298129919
 40
0.7435478075
 40
0.7571083813
 40
0.763830505
 40
0.7705169527
 40
0.7771706393
 40
0.7837945876
 40
0.7903919466
 40
0.7969659636
 40
0.8035199716
 40
0.8100573926
 40
0.816581707
 40
0.8230964502
 40
0.8296051984
 40
0.8361115482
 40
0.8426191101
 40
0.8491314857
 40
0.8556522605
 40
0.8621849843
 40
0.8687331566
 40
0.8753002225
 40
0.881889542
 40
0.8885043938
 40
0.9018215524
 40
0.9085316338
 40
0.9152792693
 40
0.9220671326
 40
0.9288977743
 40
0.9357735884
 40
0.9426968263
 40
0.9566921704
 40
0.9708998037
 40
0.9780880488
 40
0.9853340574
 40
1.0
 40
1.0
 40
1.0
 40
1.0
 10
14.8230492878
 20
12.6552274966
 30
0.0
 10
14.8237647835
 20
12.6575428415
 30
0.0
 10
14.8253318609
 20
12.6621741946
 30
0.0
 10
14.8280551057
 20
12.6690471709
 30
0.0
 10
14.831163847
 20
12.6758867472
 30
0.0
 10
14.8358470299
 20
12.6850067035
 30
0.0
 10
14.8412439934
 20
12.6939217878
 30
0.0
 10
14.8472865968
 20
12.7025799017
 30
0.0
 10
14.8521908918
 20
12.709007373
 30
0.0
 10
14.8574220257
 20
12.7153049528
 30
0.0
 10
14.862967579
 20
12.7214578297
 30
0.0
 10
14.868814156
 20
12.7274511528
 30
0.0
 10
14.874947717
 20
12.7332705397
 30
0.0
 10
14.881353495
 20
12.7389020144
 30
0.0
 10
14.8880160742
 20
12.7443320597
 30
0.0
 10
14.8949194331
 20
12.7495476263
 30
0.0
 10
14.9020469793
 20
12.7545361665
 30
0.0
 10
14.9093815602
 20
12.7592857044
 30
0.0
 10
14.9169055334
 20
12.7637848294
 30
0.0
 10
14.9246008096
 20
12.7680227181
 30
0.0
 10
14.9324488887
 20
12.7719891697
 30
0.0
 10
14.9404308888
 20
12.775674663
 30
0.0
 10
14.9485276155
 20
12.7790703375
 30
0.0
 10
14.9567196049
 20
12.7821680121
 30
0.0
 10
14.9649871602
 20
12.7849602304
 30
0.0
 10
14.9733103982
 20
12.7874402893
 30
0.0
 10
14.9816693094
 20
12.7896022184
 30
0.0
 10
14.990043803
 20
12.7914407924
 30
0.0
 10
14.998413746
 20
12.7929515849
 30
0.0
 10
15.0067590189
 20
12.7941309627
 30
0.0
 10
15.0150595656
 20
12.7949760694
 30
0.0
 10
15.0232954386
 20
12.7954848314
 30
0.0
 10
15.0314468448
 20
12.7956560148
 30
0.0
 10
15.0394941977
 20
12.7954891852
 30
0.0
 10
15.0474181593
 20
12.7949846975
 30
0.0
 10
15.0551996846
 20
12.7941437025
 30
0.0
 10
15.0628200731
 20
12.7929681899
 30
0.0
 10
15.0702610081
 20
12.7914609281
 30
0.0
 10
15.0775045904
 20
12.7896254563
 30
0.0
 10
15.0845333893
 20
12.7874660983
 30
0.0
 10
15.0913304759
 20
12.7849879852
 30
0.0
 10
15.0978795042
 20
12.7821969564
 30
0.0
 10
15.1041645262
 20
12.7790996972
 30
0.0
 10
15.1091884579
 20
12.7762587406
 30
0.0
 10
15.1130575597
 20
12.7738399809
 30
0.0
 10
15.1167990036
 20
12.7713435212
 30
0.0
 10
15.1212878318
 20
12.7680470935
 30
0.0
 10
15.1255372049
 20
12.7645017208
 30
0.0
 10
15.1287665122
 20
12.761535232
 30
0.0
 10
15.1310969197
 20
12.7592525418
 30
0.0
 10
15.1333411859
 20
12.7569071766
 30
0.0
 10
15.1354979411
 20
12.7545004865
 30
0.0
 10
15.1375658904
 20
12.7520339465
 30
0.0
 10
15.1395438051
 20
12.749509057
 30
0.0
 10
15.1414304397
 20
12.7469273044
 30
0.0
 10
15.1432246971
 20
12.7442902808
 30
0.0
 10
15.1449254823
 20
12.7415995687
 30
0.0
 10
15.1465317333
 20
12.7388567745
 30
0.0
 10
15.1480425324
 20
12.7360635863
 30
0.0
 10
15.1494569263
 20
12.7332216681
 30
0.0
 10
15.1507740605
 20
12.7303327401
 30
0.0
 10
15.1519931806
 20
12.7273985651
 30
0.0
 10
15.1531134927
 20
12.724420892
 30
0.0
 10
15.1541343582
 20
12.7214015374
 30
0.0
 10
15.1550551732
 20
12.7183423228
 30
0.0
 10
15.1558753292
 20
12.7152450983
 30
0.0
 10
15.1565943989
 20
12.7121116928
 30
0.0
 10
15.1574195328
 20
12.7078791794
 30
0.0
 10
15.1580383455
 20
12.7035886882
 30
0.0
 10
15.1584517628
 20
12.6992550059
 30
0.0
 10
15.1586600059
 20
12.6959696661
 30
0.0
 10
15.158765492
 20
12.6926598739
 30
0.0
 10
15.1587681149
 20
12.6893275667
 30
0.0
 10
15.1586679192
 20
12.6859747364
 30
0.0
 10
15.1583963596
 20
12.6814637627
 30
0.0
 10
15.1577972365
 20
12.6757812064
 30
0.0
 10
15.1568630523
 20
12.6701006537
 30
0.0
 10
15.1559152409
 20
12.6655412534
 30
0.0
 10
15.1548245545
 20
12.6609373949
 30
0.0
 10
15.1538614935
 20
12.6575054649
 30
0.0
 10
15.153157548
 20
12.6552274966
 30
0.0
  0
SPLINE
  5
2B2
100
AcDbEntity
  8
LAYER_FEATURE
100
AcDbSpline
 62
7
  6
CONTINUOUS
 70
0
 71
3
 72
33
 73
29
 74
0
 42
0.0000001
 43
0.0000001
 44
0.0000000001
 40
0.0
 40
0.0
 40
0.0
 40
0.0
 40
0.0708452499
 40
0.1405621455
 40
0.2091033641
 40
0.2764364202
 40
0.3096465554
 40
0.3425488529
 40
0.3751433493
 40
0.4074311068
 40
0.4710886042
 40
0.5335582644
 40
0.5643659105
 40
0.5948959126
 40
0.6251570652
 40
0.6551591952
 40
0.6849133285
 40
0.7144315037
 40
0.7437269019
 40
0.7728136761
 40
0.8017070253
 40
0.8304230497
 40
0.8589787625
 40
0.8873919705
 40
0.9156812284
 40
0.9438657373
 40
0.9719652548
 40
1.0
 40
1.0
 40
1.0
 40
1.0
 10
15.05599215
 20
12.8028445978
 30
0.0
 10
15.0598865108
 20
12.8028445978
 30
0.0
 10
15.0676146404
 20
12.8026585621
 30
0.0
 10
15.0790822616
 20
12.8018071846
 30
0.0
 10
15.0902993388
 20
12.8003883064
 30
0.0
 10
15.0994497358
 20
12.7987290421
 30
0.0
 10
15.1066072439
 20
12.7971192282
 30
0.0
 10
15.1118658475
 20
12.7957791294
 30
0.0
 10
15.1170349146
 20
12.7943019121
 30
0.0
 10
15.1237695874
 20
12.7921613569
 30
0.0
 10
15.1319477418
 20
12.7891535136
 30
0.0
 10
15.1398491351
 20
12.7856756536
 30
0.0
 10
15.1459383639
 20
12.7826338366
 30
0.0
 10
15.1503672182
 20
12.7802363458
 30
0.0
 10
15.1546751375
 20
12.7777143761
 30
0.0
 10
15.1588586187
 20
12.7750698794
 30
0.0
 10
15.1629142754
 20
12.7723050758
 30
0.0
 10
15.1668387583
 20
12.7694221426
 30
0.0
 10
15.1706288999
 20
12.7664234781
 30
0.0
 10
15.1742815669
 20
12.7633114699
 30
0.0
 10
15.177793803
 20
12.7600886861
 30
0.0
 10
15.1811627115
 20
12.7567577201
 30
0.0
 10
15.1843855498
 20
12.7533213008
 30
0.0
 10
15.1874596754
 20
12.749782219
 30
0.0
 10
15.1903825612
 20
12.7461433618
 30
0.0
 10
15.193151844
 20
12.7424076879
 30
0.0
 10
15.1957651754
 20
12.7385783055
 30
0.0
 10
15.1974036453
 20
12.7359624367
 30
0.0
 10
15.1981957522
 20
12.7346405214
 30
0.0
  0
SPLINE
  5
2B3
100
AcDbEntity
  8
LAYER_FEATURE
100
AcDbSpline
 62
7
  6
CONTINUOUS
 70
0
 71
3
 72
38
 73
34
 74
0
 42
0.0000001
 43
0.0000001
 44
0.0000000001
 40
0.0
 40
0.0
 40
0.0
 40
0.0
 40
0.0272316267
 40
0.0549111961
 40
0.0830401981
 40
0.1116182794
 40
0.1406395159
 40
0.1700945634
 40
0.1999702723
 40
0.2302500814
 40
0.2609142786
 40
0.2919402459
 40
0.3233027248
 40
0.3549740657
 40
0.3869244834
 40
0.4191223151
 40
0.4515342676
 40
0.4841256604
 40
0.5168606652
 40
0.549702546
 40
0.5826139014
 40
0.6155569005
 40
0.6484935167
 40
0.6813857603
 40
0.7141959157
 40
0.7468867808
 40
0.7794218991
 40
0.8117658054
 40
0.8438842486
 40
0.8757444347
 40
0.9073154278
 40
0.9385676902
 40
1.0
 40
1.0
 40
1.0
 40
1.0
 10
14.7954516309
 20
12.62737937
 30
0.0
 10
14.7963460104
 20
12.6302735832
 30
0.0
 10
14.7983048335
 20
12.6360627567
 30
0.0
 10
14.8017089346
 20
12.6446540126
 30
0.0
 10
14.8055947551
 20
12.6532032965
 30
0.0
 10
14.8099526429
 20
12.6616897219
 30
0.0
 10
14.8147721694
 20
12.6700930732
 30
0.0
 10
14.8200416508
 20
12.6783931489
 30
0.0
 10
14.8257483855
 20
12.6865700514
 30
0.0
 10
14.83187861
 20
12.694604163
 30
0.0
 10
14.8384175573
 20
12.7024762065
 30
0.0
 10
14.8453494861
 20
12.7101672877
 30
0.0
 10
14.8526577173
 20
12.71765894
 30
0.0
 10
14.8603246676
 20
12.7249331729
 30
0.0
 10
14.8683318869
 20
12.7319725204
 30
0.0
 10
14.8766601131
 20
12.7387600746
 30
0.0
 10
14.8852893153
 20
12.745279528
 30
0.0
 10
14.8941987414
 20
12.7515152125
 30
0.0
 10
14.9033669668
 20
12.7574521367
 30
0.0
 10
14.9127719386
 20
12.7630760347
 30
0.0
 10
14.9223910371
 20
12.7683733895
 30
0.0
 10
14.9322011303
 20
12.7733314651
 30
0.0
 10
14.9421786282
 20
12.7779383376
 30
0.0
 10
14.9522995404
 20
12.7821829217
 30
0.0
 10
14.9625395291
 20
12.7860550096
 30
0.0
 10
14.9728739702
 20
12.78954529
 30
0.0
 10
14.9832780193
 20
12.7926453653
 30
0.0
 10
14.9937266545
 20
12.7953477705
 30
0.0
 10
15.00419479
 20
12.7976459919
 30
0.0
 10
15.014657148
 20
12.7995344879
 30
0.0
 10
15.0250890028
 20
12.8010087088
 30
0.0
 10
15.0388423087
 20
12.8024090401
 30
0.0
 10
15.0491584003
 20
12.8028445978
 30
0.0
 10
15.05599215
 20
12.8028445978
 30
0.0
  0
SPLINE
  5
2B4
100
AcDbEntity
  8
LAYER_FEATURE
100
AcDbSpline
 62
7
  6
CONTINUOUS
 70
0
 71
3
 72
85
 73
81
 74
0
 42
0.0000001
 43
0.0000001
 44
0.0000000001
 40
0.0
 40
0.0
 40
0.0
 40
0.0
 40
0.0146659426
 40
0.0219119512
 40
0.0291001963
 40
0.0433078296
 40
0.0573031737
 40
0.0642264116
 40
0.0711022257
 40
0.0779328674
 40
0.0847207307
 40
0.0914683662
 40
0.0981784476
 40
0.1114956062
 40
0.118110458
 40
0.1246997775
 40
0.1312668434
 40
0.1378150157
 40
0.1443477395
 40
0.1508685143
 40
0.1573808899
 40
0.1638884518
 40
0.1703948016
 40
0.1769035498
 40
0.183418293
 40
0.1899426074
 40
0.1964800284
 40
0.2030340364
 40
0.2096080534
 40
0.2162054124
 40
0.2228293607
 40
0.2294830473
 40
0.236169495
 40
0.2428916187
 40
0.2564521925
 40
0.2701870081
 40
0.2771262811
 40
0.2841156953
 40
0.2982507325
 40
0.3126065801
 40
0.3271934932
 40
0.3420190671
 40
0.3570883029
 40
0.3724036797
 40
0.3879652329
 40
0.4037706778
 40
0.4198155489
 40
0.4360933251
 40
0.4525955504
 40
0.4693119941
 40
0.4862307979
 40
0.5033386062
 40
0.5206206992
 40
0.5380611508
 40
0.5556429648
 40
0.5733481992
 40
0.591158104
 40
0.609053265
 40
0.6270137283
 40
0.6450191255
 40
0.6630488114
 40
0.6810819935
 40
0.6990978537
 40
0.7170756809
 40
0.734995004
 40
0.7528357158
 40
0.770578199
 40
0.7882034705
 40
0.8056933081
 40
0.8230303769
 40
0.8401983697
 40
0.8571821575
 40
0.8739679136
 40
0.8905432502
 40
0.9068973771
 40
0.9388995462
 40
0.9545433385
 40
0.9699412343
 40
0.9850934209
 40
1.0
 40
1.0
 40
1.0
 40
1.0
 10
14.8230492878
 20
12.6552274966
 30
0.0
 10
14.8223453423
 20
12.6529495282
 30
0.0
 10
14.8213822814
 20
12.6495175983
 30
0.0
 10
14.820291595
 20
12.6449137398
 30
0.0
 10
14.8193437835
 20
12.6403543395
 30
0.0
 10
14.8184095993
 20
12.6346737868
 30
0.0
 10
14.8178104762
 20
12.6289912305
 30
0.0
 10
14.8175389167
 20
12.6244802568
 30
0.0
 10
14.8174387209
 20
12.6211274265
 30
0.0
 10
14.8174413438
 20
12.6177951193
 30
0.0
 10
14.8175468299
 20
12.6144853271
 30
0.0
 10
14.817755073
 20
12.6111999873
 30
0.0
 10
14.8181684903
 20
12.606866305
 30
0.0
 10
14.818787303
 20
12.6025758138
 30
0.0
 10
14.8196124369
 20
12.5983433004
 30
0.0
 10
14.8203315066
 20
12.5952098949
 30
0.0
 10
14.8211516627
 20
12.5921126703
 30
0.0
 10
14.8220724776
 20
12.5890534558
 30
0.0
 10
14.8230933431
 20
12.5860341012
 30
0.0
 10
14.8242136552
 20
12.5830564281
 30
0.0
 10
14.8254327753
 20
12.5801222531
 30
0.0
 10
14.8267499095
 20
12.5772333251
 30
0.0
 10
14.8281643034
 20
12.5743914069
 30
0.0
 10
14.8296751026
 20
12.5715982187
 30
0.0
 10
14.8312813535
 20
12.5688554245
 30
0.0
 10
14.8329821387
 20
12.5661647124
 30
0.0
 10
14.8347763961
 20
12.5635276888
 30
0.0
 10
14.8366630307
 20
12.5609459361
 30
0.0
 10
14.8386409455
 20
12.5584210467
 30
0.0
 10
14.8407088947
 20
12.5559545067
 30
0.0
 10
14.8428656499
 20
12.5535478165
 30
0.0
 10
14.8451099161
 20
12.5512024514
 30
0.0
 10
14.8474403236
 20
12.5489197612
 30
0.0
 10
14.8506696309
 20
12.5459532724
 30
0.0
 10
14.854919004
 20
12.5424078996
 30
0.0
 10
14.8594078322
 20
12.539111472
 30
0.0
 10
14.8631492761
 20
12.5366150123
 30
0.0
 10
14.8670183779
 20
12.5341962526
 30
0.0
 10
14.8720423096
 20
12.531355296
 30
0.0
 10
14.8783273317
 20
12.5282580367
 30
0.0
 10
14.8848763599
 20
12.525467008
 30
0.0
 10
14.8916734465
 20
12.5229888949
 30
0.0
 10
14.8987022454
 20
12.5208295369
 30
0.0
 10
14.9059458277
 20
12.5189940651
 30
0.0
 10
14.9133867627
 20
12.5174868033
 30
0.0
 10
14.9210071512
 20
12.5163112906
 30
0.0
 10
14.9287886765
 20
12.5154702957
 30
0.0
 10
14.9367126381
 20
12.514965808
 30
0.0
 10
14.9447599911
 20
12.5147989784
 30
0.0
 10
14.9529113972
 20
12.5149701618
 30
0.0
 10
14.9611472702
 20
12.5154789238
 30
0.0
 10
14.9694478169
 20
12.5163240304
 30
0.0
 10
14.9777930898
 20
12.5175034083
 30
0.0
 10
14.9861630328
 20
12.5190142008
 30
0.0
 10
14.9945375264
 20
12.5208527748
 30
0.0
 10
15.0028964376
 20
12.5230147039
 30
0.0
 10
15.0112196756
 20
12.5254947628
 30
0.0
 10
15.019487231
 20
12.528286981
 30
0.0
 10
15.0276792204
 20
12.5313846557
 30
0.0
 10
15.035775947
 20
12.5347803302
 30
0.0
 10
15.0437579471
 20
12.5384658235
 30
0.0
 10
15.0516060262
 20
12.5424322751
 30
0.0
 10
15.0593013025
 20
12.5466701638
 30
0.0
 10
15.0668252756
 20
12.5511692888
 30
0.0
 10
15.0741598566
 20
12.5559188266
 30
0.0
 10
15.0812874027
 20
12.5609073669
 30
0.0
 10
15.0881907617
 20
12.5661229335
 30
0.0
 10
15.0948533409
 20
12.5715529788
 30
0.0
 10
15.1012591188
 20
12.5771844535
 30
0.0
 10
15.1073926798
 20
12.5830038404
 30
0.0
 10
15.1132392568
 20
12.5889971635
 30
0.0
 10
15.1187848101
 20
12.5951500404
 30
0.0
 10
15.124015944
 20
12.6014476202
 30
0.0
 10
15.128920239
 20
12.6078750915
 30
0.0
 10
15.1349628424
 20
12.6165332054
 30
0.0
 10
15.140359806
 20
12.6254482897
 30
0.0
 10
15.1450429888
 20
12.6345682459
 30
0.0
 10
15.1481517301
 20
12.6414078223
 30
0.0
 10
15.1508749749
 20
12.6482807985
 30
0.0
 10
15.1524420523
 20
12.6529121517
 30
0.0
 10
15.153157548
 20
12.6552274966
 30
0.0
  0
SPLINE
  5
2B5
100
AcDbEntity
  8
02___PRT_ALL_AXES
100
AcDbSpline
 62
7
  6
CONTINUOUS
 70
0
 71
3
 72
50
 73
46
 74
0
 42
0.0000001
 43
0.0000001
 44
0.0000000001
 40
0.0
 40
0.0
 40
0.0
 40
0.0
 40
0.0396643491
 40
0.0788605748
 40
0.1175661676
 40
0.1557597766
 40
0.1934216656
 40
0.2305336646
 40
0.2670793376
 40
0.3030440903
 40
0.3384153013
 40
0.3731824549
 40
0.4073372807
 40
0.4408738996
 40
0.4737889745
 40
0.5060818658
 40
0.5377547913
 40
0.5688129871
 40
0.5992648682
 40
0.6291221853
 40
0.6584001727
 40
0.6728285111
 40
0.6871194029
 40
0.7152990206
 40
0.7429671476
 40
0.75661971
 40
0.7701560778
 40
0.7835806399
 40
0.7968980195
 40
0.8101130801
 40
0.8232309102
 40
0.8362568291
 40
0.8491963693
 40
0.8620552772
 40
0.8748394976
 40
0.8875551659
 40
0.9002085959
 40
0.9128062641
 40
0.9253547993
 40
0.9378609614
 40
0.9503316299
 40
0.9627737815
 40
0.9751944744
 40
0.9876008274
 40
1.0
 40
1.0
 40
1.0
 40
1.0
 10
14.8748163786
 20
12.2886305029
 30
0.0
 10
14.8639370435
 20
12.2886305029
 30
0.0
 10
14.8423059101
 20
12.2883865589
 30
0.0
 10
14.8100756215
 20
12.2872746286
 30
0.0
 10
14.7782833223
 20
12.2854200379
 30
0.0
 10
14.7469650814
 20
12.282824856
 30
0.0
 10
14.7161561964
 20
12.2794920013
 30
0.0
 10
14.6858914335
 20
12.2754252097
 30
0.0
 10
14.6562049308
 20
12.2706290444
 30
0.0
 10
14.627130173
 20
12.2651088828
 30
0.0
 10
14.5986999506
 20
12.2588709118
 30
0.0
 10
14.5709463247
 20
12.2519221184
 30
0.0
 10
14.5439005915
 20
12.2442702809
 30
0.0
 10
14.5175932485
 20
12.2359239587
 30
0.0
 10
14.4920539615
 20
12.2268924803
 30
0.0
 10
14.4673115363
 20
12.2171859327
 30
0.0
 10
14.4433938804
 20
12.2068151435
 30
0.0
 10
14.4203280075
 20
12.1957916882
 30
0.0
 10
14.3981398962
 20
12.1841278013
 30
0.0
 10
14.3768548842
 20
12.1718366398
 30
0.0
 10
14.3598074609
 20
12.1610303131
 30
0.0
 10
14.3466533758
 20
12.152082551
 30
0.0
 10
14.3339436261
 20
12.1430239243
 30
0.0
 10
14.3186524839
 20
12.1313385542
 30
0.0
 10
14.3040523095
 20
12.1190699109
 30
0.0
 10
14.2928894931
 20
12.1089790488
 30
0.0
 10
14.2848098249
 20
12.1013085035
 30
0.0
 10
14.2769882593
 20
12.0935046045
 30
0.0
 10
14.2694269757
 20
12.0855694965
 30
0.0
 10
14.2621281195
 20
12.0775054441
 30
0.0
 10
14.255093778
 20
12.0693147025
 30
0.0
 10
14.2483259339
 20
12.0609996008
 30
0.0
 10
14.2418265275
 20
12.0525624727
 30
0.0
 10
14.2355973959
 20
12.0440057127
 30
0.0
 10
14.2296403196
 20
12.0353317333
 30
0.0
 10
14.2239569939
 20
12.0265429893
 30
0.0
 10
14.2185490328
 20
12.017641971
 30
0.0
 10
14.2134179891
 20
12.0086311917
 30
0.0
 10
14.2085653084
 20
11.9995132139
 30
0.0
 10
14.2039923954
 20
11.9902906111
 30
0.0
 10
14.19970053
 20
11.9809660084
 30
0.0
 10
14.1956909606
 20
11.9715420486
 30
0.0
 10
14.1919648006
 20
11.9620213855
 30
0.0
 10
14.1885231611
 20
11.9524068263
 30
0.0
 10
14.1864187713
 20
11.9459354474
 30
0.0
 10
14.1854146637
 20
11.9426861498
 30
0.0
  0
SPLINE
  5
2B6
100
AcDbEntity
  8
LAYER_FEATURE
100
AcDbSpline
 62
7
  6
CONTINUOUS
 70
0
 71
3
 72
82
 73
78
 74
0
 42
0.0000001
 43
0.0000001
 44
0.0000000001
 40
0.0
 40
0.0
 40
0.0
 40
0.0
 40
0.0171785369
 40
0.0345301562
 40
0.0520438908
 40
0.0697094359
 40
0.0875156016
 40
0.1054510215
 40
0.1235040348
 40
0.1416627071
 40
0.1599148845
 40
0.1782482074
 40
0.1966501445
 40
0.2151080208
 40
0.2336090442
 40
0.2521403317
 40
0.2706889377
 40
0.2892418815
 40
0.3077861731
 40
0.3263088397
 40
0.3447969541
 40
0.3632376611
 40
0.3816182038
 40
0.3999259507
 40
0.418148426
 40
0.4362733358
 40
0.4542885951
 40
0.4721823574
 40
0.4899430468
 40
0.5075593861
 40
0.5250204266
 40
0.5423155788
 40
0.5594346496
 40
0.5763678742
 40
0.5931059482
 40
0.6096400637
 40
0.6259619508
 40
0.6420639167
 40
0.6579388824
 40
0.6735804248
 40
0.6889828255
 40
0.7041411189
 40
0.7190511353
 40
0.7337095512
 40
0.7481139459
 40
0.762262859
 40
0.7761558414
 40
0.7897935123
 40
0.8031776198
 40
0.8163111046
 40
0.8291981522
 40
0.8418442461
 40
0.8542562206
 40
0.8603772765
 40
0.86644301
 40
0.8784128849
 40
0.8901776678
 40
0.8959874284
 40
0.9017507646
 40
0.9074694749
 40
0.9131454512
 40
0.9187806756
 40
0.9243772095
 40
0.9299372059
 40
0.9354628944
 40
0.9409565817
 40
0.9464206534
 40
0.9518575593
 40
0.9572698188
 40
0.9626600108
 40
0.9680307667
 40
0.9733847708
 40
0.9787247473
 40
0.9840534572
 40
0.9893736919
 40
0.9946882635
 40
1.0
 40
1.0
 40
1.0
 40
1.0
 10
15.3941647575
 20
13.9724599247
 30
0.0
 10
15.4047438118
 20
13.9724599247
 30
0.0
 10
15.4260091886
 20
13.9722271389
 30
0.0
 10
15.4580449316
 20
13.9711928494
 30
0.0
 10
15.4903516077
 20
13.9694726193
 30
0.0
 10
15.5228951784
 20
13.9670683325
 30
0.0
 10
15.5556420075
 20
13.9639824268
 30
0.0
 10
15.5885579358
 20
13.9602181416
 30
0.0
 10
15.6216087203
 20
13.9557794015
 30
0.0
 10
15.6547599627
 20
13.9506708222
 30
0.0
 10
15.6879771534
 20
13.9448977131
 30
0.0
 10
15.721225718
 20
13.9384660867
 30
0.0
 10
15.754471048
 20
13.9313826462
 30
0.0
 10
15.7876785371
 20
13.9236547647
 30
0.0
 10
15.8208136156
 20
13.9152904772
 30
0.0
 10
15.8538417899
 20
13.9062984905
 30
0.0
 10
15.8867286806
 20
13.8966881748
 30
0.0
 10
15.9194400528
 20
13.8864695345
 30
0.0
 10
15.9519418519
 20
13.8756532001
 30
0.0
 10
15.984200242
 20
13.864250427
 30
0.0
 10
16.0161816462
 20
13.8522730958
 30
0.0
 10
16.0478527735
 20
13.8397336757
 30
0.0
 10
16.0791806533
 20
13.8266452148
 30
0.0
 10
16.1101326713
 20
13.8130213299
 30
0.0
 10
16.1406766137
 20
13.7988762126
 30
0.0
 10
16.1707806893
 20
13.7842245878
 30
0.0
 10
16.2004135621
 20
13.7690817024
 30
0.0
 10
16.2295443836
 20
13.7534633071
 30
0.0
 10
16.2581428397
 20
13.7373856649
 30
0.0
 10
16.2861791699
 20
13.7208655095
 30
0.0
 10
16.3136241952
 20
13.7039200293
 30
0.0
 10
16.3404493477
 20
13.6865668449
 30
0.0
 10
16.3666267169
 20
13.6688240151
 30
0.0
 10
16.3921290689
 20
13.6507100003
 30
0.0
 10
16.4169298676
 20
13.6322436386
 30
0.0
 10
16.4410033007
 20
13.6134441236
 30
0.0
 10
16.4643243233
 20
13.594331003
 30
0.0
 10
16.4868686798
 20
13.5749241498
 30
0.0
 10
16.5086129158
 20
13.5552437315
 30
0.0
 10
16.5295344004
 20
13.5353101878
 30
0.0
 10
16.5496113644
 20
13.5151442219
 30
0.0
 10
16.568822927
 20
13.4947667802
 30
0.0
 10
16.5871490962
 20
13.4741990144
 30
0.0
 10
16.6045707884
 20
13.4534622618
 30
0.0
 10
16.6210698564
 20
13.4325780283
 30
0.0
 10
16.6366291233
 20
13.4115679767
 30
0.0
 10
16.6512323713
 20
13.3904538843
 30
0.0
 10
16.6648643555
 20
13.3692576281
 30
0.0
 10
16.6775108239
 20
13.3480011541
 30
0.0
 10
16.6891585472
 20
13.3267065044
 30
0.0
 10
16.6997953391
 20
13.3053956584
 30
0.0
 10
16.7094099114
 20
13.284090948
 30
0.0
 10
16.716594817
 20
13.2662784163
 30
0.0
 10
16.7218140159
 20
13.2520561698
 30
0.0
 10
16.7266391207
 20
13.2379829782
 30
0.0
 10
16.7320246522
 20
13.2204323989
 30
0.0
 10
16.7365727045
 20
13.2028085381
 30
0.0
 10
16.7396722515
 20
13.1887734242
 30
0.0
 10
16.74172127
 20
13.1783225319
 30
0.0
 10
16.7435036232
 20
13.1679064737
 30
0.0
 10
16.7450188543
 20
13.157527906
 30
0.0
 10
16.7462665962
 20
13.1471895553
 30
0.0
 10
16.7472464531
 20
13.1368941048
 30
0.0
 10
16.7479582112
 20
13.1266442478
 30
0.0
 10
16.748401667
 20
13.1164426561
 30
0.0
 10
16.7485766591
 20
13.1062919921
 30
0.0
 10
16.7484831966
 20
13.0961949081
 30
0.0
 10
16.7481212411
 20
13.0861540407
 30
0.0
 10
16.7474908985
 20
13.0761720152
 30
0.0
 10
16.7465923561
 20
13.0662514377
 30
0.0
 10
16.7454257793
 20
13.0563949083
 30
0.0
 10
16.7439915301
 20
13.0466049997
 30
0.0
 10
16.7422899516
 20
13.036884273
 30
0.0
 10
16.7403214656
 20
13.0272352848
 30
0.0
 10
16.7380866325
 20
13.0176605217
 30
0.0
 10
16.7355860033
 20
13.0081626016
 30
0.0
 10
16.7337419382
 20
13.0018827342
 30
0.0
 10
16.7327761495
 20
12.998757432
 30
0.0
  0
SPLINE
  5
2B7
100
AcDbEntity
  8
LAYER_FEATURE
100
AcDbSpline
 62
7
  6
CONTINUOUS
 70
0
 71
3
 72
71
 73
67
 74
0
 42
0.0000001
 43
0.0000001
 44
0.0000000001
 40
0.0
 40
0.0
 40
0.0
 40
0.0
 40
0.0208280414
 40
0.0414800752
 40
0.0619480626
 40
0.0822261245
 40
0.1023086319
 40
0.1221898287
 40
0.1418643484
 40
0.1613272486
 40
0.1805739294
 40
0.1996001249
 40
0.2184019991
 40
0.2369761015
 40
0.2553194416
 40
0.2734294557
 40
0.2913040766
 40
0.3089417213
 40
0.3263413311
 40
0.3435023953
 40
0.3604249567
 40
0.3771096702
 40
0.393557779
 40
0.4097711961
 40
0.4257524669
 40
0.4415048519
 40
0.457032297
 40
0.4723394946
 40
0.4874318778
 40
0.5023156449
 40
0.5169977816
 40
0.5314860474
 40
0.5457890152
 40
0.5599160288
 40
0.5738772418
 40
0.5876835596
 40
0.6013466568
 40
0.6148789174
 40
0.6282934154
 40
0.641603858
 40
0.6548245279
 40
0.6679702249
 40
0.6810561785
 40
0.6940979801
 40
0.707111481
 40
0.720112708
 40
0.7331177622
 40
0.7461427199
 40
0.7592035383
 40
0.7723159555
 40
0.7854954014
 40
0.7987569132
 40
0.8121150497
 40
0.8255838342
 40
0.8391766713
 40
0.8529063223
 40
0.8667848282
 40
0.8808235105
 40
0.8950329125
 40
0.909422808
 40
0.9240021751
 40
0.9387791957
 40
0.9537612691
 40
0.9689549933
 40
0.9843662162
 40
1.0
 40
1.0
 40
1.0
 40
1.0
 10
15.4344813781
 20
13.7779619431
 30
0.0
 10
15.4280172301
 20
13.7779619431
 30
0.0
 10
15.4151432906
 20
13.7778555787
 30
0.0
 10
15.3959224018
 20
13.7773725511
 30
0.0
 10
15.3768830942
 20
13.7765668744
 30
0.0
 10
15.3580372064
 20
13.7754390994
 30
0.0
 10
15.3393959338
 20
13.7739898952
 30
0.0
 10
15.3209704964
 20
13.7722201295
 30
0.0
 10
15.302772063
 20
13.7701308707
 30
0.0
 10
15.2848116257
 20
13.7677233588
 30
0.0
 10
15.2671000131
 20
13.7649990841
 30
0.0
 10
15.2496479241
 20
13.7619596281
 30
0.0
 10
15.232465889
 20
13.7586068857
 30
0.0
 10
15.2155642883
 20
13.7549428056
 30
0.0
 10
15.1989533137
 20
13.7509696572
 30
0.0
 10
15.1826430016
 20
13.7466897732
 30
0.0
 10
15.1666431891
 20
13.7421057686
 30
0.0
 10
15.1509635385
 20
13.7372203746
 30
0.0
 10
15.1356135139
 20
13.7320365297
 30
0.0
 10
15.1206023759
 20
13.7265573648
 30
0.0
 10
15.1059391983
 20
13.7207861325
 30
0.0
 10
15.0916328157
 20
13.7147263511
 30
0.0
 10
15.0776918914
 20
13.7083815898
 30
0.0
 10
15.0641248167
 20
13.7017557277
 30
0.0
 10
15.0509398189
 20
13.6948526656
 30
0.0
 10
15.0381448369
 20
13.6876766077
 30
0.0
 10
15.0257476322
 20
13.6802318037
 30
0.0
 10
15.0137556875
 20
13.67252275
 30
0.0
 10
15.0021762693
 20
13.6645540535
 30
0.0
 10
14.9910163993
 20
13.6563304835
 30
0.0
 10
14.9802828253
 20
13.6478569983
 30
0.0
 10
14.9699820982
 20
13.6391386348
 30
0.0
 10
14.9601204321
 20
13.6301806841
 30
0.0
 10
14.9507038867
 20
13.6209884591
 30
0.0
 10
14.9417381405
 20
13.6115675534
 30
0.0
 10
14.9332287287
 20
13.6019235737
 30
0.0
 10
14.9251808013
 20
13.5920623828
 30
0.0
 10
14.9175993293
 20
13.5819898945
 30
0.0
 10
14.9104889413
 20
13.5717122167
 30
0.0
 10
14.9038540073
 20
13.5612355686
 30
0.0
 10
14.8976986308
 20
13.5505662916
 30
0.0
 10
14.8920265559
 20
13.5397108926
 30
0.0
 10
14.8868413418
 20
13.5286759427
 30
0.0
 10
14.8821460984
 20
13.517468205
 30
0.0
 10
14.8779438045
 20
13.5060944791
 30
0.0
 10
14.8742369475
 20
13.494561746
 30
0.0
 10
14.8710278785
 20
13.4828770257
 30
0.0
 10
14.8683184854
 20
13.471047481
 30
0.0
 10
14.8661104513
 20
13.4590803318
 30
0.0
 10
14.8644050834
 20
13.4469828958
 30
0.0
 10
14.8632033781
 20
13.4347625605
 30
0.0
 10
14.8625060675
 20
13.4224267803
 30
0.0
 10
14.8623134673
 20
13.4099830747
 30
0.0
 10
14.8626257263
 20
13.3974390197
 30
0.0
 10
14.8634425075
 20
13.3848022363
 30
0.0
 10
14.8647633538
 20
13.3720804053
 30
0.0
 10
14.8665873183
 20
13.3592812292
 30
0.0
 10
14.8689133118
 20
13.3464124712
 30
0.0
 10
14.871739817
 20
13.3334819059
 30
0.0
 10
14.8750650978
 20
13.3204973535
 30
0.0
 10
14.8788870888
 20
13.3074666553
 30
0.0
 10
14.8832034111
 20
13.2943976628
 30
0.0
 10
14.8880114507
 20
13.2812982842
 30
0.0
 10
14.8933082205
 20
13.2681763516
 30
0.0
 10
14.8990904879
 20
13.2550399488
 30
0.0
 10
14.9032366607
 20
13.2463407618
 30
0.0
 10
14.9053876599
 20
13.2419915348
 30
0.0
  0
SPLINE
  5
2B8
100
AcDbEntity
  8
LAYER_FEATURE
100
AcDbSpline
 62
7
  6
CONTINUOUS
 70
0
 71
3
 72
96
 73
92
 74
0
 42
0.0000001
 43
0.0000001
 44
0.0000000001
 40
0.0
 40
0.0
 40
0.0
 40
0.0
 40
0.009029056
 40
0.018115659
 40
0.036451223
 40
0.0549902027
 40
0.073715536
 40
0.0926092022
 40
0.1116527467
 40
0.1308271743
 40
0.1501130778
 40
0.1694906884
 40
0.1889399465
 40
0.2084405666
 40
0.227972103
 40
0.2475140134
 40
0.2670457235
 40
0.2865466905
 40
0.3059964676
 40
0.3253747677
 40
0.344661529
 40
0.3638369805
 40
0.3828817087
 40
0.4017767253
 40
0.4205035366
 40
0.4390442141
 40
0.4573814682
 40
0.4754987234
 40
0.4933801966
 40
0.51101098
 40
0.5283771255
 40
0.5454657348
 40
0.5622650527
 40
0.5787645662
 40
0.5868992486
 40
0.5949556609
 40
0.6029328868
 40
0.6108301104
 40
0.6186466102
 40
0.6263817831
 40
0.6340351207
 40
0.6416062449
 40
0.6490948809
 40
0.6565008878
 40
0.6710643051
 40
0.6852986487
 40
0.6992075983
 40
0.7060423053
 40
0.7127981411
 40
0.719476259
 40
0.7260779735
 40
0.7326047648
 40
0.7390582914
 40
0.7517518796
 40
0.7641765439
 40
0.7702946768
 40
0.7763531639
 40
0.7823548963
 40
0.7883029346
 40
0.7942005147
 40
0.8000510277
 40
0.805858031
 40
0.8116252231
 40
0.8173564487
 40
0.8230556785
 40
0.8287270022
 40
0.8343746147
 40
0.8400027993
 40
0.8456159172
 40
0.8512183854
 40
0.8568146654
 40
0.8624092416
 40
0.8680066059
 40
0.8736112387
 40
0.8792275925
 40
0.8848600719
 40
0.8905130216
 40
0.8961907035
 40
0.9018972904
 40
0.9076368422
 40
0.9134133022
 40
0.919230479
 40
0.9250920389
 40
0.9310014997
 40
0.9369622143
 40
0.9429773796
 40
0.9490500116
 40
0.9613776544
 40
0.9739671296
 40
0.98683625
 40
1.0
 40
1.0
 40
1.0
 40
1.0
 10
15.4344813781
 20
13.7779619431
 30
0.0
 10
15.4397235739
 20
13.7779619431
 30
0.0
 10
15.450241523
 20
13.7778914644
 30
0.0
 10
15.4714010959
 20
13.7774707131
 30
0.0
 10
15.4980682217
 20
13.7764175988
 30
0.0
 10
15.5302843755
 20
13.7743235092
 30
0.0
 10
15.5627611265
 20
13.771398599
 30
0.0
 10
15.595447604
 20
13.7676474197
 30
0.0
 10
15.6282926779
 20
13.7630758623
 30
0.0
 10
15.6612449656
 20
13.7576910698
 30
0.0
 10
15.6942529096
 20
13.7515014713
 30
0.0
 10
15.7272648634
 20
13.7445167487
 30
0.0
 10
15.7602291718
 20
13.736747832
 30
0.0
 10
15.7930942531
 20
13.7282068794
 30
0.0
 10
15.8258086793
 20
13.7189072566
 30
0.0
 10
15.8583212581
 20
13.7088635163
 30
0.0
 10
15.8905811126
 20
13.6980913755
 30
0.0
 10
15.9225377612
 20
13.6866076905
 30
0.0
 10
15.9541411976
 20
13.6744304306
 30
0.0
 10
15.9853419687
 20
13.6615786497
 30
0.0
 10
16.0160912526
 20
13.648072456
 30
0.0
 10
16.0463409374
 20
13.6339329835
 30
0.0
 10
16.0760436949
 20
13.6191823547
 30
0.0
 10
16.1051530556
 20
13.6038436457
 30
0.0
 10
16.133623481
 20
13.5879408498
 30
0.0
 10
16.1614104349
 20
13.571498839
 30
0.0
 10
16.1884704534
 20
13.5545433242
 30
0.0
 10
16.2147612132
 20
13.537100814
 30
0.0
 10
16.2402415957
 20
13.5191985727
 30
0.0
 10
16.2648717592
 20
13.5008645737
 30
0.0
 10
16.2886131799
 20
13.4821274713
 30
0.0
 10
16.3114287832
 20
13.4630164871
 30
0.0
 10
16.3332827358
 20
13.4435616023
 30
0.0
 10
16.3507460862
 20
13.4270106223
 30
0.0
 10
16.3641998761
 20
13.4136218532
 30
0.0
 10
16.3739817057
 20
13.403560551
 30
0.0
 10
16.3834983827
 20
13.3934365096
 30
0.0
 10
16.3927462264
 20
13.3832536746
 30
0.0
 10
16.4017215764
 20
13.3730160041
 30
0.0
 10
16.4104209632
 20
13.362727544
 30
0.0
 10
16.4188409333
 20
13.3523922653
 30
0.0
 10
16.426978225
 20
13.3420142724
 30
0.0
 10
16.4348296601
 20
13.3315975202
 30
0.0
 10
16.4448563061
 20
13.317740677
 30
0.0
 10
16.4566701367
 20
13.3003474392
 30
0.0
 10
16.4697379629
 20
13.2792669611
 30
0.0
 10
16.4796774272
 20
13.2615490562
 30
0.0
 10
16.487004135
 20
13.247362076
 30
0.0
 10
16.4921579832
 20
13.2367816076
 30
0.0
 10
16.4970003684
 20
13.2262036218
 30
0.0
 10
16.5015294087
 20
13.2156322188
 30
0.0
 10
16.5057433212
 20
13.2050714332
 30
0.0
 10
16.5109106636
 20
13.1910882474
 30
0.0
 10
16.5165889947
 20
13.1736498982
 30
0.0
 10
16.5212521947
 20
13.1561134605
 30
0.0
 10
16.5243244093
 20
13.1421627246
 30
0.0
 10
16.5262927468
 20
13.1317920802
 30
0.0
 10
16.52793612
 20
13.1214650153
 30
0.0
 10
16.52925384
 20
13.1111854852
 30
0.0
 10
16.5302454368
 20
13.1009575553
 30
0.0
 10
16.5309104152
 20
13.0907852244
 30
0.0
 10
16.5312485854
 20
13.0806724983
 30
0.0
 10
16.5312597156
 20
13.0706233461
 30
0.0
 10
16.530943843
 20
13.0606417238
 30
0.0
 10
16.5303010457
 20
13.0507315588
 30
0.0
 10
16.529331558
 20
13.0408967564
 30
0.0
 10
16.5280357851
 20
13.0311411875
 30
0.0
 10
16.5264141607
 20
13.0214687079
 30
0.0
 10
16.5244674
 20
13.0118831184
 30
0.0
 10
16.52219617
 20
13.0023882192
 30
0.0
 10
16.5196014505
 20
12.9929877369
 30
0.0
 10
16.5166841922
 20
12.9836853987
 30
0.0
 10
16.5134455908
 20
12.9744848625
 30
0.0
 10
16.5098869137
 20
12.9653897594
 30
0.0
 10
16.5060095505
 20
12.9564036848
 30
0.0
 10
16.5018150853
 20
12.9475301563
 30
0.0
 10
16.497305111
 20
12.9387727031
 30
0.0
 10
16.4924814968
 20
12.9301347271
 30
0.0
 10
16.487346074
 20
12.9216196706
 30
0.0
 10
16.4819009475
 20
12.9132308356
 30
0.0
 10
16.4761482249
 20
12.9049715458
 30
0.0
 10
16.4700902074
 20
12.8968450236
 30
0.0
 10
16.463729295
 20
12.8888544494
 30
0.0
 10
16.4570679694
 20
12.8810029709
 30
0.0
 10
16.4501089277
 20
12.8732936324
 30
0.0
 10
16.4428547822
 20
12.8657294393
 30
0.0
 10
16.4327432303
 20
12.8557922658
 30
0.0
 10
16.4193626558
 20
12.8437477194
 30
0.0
 10
16.4022558549
 20
12.8299956697
 30
0.0
 10
16.384045817
 20
12.8168936019
 30
0.0
 10
16.3713360406
 20
12.8087002238
 30
0.0
 10
16.3648143811
 20
12.8047152749
 30
0.0
  0
SPLINE
  5
2B9
100
AcDbEntity
  8
LAYER_CUT_FEAT
100
AcDbSpline
 62
7
  6
CONTINUOUS
 70
0
 71
3
 72
13
 73
9
 74
0
 42
0.0000001
 43
0.0000001
 44
0.0000000001
 40
0.0
 40
0.0
 40
0.0
 40
0.0
 40
0.2534708095
 40
0.5042470075
 40
0.6288094513
 40
0.7529070833
 40
0.8766126595
 40
1.0
 40
1.0
 40
1.0
 40
1.0
 10
15.6754810649
 20
11.4564820168
 30
0.0
 10
15.6775757576
 20
11.4593424668
 30
0.0
 10
15.6815839907
 20
11.4651513267
 30
0.0
 10
15.6861547873
 20
11.472671955
 30
0.0
 10
15.6895153205
 20
11.4787973866
 30
0.0
 10
15.6918840857
 20
11.4834369192
 30
0.0
 10
15.6941059166
 20
11.4881303181
 30
0.0
 10
15.6954902929
 20
11.4912978253
 30
0.0
 10
15.6961574502
 20
11.4928895344
 30
0.0
  0
SPLINE
  5
2BA
100
AcDbEntity
  8
LAYER_CHAMFER_FEAT
100
AcDbSpline
 62
7
  6
CONTINUOUS
 70
0
 71
3
 72
16
 73
12
 74
0
 42
0.0000001
 43
0.0000001
 44
0.0000000001
 40
0.0
 40
0.0
 40
0.0
 40
0.0
 40
0.0660970088
 40
0.1317690293
 40
0.2617736031
 40
0.3899202508
 40
0.5161226435
 40
0.6402998367
 40
0.7623795776
 40
0.8822978677
 40
1.0
 40
1.0
 40
1.0
 40
1.0
 10
15.0670170393
 20
12.9105920691
 30
0.0
 10
15.0608776053
 20
12.9105920691
 30
0.0
 10
15.0486380392
 20
12.9105141415
 30
0.0
 10
15.0243271583
 20
12.9100448944
 30
0.0
 10
14.9942676608
 20
12.9088752859
 30
0.0
 10
14.9586399001
 20
12.9065263725
 30
0.0
 10
14.9236296127
 20
12.9032402041
 30
0.0
 10
14.8892869503
 20
12.8990214254
 30
0.0
 10
14.8556608565
 20
12.8938760141
 30
0.0
 10
14.8227998533
 20
12.8878113641
 30
0.0
 10
14.801228826
 20
12.8831165382
 30
0.0
 10
14.7905863901
 20
12.8806136652
 30
0.0
  0
SPLINE
  5
2BB
100
AcDbEntity
  8
LAYER_FEATURE
100
AcDbSpline
 62
7
  6
CONTINUOUS
 70
0
 71
3
 72
22
 73
18
 74
0
 42
0.0000001
 43
0.0000001
 44
0.0000000001
 40
0.0
 40
0.0
 40
0.0
 40
0.0
 40
0.0594363263
 40
0.1190489053
 40
0.1788954992
 40
0.2390321648
 40
0.2995128532
 40
0.3603891433
 40
0.4217098171
 40
0.4835207508
 40
0.5458644247
 40
0.6087801137
 40
0.6723036224
 40
0.7364666391
 40
0.8012966508
 40
0.8668198652
 40
1.0
 40
1.0
 40
1.0
 40
1.0
 10
14.7964854464
 20
12.538309325
 30
0.0
 10
14.7958412636
 20
12.5399879944
 30
0.0
 10
14.794628149
 20
12.5433805007
 30
0.0
 10
14.7930403379
 20
12.5485560195
 30
0.0
 10
14.7916838255
 20
12.5538188984
 30
0.0
 10
14.7905601955
 20
12.5591631457
 30
0.0
 10
14.7896706098
 20
12.564582842
 30
0.0
 10
14.7890161107
 20
12.5700719594
 30
0.0
 10
14.7885973223
 20
12.5756243921
 30
0.0
 10
14.7884147674
 20
12.5812339754
 30
0.0
 10
14.7884685474
 20
12.5868944817
 30
0.0
 10
14.7887586361
 20
12.5925996345
 30
0.0
 10
14.7892846596
 20
12.5983431206
 30
0.0
 10
14.7900460032
 20
12.6041185078
 30
0.0
 10
14.7910418374
 20
12.609919591
 30
0.0
 10
14.792689391
 20
12.6177210935
 30
0.0
 10
14.7942621161
 20
12.6235300989
 30
0.0
 10
14.7954516309
 20
12.62737937
 30
0.0
  0
SPLINE
  5
2BC
100
AcDbEntity
  8
LAYER_CHAMFER_FEAT
100
AcDbSpline
 62
7
  6
CONTINUOUS
 70
0
 71
3
 72
42
 73
38
 74
0
 42
0.0000001
 43
0.0000001
 44
0.0000000001
 40
0.0
 40
0.0
 40
0.0
 40
0.0
 40
0.0152210992
 40
0.0305410012
 40
0.045955243
 40
0.0614602019
 40
0.0770524701
 40
0.0927283075
 40
0.1243144062
 40
0.1561875443
 40
0.188315193
 40
0.2206639223
 40
0.2531995637
 40
0.2858873217
 40
0.3186918991
 40
0.351577616
 40
0.3845085279
 40
0.4174485442
 40
0.4503615445
 40
0.483211496
 40
0.5159625707
 40
0.5485792635
 40
0.5810265112
 40
0.6132698132
 40
0.645275354
 40
0.677010128
 40
0.7084420678
 40
0.7395401759
 40
0.7702746599
 40
0.8006170737
 40
0.8305404633
 40
0.8600195197
 40
0.8890307387
 40
0.917552589
 40
0.9455656896
 40
0.9730529963
 40
1.0
 40
1.0
 40
1.0
 40
1.0
 10
15.0670170393
 20
12.9105920691
 30
0.0
 10
15.0736118345
 20
12.9105920691
 30
0.0
 10
15.0868444024
 20
12.9105015711
 30
0.0
 10
15.1067517424
 20
12.9100976398
 30
0.0
 10
15.126774907
 20
12.9094251435
 30
0.0
 10
15.1469053708
 20
12.9084844146
 30
0.0
 10
15.1671350973
 20
12.9072758024
 30
0.0
 10
15.1942967911
 20
12.9053029585
 30
0.0
 10
15.2284435838
 20
12.9021663053
 30
0.0
 10
15.269581491
 20
12.8973515481
 30
0.0
 10
15.3109163528
 20
12.8914844513
 30
0.0
 10
15.3523806392
 20
12.8845745976
 30
0.0
 10
15.3939068278
 20
12.8766332439
 30
0.0
 10
15.4354272319
 20
12.8676733332
 30
0.0
 10
15.4768741874
 20
12.857709468
 30
0.0
 10
15.518180143
 20
12.8467578873
 30
0.0
 10
15.5592777774
 20
12.8348364403
 30
0.0
 10
15.6001001073
 20
12.8219645569
 30
0.0
 10
15.6405805984
 20
12.8081632167
 30
0.0
 10
15.6806532737
 20
12.7934549135
 30
0.0
 10
15.7202528221
 20
12.7778636193
 30
0.0
 10
15.7593147053
 20
12.7614147444
 30
0.0
 10
15.7977752635
 20
12.7441350954
 30
0.0
 10
15.8355718197
 20
12.726052831
 30
0.0
 10
15.8726427823
 20
12.7071974157
 30
0.0
 10
15.9089277459
 20
12.6875995703
 30
0.0
 10
15.9443675901
 20
12.6672912214
 30
0.0
 10
15.9789045763
 20
12.6463054483
 30
0.0
 10
16.0124824418
 20
12.6246764269
 30
0.0
 10
16.0450464913
 20
12.6024393736
 30
0.0
 10
16.0765436866
 20
12.5796304845
 30
0.0
 10
16.106922729
 20
12.5562868785
 30
0.0
 10
16.1361341555
 20
12.5324465201
 30
0.0
 10
16.1641303682
 20
12.5081482086
 30
0.0
 10
16.1908658911
 20
12.4834313159
 30
0.0
 10
16.2162967835
 20
12.4583364341
 30
0.0
 10
16.2325176662
 20
12.441208141
 30
0.0
 10
16.2403934714
 20
12.4325893885
 30
0.0
  0
SPLINE
  5
2BD
100
AcDbEntity
  8
LAYER_FEATURE
100
AcDbSpline
 62
7
  6
CONTINUOUS
 70
0
 71
3
 72
51
 73
47
 74
0
 42
0.0000001
 43
0.0000001
 44
0.0000000001
 40
0.0
 40
0.0
 40
0.0
 40
0.0
 40
0.039663978
 40
0.0788605751
 40
0.1175658885
 40
0.1557594871
 40
0.1934212958
 40
0.2305332192
 40
0.2670788219
 40
0.3030435048
 40
0.3384146505
 40
0.3731817379
 40
0.4073364956
 40
0.4408730488
 40
0.473788062
 40
0.5060808943
 40
0.5377537589
 40
0.5688118921
 40
0.5992637133
 40
0.6291209742
 40
0.6583989076
 40
0.6728272154
 40
0.6871180816
 40
0.715297643
 40
0.7291947673
 40
0.7429676401
 40
0.7566201783
 40
0.77015652
 40
0.7835810543
 40
0.7968984118
 40
0.8101134435
 40
0.8232312507
 40
0.8362571439
 40
0.8491966583
 40
0.8620555435
 40
0.8748397373
 40
0.8875553823
 40
0.9002087878
 40
0.9128064313
 40
0.9253549433
 40
0.9378610806
 40
0.9503317253
 40
0.9627738532
 40
0.9751945219
 40
0.9876008513
 40
1.0
 40
1.0
 40
1.0
 40
1.0
 10
15.3941647575
 20
13.9724599247
 30
0.0
 10
15.3832649764
 20
13.9724599247
 30
0.0
 10
15.3615929883
 20
13.9722155057
 30
0.0
 10
15.3293019015
 20
13.9711015046
 30
0.0
 10
15.2974495347
 20
13.9692433862
 30
0.0
 10
15.2660722427
 20
13.9666433285
 30
0.0
 10
15.2352052139
 20
13.9633041823
 30
0.0
 10
15.2048833517
 20
13.9592297138
 30
0.0
 10
15.1751408387
 20
13.9544244963
 30
0.0
 10
15.1460112224
 20
13.9488939195
 30
0.0
 10
15.1175273565
 20
13.9426441832
 30
0.0
 10
15.0897213648
 20
13.9356822799
 30
0.0
 10
15.0626246042
 20
13.9280160004
 30
0.0
 10
15.036267626
 20
13.9196539287
 30
0.0
 10
15.01068015
 20
13.9106054121
 30
0.0
 10
14.9858910376
 20
13.9008805556
 30
0.0
 10
14.9619282543
 20
13.8904901983
 30
0.0
 10
14.9388188645
 20
13.8794459387
 30
0.0
 10
14.9165888916
 20
13.8677600444
 30
0.0
 10
14.8952637145
 20
13.8554456888
 30
0.0
 10
14.8781841325
 20
13.844618993
 30
0.0
 10
14.8650052106
 20
13.8356543151
 30
0.0
 10
14.8522715753
 20
13.8265786928
 30
0.0
 10
14.8399589018
 20
13.8171693711
 30
0.0
 10
14.8280960735
 20
13.807429938
 30
0.0
 10
14.8194910089
 20
13.8000186464
 30
0.0
 10
14.8111398747
 20
13.7924694869
 30
0.0
 10
14.8030449904
 20
13.7847844939
 30
0.0
 10
14.7952086694
 20
13.7769658539
 30
0.0
 10
14.7876331041
 20
13.7690157928
 30
0.0
 10
14.7803204943
 20
13.7609365072
 30
0.0
 10
14.773272868
 20
13.7527303234
 30
0.0
 10
14.7664922577
 20
13.7443995293
 30
0.0
 10
14.7599805948
 20
13.7359464774
 30
0.0
 10
14.753739696
 20
13.7273735829
 30
0.0
 10
14.747771395
 20
13.7186832269
 30
0.0
 10
14.7420773372
 20
13.7098779067
 30
0.0
 10
14.7366591725
 20
13.7009600936
 30
0.0
 10
14.7315184558
 20
13.6919323084
 30
0.0
 10
14.7266566063
 20
13.6827971337
 30
0.0
 10
14.7220750753
 20
13.6735571245
 30
0.0
 10
14.7177751115
 20
13.664214929
 30
0.0
 10
14.7137579663
 20
13.6547731923
 30
0.0
 10
14.7100247948
 20
13.6452345584
 30
0.0
 10
14.7065766394
 20
13.6356018666
 30
0.0
 10
14.704468291
 20
13.6291182735
 30
0.0
 10
14.7034622902
 20
13.6258628448
 30
0.0
  0
SPLINE
  5
2BE
100
AcDbEntity
  8
LAYER_FEATURE
100
AcDbSpline
 62
7
  6
CONTINUOUS
 70
0
 71
3
 72
39
 73
35
 74
0
 42
0.0000001
 43
0.0000001
 44
0.0000000001
 40
0.0
 40
0.0
 40
0.0
 40
0.0
 40
0.0213548806
 40
0.0430995958
 40
0.0653510288
 40
0.0882197536
 40
0.1117973971
 40
0.136157729
 40
0.161357901
 40
0.1874385757
 40
0.2144250683
 40
0.2423281721
 40
0.2711459246
 40
0.3008645489
 40
0.3314595032
 40
0.3628970561
 40
0.3951347899
 40
0.4281228449
 40
0.4618048758
 40
0.4961184852
 40
0.530996418
 40
0.5663670181
 40
0.6021548933
 40
0.6382817659
 40
0.6746668256
 40
0.7112275525
 40
0.747880204
 40
0.7845402912
 40
0.8211235173
 40
0.857546158
 40
0.8937244722
 40
0.9295778422
 40
0.9650316398
 40
1.0
 40
1.0
 40
1.0
 40
1.0
 10
16.4399585898
 20
13.0603621549
 30
0.0
 10
16.440014677
 20
13.0608133798
 30
0.0
 10
16.4400818653
 20
13.0617303941
 30
0.0
 10
16.4400480659
 20
13.0631234698
 30
0.0
 10
16.4398806333
 20
13.0645393235
 30
0.0
 10
16.4395803859
 20
13.0659727627
 30
0.0
 10
16.4391486073
 20
13.0674189835
 30
0.0
 10
16.4385868765
 20
13.0688730357
 30
0.0
 10
16.4378972866
 20
13.0703300174
 30
0.0
 10
16.4370823057
 20
13.0717850401
 30
0.0
 10
16.4361447464
 20
13.0732331873
 30
0.0
 10
16.4350878914
 20
13.0746696084
 30
0.0
 10
16.4339153587
 20
13.0760894498
 30
0.0
 10
16.4326311553
 20
13.0774879026
 30
0.0
 10
16.4312396968
 20
13.0788602567
 30
0.0
 10
16.4297457106
 20
13.0802018286
 30
0.0
 10
16.4281543093
 20
13.0815080705
 30
0.0
 10
16.4264709335
 20
13.0827745468
 30
0.0
 10
16.4247013124
 20
13.0839969132
 30
0.0
 10
16.4228515101
 20
13.0851710287
 30
0.0
 10
16.4209278394
 20
13.0862928729
 30
0.0
 10
16.4189368693
 20
13.0873586023
 30
0.0
 10
16.4168854202
 20
13.088364602
 30
0.0
 10
16.4147804937
 20
13.0893074046
 30
0.0
 10
16.4126292942
 20
13.0901837985
 30
0.0
 10
16.4104391836
 20
13.0909907973
 30
0.0
 10
16.4082176442
 20
13.0917256101
 30
0.0
 10
16.4059722856
 20
13.0923857553
 30
0.0
 10
16.4037107796
 20
13.0929689628
 30
0.0
 10
16.4014408701
 20
13.093473215
 30
0.0
 10
16.3991703397
 20
13.0938968323
 30
0.0
 10
16.3969068551
 20
13.0942383446
 30
0.0
 10
16.394658308
 20
13.0944965388
 30
0.0
 10
16.3931630118
 20
13.0946134793
 30
0.0
 10
16.3924197544
 20
13.0946575262
 30
0.0
  0
SPLINE
  5
2BF
100
AcDbEntity
  8
LAYER_FEATURE
100
AcDbSpline
 62
7
  6
CONTINUOUS
 70
0
 71
3
 72
16
 73
12
 74
0
 42
0.0000001
 43
0.0000001
 44
0.0000000001
 40
0.0
 40
0.0
 40
0.0
 40
0.0
 40
0.1264571902
 40
0.253227417
 40
0.3799420995
 40
0.5062330396
 40
0.6317359746
 40
0.7560927643
 40
0.878957166
 40
0.9397310581
 40
1.0
 40
1.0
 40
1.0
 40
1.0
 10
16.3237920208
 20
13.1098832673
 30
0.0
 10
16.3265658187
 20
13.1088086182
 30
0.0
 10
16.3321618517
 20
13.1067622873
 30
0.0
 10
16.3406674224
 20
13.1040108771
 30
0.0
 10
16.3492668564
 20
13.1015824412
 30
0.0
 10
16.3579228736
 20
13.0994875221
 30
0.0
 10
16.3665981789
 20
13.0977351471
 30
0.0
 10
16.375255238
 20
13.0963328904
 30
0.0
 10
16.3824494484
 20
13.0954579315
 30
0.0
 10
16.388163846
 20
13.0949398727
 30
0.0
 10
16.3910045095
 20
13.0947413965
 30
0.0
 10
16.3924197544
 20
13.0946575262
 30
0.0
  0
SPLINE
  5
2C0
100
AcDbEntity
  8
LAYER_FEATURE
100
AcDbSpline
 62
7
  6
CONTINUOUS
 70
0
 71
3
 72
39
 73
35
 74
0
 42
0.0000001
 43
0.0000001
 44
0.0000000001
 40
0.0
 40
0.0
 40
0.0
 40
0.0
 40
0.0267672155
 40
0.0543864069
 40
0.0828295609
 40
0.1120702691
 40
0.1420710434
 40
0.1727862769
 40
0.2041646646
 40
0.2361492474
 40
0.2686781276
 40
0.3016850577
 40
0.3351003693
 40
0.3688513457
 40
0.4028628495
 40
0.4370580091
 40
0.4713585975
 40
0.5056857318
 40
0.5399603081
 40
0.5741035991
 40
0.608037792
 40
0.6416864565
 40
0.6749752811
 40
0.7078324139
 40
0.7401892321
 40
0.7719809751
 40
0.8031471421
 40
0.833632523
 40
0.8633877895
 40
0.8923703095
 40
0.9205443296
 40
0.9478833662
 40
0.9743732268
 40
1.0
 40
1.0
 40
1.0
 40
1.0
 10
16.3516182086
 20
13.3277959701
 30
0.0
 10
16.3512507915
 20
13.3282813674
 30
0.0
 10
16.3504755968
 20
13.3292462014
 30
0.0
 10
16.3492185864
 20
13.3306503586
 30
0.0
 10
16.3478530941
 20
13.332029614
 30
0.0
 10
16.3463839255
 20
13.3333791786
 30
0.0
 10
16.3448160609
 20
13.3346945623
 30
0.0
 10
16.3431548259
 20
13.3359712392
 30
0.0
 10
16.3414059161
 20
13.3372048728
 30
0.0
 10
16.3395753088
 20
13.3383912699
 30
0.0
 10
16.3376692396
 20
13.3395263509
 30
0.0
 10
16.3356942406
 20
13.3406062678
 30
0.0
 10
16.3336570566
 20
13.3416273186
 30
0.0
 10
16.3315646479
 20
13.342586001
 30
0.0
 10
16.3294241824
 20
13.3434790644
 30
0.0
 10
16.3272429698
 20
13.3443034264
 30
0.0
 10
16.325028476
 20
13.345056279
 30
0.0
 10
16.3227882804
 20
13.3457350589
 30
0.0
 10
16.3205300374
 20
13.3463374138
 30
0.0
 10
16.3182614806
 20
13.3468613135
 30
0.0
 10
16.3159903664
 20
13.347304954
 30
0.0
 10
16.3137244602
 20
13.3476668047
 30
0.0
 10
16.3114715156
 20
13.3479456582
 30
0.0
 10
16.3092392305
 20
13.3481405301
 30
0.0
 10
16.3070352362
 20
13.3482507658
 30
0.0
 10
16.3048670632
 20
13.348276
 30
0.0
 10
16.3027421162
 20
13.3482161079
 30
0.0
 10
16.3006676481
 20
13.3480713243
 30
0.0
 10
16.2986507314
 20
13.3478421199
 30
0.0
 10
16.2966982551
 20
13.3475292389
 30
0.0
 10
16.2948168745
 20
13.3471337877
 30
0.0
 10
16.2930129162
 20
13.34665702
 30
0.0
 10
16.2912927083
 20
13.3461005489
 30
0.0
 10
16.2901872294
 20
13.3456705718
 30
0.0
 10
16.2896509834
 20
13.3454422323
 30
0.0
  0
SPLINE
  5
2C1
100
AcDbEntity
  8
LAYER_FEATURE
100
AcDbSpline
 62
7
  6
CONTINUOUS
 70
0
 71
3
 72
39
 73
35
 74
0
 42
0.0000001
 43
0.0000001
 44
0.0000000001
 40
0.0
 40
0.0
 40
0.0
 40
0.0
 40
0.0293068624
 40
0.059257123
 40
0.0898104144
 40
0.1209271403
 40
0.1525615855
 40
0.1846653625
 40
0.2171872712
 40
0.2500735769
 40
0.2832685
 40
0.3167145033
 40
0.3503526789
 40
0.3841230833
 40
0.4179650526
 40
0.4518175367
 40
0.4856194391
 40
0.5193099314
 40
0.5528287727
 40
0.5861166603
 40
0.6191155634
 40
0.6517690501
 40
0.6840226379
 40
0.7158241934
 40
0.7471242949
 40
0.7778766089
 40
0.8080383147
 40
0.8375706064
 40
0.8664390881
 40
0.8946143768
 40
0.9220725662
 40
0.9487953641
 40
0.9747732799
 40
1.0
 40
1.0
 40
1.0
 40
1.0
 10
16.0950978813
 20
13.3880058737
 30
0.0
 10
16.0966060175
 20
13.3866412609
 30
0.0
 10
16.099712219
 20
13.3839442523
 30
0.0
 10
16.1045741717
 20
13.3800421478
 30
0.0
 10
16.1096784301
 20
13.3762482495
 30
0.0
 10
16.1150110859
 20
13.3725728058
 30
0.0
 10
16.1205579905
 20
13.3690256105
 30
0.0
 10
16.1263042365
 20
13.365616168
 30
0.0
 10
16.1322344302
 20
13.3623536004
 30
0.0
 10
16.138332685
 20
13.3592466537
 30
0.0
 10
16.1445826581
 20
13.3563036629
 30
0.0
 10
16.1509675908
 20
13.3535325072
 30
0.0
 10
16.157470364
 20
13.3509406128
 30
0.0
 10
16.1640735444
 20
13.3485349319
 30
0.0
 10
16.1707594299
 20
13.346321925
 30
0.0
 10
16.1775100893
 20
13.3443075162
 30
0.0
 10
16.1843074205
 20
13.3424971037
 30
0.0
 10
16.1911331984
 20
13.3408955449
 30
0.0
 10
16.1979691234
 20
13.3395071445
 30
0.0
 10
16.2047968657
 20
13.3383356148
 30
0.0
 10
16.2115981223
 20
13.337384093
 30
0.0
 10
16.2183546635
 20
13.3366551338
 30
0.0
 10
16.225048383
 20
13.3361507037
 30
0.0
 10
16.2316613454
 20
13.3358721465
 30
0.0
 10
16.2381758385
 20
13.3358202094
 30
0.0
 10
16.2445744171
 20
13.3359950423
 30
0.0
 10
16.2508399524
 20
13.3363961994
 30
0.0
 10
16.2569556785
 20
13.3370226136
 30
0.0
 10
16.2629052408
 20
13.3378726238
 30
0.0
 10
16.2686727401
 20
13.3389439962
 30
0.0
 10
16.2742427126
 20
13.3402339208
 30
0.0
 10
16.2796004275
 20
13.3417389978
 30
0.0
 10
16.284731248
 20
13.3434552484
 30
0.0
 10
16.2880402168
 20
13.34475635
 30
0.0
 10
16.2896509834
 20
13.3454422323
 30
0.0
  0
SPLINE
  5
2C2
100
AcDbEntity
  8
LAYER_FEATURE
100
AcDbSpline
 62
7
  6
CONTINUOUS
 70
0
 71
3
 72
39
 73
35
 74
0
 42
0.0000001
 43
0.0000001
 44
0.0000000001
 40
0.0
 40
0.0
 40
0.0
 40
0.0
 40
0.0362624922
 40
0.0729162438
 40
0.1098697601
 40
0.1470441056
 40
0.1843550068
 40
0.2217157334
 40
0.2590404076
 40
0.2962433451
 40
0.3332394165
 40
0.3699450816
 40
0.4062788199
 40
0.442161673
 40
0.4775181324
 40
0.5122764765
 40
0.5463697362
 40
0.579736399
 40
0.6123209224
 40
0.6440750715
 40
0.6749584038
 40
0.7049393657
 40
0.7339966718
 40
0.7621199078
 40
0.7893112511
 40
0.8155865911
 40
0.840976504
 40
0.8655279231
 40
0.8893047233
 40
0.9123883779
 40
0.9348772729
 40
0.9568869065
 40
0.978549548
 40
1.0
 40
1.0
 40
1.0
 40
1.0
 10
16.0553831919
 20
13.5684274764
 30
0.0
 10
16.0547150984
 20
13.5687850813
 30
0.0
 10
16.053358555
 20
13.5694798638
 30
0.0
 10
16.0512791336
 20
13.5704542541
 30
0.0
 10
16.0491497842
 20
13.5713638006
 30
0.0
 10
16.0469779416
 20
13.5722053508
 30
0.0
 10
16.0447709617
 20
13.5729760962
 30
0.0
 10
16.0425363857
 20
13.5736733524
 30
0.0
 10
16.0402818768
 20
13.5742947488
 30
0.0
 10
16.0380151458
 20
13.5748381751
 30
0.0
 10
16.0357439373
 20
13.5753017396
 30
0.0
 10
16.033476028
 20
13.5756838875
 30
0.0
 10
16.0312191707
 20
13.5759833004
 30
0.0
 10
16.0289810797
 20
13.5761989399
 30
0.0
 10
16.0267694088
 20
13.576330099
 30
0.0
 10
16.0245917121
 20
13.5763762964
 30
0.0
 10
16.0224554289
 20
13.5763373834
 30
0.0
 10
16.0203678515
 20
13.5762135026
 30
0.0
 10
16.0183361042
 20
13.5760050326
 30
0.0
 10
16.0163671132
 20
13.5757127076
 30
0.0
 10
16.0144675884
 20
13.5753374933
 30
0.0
 10
16.0126440038
 20
13.5748806256
 30
0.0
 10
16.0109025597
 20
13.5743436627
 30
0.0
 10
16.0092491947
 20
13.5737283477
 30
0.0
 10
16.0076895405
 20
13.5730367264
 30
0.0
 10
16.006228914
 20
13.5722710882
 30
0.0
 10
16.0048723473
 20
13.5714338991
 30
0.0
 10
16.0036245028
 20
13.5705279379
 30
0.0
 10
16.0024897431
 20
13.5695561526
 30
0.0
 10
16.0014721232
 20
13.5685217247
 30
0.0
 10
16.0005752725
 20
13.5674281757
 30
0.0
 10
15.9998024952
 20
13.566279092
 30
0.0
 10
15.9991568403
 20
13.5650786854
 30
0.0
 10
15.9988116531
 20
13.5642445034
 30
0.0
 10
15.9986617332
 20
13.5638220658
 30
0.0
  0
SPLINE
  5
2C3
100
AcDbEntity
  8
LAYER_FEATURE
100
AcDbSpline
 62
7
  6
CONTINUOUS
 70
0
 71
3
 72
43
 73
39
 74
0
 42
0.0000001
 43
0.0000001
 44
0.0000000001
 40
0.0
 40
0.0
 40
0.0
 40
0.0
 40
0.0381339447
 40
0.076349474
 40
0.1145737025
 40
0.1527401116
 40
0.1907792725
 40
0.2286232422
 40
0.266205164
 40
0.3034594866
 40
0.3403225299
 40
0.3767328436
 40
0.4126316182
 40
0.447963095
 40
0.4826750155
 40
0.5167191475
 40
0.550051756
 40
0.5826341156
 40
0.6144330947
 40
0.6454218329
 40
0.6755803579
 40
0.7048962697
 40
0.7333655054
 40
0.7609931868
 40
0.7877943702
 40
0.8137948081
 40
0.8390316924
 40
0.8635543092
 40
0.8874243254
 40
0.9107159162
 40
0.9221737624
 40
0.9335202733
 40
0.9447678439
 40
0.9559296424
 40
0.9670196585
 40
0.9780522541
 40
0.9890412232
 40
1.0
 40
1.0
 40
1.0
 40
1.0
 10
15.8319913808
 20
13.5362633654
 30
0.0
 10
15.8341817386
 20
13.5354294671
 30
0.0
 10
15.8385924364
 20
13.5338254979
 30
0.0
 10
15.8452797071
 20
13.531616339
 30
0.0
 10
15.8520315268
 20
13.529605886
 30
0.0
 10
15.8588295634
 20
13.5277995364
 30
0.0
 10
15.8656557268
 20
13.5262021393
 30
0.0
 10
15.8724916671
 20
13.5248179713
 30
0.0
 10
15.8793190632
 20
13.5236507358
 30
0.0
 10
15.8861196158
 20
13.5227035685
 30
0.0
 10
15.8928750955
 20
13.5219790188
 30
0.0
 10
15.8995673981
 20
13.5214790198
 30
0.0
 10
15.9061785938
 20
13.5212049106
 30
0.0
 10
15.9126909736
 20
13.5211574336
 30
0.0
 10
15.9190870978
 20
13.5213367349
 30
0.0
 10
15.9253498456
 20
13.5217423347
 30
0.0
 10
15.9314624611
 20
13.5223731593
 30
0.0
 10
15.9374085941
 20
13.5232275473
 30
0.0
 10
15.9431723444
 20
13.524303258
 30
0.0
 10
15.9487383109
 20
13.525597447
 30
0.0
 10
15.9540916262
 20
13.5271067103
 30
0.0
 10
15.9592179879
 20
13.5288270967
 30
0.0
 10
15.9641036914
 20
13.5307541247
 30
0.0
 10
15.968735675
 20
13.532882763
 30
0.0
 10
15.9731015311
 20
13.535207479
 30
0.0
 10
15.9771895252
 20
13.5377222571
 30
0.0
 10
15.9809885944
 20
13.5404205878
 30
0.0
 10
15.98448844
 20
13.5432955179
 30
0.0
 10
15.9876793249
 20
13.5463393945
 30
0.0
 10
15.9900869855
 20
13.5490252232
 30
0.0
 10
15.9918448134
 20
13.5512478851
 30
0.0
 10
15.9930738326
 20
13.5529426414
 30
0.0
 10
15.9942196596
 20
13.5546729192
 30
0.0
 10
15.9952815242
 20
13.5564376113
 30
0.0
 10
15.9962587425
 20
13.5582355331
 30
0.0
 10
15.9971505957
 20
13.5600655084
 30
0.0
 10
15.9979564509
 20
13.5619261233
 30
0.0
 10
15.9984364676
 20
13.5631873228
 30
0.0
 10
15.9986617332
 20
13.5638220658
 30
0.0
  0
SPLINE
  5
2C4
100
AcDbEntity
  8
LAYER_FEATURE
100
AcDbSpline
 62
7
  6
CONTINUOUS
 70
0
 71
3
 72
33
 73
29
 74
0
 42
0.0000001
 43
0.0000001
 44
0.0000000001
 40
0.0
 40
0.0
 40
0.0
 40
0.0
 40
0.0794310622
 40
0.1574305738
 40
0.2336680094
 40
0.3078499528
 40
0.379710526
 40
0.4490268599
 40
0.4826791445
 40
0.5156342052
 40
0.5478791658
 40
0.5794054645
 40
0.610208687
 40
0.6402897859
 40
0.6696542951
 40
0.6983139101
 40
0.726285675
 40
0.753593227
 40
0.7802664869
 40
0.8063420765
 40
0.831863611
 40
0.8568812135
 40
0.8814520429
 40
0.9056391779
 40
0.9295117724
 40
0.9531436878
 40
0.9766128869
 40
1.0
 40
1.0
 40
1.0
 40
1.0
 10
15.6453060646
 20
13.7058578707
 30
0.0
 10
15.6442442835
 20
13.7060269876
 30
0.0
 10
15.6421312415
 20
13.7063106888
 30
0.0
 10
15.6389777746
 20
13.7065716627
 30
0.0
 10
15.6358857557
 20
13.7066630323
 30
0.0
 10
15.6328763833
 20
13.7065841841
 30
0.0
 10
15.6299701872
 20
13.7063356029
 30
0.0
 10
15.6276279353
 20
13.7059849716
 30
0.0
 10
15.6258245817
 20
13.705618752
 30
0.0
 10
15.6245233267
 20
13.7053058251
 30
0.0
 10
15.6232623149
 20
13.7049524734
 30
0.0
 10
15.6220436825
 20
13.7045593207
 30
0.0
 10
15.6208695339
 20
13.7041269838
 30
0.0
 10
15.6197418602
 20
13.7036562507
 30
0.0
 10
15.6186626167
 20
13.7031478513
 30
0.0
 10
15.6176336325
 20
13.7026026977
 30
0.0
 10
15.6166566948
 20
13.702021661
 30
0.0
 10
15.6157334755
 20
13.7014057419
 30
0.0
 10
15.6148655701
 20
13.7007559698
 30
0.0
 10
15.6140545005
 20
13.700073419
 30
0.0
 10
15.6133016519
 20
13.6993592745
 30
0.0
 10
15.6126083933
 20
13.6986146945
 30
0.0
 10
15.6119758961
 20
13.6978409988
 30
0.0
 10
15.6114053484
 20
13.6970394576
 30
0.0
 10
15.610897722
 20
13.6962115006
 30
0.0
 10
15.6104539695
 20
13.6953585204
 30
0.0
 10
15.6100748954
 20
13.6944820882
 30
0.0
 10
15.6098655755
 20
13.6938826915
 30
0.0
 10
15.6097721141
 20
13.6935802388
 30
0.0
  0
SPLINE
  5
2C5
100
AcDbEntity
  8
LAYER_FEATURE
100
AcDbSpline
 62
7
  6
CONTINUOUS
 70
0
 71
3
 72
16
 73
12
 74
0
 42
0.0000001
 43
0.0000001
 44
0.0000000001
 40
0.0
 40
0.0
 40
0.0
 40
0.0
 40
0.1364450503
 40
0.2700408054
 40
0.4005314662
 40
0.5277004259
 40
0.6513583975
 40
0.7713561731
 40
0.8299526563
 40
0.8875976554
 40
1.0
 40
1.0
 40
1.0
 40
1.0
 10
15.5259680912
 20
13.591531623
 30
0.0
 10
15.5285077534
 20
13.5914717917
 30
0.0
 10
15.5335370473
 20
13.5914530554
 30
0.0
 10
15.5409910298
 20
13.591735929
 30
0.0
 10
15.5482537701
 20
13.5923290842
 30
0.0
 10
15.5552984438
 20
13.5932303381
 30
0.0
 10
15.5620991766
 20
13.5944364633
 30
0.0
 10
15.5675853936
 20
13.595701901
 30
0.0
 10
15.5718274212
 20
13.5968661852
 30
0.0
 10
15.5758995586
 20
13.5981081027
 30
0.0
 10
15.5788874394
 20
13.5991625768
 30
0.0
 10
15.5808378487
 20
13.599921154
 30
0.0
  0
SPLINE
  5
2C6
100
AcDbEntity
  8
LAYER_FEATURE
100
AcDbSpline
 62
7
  6
CONTINUOUS
 70
0
 71
3
 72
39
 73
35
 74
0
 42
0.0000001
 43
0.0000001
 44
0.0000000001
 40
0.0
 40
0.0
 40
0.0
 40
0.0
 40
0.0242087628
 40
0.049099507
 40
0.0746779195
 40
0.1009479535
 40
0.1279053922
 40
0.1555404626
 40
0.183838536
 40
0.2127800515
 40
0.2423411296
 40
0.2724940285
 40
0.3032074031
 40
0.3344466588
 40
0.3661743546
 40
0.3983504513
 40
0.4309325718
 40
0.4638763559
 40
0.4971356921
 40
0.5306629367
 40
0.5644092223
 40
0.5983246812
 40
0.6323586553
 40
0.6664599699
 40
0.700577148
 40
0.7346586281
 40
0.7686530351
 40
0.8025093566
 40
0.836177172
 40
0.869607129
 40
0.9027505841
 40
0.9355601115
 40
0.9679925296
 40
1.0
 40
1.0
 40
1.0
 40
1.0
 10
15.3528148122
 20
13.6804629727
 30
0.0
 10
15.3535661257
 20
13.6790108804
 30
0.0
 10
15.355172975
 20
13.6761080819
 30
0.0
 10
15.3578443422
 20
13.6718278571
 30
0.0
 10
15.3608041029
 20
13.6675710531
 30
0.0
 10
15.3640453691
 20
13.6633473832
 30
0.0
 10
15.3675609314
 20
13.6591661256
 30
0.0
 10
15.3713428704
 20
13.6550366242
 30
0.0
 10
15.3753827074
 20
13.6509680961
 30
0.0
 10
15.3796713824
 20
13.6469696208
 30
0.0
 10
15.3841992657
 20
13.6430501216
 30
0.0
 10
15.3889562169
 20
13.6392183772
 30
0.0
 10
15.3939315724
 20
13.6354829677
 30
0.0
 10
15.3991141615
 20
13.6318522417
 30
0.0
 10
15.4044923675
 20
13.6283343432
 30
0.0
 10
15.4100541335
 20
13.6249371699
 30
0.0
 10
15.4157869695
 20
13.621668321
 30
0.0
 10
15.4216780143
 20
13.6185351321
 30
0.0
 10
15.427714057
 20
13.6155446507
 30
0.0
 10
15.4338815409
 20
13.61270357
 30
0.0
 10
15.440166622
 20
13.6100182639
 30
0.0
 10
15.4465552001
 20
13.6074947798
 30
0.0
 10
15.453032928
 20
13.6051387699
 30
0.0
 10
15.4595852605
 20
13.6029555147
 30
0.0
 10
15.4661974933
 20
13.600949934
 30
0.0
 10
15.4728547802
 20
13.5991265257
 30
0.0
 10
15.4795421716
 20
13.5974893692
 30
0.0
 10
15.4862446561
 20
13.5960421552
 30
0.0
 10
15.4929471946
 20
13.5947881321
 30
0.0
 10
15.4996347355
 20
13.5937301064
 30
0.0
 10
15.5062922358
 20
13.5928704588
 30
0.0
 10
15.5129048942
 20
13.5922111015
 30
0.0
 10
15.5194576378
 20
13.5917535754
 30
0.0
 10
15.5238070585
 20
13.5915825343
 30
0.0
 10
15.5259680912
 20
13.591531623
 30
0.0
  0
SPLINE
  5
2C7
100
AcDbEntity
  8
LAYER_FEATURE
100
AcDbSpline
 62
7
  6
CONTINUOUS
 70
0
 71
3
 72
39
 73
35
 74
0
 42
0.0000001
 43
0.0000001
 44
0.0000000001
 40
0.0
 40
0.0
 40
0.0
 40
0.0
 40
0.0244110354
 40
0.0496431848
 40
0.0756999496
 40
0.1025829594
 40
0.130281363
 40
0.1587746048
 40
0.1880345969
 40
0.2180259706
 40
0.2487069018
 40
0.2800296513
 40
0.3119415873
 40
0.3443855729
 40
0.3773005339
 40
0.4106222397
 40
0.4442835626
 40
0.4782151721
 40
0.5123459941
 40
0.546603608
 40
0.5809148537
 40
0.6152061748
 40
0.6494041859
 40
0.6834360645
 40
0.7172300467
 40
0.7507159781
 40
0.7838256215
 40
0.8164933288
 40
0.8486565898
 40
0.8802565297
 40
0.9112376887
 40
0.9415503471
 40
0.9711531296
 40
1.0
 40
1.0
 40
1.0
 40
1.0
 10
15.3528148122
 20
13.6804629727
 30
0.0
 10
15.3525550545
 20
13.6809650161
 30
0.0
 10
15.3519923956
 20
13.6819685091
 30
0.0
 10
15.351041907
 20
13.6834425153
 30
0.0
 10
15.3499740448
 20
13.6849053232
 30
0.0
 10
15.348792349
 20
13.6863521985
 30
0.0
 10
15.3475005666
 20
13.6877786873
 30
0.0
 10
15.3461027737
 20
13.6891802469
 30
0.0
 10
15.3446034361
 20
13.6905524625
 30
0.0
 10
15.3430073223
 20
13.6918910075
 30
0.0
 10
15.3413194814
 20
13.6931916157
 30
0.0
 10
15.3395452967
 20
13.6944501897
 30
0.0
 10
15.3376903985
 20
13.6956627248
 30
0.0
 10
15.3357606776
 20
13.6968253599
 30
0.0
 10
15.3337622837
 20
13.6979344253
 30
0.0
 10
15.3317015589
 20
13.6989863696
 30
0.0
 10
15.3295850646
 20
13.6999778586
 30
0.0
 10
15.3274195386
 20
13.7009057481
 30
0.0
 10
15.3252118609
 20
13.7017670592
 30
0.0
 10
15.3229690674
 20
13.7025590778
 30
0.0
 10
15.3206982919
 20
13.7032792723
 30
0.0
 10
15.318406758
 20
13.7039253396
 30
0.0
 10
15.3161017662
 20
13.7044952496
 30
0.0
 10
15.3137906453
 20
13.7049871623
 30
0.0
 10
15.3114807523
 20
13.7053995237
 30
0.0
 10
15.3091794384
 20
13.7057310332
 30
0.0
 10
15.306894021
 20
13.7059806058
 30
0.0
 10
15.3046317724
 20
13.7061474784
 30
0.0
 10
15.3023998795
 20
13.7062311067
 30
0.0
 10
15.3002054461
 20
13.7062312017
 30
0.0
 10
15.2980554536
 20
13.7061478071
 30
0.0
 10
15.2959566457
 20
13.7059811398
 30
0.0
 10
15.2939158427
 20
13.7057317118
 30
0.0
 10
15.292580455
 20
13.7055078402
 30
0.0
 10
15.2919244853
 20
13.7053817476
 30
0.0
  0
SPLINE
  5
2C8
100
AcDbEntity
  8
LAYER_FEATURE
100
AcDbSpline
 62
7
  6
CONTINUOUS
 70
0
 71
3
 72
23
 73
19
 74
0
 42
0.0000001
 43
0.0000001
 44
0.0000000001
 40
0.0
 40
0.0
 40
0.0
 40
0.0
 40
0.0749418042
 40
0.1480067948
 40
0.2191575146
 40
0.288400646
 40
0.3557637446
 40
0.4212881139
 40
0.4850334297
 40
0.5470842652
 40
0.6075469906
 40
0.6665518864
 40
0.7242514838
 40
0.7808219022
 40
0.8364595545
 40
0.8913799418
 40
0.9458131118
 40
1.0
 40
1.0
 40
1.0
 40
1.0
 10
15.251583417
 20
13.6964539739
 30
0.0
 10
15.2510998723
 20
13.6963322384
 30
0.0
 10
15.2501497395
 20
13.6960719709
 30
0.0
 10
15.2487612442
 20
13.6956250011
 30
0.0
 10
15.2474304776
 20
13.6951272294
 30
0.0
 10
15.2461605059
 20
13.6945798457
 30
0.0
 10
15.2449541084
 20
13.6939839747
 30
0.0
 10
15.2438139173
 20
13.6933409625
 30
0.0
 10
15.2427425316
 20
13.6926521234
 30
0.0
 10
15.2417423183
 20
13.6919190212
 30
0.0
 10
15.2408155741
 20
13.6911431749
 30
0.0
 10
15.2399643538
 20
13.6903263323
 30
0.0
 10
15.2391906715
 20
13.6894702127
 30
0.0
 10
15.2384962602
 20
13.6885767582
 30
0.0
 10
15.23788282
 20
13.6876479076
 30
0.0
 10
15.2373517234
 20
13.6866857755
 30
0.0
 10
15.2369043434
 20
13.6856926008
 30
0.0
 10
15.2366622986
 20
13.6850105951
 30
0.0
 10
15.2365558527
 20
13.6846661288
 30
0.0
  0
SPLINE
  5
2C9
100
AcDbEntity
  8
LAYER_FEATURE
100
AcDbSpline
 62
7
  6
CONTINUOUS
 70
0
 71
3
 72
23
 73
19
 74
0
 42
0.0000001
 43
0.0000001
 44
0.0000000001
 40
0.0
 40
0.0
 40
0.0
 40
0.0
 40
0.0593702705
 40
0.1196223671
 40
0.180660384
 40
0.2423948401
 40
0.3047274199
 40
0.367557571
 40
0.4307824564
 40
0.4942969519
 40
0.5579945378
 40
0.6217677823
 40
0.6855088755
 40
0.7491101526
 40
0.8124646576
 40
0.875466694
 40
0.9380123361
 40
1.0
 40
1.0
 40
1.0
 40
1.0
 10
15.0804702005
 20
13.5638220658
 30
0.0
 10
15.0823506807
 20
13.5625524239
 30
0.0
 10
15.0861832447
 20
13.5600583664
 30
0.0
 10
15.0920907986
 20
13.5564826007
 30
0.0
 10
15.0981875874
 20
13.5530517136
 30
0.0
 10
15.1044580654
 20
13.549774387
 30
0.0
 10
15.1108866313
 20
13.546658811
 30
0.0
 10
15.1174570979
 20
13.5437128117
 30
0.0
 10
15.1241529678
 20
13.5409437794
 30
0.0
 10
15.1309574369
 20
13.5383586835
 30
0.0
 10
15.137853411
 20
13.5359640105
 30
0.0
 10
15.1448235683
 20
13.5337657654
 30
0.0
 10
15.1518504043
 20
13.5317694734
 30
0.0
 10
15.1589162758
 20
13.5299801613
 30
0.0
 10
15.1660034269
 20
13.5284023101
 30
0.0
 10
15.1730940835
 20
13.527039876
 30
0.0
 10
15.1801703521
 20
13.5258962974
 30
0.0
 10
15.1848902873
 20
13.5252786227
 30
0.0
 10
15.1872437134
 20
13.5250074878
 30
0.0
  0
SPLINE
  5
2CA
100
AcDbEntity
  8
LAYER_FEATURE
100
AcDbSpline
 62
7
  6
CONTINUOUS
 70
0
 71
3
 72
39
 73
35
 74
0
 42
0.0000001
 43
0.0000001
 44
0.0000000001
 40
0.0
 40
0.0
 40
0.0
 40
0.0
 40
0.0331837381
 40
0.0669179211
 40
0.1011300476
 40
0.1357567292
 40
0.1707284781
 40
0.2059722935
 40
0.2414143652
 40
0.2769795635
 40
0.312591792
 40
0.3481747168
 40
0.3836522319
 40
0.4189488264
 40
0.4539902338
 40
0.4887037682
 40
0.5230189407
 40
0.5568680052
 40
0.5901863051
 40
0.6229131565
 40
0.654992181
 40
0.6863719837
 40
0.7170070751
 40
0.7468581859
 40
0.7758934239
 40
0.8040890334
 40
0.8314300487
 40
0.8579117227
 40
0.8835402587
 40
0.908333965
 40
0.9323237743
 40
0.9555552221
 40
0.9780908344
 40
1.0
 40
1.0
 40
1.0
 40
1.0
 10
15.0804702005
 20
13.5638220658
 30
0.0
 10
15.0798565996
 20
13.5642363501
 30
0.0
 10
15.07860313
 20
13.5650482047
 30
0.0
 10
15.0766653758
 20
13.566204986
 30
0.0
 10
15.0746595667
 20
13.5673077889
 30
0.0
 10
15.0725922228
 20
13.568353053
 30
0.0
 10
15.0704698588
 20
13.5693375252
 30
0.0
 10
15.0682992158
 20
13.5702580299
 30
0.0
 10
15.0660872193
 20
13.5711116504
 30
0.0
 10
15.0638409083
 20
13.5718956838
 30
0.0
 10
15.0615674211
 20
13.572607606
 30
0.0
 10
15.0592740033
 20
13.5732451787
 30
0.0
 10
15.0569679506
 20
13.5738063623
 30
0.0
 10
15.0546565987
 20
13.574289359
 30
0.0
 10
15.0523473088
 20
13.5746926589
 30
0.0
 10
15.050047423
 20
13.5750149515
 30
0.0
 10
15.0477642596
 20
13.5752552225
 30
0.0
 10
15.0455050812
 20
13.5754127191
 30
0.0
 10
15.0432770682
 20
13.5754869089
 30
0.0
 10
15.041087304
 20
13.5754775833
 30
0.0
 10
15.0389427445
 20
13.5753847568
 30
0.0
 10
15.0368502009
 20
13.5752087035
 30
0.0
 10
15.0348163126
 20
13.5749500049
 30
0.0
 10
15.032847534
 20
13.5746094374
 30
0.0
 10
15.030950106
 20
13.5741880749
 30
0.0
 10
15.0291300376
 20
13.5736872421
 30
0.0
 10
15.0273931057
 20
13.573108454
 30
0.0
 10
15.0257448047
 20
13.5724535342
 30
0.0
 10
15.0241903649
 20
13.5717244805
 30
0.0
 10
15.0227347503
 20
13.5709235019
 30
0.0
 10
15.0213825931
 20
13.5700531103
 30
0.0
 10
15.0201381973
 20
13.5691158587
 30
0.0
 10
15.0190057985
 20
13.5681147483
 30
0.0
 10
15.0183190035
 20
13.5673974951
 30
0.0
 10
15.0179969482
 20
13.5670297705
 30
0.0
  0
SPLINE
  5
2CB
100
AcDbEntity
  8
LAYER_FEATURE
100
AcDbSpline
 62
7
  6
CONTINUOUS
 70
0
 71
3
 72
11
 73
7
 74
0
 42
0.0000001
 43
0.0000001
 44
0.0000000001
 40
0.0
 40
0.0
 40
0.0
 40
0.0
 40
0.2536329579
 40
0.5042079642
 40
0.752646704
 40
1.0
 40
1.0
 40
1.0
 40
1.0
 10
14.9992194079
 20
13.5432014567
 30
0.0
 10
14.9990117085
 20
13.5429068989
 30
0.0
 10
14.9986205455
 20
13.5423056244
 30
0.0
 10
14.9981078891
 20
13.5413657503
 30
0.0
 10
14.9976748164
 20
13.5403963967
 30
0.0
 10
14.9974395784
 20
13.5397313425
 30
0.0
 10
14.9973358015
 20
13.5393955139
 30
0.0
  0
ENDSEC
  0
SECTION
  2
OBJECTS
  0
DICTIONARY
  5
C
100
AcDbDictionary
280
0
281
1
  3
ACAD_GROUP
350
D
  3
ACAD_MLINESTYLE
350
17
  3
ACAD_LAYOUT
350
1A
  3
ACAD_PLOTSETTINGS
350
19
  3
ACAD_PLOTSTYLENAME
350
E
  0
DICTIONARY
  5
D
102
{ACAD_REACTORS
330
C
102
}
100
AcDbDictionary
280
0
281
1
  0
ACDBDICTIONARYWDFLT
  5
E
102
{ACAD_REACTORS
330
C
102
}
100
AcDbDictionary
281
1
  3
Normal
350
F
100
AcDbDictionaryWithDefault
340
F
  0
DICTIONARY
  5
17
102
{ACAD_REACTORS
330
C
102
}
100
AcDbDictionary
280
0
281
1
  3
Standard
350
18
  0
DICTIONARY
  5
19
102
{ACAD_REACTORS
330
C
102
}
100
AcDbDictionary
281
1
  0
DICTIONARY
  5
1A
102
{ACAD_REACTORS
330
C
102
}
100
AcDbDictionary
281
1
  3
Model
350
2CC
  3
Layout1
350
2CD
  0
ACDBPLACEHOLDER
  5
F
102
{ACAD_REACTORS
330
E
102
}
  0
MLINESTYLE
  5
18
102
{ACAD_REACTORS
330
17
102
}
100
AcDbMlineStyle
  2
STANDARD
 70
0
  3

 62
256
 51
90.0
 52
90.0
 71
2
 49
0.5
 62
256
  6
BYLAYER
 49
-0.5
 62
256
  6
BYLAYER
  0
LAYOUT
  5
2CC
102
{ACAD_REACTORS
330
1A
102
}
100
AcDbPlotSettings
  1

  2
none_device
  4
ANSI_C_(22.00_x_17.00_Inches)
  6

 40
0.0
 41
0.0
 42
0.0
 43
0.0
 44
558.8
 45
431.8
 46
0.0
 47
0.0
 48
0.0
 49
0.0
140
0.0
141
0.0
142
1.0
143
1.0
 70
1024
 72
0
 73
0
 74
0
  7

 75
0
147
1.0
148
0.0
149
0.0
100
AcDbLayout
  1
Model
 70
0
 71
0
 10
0.0
 20
0.0
 11
22.0
 21
17.0
 12
0.0
 22
0.0
 32
0.0
 14
0.0
 24
0.0
 34
0.0
 15
0.0
 25
0.0
 35
0.0
146
0.0
 13
0.0
 23
0.0
 33
0.0
 16
1.0
 26
0.0
 36
0.0
 17
0.0
 27
1.0
 37
0.0
 76
0
330
221
345
0
346
0
  0
LAYOUT
  5
2CD
102
{ACAD_REACTORS
330
1A
102
}
100
AcDbPlotSettings
  1

  2
none_device
  4
ANSI_C_(22.00_x_17.00_Inches)
  6

 40
0.0
 41
0.0
 42
0.0
 43
0.0
 44
558.8
 45
431.8
 46
0.0
 47
0.0
 48
0.0
 49
0.0
140
0.0
141
0.0
142
1.0
143
1.0
 70
0
 72
0
 73
0
 74
0
  7

 75
0
147
1.0
148
0.0
149
0.0
100
AcDbLayout
  1
Layout1
 70
0
 71
1
 10
0.0
 20
0.0
 11
22.0
 21
17.0
 12
0.0
 22
0.0
 32
0.0
 14
0.0
 24
0.0
 34
0.0
 15
0.0
 25
0.0
 35
0.0
146
0.0
 13
0.0
 23
0.0
 33
0.0
 16
1.0
 26
0.0
 36
0.0
 17
0.0
 27
1.0
 37
0.0
 76
0
330
222
345
0
346
0
  0
ENDSEC
  0
EOF