999
DXF file: _cgs_temp_output.dxf
999
Pro/ENGINEER 2015110 by Parametric Technology Corporation
  0
SECTION
  2
HEADER
  9
$ACADVER
  1
AC1021
  9
$DWGCODEPAGE
  3
ANSI_1252
  9
$EXTMAX
 10
22.0
 20
17.0
 30
0.0
  9
$EXTMIN
 10
0.0
 20
0.0
 30
0.0
  9
$LIMMIN
 10
0.0
 20
0.0
  9
$LIMMAX
 10
22.0
 20
17.0
  9
$VIEWCTR
 10
11.0
 20
8.5
  9
$VIEWSIZE
 40
17.0
  9
$CLAYER
  8
0
  9
$LTSCALE
 40
1.21
  9
$CELTYPE
  6
BYLAYER
  9
$DIMSCALE
 40
1.0
  9
$DIMASZ
 40
0.1875
  9
$DIMEXO
 40
0.0625
  9
$DIMDLI
 40
0.836
  9
$DIMEXE
 40
0.125
  9
$DIMCEN
 40
0.198
  9
$DIMLFAC
 40
1.0
  9
$DIMBLK
  1
_CLOSED
  9
$DIMALT
 70
0
  9
$DIMALTF
 40
25.4
  9
$DIMTXT
 40
0.15625
  9
$DIMTOL
 70
0
  9
$DIMLIM
 70
0
  9
$DIMTFAC
 40
1.0
  9
$DIMGAP
 40
0.09
  9
$DIMDSEP
 70
46
  9
$AUNITS
 70
0
  9
$PDMODE
 70
3
  9
$PDSIZE
 40
0.3125
  9
$HANDSEED
  5
2A8
  9
$TILEMODE
 70
1
  9
$MEASUREMENT
 70
0
  9
$INSUNITS
 70
1
  0
ENDSEC
  0
SECTION
  2
CLASSES
  0
CLASS
  1
ACDBDICTIONARYWDFLT
  2
AcDbDictionaryWithDefault
  3
AutoCAD 2000
 90
0
 91
1
280
0
281
0
  0
CLASS
  1
ACDBPLACEHOLDER
  2
AcDbPlaceHolder
  3
AutoCAD 2000
 90
0
 91
1
280
0
281
0
  0
CLASS
  1
LAYOUT
  2
AcDbLayout
  3
AutoCAD 2000
 90
0
 91
0
280
0
281
0
  0
ENDSEC
  0
SECTION
  2
TABLES
  0
TABLE
  2
VPORT
  5
8
100
AcDbSymbolTable
 70
2
  0
VPORT
  5
1F4
100
AcDbSymbolTableRecord
100
AcDbViewportTableRecord
  2
*ACTIVE
 70
0
 10
0.0
 20
0.0
 11
1.0
 21
1.0
 12
11.0
 22
8.5
 13
0.0
 23
0.0
 14
1.0
 24
1.0
 15
0.0
 25
0.0
 16
0.0
 26
0.0
 36
1.0
 17
0.0
 27
0.0
 37
0.0
 40
17.0
 41
1.2941176471
 42
50.0
 43
0.0
 44
0.0
 50
0.0
 51
0.0
 71
0
 72
100
 73
1
 74
1
 75
0
 76
0
 77
0
 78
0
  0
ENDTAB
  0
TABLE
  2
LTYPE
  5
5
100
AcDbSymbolTable
 70
6
  0
LTYPE
  5
14
100
AcDbSymbolTableRecord
100
AcDbLinetypeTableRecord
  2
BYBLOCK
 70
0
  3

 72
65
 73
0
 40
0.0
  0
LTYPE
  5
15
100
AcDbSymbolTableRecord
100
AcDbLinetypeTableRecord
  2
BYLAYER
 70
0
  3

 72
65
 73
0
 40
0.0
  0
LTYPE
  5
16
100
AcDbSymbolTableRecord
100
AcDbLinetypeTableRecord
  2
CONTINUOUS
 70
64
  3
Solid line
 72
65
 73
0
 40
0.0
  0
LTYPE
  5
1F5
100
AcDbSymbolTableRecord
100
AcDbLinetypeTableRecord
  2
CENTER
 70
64
  3
____ _ ____ _ ____ _ ____ _ ____ _ ____ _ ____
 72
65
 73
4
 40
0.6
 49
0.375
 74
0
 49
-0.075
 74
0
 49
0.075
 74
0
 49
-0.075
 74
0
  0
LTYPE
  5
1F6
100
AcDbSymbolTableRecord
100
AcDbLinetypeTableRecord
  2
HIDDEN
 70
64
  3
- - - - - - - - - - - - - - - - - - - -
 72
65
 73
2
 40
0.2
 49
0.1
 74
0
 49
-0.1
 74
0
  0
LTYPE
  5
1F7
100
AcDbSymbolTableRecord
100
AcDbLinetypeTableRecord
  2
PHANTOM
 70
64
  3
_____ _ _ _____ _ _ _____ _ _ _____
 72
65
 73
6
 40
0.8
 49
0.45
 74
0
 49
-0.05
 74
0
 49
0.1
 74
0
 49
-0.05
 74
0
 49
0.1
 74
0
 49
-0.05
 74
0
  0
LTYPE
  5
1F8
100
AcDbSymbolTableRecord
100
AcDbLinetypeTableRecord
  2
DOT
 70
64
  3
. . . . . . . . . . . . . . . . . . . .
 72
65
 73
2
 40
0.2
 49
0.1
 74
0
 49
-0.1
 74
0
  0
LTYPE
  5
1F9
100
AcDbSymbolTableRecord
100
AcDbLinetypeTableRecord
  2
DASHED
 70
64
  3
- - - - - - - - - - - - - - - - - - - -
 72
65
 73
2
 40
0.2
 49
0.1
 74
0
 49
-0.1
 74
0
  0
ENDTAB
  0
TABLE
  2
LAYER
  5
2
100
AcDbSymbolTable
 70
36
  0
LAYER
  5
10
100
AcDbSymbolTableRecord
100
AcDbLayerTableRecord
  2
0
 70
0
 62
7
  6
CONTINUOUS
370
-3
390
F
  0
LAYER
  5
1FA
100
AcDbSymbolTableRecord
100
AcDbLayerTableRecord
  2
DEFAULT_1
 70
0
 62
7
  6
CENTER
370
-3
390
F
  0
LAYER
  5
1FB
100
AcDbSymbolTableRecord
100
AcDbLayerTableRecord
  2
DEFAULT_2
 70
0
 62
8
  6
HIDDEN
370
-3
390
F
  0
LAYER
  5
1FC
100
AcDbSymbolTableRecord
100
AcDbLayerTableRecord
  2
DEFAULT_3
 70
0
 62
7
  6
PHANTOM
370
-3
390
F
  0
LAYER
  5
1FD
100
AcDbSymbolTableRecord
100
AcDbLayerTableRecord
  2
01_ALL_DTM_PLN
 70
0
 62
7
  6
CONTINUOUS
370
-3
390
F
  0
LAYER
  5
1FE
100
AcDbSymbolTableRecord
100
AcDbLayerTableRecord
  2
01__ASM_ALL_DTM_PLN
 70
0
 62
7
  6
CONTINUOUS
370
-3
390
F
  0
LAYER
  5
1FF
100
AcDbSymbolTableRecord
100
AcDbLayerTableRecord
  2
01__ASM_DEF_DTM_PLN
 70
0
 62
7
  6
CONTINUOUS
370
-3
390
F
  0
LAYER
  5
200
100
AcDbSymbolTableRecord
100
AcDbLayerTableRecord
  2
01___PRT_ALL_DTM_PLN
 70
0
 62
7
  6
CONTINUOUS
370
-3
390
F
  0
LAYER
  5
201
100
AcDbSymbolTableRecord
100
AcDbLayerTableRecord
  2
01___PRT_DEF_DTM_PLN
 70
0
 62
7
  6
CONTINUOUS
370
-3
390
F
  0
LAYER
  5
202
100
AcDbSymbolTableRecord
100
AcDbLayerTableRecord
  2
02_ALL_AXES
 70
0
 62
7
  6
CONTINUOUS
370
-3
390
F
  0
LAYER
  5
203
100
AcDbSymbolTableRecord
100
AcDbLayerTableRecord
  2
02__ASM_ALL_AXES
 70
0
 62
7
  6
CONTINUOUS
370
-3
390
F
  0
LAYER
  5
204
100
AcDbSymbolTableRecord
100
AcDbLayerTableRecord
  2
02___PRT_ALL_AXES
 70
0
 62
7
  6
CONTINUOUS
370
-3
390
F
  0
LAYER
  5
205
100
AcDbSymbolTableRecord
100
AcDbLayerTableRecord
  2
03_ALL_CURVES
 70
0
 62
7
  6
CONTINUOUS
370
-3
390
F
  0
LAYER
  5
206
100
AcDbSymbolTableRecord
100
AcDbLayerTableRecord
  2
03__ASM_ALL_CURVES
 70
0
 62
7
  6
CONTINUOUS
370
-3
390
F
  0
LAYER
  5
207
100
AcDbSymbolTableRecord
100
AcDbLayerTableRecord
  2
03___PRT_ALL_CURVES
 70
0
 62
7
  6
CONTINUOUS
370
-3
390
F
  0
LAYER
  5
208
100
AcDbSymbolTableRecord
100
AcDbLayerTableRecord
  2
04_ALL_DTM_PNT
 70
0
 62
7
  6
CONTINUOUS
370
-3
390
F
  0
LAYER
  5
209
100
AcDbSymbolTableRecord
100
AcDbLayerTableRecord
  2
04__ASM_ALL_DTM_PNT
 70
0
 62
7
  6
CONTINUOUS
370
-3
390
F
  0
LAYER
  5
20A
100
AcDbSymbolTableRecord
100
AcDbLayerTableRecord
  2
04___PRT_ALL_DTM_PNT
 70
0
 62
7
  6
CONTINUOUS
370
-3
390
F
  0
LAYER
  5
20B
100
AcDbSymbolTableRecord
100
AcDbLayerTableRecord
  2
05_ALL_DTM_CSYS
 70
0
 62
7
  6
CONTINUOUS
370
-3
390
F
  0
LAYER
  5
20C
100
AcDbSymbolTableRecord
100
AcDbLayerTableRecord
  2
05__ASM_ALL_DTM_CSYS
 70
0
 62
7
  6
CONTINUOUS
370
-3
390
F
  0
LAYER
  5
20D
100
AcDbSymbolTableRecord
100
AcDbLayerTableRecord
  2
05__ASM_DEF_DTM_CSYS
 70
0
 62
7
  6
CONTINUOUS
370
-3
390
F
  0
LAYER
  5
20E
100
AcDbSymbolTableRecord
100
AcDbLayerTableRecord
  2
05___PRT_ALL_DTM_CSYS
 70
0
 62
7
  6
CONTINUOUS
370
-3
390
F
  0
LAYER
  5
20F
100
AcDbSymbolTableRecord
100
AcDbLayerTableRecord
  2
05___PRT_DEF_DTM_CSYS
 70
0
 62
7
  6
CONTINUOUS
370
-3
390
F
  0
LAYER
  5
210
100
AcDbSymbolTableRecord
100
AcDbLayerTableRecord
  2
06_ALL_SURFS
 70
0
 62
7
  6
CONTINUOUS
370
-3
390
F
  0
LAYER
  5
211
100
AcDbSymbolTableRecord
100
AcDbLayerTableRecord
  2
06__ASM_ALL_SURFS
 70
0
 62
7
  6
CONTINUOUS
370
-3
390
F
  0
LAYER
  5
212
100
AcDbSymbolTableRecord
100
AcDbLayerTableRecord
  2
06___PRT_ALL_SURFS
 70
0
 62
7
  6
CONTINUOUS
370
-3
390
F
  0
LAYER
  5
213
100
AcDbSymbolTableRecord
100
AcDbLayerTableRecord
  2
07__ASM_ALL_SKELETONS
 70
0
 62
7
  6
CONTINUOUS
370
-3
390
F
  0
ENDTAB
  0
TABLE
  2
STYLE
  5
3
100
AcDbSymbolTable
 70
1
  0
STYLE
  5
11
100
AcDbSymbolTableRecord
100
AcDbTextStyleTableRecord
  2
STANDARD
 70
0
 40
0.0
 41
0.8
 50
0.0
 71
0
 42
0.2
  3
txt
  4

  0
STYLE
  5
214
100
AcDbSymbolTableRecord
100
AcDbTextStyleTableRecord
  2
TEXTSTYLE_1
 70
0
 40
0.0
 41
0.8
 50
0.0
 71
0
 42
0.2
  3
gdt
  4

  0
ENDTAB
  0
TABLE
  2
VIEW
  5
6
100
AcDbSymbolTable
 70
0
  0
ENDTAB
  0
TABLE
  2
UCS
  5
7
100
AcDbSymbolTable
 70
0
  0
ENDTAB
  0
TABLE
  2
APPID
  5
9
100
AcDbSymbolTable
 70
1
  0
APPID
  5
215
100
AcDbSymbolTableRecord
100
AcDbRegAppTableRecord
  2
ACAD
 70
0
  0
ENDTAB
  0
TABLE
  2
BLOCK_RECORD
  5
1
100
AcDbSymbolTable
 70
0
  0
BLOCK_RECORD
  5
216
100
AcDbSymbolTableRecord
100
AcDbBlockTableRecord
  2
*Model_Space
  0
BLOCK_RECORD
  5
217
100
AcDbSymbolTableRecord
100
AcDbBlockTableRecord
  2
*Paper_Space
  0
ENDTAB
  0
TABLE
  2
DIMSTYLE
  5
A
100
AcDbSymbolTable
 70
1
100
AcDbDimStyleTable
 71
0
  0
DIMSTYLE
105
218
100
AcDbSymbolTableRecord
100
AcDbDimStyleTableRecord
  2
STANDARD
 70
0
  3

  4

 40
1.0
 41
0.1875
 42
0.0625
 43
0.38
 44
0.125
 45
0.0
 46
0.0
 47
0.0001
 48
0.0001
140
0.15625
141
0.09
142
0.0
143
25.4
144
1.0
145
0.0
146
1.0
147
0.09
 71
0.0
 72
0.0
 73
1
 74
1
 75
0
 76
0
 77
0
 78
4
170
0
171
2
172
0
173
0
174
0
175
0
176
0
177
0
178
0
270
2
271
4
272
4
273
2
274
2
275
0
280
0
281
0
282
0
283
1
284
4
285
0
286
0
287
3
288
0
340
11
278
46
  0
ENDTAB
  0
ENDSEC
  0
SECTION
  2
BLOCKS
  0
BLOCK
  5
20
100
AcDbEntity
  8
0
100
AcDbBlockBegin
  2
*Model_Space
 70
0
 10
0.0
 20
0.0
 30
0.0
  3
*Model_Space
  1

  0
ENDBLK
  5
21
100
AcDbEntity
  8
0
100
AcDbBlockEnd
  0
BLOCK
  5
1C
100
AcDbEntity
  8
0
100
AcDbBlockBegin
  2
*Paper_Space
 70
0
 10
0.0
 20
0.0
 30
0.0
  3
*Paper_Space
  1

  0
ENDBLK
  5
1D
100
AcDbEntity
  8
0
100
AcDbBlockEnd
  0
ENDSEC
  0
SECTION
  2
ENTITIES
  0
MTEXT
  5
219
100
AcDbEntity
  8
0
100
AcDbMText
 62
7
  6
CONTINUOUS
  7
STANDARD
 71
1
 72
1
 10
15.9560215477
 20
0.9479130325
 30
0.0
 11
1.0
 21
0.0
 31
0.0
 44
0.9
  1
SCALE: 1:2.000
 40
0.3
 41
3.36
  0
LINE
  5
21A
100
AcDbEntity
  8
0
100
AcDbLine
 62
7
  6
CONTINUOUS
 10
0.0
 20
0.0
 11
0.0
 21
17.0
  0
LINE
  5
21B
100
AcDbEntity
  8
0
100
AcDbLine
 62
7
  6
CONTINUOUS
 10
0.0
 20
0.0
 11
22.0
 21
0.0
  0
LINE
  5
21C
100
AcDbEntity
  8
0
100
AcDbLine
 62
7
  6
CONTINUOUS
 10
0.0
 20
17.0
 11
22.0
 21
17.0
  0
LINE
  5
21D
100
AcDbEntity
  8
0
100
AcDbLine
 62
7
  6
CONTINUOUS
 10
22.0
 20
0.0
 11
22.0
 21
17.0
  0
LINE
  5
21E
100
AcDbEntity
  8
0
100
AcDbLine
 62
7
  6
CONTINUOUS
 10
4.2406034966
 20
5.7524033613
 11
4.2406034966
 21
5.5555529676
  0
LINE
  5
21F
100
AcDbEntity
  8
0
100
AcDbLine
 62
7
  6
CONTINUOUS
 10
4.4887070192
 20
5.2878364322
 11
4.6224212339
 21
5.2878364322
  0
LINE
  5
220
100
AcDbEntity
  8
0
100
AcDbLine
 62
7
  6
CONTINUOUS
 10
5.118628279
 20
5.2878364322
 11
5.2523424938
 21
5.2878364322
  0
LINE
  5
221
100
AcDbEntity
  8
0
100
AcDbLine
 62
7
  6
CONTINUOUS
 10
5.7485495389
 20
5.2878364322
 11
5.8822637536
 21
5.2878364322
  0
LINE
  5
222
100
AcDbEntity
  8
0
100
AcDbLine
 62
7
  6
CONTINUOUS
 10
6.3784707987
 20
5.2878364322
 11
6.5121850135
 21
5.2878364322
  0
LINE
  5
223
100
AcDbEntity
  8
0
100
AcDbLine
 62
7
  6
CONTINUOUS
 10
7.0083920585
 20
5.2878364322
 11
7.1421062733
 21
5.2878364322
  0
LINE
  5
224
100
AcDbEntity
  8
0
100
AcDbLine
 62
7
  6
CONTINUOUS
 10
7.6383133184
 20
5.2878364322
 11
7.7720275332
 21
5.2878364322
  0
LINE
  5
225
100
AcDbEntity
  8
0
100
AcDbLine
 62
7
  6
CONTINUOUS
 10
4.2406034966
 20
5.5555529676
 11
4.3089546253
 21
5.5555529676
  0
LINE
  5
226
100
AcDbEntity
  8
0
100
AcDbLine
 62
7
  6
CONTINUOUS
 10
4.8021736278
 20
5.5555529676
 11
4.9388758851
 21
5.5555529676
  0
LINE
  5
227
100
AcDbEntity
  8
0
100
AcDbLine
 62
7
  6
CONTINUOUS
 10
5.4320948877
 20
5.5555529676
 11
5.568797145
 21
5.5555529676
  0
LINE
  5
228
100
AcDbEntity
  8
0
100
AcDbLine
 62
7
  6
CONTINUOUS
 10
6.0620161475
 20
5.5555529676
 11
6.1987184048
 21
5.5555529676
  0
LINE
  5
229
100
AcDbEntity
  8
0
100
AcDbLine
 62
7
  6
CONTINUOUS
 10
6.6919374074
 20
5.5555529676
 11
6.8286396647
 21
5.5555529676
  0
LINE
  5
22A
100
AcDbEntity
  8
0
100
AcDbLine
 62
7
  6
CONTINUOUS
 10
7.3218586672
 20
5.5555529676
 11
7.4585609245
 21
5.5555529676
  0
LINE
  5
22B
100
AcDbEntity
  8
0
100
AcDbLine
 62
7
  6
CONTINUOUS
 10
7.951779927
 20
5.5555529676
 11
8.0201310557
 21
5.5555529676
  0
LINE
  5
22C
100
AcDbEntity
  8
0
100
AcDbLine
 62
7
  6
CONTINUOUS
 10
8.0201310557
 20
5.7524033613
 11
4.2406034966
 21
5.7524033613
  0
LINE
  5
22D
100
AcDbEntity
  8
0
100
AcDbLine
 62
7
  6
CONTINUOUS
 10
8.0201310557
 20
5.5555529676
 11
8.0201310557
 21
5.7524033613
  0
LINE
  5
22E
100
AcDbEntity
  8
0
100
AcDbLine
 62
7
  6
CONTINUOUS
 10
4.1811083043
 20
13.3874493562
 11
4.1811083043
 21
11.8126462066
  0
LINE
  5
22F
100
AcDbEntity
  8
0
100
AcDbLine
 62
7
  6
CONTINUOUS
 10
7.9606358634
 20
11.8126462066
 11
4.1811083043
 21
11.8126462066
  0
LINE
  5
230
100
AcDbEntity
  8
0
100
AcDbLine
 62
7
  6
CONTINUOUS
 10
4.1811083043
 20
13.3874493562
 11
7.9606358634
 21
13.3874493562
  0
LINE
  5
231
100
AcDbEntity
  8
0
100
AcDbLine
 62
7
  6
CONTINUOUS
 10
7.9606358634
 20
13.3874493562
 11
7.9606358634
 21
11.8126462066
  0
LINE
  5
232
100
AcDbEntity
  8
0
100
AcDbLine
 62
7
  6
CONTINUOUS
 10
14.7729536821
 20
5.2283412399
 11
14.7729536821
 21
5.692908169
  0
LINE
  5
233
100
AcDbEntity
  8
0
100
AcDbLine
 62
7
  6
CONTINUOUS
 10
14.7729536821
 20
5.2283412399
 11
16.3477568317
 21
5.2283412399
  0
LINE
  5
234
100
AcDbEntity
  8
0
100
AcDbLine
 62
7
  6
CONTINUOUS
 10
16.3477568317
 20
5.4960577753
 11
14.7729536821
 21
5.4960577753
  0
LINE
  5
235
100
AcDbEntity
  8
0
100
AcDbLine
 62
7
  6
CONTINUOUS
 10
16.3477568317
 20
5.692908169
 11
14.7729536821
 21
5.692908169
  0
LINE
  5
236
100
AcDbEntity
  8
0
100
AcDbLine
 62
7
  6
CONTINUOUS
 10
16.3477568317
 20
5.2283412399
 11
16.3477568317
 21
5.692908169
  0
LINE
  5
237
100
AcDbEntity
  8
0
100
AcDbLine
 62
7
  6
CONTINUOUS
 10
13.5098975532
 20
12.0384018677
 11
13.5699451648
 21
11.9160377007
  0
LINE
  5
238
100
AcDbEntity
  8
0
100
AcDbLine
 62
7
  6
CONTINUOUS
 10
13.8911043618
 20
13.2719875522
 11
13.5098975532
 21
12.0384018677
  0
LINE
  5
239
100
AcDbEntity
  8
0
100
AcDbLine
 62
7
  6
CONTINUOUS
 10
14.0982196566
 20
11.9160377007
 11
14.0569109601
 21
11.7823627097
  0
LINE
  5
23A
100
AcDbEntity
  8
0
100
AcDbLine
 62
7
  6
CONTINUOUS
 10
14.0539903525
 20
11.7738376583
 11
14.0569066156
 21
11.7823640521
  0
LINE
  5
23B
100
AcDbEntity
  8
0
100
AcDbLine
 62
7
  6
CONTINUOUS
 10
13.8801283936
 20
11.7496224336
 11
14.0032873411
 21
11.7496224336
  0
LINE
  5
23C
100
AcDbEntity
  8
0
100
AcDbLine
 62
7
  6
CONTINUOUS
 10
14.4603242953
 20
11.7496224336
 11
14.5834832429
 21
11.7496224336
  0
LINE
  5
23D
100
AcDbEntity
  8
0
100
AcDbLine
 62
7
  6
CONTINUOUS
 10
15.040520197
 20
11.7496224336
 11
15.1636791446
 21
11.7496224336
  0
LINE
  5
23E
100
AcDbEntity
  8
0
100
AcDbLine
 62
7
  6
CONTINUOUS
 10
15.6207160988
 20
11.7496224336
 11
15.7438750463
 21
11.7496224336
  0
LINE
  5
23F
100
AcDbEntity
  8
0
100
AcDbLine
 62
7
  6
CONTINUOUS
 10
16.2009120005
 20
11.7496224336
 11
16.3240709481
 21
11.7496224336
  0
LINE
  5
240
100
AcDbEntity
  8
0
100
AcDbLine
 62
7
  6
CONTINUOUS
 10
16.7811079022
 20
11.7496224336
 11
16.9042668498
 21
11.7496224336
  0
LINE
  5
241
100
AcDbEntity
  8
0
100
AcDbLine
 62
7
  6
CONTINUOUS
 10
14.6784155583
 20
11.9160377007
 11
14.6371068618
 21
11.7823627097
  0
LINE
  5
242
100
AcDbEntity
  8
0
100
AcDbLine
 62
7
  6
CONTINUOUS
 10
14.6341862542
 20
11.7738376583
 11
14.6371025174
 21
11.7823640521
  0
LINE
  5
243
100
AcDbEntity
  8
0
100
AcDbLine
 62
7
  6
CONTINUOUS
 10
13.5699451648
 20
11.9160377007
 11
13.6329007233
 21
11.9160377007
  0
LINE
  5
244
100
AcDbEntity
  8
0
100
AcDbLine
 62
7
  6
CONTINUOUS
 10
14.087185508
 20
11.9160377007
 11
14.213096625
 21
11.9160377007
  0
LINE
  5
245
100
AcDbEntity
  8
0
100
AcDbLine
 62
7
  6
CONTINUOUS
 10
14.6673814098
 20
11.9160377007
 11
14.7932925267
 21
11.9160377007
  0
LINE
  5
246
100
AcDbEntity
  8
0
100
AcDbLine
 62
7
  6
CONTINUOUS
 10
15.2475773115
 20
11.9160377007
 11
15.3734884285
 21
11.9160377007
  0
LINE
  5
247
100
AcDbEntity
  8
0
100
AcDbLine
 62
7
  6
CONTINUOUS
 10
15.8277732132
 20
11.9160377007
 11
15.9536843302
 21
11.9160377007
  0
LINE
  5
248
100
AcDbEntity
  8
0
100
AcDbLine
 62
7
  6
CONTINUOUS
 10
16.407969115
 20
11.9160377007
 11
16.5338802319
 21
11.9160377007
  0
LINE
  5
249
100
AcDbEntity
  8
0
100
AcDbLine
 62
7
  6
CONTINUOUS
 10
16.9881650167
 20
11.9160377007
 11
17.0511205752
 21
11.9160377007
  0
LINE
  5
24A
100
AcDbEntity
  8
0
100
AcDbLine
 62
7
  6
CONTINUOUS
 10
16.9910729636
 20
12.0384018677
 11
13.5098975532
 21
12.0384018677
  0
LINE
  5
24B
100
AcDbEntity
  8
0
100
AcDbLine
 62
7
  6
CONTINUOUS
 10
15.2586114601
 20
11.9160377007
 11
15.2173027635
 21
11.7823627097
  0
LINE
  5
24C
100
AcDbEntity
  8
0
100
AcDbLine
 62
7
  6
CONTINUOUS
 10
15.214382156
 20
11.7738376583
 11
15.2173009636
 21
11.782363266
  0
LINE
  5
24D
100
AcDbEntity
  8
0
100
AcDbLine
 62
7
  6
CONTINUOUS
 10
15.8388073618
 20
11.9160377007
 11
15.7974986653
 21
11.7823627097
  0
LINE
  5
24E
100
AcDbEntity
  8
0
100
AcDbLine
 62
7
  6
CONTINUOUS
 10
15.7945780577
 20
11.7738376583
 11
15.7974968653
 21
11.782363266
  0
LINE
  5
24F
100
AcDbEntity
  8
0
100
AcDbLine
 62
7
  6
CONTINUOUS
 10
13.8911043618
 20
13.2719875522
 11
17.3722797722
 21
13.2719875522
  0
LINE
  5
250
100
AcDbEntity
  8
0
100
AcDbLine
 62
7
  6
CONTINUOUS
 10
16.4190032635
 20
11.9160377007
 11
16.377694567
 21
11.7823627097
  0
LINE
  5
251
100
AcDbEntity
  8
0
100
AcDbLine
 62
7
  6
CONTINUOUS
 10
16.3747739594
 20
11.7738376583
 11
16.377692767
 21
11.782363266
  0
LINE
  5
252
100
AcDbEntity
  8
0
100
AcDbLine
 62
7
  6
CONTINUOUS
 10
17.0511205752
 20
11.9160377007
 11
16.9910729636
 21
12.0384018677
  0
LINE
  5
253
100
AcDbEntity
  8
0
100
AcDbLine
 62
7
  6
CONTINUOUS
 10
17.3722797722
 20
13.2719875522
 11
16.9910729636
 21
12.0384018677
  0
LINE
  5
254
100
AcDbEntity
  8
0
100
AcDbLine
 62
7
  6
CONTINUOUS
 10
16.9991991653
 20
11.9160377007
 11
16.9578904687
 21
11.7823627097
  0
LINE
  5
255
100
AcDbEntity
  8
0
100
AcDbLine
 62
7
  6
CONTINUOUS
 10
17.4323273837
 20
13.1496233852
 11
17.0511205752
 21
11.9160377007
  0
LINE
  5
256
100
AcDbEntity
  8
0
100
AcDbLine
 62
7
  6
CONTINUOUS
 10
16.9549698612
 20
11.7738376583
 11
16.9578896825
 21
11.7823629527
  0
LINE
  5
257
100
AcDbEntity
  8
0
100
AcDbLine
 62
7
  6
CONTINUOUS
 10
17.4323273837
 20
13.1496233852
 11
17.3722797722
 21
13.2719875522
  0
ARC
  5
258
100
AcDbEntity
  8
0
100
AcDbCircle
 62
7
  6
CONTINUOUS
 10
4.2996586147
 20
5.5555529676
 40
0.4527559055
100
AcDbArc
 50
329.6511770724
 51
354.0364298817
  0
ARC
  5
259
100
AcDbEntity
  8
0
100
AcDbCircle
 62
7
  6
CONTINUOUS
 10
5.4413908982
 20
5.5555529676
 40
0.4527559055
100
AcDbArc
 50
185.9635701183
 51
210.3488229276
  0
ARC
  5
25A
100
AcDbEntity
  8
0
100
AcDbCircle
 62
7
  6
CONTINUOUS
 10
4.9295798746
 20
5.5555529676
 40
0.4527559055
100
AcDbArc
 50
329.6511770724
 51
354.0364298817
  0
ARC
  5
25B
100
AcDbEntity
  8
0
100
AcDbCircle
 62
7
  6
CONTINUOUS
 10
6.0713121581
 20
5.5555529676
 40
0.4527559055
100
AcDbArc
 50
185.9635701183
 51
210.3488229276
  0
ARC
  5
25C
100
AcDbEntity
  8
0
100
AcDbCircle
 62
7
  6
CONTINUOUS
 10
5.5595011344
 20
5.5555529676
 40
0.4527559055
100
AcDbArc
 50
329.6511770724
 51
354.0364298817
  0
ARC
  5
25D
100
AcDbEntity
  8
0
100
AcDbCircle
 62
7
  6
CONTINUOUS
 10
6.7012334179
 20
5.5555529676
 40
0.4527559055
100
AcDbArc
 50
185.9635701183
 51
210.3488229276
  0
ARC
  5
25E
100
AcDbEntity
  8
0
100
AcDbCircle
 62
7
  6
CONTINUOUS
 10
4.8114696384
 20
5.5555529676
 40
0.4527559055
100
AcDbArc
 50
185.9635701183
 51
210.3488229276
  0
ARC
  5
25F
100
AcDbEntity
  8
0
100
AcDbCircle
 62
7
  6
CONTINUOUS
 10
7.449264914
 20
5.5555529676
 40
0.4527559055
100
AcDbArc
 50
329.6511770724
 51
354.0364298817
  0
ARC
  5
260
100
AcDbEntity
  8
0
100
AcDbCircle
 62
7
  6
CONTINUOUS
 10
7.9610759376
 20
5.5555529676
 40
0.4527559055
100
AcDbArc
 50
185.9635701183
 51
210.3488229276
  0
ARC
  5
261
100
AcDbEntity
  8
0
100
AcDbCircle
 62
7
  6
CONTINUOUS
 10
6.8193436541
 20
5.5555529676
 40
0.4527559055
100
AcDbArc
 50
329.6511770724
 51
354.0364298817
  0
ARC
  5
262
100
AcDbEntity
  8
0
100
AcDbCircle
 62
7
  6
CONTINUOUS
 10
7.3311546777
 20
5.5555529676
 40
0.4527559055
100
AcDbArc
 50
185.9635701183
 51
210.3488229276
  0
ARC
  5
263
100
AcDbEntity
  8
0
100
AcDbCircle
 62
7
  6
CONTINUOUS
 10
6.1894223943
 20
5.5555529676
 40
0.4527559055
100
AcDbArc
 50
329.6511770724
 51
354.0364298817
  0
ARC
  5
264
100
AcDbEntity
  8
0
100
AcDbCircle
 62
7
  6
CONTINUOUS
 10
4.4887070192
 20
5.3665765897
 40
0.0787401575
100
AcDbArc
 50
210.3488229276
 51
270.0
  0
ARC
  5
265
100
AcDbEntity
  8
0
100
AcDbCircle
 62
7
  6
CONTINUOUS
 10
4.6224212339
 20
5.3665765897
 40
0.0787401575
100
AcDbArc
 50
270.0
 51
329.6511770724
  0
ARC
  5
266
100
AcDbEntity
  8
0
100
AcDbCircle
 62
7
  6
CONTINUOUS
 10
5.118628279
 20
5.3665765897
 40
0.0787401575
100
AcDbArc
 50
210.3488229276
 51
270.0
  0
ARC
  5
267
100
AcDbEntity
  8
0
100
AcDbCircle
 62
7
  6
CONTINUOUS
 10
5.2523424938
 20
5.3665765897
 40
0.0787401575
100
AcDbArc
 50
270.0
 51
329.6511770724
  0
ARC
  5
268
100
AcDbEntity
  8
0
100
AcDbCircle
 62
7
  6
CONTINUOUS
 10
5.7485495389
 20
5.3665765897
 40
0.0787401575
100
AcDbArc
 50
210.3488229276
 51
270.0
  0
ARC
  5
269
100
AcDbEntity
  8
0
100
AcDbCircle
 62
7
  6
CONTINUOUS
 10
5.8822637536
 20
5.3665765897
 40
0.0787401575
100
AcDbArc
 50
270.0
 51
329.6511770724
  0
ARC
  5
26A
100
AcDbEntity
  8
0
100
AcDbCircle
 62
7
  6
CONTINUOUS
 10
6.3784707987
 20
5.3665765897
 40
0.0787401575
100
AcDbArc
 50
210.3488229276
 51
270.0
  0
ARC
  5
26B
100
AcDbEntity
  8
0
100
AcDbCircle
 62
7
  6
CONTINUOUS
 10
7.7720275332
 20
5.3665765897
 40
0.0787401575
100
AcDbArc
 50
270.0
 51
329.6511770724
  0
ARC
  5
26C
100
AcDbEntity
  8
0
100
AcDbCircle
 62
7
  6
CONTINUOUS
 10
7.6383133184
 20
5.3665765897
 40
0.0787401575
100
AcDbArc
 50
210.3488229276
 51
270.0
  0
ARC
  5
26D
100
AcDbEntity
  8
0
100
AcDbCircle
 62
7
  6
CONTINUOUS
 10
7.1421062733
 20
5.3665765897
 40
0.0787401575
100
AcDbArc
 50
270.0
 51
329.6511770724
  0
ARC
  5
26E
100
AcDbEntity
  8
0
100
AcDbCircle
 62
7
  6
CONTINUOUS
 10
7.0083920585
 20
5.3665765897
 40
0.0787401575
100
AcDbArc
 50
210.3488229276
 51
270.0
  0
ARC
  5
26F
100
AcDbEntity
  8
0
100
AcDbCircle
 62
7
  6
CONTINUOUS
 10
6.5121850135
 20
5.3665765897
 40
0.0787401575
100
AcDbArc
 50
270.0
 51
329.6511770724
  0
ARC
  5
270
100
AcDbEntity
  8
0
100
AcDbCircle
 62
7
  6
CONTINUOUS
 10
4.3089546253
 20
5.5030595293
 40
0.0524934383
100
AcDbArc
 50
5.9635701183
 51
90.0
  0
ARC
  5
271
100
AcDbEntity
  8
0
100
AcDbCircle
 62
7
  6
CONTINUOUS
 10
4.8021736278
 20
5.5030595293
 40
0.0524934383
100
AcDbArc
 50
90.0
 51
174.0364298817
  0
ARC
  5
272
100
AcDbEntity
  8
0
100
AcDbCircle
 62
7
  6
CONTINUOUS
 10
4.9388758851
 20
5.5030595293
 40
0.0524934383
100
AcDbArc
 50
5.9635701183
 51
90.0
  0
ARC
  5
273
100
AcDbEntity
  8
0
100
AcDbCircle
 62
7
  6
CONTINUOUS
 10
5.4320948877
 20
5.5030595293
 40
0.0524934383
100
AcDbArc
 50
90.0
 51
174.0364298817
  0
ARC
  5
274
100
AcDbEntity
  8
0
100
AcDbCircle
 62
7
  6
CONTINUOUS
 10
5.568797145
 20
5.5030595293
 40
0.0524934383
100
AcDbArc
 50
5.9635701183
 51
90.0
  0
ARC
  5
275
100
AcDbEntity
  8
0
100
AcDbCircle
 62
7
  6
CONTINUOUS
 10
6.0620161475
 20
5.5030595293
 40
0.0524934383
100
AcDbArc
 50
90.0
 51
174.0364298817
  0
ARC
  5
276
100
AcDbEntity
  8
0
100
AcDbCircle
 62
7
  6
CONTINUOUS
 10
6.1987184048
 20
5.5030595293
 40
0.0524934383
100
AcDbArc
 50
5.9635701183
 51
90.0
  0
ARC
  5
277
100
AcDbEntity
  8
0
100
AcDbCircle
 62
7
  6
CONTINUOUS
 10
6.6919374074
 20
5.5030595293
 40
0.0524934383
100
AcDbArc
 50
90.0
 51
174.0364298817
  0
ARC
  5
278
100
AcDbEntity
  8
0
100
AcDbCircle
 62
7
  6
CONTINUOUS
 10
6.8286396647
 20
5.5030595293
 40
0.0524934383
100
AcDbArc
 50
5.9635701183
 51
90.0
  0
ARC
  5
279
100
AcDbEntity
  8
0
100
AcDbCircle
 62
7
  6
CONTINUOUS
 10
7.3218586672
 20
5.5030595293
 40
0.0524934383
100
AcDbArc
 50
90.0
 51
174.0364298817
  0
ARC
  5
27A
100
AcDbEntity
  8
0
100
AcDbCircle
 62
7
  6
CONTINUOUS
 10
7.4585609245
 20
5.5030595293
 40
0.0524934383
100
AcDbArc
 50
5.9635701183
 51
90.0
  0
ARC
  5
27B
100
AcDbEntity
  8
0
100
AcDbCircle
 62
7
  6
CONTINUOUS
 10
7.951779927
 20
5.5030595293
 40
0.0524934383
100
AcDbArc
 50
90.0
 51
174.0364298817
  0
SPLINE
  5
27C
100
AcDbEntity
  8
0
100
AcDbSpline
 62
7
  6
CONTINUOUS
 70
0
 71
3
 72
11
 73
7
 74
0
 42
0.0000001
 43
0.0000001
 44
0.0000000001
 40
0.0
 40
0.0
 40
0.0
 40
0.0
 40
0.2022220335
 40
0.430065447
 40
0.6961870261
 40
1.0
 40
1.0
 40
1.0
 40
1.0
 10
14.053045007
 20
11.8989057796
 30
0.0
 10
14.0538525465
 20
11.9015192377
 30
0.0
 10
14.0570093838
 20
11.9066879553
 30
0.0
 10
14.0649374503
 20
11.9121161943
 30
0.0
 10
14.0753363785
 20
11.915386388
 30
0.0
 10
14.083075952
 20
11.9160377007
 30
0.0
 10
14.087185508
 20
11.9160377007
 30
0.0
  0
SPLINE
  5
27D
100
AcDbEntity
  8
0
100
AcDbSpline
 62
7
  6
CONTINUOUS
 70
0
 71
3
 72
11
 73
7
 74
0
 42
0.0000001
 43
0.0000001
 44
0.0000000001
 40
0.0
 40
0.0
 40
0.0
 40
0.0
 40
0.2022220335
 40
0.430065447
 40
0.6961870261
 40
1.0
 40
1.0
 40
1.0
 40
1.0
 10
14.6332409087
 20
11.8989057796
 30
0.0
 10
14.6340484482
 20
11.9015192377
 30
0.0
 10
14.6372052856
 20
11.9066879553
 30
0.0
 10
14.645133352
 20
11.9121161943
 30
0.0
 10
14.6555322803
 20
11.915386388
 30
0.0
 10
14.6632718537
 20
11.9160377007
 30
0.0
 10
14.6673814098
 20
11.9160377007
 30
0.0
  0
SPLINE
  5
27E
100
AcDbEntity
  8
0
100
AcDbSpline
 62
7
  6
CONTINUOUS
 70
0
 71
3
 72
11
 73
7
 74
0
 42
0.0000001
 43
0.0000001
 44
0.0000000001
 40
0.0
 40
0.0
 40
0.0
 40
0.0
 40
0.2022220335
 40
0.430065447
 40
0.6961870261
 40
1.0
 40
1.0
 40
1.0
 40
1.0
 10
15.2134368104
 20
11.8989057796
 30
0.0
 10
15.2142443499
 20
11.9015192377
 30
0.0
 10
15.2174011873
 20
11.9066879553
 30
0.0
 10
15.2253292538
 20
11.9121161943
 30
0.0
 10
15.235728182
 20
11.915386388
 30
0.0
 10
15.2434677555
 20
11.9160377007
 30
0.0
 10
15.2475773115
 20
11.9160377007
 30
0.0
  0
SPLINE
  5
27F
100
AcDbEntity
  8
0
100
AcDbSpline
 62
7
  6
CONTINUOUS
 70
0
 71
3
 72
11
 73
7
 74
0
 42
0.0000001
 43
0.0000001
 44
0.0000000001
 40
0.0
 40
0.0
 40
0.0
 40
0.0
 40
0.2022220335
 40
0.430065447
 40
0.6961870261
 40
1.0
 40
1.0
 40
1.0
 40
1.0
 10
15.7936327122
 20
11.8989057796
 30
0.0
 10
15.7944402517
 20
11.9015192377
 30
0.0
 10
15.797597089
 20
11.9066879553
 30
0.0
 10
15.8055251555
 20
11.9121161943
 30
0.0
 10
15.8159240837
 20
11.915386388
 30
0.0
 10
15.8236636572
 20
11.9160377007
 30
0.0
 10
15.8277732132
 20
11.9160377007
 30
0.0
  0
SPLINE
  5
280
100
AcDbEntity
  8
0
100
AcDbSpline
 62
7
  6
CONTINUOUS
 70
0
 71
3
 72
11
 73
7
 74
0
 42
0.0000001
 43
0.0000001
 44
0.0000000001
 40
0.0
 40
0.0
 40
0.0
 40
0.0
 40
0.2022220335
 40
0.430065447
 40
0.6961870261
 40
1.0
 40
1.0
 40
1.0
 40
1.0
 10
16.3738286139
 20
11.8989057796
 30
0.0
 10
16.3746361534
 20
11.9015192377
 30
0.0
 10
16.3777929908
 20
11.9066879553
 30
0.0
 10
16.3857210572
 20
11.9121161943
 30
0.0
 10
16.3961199855
 20
11.915386388
 30
0.0
 10
16.4038595589
 20
11.9160377007
 30
0.0
 10
16.407969115
 20
11.9160377007
 30
0.0
  0
SPLINE
  5
281
100
AcDbEntity
  8
0
100
AcDbSpline
 62
7
  6
CONTINUOUS
 70
0
 71
3
 72
11
 73
7
 74
0
 42
0.0000001
 43
0.0000001
 44
0.0000000001
 40
0.0
 40
0.0
 40
0.0
 40
0.0
 40
0.2022220335
 40
0.430065447
 40
0.6961870261
 40
1.0
 40
1.0
 40
1.0
 40
1.0
 10
16.9540245157
 20
11.8989057796
 30
0.0
 10
16.9548320551
 20
11.9015192377
 30
0.0
 10
16.9579888925
 20
11.9066879553
 30
0.0
 10
16.965916959
 20
11.9121161943
 30
0.0
 10
16.9763158872
 20
11.915386388
 30
0.0
 10
16.9840554607
 20
11.9160377007
 30
0.0
 10
16.9881650167
 20
11.9160377007
 30
0.0
  0
SPLINE
  5
282
100
AcDbEntity
  8
0
100
AcDbSpline
 62
7
  6
CONTINUOUS
 70
0
 71
3
 72
11
 73
7
 74
0
 42
0.0000001
 43
0.0000001
 44
0.0000000001
 40
0.0
 40
0.0
 40
0.0
 40
0.0
 40
0.2600307417
 40
0.5283882486
 40
0.7814357654
 40
1.0
 40
1.0
 40
1.0
 40
1.0
 10
13.6329007233
 20
11.9160377007
 30
0.0
 10
13.6390763659
 20
11.9160377007
 30
0.0
 10
13.651648929
 20
11.9144513843
 30
0.0
 10
13.6693228764
 20
11.9083918751
 30
0.0
 10
13.6845141403
 20
11.8993122946
 30
0.0
 10
13.6925225913
 20
11.8911585683
 30
0.0
 10
13.6953377606
 20
11.8867974323
 30
0.0
  0
SPLINE
  5
283
100
AcDbEntity
  8
0
100
AcDbSpline
 62
7
  6
CONTINUOUS
 70
0
 71
3
 72
11
 73
7
 74
0
 42
0.0000001
 43
0.0000001
 44
0.0000000001
 40
0.0
 40
0.0
 40
0.0
 40
0.0
 40
0.2600307417
 40
0.5283882486
 40
0.7814357654
 40
1.0
 40
1.0
 40
1.0
 40
1.0
 10
14.213096625
 20
11.9160377007
 30
0.0
 10
14.2192722677
 20
11.9160377007
 30
0.0
 10
14.2318448307
 20
11.9144513843
 30
0.0
 10
14.2495187782
 20
11.9083918751
 30
0.0
 10
14.264710042
 20
11.8993122946
 30
0.0
 10
14.272718493
 20
11.8911585683
 30
0.0
 10
14.2755336623
 20
11.8867974323
 30
0.0
  0
SPLINE
  5
284
100
AcDbEntity
  8
0
100
AcDbSpline
 62
7
  6
CONTINUOUS
 70
0
 71
3
 72
9
 73
5
 74
0
 42
0.0000001
 43
0.0000001
 44
0.0000000001
 40
0.0
 40
0.0
 40
0.0
 40
0.0
 40
0.4739157681
 40
1.0
 40
1.0
 40
1.0
 40
1.0
 10
13.6953377606
 20
11.8867974323
 30
0.0
 10
13.7089196672
 20
11.8657569422
 30
0.0
 10
13.7428355004
 20
11.8246955446
 30
0.0
 10
13.7832719203
 20
11.7903197267
 30
0.0
 10
13.8056591696
 20
11.7738376583
 30
0.0
  0
SPLINE
  5
285
100
AcDbEntity
  8
0
100
AcDbSpline
 62
7
  6
CONTINUOUS
 70
0
 71
3
 72
12
 73
8
 74
0
 42
0.0000001
 43
0.0000001
 44
0.0000000001
 40
0.0
 40
0.0
 40
0.0
 40
0.0
 40
0.3018712119
 40
0.5677122352
 40
0.7964770509
 40
0.9003407058
 40
1.0
 40
1.0
 40
1.0
 40
1.0
 10
16.9042668498
 20
11.7496224336
 30
0.0
 10
16.9102441036
 20
11.7496224336
 30
0.0
 10
16.9215278658
 20
11.750549854
 30
0.0
 10
16.9367564627
 20
11.7551376375
 30
0.0
 10
16.9469025592
 20
11.7617462662
 30
0.0
 10
16.9524088872
 20
11.7683737023
 30
0.0
 10
16.9542740336
 20
11.7719910882
 30
0.0
 10
16.9549698612
 20
11.7738376583
 30
0.0
  0
SPLINE
  5
286
100
AcDbEntity
  8
0
100
AcDbSpline
 62
7
  6
CONTINUOUS
 70
0
 71
3
 72
11
 73
7
 74
0
 42
0.0000001
 43
0.0000001
 44
0.0000000001
 40
0.0
 40
0.0
 40
0.0
 40
0.0
 40
0.2426831989
 40
0.4977868659
 40
0.7540358342
 40
1.0
 40
1.0
 40
1.0
 40
1.0
 10
16.7066386783
 20
11.7738376583
 30
0.0
 10
16.7118147861
 20
11.7700268746
 30
0.0
 10
16.7231749912
 20
11.7631927908
 30
0.0
 10
16.7417314654
 20
11.7556251149
 30
0.0
 10
16.7612756686
 20
11.750817449
 30
0.0
 10
16.7745933944
 20
11.7496224336
 30
0.0
 10
16.7811079022
 20
11.7496224336
 30
0.0
  0
SPLINE
  5
287
100
AcDbEntity
  8
0
100
AcDbSpline
 62
7
  6
CONTINUOUS
 70
0
 71
3
 72
9
 73
5
 74
0
 42
0.0000001
 43
0.0000001
 44
0.0000000001
 40
0.0
 40
0.0
 40
0.0
 40
0.0
 40
0.473916843
 40
1.0
 40
1.0
 40
1.0
 40
1.0
 10
16.5963172692
 20
11.8867974323
 30
0.0
 10
16.6098992004
 20
11.865756904
 30
0.0
 10
16.6438156347
 20
11.8246960623
 30
0.0
 10
16.6842514849
 20
11.7903196855
 30
0.0
 10
16.7066386783
 20
11.7738376583
 30
0.0
  0
SPLINE
  5
288
100
AcDbEntity
  8
0
100
AcDbSpline
 62
7
  6
CONTINUOUS
 70
0
 71
3
 72
12
 73
8
 74
0
 42
0.0000001
 43
0.0000001
 44
0.0000000001
 40
0.0
 40
0.0
 40
0.0
 40
0.0
 40
0.3018712119
 40
0.5677122352
 40
0.7964770509
 40
0.9003407058
 40
1.0
 40
1.0
 40
1.0
 40
1.0
 10
16.3240709481
 20
11.7496224336
 30
0.0
 10
16.3300482019
 20
11.7496224336
 30
0.0
 10
16.341331964
 20
11.750549854
 30
0.0
 10
16.3565605609
 20
11.7551376375
 30
0.0
 10
16.3667066574
 20
11.7617462662
 30
0.0
 10
16.3722129855
 20
11.7683737023
 30
0.0
 10
16.3740781318
 20
11.7719910882
 30
0.0
 10
16.3747739594
 20
11.7738376583
 30
0.0
  0
SPLINE
  5
289
100
AcDbEntity
  8
0
100
AcDbSpline
 62
7
  6
CONTINUOUS
 70
0
 71
3
 72
11
 73
7
 74
0
 42
0.0000001
 43
0.0000001
 44
0.0000000001
 40
0.0
 40
0.0
 40
0.0
 40
0.0
 40
0.2426831989
 40
0.4977868659
 40
0.7540358342
 40
1.0
 40
1.0
 40
1.0
 40
1.0
 10
16.1264427766
 20
11.7738376583
 30
0.0
 10
16.1316188844
 20
11.7700268746
 30
0.0
 10
16.1429790894
 20
11.7631927908
 30
0.0
 10
16.1615355636
 20
11.7556251149
 30
0.0
 10
16.1810797669
 20
11.750817449
 30
0.0
 10
16.1943974926
 20
11.7496224336
 30
0.0
 10
16.2009120005
 20
11.7496224336
 30
0.0
  0
SPLINE
  5
28A
100
AcDbEntity
  8
0
100
AcDbSpline
 62
7
  6
CONTINUOUS
 70
0
 71
3
 72
9
 73
5
 74
0
 42
0.0000001
 43
0.0000001
 44
0.0000000001
 40
0.0
 40
0.0
 40
0.0
 40
0.0
 40
0.4739166573
 40
1.0
 40
1.0
 40
1.0
 40
1.0
 10
16.0161213675
 20
11.8867974323
 30
0.0
 10
16.0297032946
 20
11.8657569103
 30
0.0
 10
16.0636196076
 20
11.8246959563
 30
0.0
 10
16.1040555732
 20
11.7903196928
 30
0.0
 10
16.1264427766
 20
11.7738376583
 30
0.0
  0
SPLINE
  5
28B
100
AcDbEntity
  8
0
100
AcDbSpline
 62
7
  6
CONTINUOUS
 70
0
 71
3
 72
12
 73
8
 74
0
 42
0.0000001
 43
0.0000001
 44
0.0000000001
 40
0.0
 40
0.0
 40
0.0
 40
0.0
 40
0.3018712119
 40
0.5677122352
 40
0.7964770509
 40
0.9003407058
 40
1.0
 40
1.0
 40
1.0
 40
1.0
 10
15.7438750463
 20
11.7496224336
 30
0.0
 10
15.7498523002
 20
11.7496224336
 30
0.0
 10
15.7611360623
 20
11.750549854
 30
0.0
 10
15.7763646592
 20
11.7551376375
 30
0.0
 10
15.7865107557
 20
11.7617462662
 30
0.0
 10
15.7920170838
 20
11.7683737023
 30
0.0
 10
15.7938822301
 20
11.7719910882
 30
0.0
 10
15.7945780577
 20
11.7738376583
 30
0.0
  0
SPLINE
  5
28C
100
AcDbEntity
  8
0
100
AcDbSpline
 62
7
  6
CONTINUOUS
 70
0
 71
3
 72
11
 73
7
 74
0
 42
0.0000001
 43
0.0000001
 44
0.0000000001
 40
0.0
 40
0.0
 40
0.0
 40
0.0
 40
0.2426831989
 40
0.4977868659
 40
0.7540358342
 40
1.0
 40
1.0
 40
1.0
 40
1.0
 10
15.5462468748
 20
11.7738376583
 30
0.0
 10
15.5514229826
 20
11.7700268746
 30
0.0
 10
15.5627831877
 20
11.7631927908
 30
0.0
 10
15.5813396619
 20
11.7556251149
 30
0.0
 10
15.6008838651
 20
11.750817449
 30
0.0
 10
15.6142015909
 20
11.7496224336
 30
0.0
 10
15.6207160988
 20
11.7496224336
 30
0.0
  0
SPLINE
  5
28D
100
AcDbEntity
  8
0
100
AcDbSpline
 62
7
  6
CONTINUOUS
 70
0
 71
3
 72
9
 73
5
 74
0
 42
0.0000001
 43
0.0000001
 44
0.0000000001
 40
0.0
 40
0.0
 40
0.0
 40
0.0
 40
0.4739166573
 40
1.0
 40
1.0
 40
1.0
 40
1.0
 10
15.4359254658
 20
11.8867974323
 30
0.0
 10
15.4495073929
 20
11.8657569103
 30
0.0
 10
15.4834237059
 20
11.8246959563
 30
0.0
 10
15.5238596715
 20
11.7903196928
 30
0.0
 10
15.5462468748
 20
11.7738376583
 30
0.0
  0
SPLINE
  5
28E
100
AcDbEntity
  8
0
100
AcDbSpline
 62
7
  6
CONTINUOUS
 70
0
 71
3
 72
12
 73
8
 74
0
 42
0.0000001
 43
0.0000001
 44
0.0000000001
 40
0.0
 40
0.0
 40
0.0
 40
0.0
 40
0.3018712119
 40
0.5677122352
 40
0.7964770509
 40
0.9003407058
 40
1.0
 40
1.0
 40
1.0
 40
1.0
 10
15.1636791446
 20
11.7496224336
 30
0.0
 10
15.1696563984
 20
11.7496224336
 30
0.0
 10
15.1809401606
 20
11.750549854
 30
0.0
 10
15.1961687575
 20
11.7551376375
 30
0.0
 10
15.206314854
 20
11.7617462662
 30
0.0
 10
15.211821182
 20
11.7683737023
 30
0.0
 10
15.2136863284
 20
11.7719910882
 30
0.0
 10
15.214382156
 20
11.7738376583
 30
0.0
  0
SPLINE
  5
28F
100
AcDbEntity
  8
0
100
AcDbSpline
 62
7
  6
CONTINUOUS
 70
0
 71
3
 72
11
 73
7
 74
0
 42
0.0000001
 43
0.0000001
 44
0.0000000001
 40
0.0
 40
0.0
 40
0.0
 40
0.0
 40
0.2426831989
 40
0.4977868659
 40
0.7540358342
 40
1.0
 40
1.0
 40
1.0
 40
1.0
 10
14.9660509731
 20
11.7738376583
 30
0.0
 10
14.9712270809
 20
11.7700268746
 30
0.0
 10
14.982587286
 20
11.7631927908
 30
0.0
 10
15.0011437602
 20
11.7556251149
 30
0.0
 10
15.0206879634
 20
11.750817449
 30
0.0
 10
15.0340056892
 20
11.7496224336
 30
0.0
 10
15.040520197
 20
11.7496224336
 30
0.0
  0
SPLINE
  5
290
100
AcDbEntity
  8
0
100
AcDbSpline
 62
7
  6
CONTINUOUS
 70
0
 71
3
 72
9
 73
5
 74
0
 42
0.0000001
 43
0.0000001
 44
0.0000000001
 40
0.0
 40
0.0
 40
0.0
 40
0.0
 40
0.4739166573
 40
1.0
 40
1.0
 40
1.0
 40
1.0
 10
14.855729564
 20
11.8867974323
 30
0.0
 10
14.8693114912
 20
11.8657569103
 30
0.0
 10
14.9032278042
 20
11.8246959563
 30
0.0
 10
14.9436637698
 20
11.7903196928
 30
0.0
 10
14.9660509731
 20
11.7738376583
 30
0.0
  0
SPLINE
  5
291
100
AcDbEntity
  8
0
100
AcDbSpline
 62
7
  6
CONTINUOUS
 70
0
 71
3
 72
12
 73
8
 74
0
 42
0.0000001
 43
0.0000001
 44
0.0000000001
 40
0.0
 40
0.0
 40
0.0
 40
0.0
 40
0.3018712119
 40
0.5677122352
 40
0.7964770509
 40
0.9003407058
 40
1.0
 40
1.0
 40
1.0
 40
1.0
 10
14.5834832429
 20
11.7496224336
 30
0.0
 10
14.5894604967
 20
11.7496224336
 30
0.0
 10
14.6007442588
 20
11.750549854
 30
0.0
 10
14.6159728557
 20
11.7551376375
 30
0.0
 10
14.6261189522
 20
11.7617462662
 30
0.0
 10
14.6316252803
 20
11.7683737023
 30
0.0
 10
14.6334904266
 20
11.7719910882
 30
0.0
 10
14.6341862542
 20
11.7738376583
 30
0.0
  0
SPLINE
  5
292
100
AcDbEntity
  8
0
100
AcDbSpline
 62
7
  6
CONTINUOUS
 70
0
 71
3
 72
11
 73
7
 74
0
 42
0.0000001
 43
0.0000001
 44
0.0000000001
 40
0.0
 40
0.0
 40
0.0
 40
0.0
 40
0.2426831989
 40
0.4977868659
 40
0.7540358342
 40
1.0
 40
1.0
 40
1.0
 40
1.0
 10
14.3858550714
 20
11.7738376583
 30
0.0
 10
14.3910311792
 20
11.7700268746
 30
0.0
 10
14.4023913842
 20
11.7631927908
 30
0.0
 10
14.4209478584
 20
11.7556251149
 30
0.0
 10
14.4404920617
 20
11.750817449
 30
0.0
 10
14.4538097874
 20
11.7496224336
 30
0.0
 10
14.4603242953
 20
11.7496224336
 30
0.0
  0
SPLINE
  5
293
100
AcDbEntity
  8
0
100
AcDbSpline
 62
7
  6
CONTINUOUS
 70
0
 71
3
 72
9
 73
5
 74
0
 42
0.0000001
 43
0.0000001
 44
0.0000000001
 40
0.0
 40
0.0
 40
0.0
 40
0.0
 40
0.4739157681
 40
1.0
 40
1.0
 40
1.0
 40
1.0
 10
14.2755336623
 20
11.8867974323
 30
0.0
 10
14.2891155689
 20
11.8657569422
 30
0.0
 10
14.3230314021
 20
11.8246955446
 30
0.0
 10
14.363467822
 20
11.7903197267
 30
0.0
 10
14.3858550714
 20
11.7738376583
 30
0.0
  0
SPLINE
  5
294
100
AcDbEntity
  8
0
100
AcDbSpline
 62
7
  6
CONTINUOUS
 70
0
 71
3
 72
12
 73
8
 74
0
 42
0.0000001
 43
0.0000001
 44
0.0000000001
 40
0.0
 40
0.0
 40
0.0
 40
0.0
 40
0.3018712119
 40
0.5677122352
 40
0.7964770509
 40
0.9003407058
 40
1.0
 40
1.0
 40
1.0
 40
1.0
 10
14.0032873411
 20
11.7496224336
 30
0.0
 10
14.009264595
 20
11.7496224336
 30
0.0
 10
14.0205483571
 20
11.750549854
 30
0.0
 10
14.035776954
 20
11.7551376375
 30
0.0
 10
14.0459230505
 20
11.7617462662
 30
0.0
 10
14.0514293786
 20
11.7683737023
 30
0.0
 10
14.0532945249
 20
11.7719910882
 30
0.0
 10
14.0539903525
 20
11.7738376583
 30
0.0
  0
SPLINE
  5
295
100
AcDbEntity
  8
0
100
AcDbSpline
 62
7
  6
CONTINUOUS
 70
0
 71
3
 72
11
 73
7
 74
0
 42
0.0000001
 43
0.0000001
 44
0.0000000001
 40
0.0
 40
0.0
 40
0.0
 40
0.0
 40
0.2426831989
 40
0.4977868659
 40
0.7540358342
 40
1.0
 40
1.0
 40
1.0
 40
1.0
 10
13.8056591696
 20
11.7738376583
 30
0.0
 10
13.8108352774
 20
11.7700268746
 30
0.0
 10
13.8221954825
 20
11.7631927908
 30
0.0
 10
13.8407519567
 20
11.7556251149
 30
0.0
 10
13.8602961599
 20
11.750817449
 30
0.0
 10
13.8736138857
 20
11.7496224336
 30
0.0
 10
13.8801283936
 20
11.7496224336
 30
0.0
  0
SPLINE
  5
296
100
AcDbEntity
  8
0
100
AcDbSpline
 62
7
  6
CONTINUOUS
 70
0
 71
3
 72
11
 73
7
 74
0
 42
0.0000001
 43
0.0000001
 44
0.0000000001
 40
0.0
 40
0.0
 40
0.0
 40
0.0
 40
0.2600307417
 40
0.5283882486
 40
0.7814357654
 40
1.0
 40
1.0
 40
1.0
 40
1.0
 10
14.7932925267
 20
11.9160377007
 30
0.0
 10
14.7994681694
 20
11.9160377007
 30
0.0
 10
14.8120407325
 20
11.9144513843
 30
0.0
 10
14.8297146799
 20
11.9083918751
 30
0.0
 10
14.8449059437
 20
11.8993122946
 30
0.0
 10
14.8529143947
 20
11.8911585683
 30
0.0
 10
14.855729564
 20
11.8867974323
 30
0.0
  0
SPLINE
  5
297
100
AcDbEntity
  8
0
100
AcDbSpline
 62
7
  6
CONTINUOUS
 70
0
 71
3
 72
11
 73
7
 74
0
 42
0.0000001
 43
0.0000001
 44
0.0000000001
 40
0.0
 40
0.0
 40
0.0
 40
0.0
 40
0.2600307417
 40
0.5283882486
 40
0.7814357654
 40
1.0
 40
1.0
 40
1.0
 40
1.0
 10
15.3734884285
 20
11.9160377007
 30
0.0
 10
15.3796640711
 20
11.9160377007
 30
0.0
 10
15.3922366342
 20
11.9144513843
 30
0.0
 10
15.4099105816
 20
11.9083918751
 30
0.0
 10
15.4251018455
 20
11.8993122946
 30
0.0
 10
15.4331102965
 20
11.8911585683
 30
0.0
 10
15.4359254658
 20
11.8867974323
 30
0.0
  0
SPLINE
  5
298
100
AcDbEntity
  8
0
100
AcDbSpline
 62
7
  6
CONTINUOUS
 70
0
 71
3
 72
11
 73
7
 74
0
 42
0.0000001
 43
0.0000001
 44
0.0000000001
 40
0.0
 40
0.0
 40
0.0
 40
0.0
 40
0.2600307417
 40
0.5283882486
 40
0.7814357654
 40
1.0
 40
1.0
 40
1.0
 40
1.0
 10
15.9536843302
 20
11.9160377007
 30
0.0
 10
15.9598599729
 20
11.9160377007
 30
0.0
 10
15.972432536
 20
11.9144513843
 30
0.0
 10
15.9901064834
 20
11.9083918751
 30
0.0
 10
16.0052977472
 20
11.8993122946
 30
0.0
 10
16.0133061982
 20
11.8911585683
 30
0.0
 10
16.0161213675
 20
11.8867974323
 30
0.0
  0
SPLINE
  5
299
100
AcDbEntity
  8
0
100
AcDbSpline
 62
7
  6
CONTINUOUS
 70
0
 71
3
 72
11
 73
7
 74
0
 42
0.0000001
 43
0.0000001
 44
0.0000000001
 40
0.0
 40
0.0
 40
0.0
 40
0.0
 40
0.2600307417
 40
0.5283882486
 40
0.7814357654
 40
1.0
 40
1.0
 40
1.0
 40
1.0
 10
16.5338802319
 20
11.9160377007
 30
0.0
 10
16.5400558746
 20
11.9160377007
 30
0.0
 10
16.5526284377
 20
11.9144513843
 30
0.0
 10
16.5703023851
 20
11.9083918751
 30
0.0
 10
16.5854936489
 20
11.8993122946
 30
0.0
 10
16.5935020999
 20
11.8911585683
 30
0.0
 10
16.5963172692
 20
11.8867974323
 30
0.0
  0
SPLINE
  5
29A
100
AcDbEntity
  8
0
100
AcDbSpline
 62
7
  6
CONTINUOUS
 70
0
 71
3
 72
11
 73
7
 74
0
 42
0.0000001
 43
0.0000001
 44
0.0000000001
 40
0.0
 40
0.0
 40
0.0
 40
0.0
 40
0.2391708028
 40
0.4828859251
 40
0.7353574055
 40
1.0
 40
1.0
 40
1.0
 40
1.0
 10
16.3776943395
 20
11.7823627801
 30
0.0
 10
16.3801921943
 20
11.7904466785
 30
0.0
 10
16.3838372725
 20
11.807236153
 30
0.0
 10
16.3850114214
 20
11.833336617
 30
0.0
 10
16.3819352982
 20
11.860178957
 30
0.0
 10
16.3772115651
 20
11.8779227304
 30
0.0
 10
16.3742301569
 20
11.8867974323
 30
0.0
  0
SPLINE
  5
29B
100
AcDbEntity
  8
0
100
AcDbSpline
 62
7
  6
CONTINUOUS
 70
0
 71
3
 72
9
 73
5
 74
0
 42
0.0000001
 43
0.0000001
 44
0.0000000001
 40
0.0
 40
0.0
 40
0.0
 40
0.0
 40
0.5171839941
 40
1.0
 40
1.0
 40
1.0
 40
1.0
 10
15.7940342552
 20
11.8867974323
 30
0.0
 10
15.7933607937
 20
11.8888021126
 30
0.0
 10
15.792533977
 20
11.8928728
 30
0.0
 10
15.7930498734
 20
11.8970195255
 30
0.0
 10
15.7936327122
 20
11.8989057796
 30
0.0
  0
SPLINE
  5
29C
100
AcDbEntity
  8
0
100
AcDbSpline
 62
7
  6
CONTINUOUS
 70
0
 71
3
 72
9
 73
5
 74
0
 42
0.0000001
 43
0.0000001
 44
0.0000000001
 40
0.0
 40
0.0
 40
0.0
 40
0.0
 40
0.5171839941
 40
1.0
 40
1.0
 40
1.0
 40
1.0
 10
14.05344655
 20
11.8867974323
 30
0.0
 10
14.0527730885
 20
11.8888021126
 30
0.0
 10
14.0519462718
 20
11.8928728
 30
0.0
 10
14.0524621682
 20
11.8970195255
 30
0.0
 10
14.053045007
 20
11.8989057796
 30
0.0
  0
SPLINE
  5
29D
100
AcDbEntity
  8
0
100
AcDbSpline
 62
7
  6
CONTINUOUS
 70
0
 71
3
 72
9
 73
5
 74
0
 42
0.0000001
 43
0.0000001
 44
0.0000000001
 40
0.0
 40
0.0
 40
0.0
 40
0.0
 40
0.5171839941
 40
1.0
 40
1.0
 40
1.0
 40
1.0
 10
16.3742301569
 20
11.8867974323
 30
0.0
 10
16.3735566954
 20
11.8888021126
 30
0.0
 10
16.3727298788
 20
11.8928728
 30
0.0
 10
16.3732457751
 20
11.8970195255
 30
0.0
 10
16.3738286139
 20
11.8989057796
 30
0.0
  0
SPLINE
  5
29E
100
AcDbEntity
  8
0
100
AcDbSpline
 62
7
  6
CONTINUOUS
 70
0
 71
3
 72
10
 73
6
 74
0
 42
0.0000001
 43
0.0000001
 44
0.0000000001
 40
0.0
 40
0.0
 40
0.0
 40
0.0
 40
0.2395052868
 40
0.4835577342
 40
1.0
 40
1.0
 40
1.0
 40
1.0
 10
14.637106282
 20
11.7823628889
 30
0.0
 10
14.6396036656
 20
11.7904471736
 30
0.0
 10
14.6432475533
 20
11.8072413037
 30
0.0
 10
14.6448552685
 20
11.8426575699
 30
0.0
 10
14.639452615
 20
11.8695024284
 30
0.0
 10
14.6336424517
 20
11.8867974323
 30
0.0
  0
SPLINE
  5
29F
100
AcDbEntity
  8
0
100
AcDbSpline
 62
7
  6
CONTINUOUS
 70
0
 71
3
 72
9
 73
5
 74
0
 42
0.0000001
 43
0.0000001
 44
0.0000000001
 40
0.0
 40
0.0
 40
0.0
 40
0.0
 40
0.5171839941
 40
1.0
 40
1.0
 40
1.0
 40
1.0
 10
16.9544260587
 20
11.8867974323
 30
0.0
 10
16.9537525972
 20
11.8888021126
 30
0.0
 10
16.9529257805
 20
11.8928728
 30
0.0
 10
16.9534416769
 20
11.8970195255
 30
0.0
 10
16.9540245157
 20
11.8989057796
 30
0.0
  0
SPLINE
  5
2A0
100
AcDbEntity
  8
0
100
AcDbSpline
 62
7
  6
CONTINUOUS
 70
0
 71
3
 72
11
 73
7
 74
0
 42
0.0000001
 43
0.0000001
 44
0.0000000001
 40
0.0
 40
0.0
 40
0.0
 40
0.0
 40
0.2391708028
 40
0.4828859251
 40
0.7353574055
 40
1.0
 40
1.0
 40
1.0
 40
1.0
 10
15.7974984377
 20
11.7823627801
 30
0.0
 10
15.7999962925
 20
11.7904466785
 30
0.0
 10
15.8036413708
 20
11.807236153
 30
0.0
 10
15.8048155197
 20
11.833336617
 30
0.0
 10
15.8017393965
 20
11.860178957
 30
0.0
 10
15.7970156634
 20
11.8779227304
 30
0.0
 10
15.7940342552
 20
11.8867974323
 30
0.0
  0
SPLINE
  5
2A1
100
AcDbEntity
  8
0
100
AcDbSpline
 62
7
  6
CONTINUOUS
 70
0
 71
3
 72
11
 73
7
 74
0
 42
0.0000001
 43
0.0000001
 44
0.0000000001
 40
0.0
 40
0.0
 40
0.0
 40
0.0
 40
0.2391600095
 40
0.4828840991
 40
0.7353491605
 40
1.0
 40
1.0
 40
1.0
 40
1.0
 10
16.9578903459
 20
11.7823627477
 30
0.0
 10
16.9603882356
 20
11.7904462367
 30
0.0
 10
16.9640330453
 20
11.8072357243
 30
0.0
 10
16.965207249
 20
11.8333358623
 30
0.0
 10
16.9621314332
 20
11.8601786348
 30
0.0
 10
16.9574075601
 20
11.8779224529
 30
0.0
 10
16.9544260587
 20
11.8867974323
 30
0.0
  0
SPLINE
  5
2A2
100
AcDbEntity
  8
0
100
AcDbSpline
 62
7
  6
CONTINUOUS
 70
0
 71
3
 72
11
 73
7
 74
0
 42
0.0000001
 43
0.0000001
 44
0.0000000001
 40
0.0
 40
0.0
 40
0.0
 40
0.0
 40
0.2391708028
 40
0.4828859251
 40
0.7353574055
 40
1.0
 40
1.0
 40
1.0
 40
1.0
 10
15.217302536
 20
11.7823627801
 30
0.0
 10
15.2198003908
 20
11.7904466785
 30
0.0
 10
15.2234454691
 20
11.807236153
 30
0.0
 10
15.224619618
 20
11.833336617
 30
0.0
 10
15.2215434948
 20
11.860178957
 30
0.0
 10
15.2168197617
 20
11.8779227304
 30
0.0
 10
15.2138383535
 20
11.8867974323
 30
0.0
  0
SPLINE
  5
2A3
100
AcDbEntity
  8
0
100
AcDbSpline
 62
7
  6
CONTINUOUS
 70
0
 71
3
 72
9
 73
5
 74
0
 42
0.0000001
 43
0.0000001
 44
0.0000000001
 40
0.0
 40
0.0
 40
0.0
 40
0.0
 40
0.5171839941
 40
1.0
 40
1.0
 40
1.0
 40
1.0
 10
14.6336424517
 20
11.8867974323
 30
0.0
 10
14.6329689902
 20
11.8888021126
 30
0.0
 10
14.6321421735
 20
11.8928728
 30
0.0
 10
14.6326580699
 20
11.8970195255
 30
0.0
 10
14.6332409087
 20
11.8989057796
 30
0.0
  0
SPLINE
  5
2A4
100
AcDbEntity
  8
0
100
AcDbSpline
 62
7
  6
CONTINUOUS
 70
0
 71
3
 72
10
 73
6
 74
0
 42
0.0000001
 43
0.0000001
 44
0.0000000001
 40
0.0
 40
0.0
 40
0.0
 40
0.0
 40
0.2395052868
 40
0.4835577342
 40
1.0
 40
1.0
 40
1.0
 40
1.0
 10
14.0569103803
 20
11.7823628889
 30
0.0
 10
14.0594077639
 20
11.7904471736
 30
0.0
 10
14.0630516516
 20
11.8072413037
 30
0.0
 10
14.0646593668
 20
11.8426575699
 30
0.0
 10
14.0592567133
 20
11.8695024284
 30
0.0
 10
14.05344655
 20
11.8867974323
 30
0.0
  0
SPLINE
  5
2A5
100
AcDbEntity
  8
0
100
AcDbSpline
 62
7
  6
CONTINUOUS
 70
0
 71
3
 72
9
 73
5
 74
0
 42
0.0000001
 43
0.0000001
 44
0.0000000001
 40
0.0
 40
0.0
 40
0.0
 40
0.0
 40
0.5171839941
 40
1.0
 40
1.0
 40
1.0
 40
1.0
 10
15.2138383535
 20
11.8867974323
 30
0.0
 10
15.2131648919
 20
11.8888021126
 30
0.0
 10
15.2123380753
 20
11.8928728
 30
0.0
 10
15.2128539717
 20
11.8970195255
 30
0.0
 10
15.2134368104
 20
11.8989057796
 30
0.0
  0
ENDSEC
  0
SECTION
  2
OBJECTS
  0
DICTIONARY
  5
C
100
AcDbDictionary
280
0
281
1
  3
ACAD_GROUP
350
D
  3
ACAD_MLINESTYLE
350
17
  3
ACAD_LAYOUT
350
1A
  3
ACAD_PLOTSETTINGS
350
19
  3
ACAD_PLOTSTYLENAME
350
E
  0
DICTIONARY
  5
D
102
{ACAD_REACTORS
330
C
102
}
100
AcDbDictionary
280
0
281
1
  0
ACDBDICTIONARYWDFLT
  5
E
102
{ACAD_REACTORS
330
C
102
}
100
AcDbDictionary
281
1
  3
Normal
350
F
100
AcDbDictionaryWithDefault
340
F
  0
DICTIONARY
  5
17
102
{ACAD_REACTORS
330
C
102
}
100
AcDbDictionary
280
0
281
1
  3
Standard
350
18
  0
DICTIONARY
  5
19
102
{ACAD_REACTORS
330
C
102
}
100
AcDbDictionary
281
1
  0
DICTIONARY
  5
1A
102
{ACAD_REACTORS
330
C
102
}
100
AcDbDictionary
281
1
  3
Model
350
2A6
  3
Layout1
350
2A7
  0
ACDBPLACEHOLDER
  5
F
102
{ACAD_REACTORS
330
E
102
}
  0
MLINESTYLE
  5
18
102
{ACAD_REACTORS
330
17
102
}
100
AcDbMlineStyle
  2
STANDARD
 70
0
  3

 62
256
 51
90.0
 52
90.0
 71
2
 49
0.5
 62
256
  6
BYLAYER
 49
-0.5
 62
256
  6
BYLAYER
  0
LAYOUT
  5
2A6
102
{ACAD_REACTORS
330
1A
102
}
100
AcDbPlotSettings
  1

  2
none_device
  4
ANSI_C_(22.00_x_17.00_Inches)
  6

 40
0.0
 41
0.0
 42
0.0
 43
0.0
 44
558.8
 45
431.8
 46
0.0
 47
0.0
 48
0.0
 49
0.0
140
0.0
141
0.0
142
1.0
143
1.0
 70
1024
 72
0
 73
0
 74
0
  7

 75
0
147
1.0
148
0.0
149
0.0
100
AcDbLayout
  1
Model
 70
0
 71
0
 10
0.0
 20
0.0
 11
22.0
 21
17.0
 12
0.0
 22
0.0
 32
0.0
 14
0.0
 24
0.0
 34
0.0
 15
0.0
 25
0.0
 35
0.0
146
0.0
 13
0.0
 23
0.0
 33
0.0
 16
1.0
 26
0.0
 36
0.0
 17
0.0
 27
1.0
 37
0.0
 76
0
330
216
345
0
346
0
  0
LAYOUT
  5
2A7
102
{ACAD_REACTORS
330
1A
102
}
100
AcDbPlotSettings
  1

  2
none_device
  4
ANSI_C_(22.00_x_17.00_Inches)
  6

 40
0.0
 41
0.0
 42
0.0
 43
0.0
 44
558.8
 45
431.8
 46
0.0
 47
0.0
 48
0.0
 49
0.0
140
0.0
141
0.0
142
1.0
143
1.0
 70
0
 72
0
 73
0
 74
0
  7

 75
0
147
1.0
148
0.0
149
0.0
100
AcDbLayout
  1
Layout1
 70
0
 71
1
 10
0.0
 20
0.0
 11
22.0
 21
17.0
 12
0.0
 22
0.0
 32
0.0
 14
0.0
 24
0.0
 34
0.0
 15
0.0
 25
0.0
 35
0.0
146
0.0
 13
0.0
 23
0.0
 33
0.0
 16
1.0
 26
0.0
 36
0.0
 17
0.0
 27
1.0
 37
0.0
 76
0
330
217
345
0
346
0
  0
ENDSEC
  0
EOF