ISO-10303-21;
HEADER;
/* Generated by software containing ST-Developer
 * from STEP Tools, Inc. (www.steptools.com) 
 */

FILE_DESCRIPTION(
/* description */ ('FIT,CLOSURE PLATE'),
/* implementation_level */ '2;1');

FILE_NAME(
/* name */ 
'C:\\Wiegmann\\W-Projects\\W-India\\Catalog Projects\\LJWE  (END-PLATE
)\\LJWE STP DXF PDF\\LJWE6.stp',
/* time_stamp */ '2017-08-02T22:23:48+06:00',
/* author */ ('vdas'),
/* organization */ (''),
/* preprocessor_version */ 'ST-DEVELOPER v16.1',
/* originating_system */ 'Autodesk Inventor 2016',
/* authorisation */ '');

FILE_SCHEMA (('AUTOMOTIVE_DESIGN { 1 0 10303 214 3 1 1 }'));
ENDSEC;

DATA;
#10=MECHANICAL_DESIGN_GEOMETRIC_PRESENTATION_REPRESENTATION('',(#327,#326,
#331,#329,#328,#330,#325,#324,#332,#337,#333,#334,#335,#336,#338,#339,#340,
#341,#342),#601);
#11=SHAPE_REPRESENTATION_RELATIONSHIP('SRR','None',#613,#12);
#12=ADVANCED_BREP_SHAPE_REPRESENTATION('',(#13),#600);
#13=MANIFOLD_SOLID_BREP('Solid1',#361);
#14=PLANE('',#390);
#15=PLANE('',#394);
#16=PLANE('',#399);
#17=PLANE('',#402);
#18=PLANE('',#403);
#19=PLANE('',#404);
#20=LINE('',#553,#36);
#21=LINE('',#556,#37);
#22=LINE('',#559,#38);
#23=LINE('',#563,#39);
#24=LINE('',#567,#40);
#25=LINE('',#570,#41);
#26=LINE('',#573,#42);
#27=LINE('',#574,#43);
#28=LINE('',#578,#44);
#29=LINE('',#583,#45);
#30=LINE('',#584,#46);
#31=LINE('',#587,#47);
#32=LINE('',#588,#48);
#33=LINE('',#592,#49);
#34=LINE('',#594,#50);
#35=LINE('',#596,#51);
#36=VECTOR('',#459,0.125);
#37=VECTOR('',#462,0.125);
#38=VECTOR('',#465,6.875);
#39=VECTOR('',#468,6.875);
#40=VECTOR('',#471,6.875);
#41=VECTOR('',#474,6.875);
#42=VECTOR('',#477,6.875);
#43=VECTOR('',#478,0.125);
#44=VECTOR('',#483,0.125);
#45=VECTOR('',#488,0.125);
#46=VECTOR('',#489,0.125);
#47=VECTOR('',#492,0.125);
#48=VECTOR('',#493,6.875);
#49=VECTOR('',#498,0.125);
#50=VECTOR('',#501,6.875);
#51=VECTOR('',#504,6.875);
#52=FACE_BOUND('',#95,.T.);
#53=FACE_BOUND('',#97,.T.);
#54=FACE_BOUND('',#99,.T.);
#55=FACE_BOUND('',#101,.T.);
#56=FACE_BOUND('',#103,.T.);
#57=FACE_BOUND('',#105,.T.);
#58=FACE_BOUND('',#107,.T.);
#59=FACE_BOUND('',#109,.T.);
#60=FACE_BOUND('',#112,.T.);
#61=FACE_BOUND('',#113,.T.);
#62=FACE_BOUND('',#114,.T.);
#63=FACE_BOUND('',#115,.T.);
#64=FACE_BOUND('',#116,.T.);
#65=FACE_BOUND('',#117,.T.);
#66=FACE_BOUND('',#118,.T.);
#67=FACE_BOUND('',#119,.T.);
#68=FACE_BOUND('',#128,.T.);
#69=FACE_BOUND('',#129,.T.);
#70=FACE_BOUND('',#130,.T.);
#71=FACE_BOUND('',#131,.T.);
#72=FACE_BOUND('',#132,.T.);
#73=FACE_BOUND('',#133,.T.);
#74=FACE_BOUND('',#134,.T.);
#75=FACE_BOUND('',#135,.T.);
#76=FACE_OUTER_BOUND('',#94,.T.);
#77=FACE_OUTER_BOUND('',#96,.T.);
#78=FACE_OUTER_BOUND('',#98,.T.);
#79=FACE_OUTER_BOUND('',#100,.T.);
#80=FACE_OUTER_BOUND('',#102,.T.);
#81=FACE_OUTER_BOUND('',#104,.T.);
#82=FACE_OUTER_BOUND('',#106,.T.);
#83=FACE_OUTER_BOUND('',#108,.T.);
#84=FACE_OUTER_BOUND('',#110,.T.);
#85=FACE_OUTER_BOUND('',#111,.T.);
#86=FACE_OUTER_BOUND('',#120,.T.);
#87=FACE_OUTER_BOUND('',#121,.T.);
#88=FACE_OUTER_BOUND('',#122,.T.);
#89=FACE_OUTER_BOUND('',#123,.T.);
#90=FACE_OUTER_BOUND('',#124,.T.);
#91=FACE_OUTER_BOUND('',#125,.T.);
#92=FACE_OUTER_BOUND('',#126,.T.);
#93=FACE_OUTER_BOUND('',#127,.T.);
#94=EDGE_LOOP('',(#232));
#95=EDGE_LOOP('',(#233));
#96=EDGE_LOOP('',(#234));
#97=EDGE_LOOP('',(#235));
#98=EDGE_LOOP('',(#236));
#99=EDGE_LOOP('',(#237));
#100=EDGE_LOOP('',(#238));
#101=EDGE_LOOP('',(#239));
#102=EDGE_LOOP('',(#240));
#103=EDGE_LOOP('',(#241));
#104=EDGE_LOOP('',(#242));
#105=EDGE_LOOP('',(#243));
#106=EDGE_LOOP('',(#244));
#107=EDGE_LOOP('',(#245));
#108=EDGE_LOOP('',(#246));
#109=EDGE_LOOP('',(#247));
#110=EDGE_LOOP('',(#248,#249,#250,#251));
#111=EDGE_LOOP('',(#252,#253,#254,#255,#256,#257,#258,#259));
#112=EDGE_LOOP('',(#260));
#113=EDGE_LOOP('',(#261));
#114=EDGE_LOOP('',(#262));
#115=EDGE_LOOP('',(#263));
#116=EDGE_LOOP('',(#264));
#117=EDGE_LOOP('',(#265));
#118=EDGE_LOOP('',(#266));
#119=EDGE_LOOP('',(#267));
#120=EDGE_LOOP('',(#268,#269,#270,#271));
#121=EDGE_LOOP('',(#272,#273,#274,#275));
#122=EDGE_LOOP('',(#276,#277,#278,#279));
#123=EDGE_LOOP('',(#280,#281,#282,#283));
#124=EDGE_LOOP('',(#284,#285,#286,#287));
#125=EDGE_LOOP('',(#288,#289,#290,#291));
#126=EDGE_LOOP('',(#292,#293,#294,#295));
#127=EDGE_LOOP('',(#296,#297,#298,#299,#300,#301,#302,#303));
#128=EDGE_LOOP('',(#304));
#129=EDGE_LOOP('',(#305));
#130=EDGE_LOOP('',(#306));
#131=EDGE_LOOP('',(#307));
#132=EDGE_LOOP('',(#308));
#133=EDGE_LOOP('',(#309));
#134=EDGE_LOOP('',(#310));
#135=EDGE_LOOP('',(#311));
#136=CIRCLE('',#364,0.1405);
#137=CIRCLE('',#365,0.1405);
#138=CIRCLE('',#367,0.1405);
#139=CIRCLE('',#368,0.1405);
#140=CIRCLE('',#370,0.1405);
#141=CIRCLE('',#371,0.1405);
#142=CIRCLE('',#373,0.1405);
#143=CIRCLE('',#374,0.1405);
#144=CIRCLE('',#376,0.1405);
#145=CIRCLE('',#377,0.1405);
#146=CIRCLE('',#379,0.1405);
#147=CIRCLE('',#380,0.1405);
#148=CIRCLE('',#382,0.1405);
#149=CIRCLE('',#383,0.1405);
#150=CIRCLE('',#385,0.1405);
#151=CIRCLE('',#386,0.1405);
#152=CIRCLE('',#388,0.375);
#153=CIRCLE('',#389,0.375);
#154=CIRCLE('',#391,0.375);
#155=CIRCLE('',#392,0.375);
#156=CIRCLE('',#393,0.375);
#157=CIRCLE('',#396,0.375);
#158=CIRCLE('',#398,0.375);
#159=CIRCLE('',#401,0.375);
#160=VERTEX_POINT('',#509);
#161=VERTEX_POINT('',#511);
#162=VERTEX_POINT('',#514);
#163=VERTEX_POINT('',#516);
#164=VERTEX_POINT('',#519);
#165=VERTEX_POINT('',#521);
#166=VERTEX_POINT('',#524);
#167=VERTEX_POINT('',#526);
#168=VERTEX_POINT('',#529);
#169=VERTEX_POINT('',#531);
#170=VERTEX_POINT('',#534);
#171=VERTEX_POINT('',#536);
#172=VERTEX_POINT('',#539);
#173=VERTEX_POINT('',#541);
#174=VERTEX_POINT('',#544);
#175=VERTEX_POINT('',#546);
#176=VERTEX_POINT('',#549);
#177=VERTEX_POINT('',#550);
#178=VERTEX_POINT('',#552);
#179=VERTEX_POINT('',#554);
#180=VERTEX_POINT('',#558);
#181=VERTEX_POINT('',#560);
#182=VERTEX_POINT('',#562);
#183=VERTEX_POINT('',#564);
#184=VERTEX_POINT('',#566);
#185=VERTEX_POINT('',#568);
#186=VERTEX_POINT('',#572);
#187=VERTEX_POINT('',#576);
#188=VERTEX_POINT('',#580);
#189=VERTEX_POINT('',#581);
#190=VERTEX_POINT('',#586);
#191=VERTEX_POINT('',#590);
#192=EDGE_CURVE('',#160,#160,#136,.T.);
#193=EDGE_CURVE('',#161,#161,#137,.T.);
#194=EDGE_CURVE('',#162,#162,#138,.T.);
#195=EDGE_CURVE('',#163,#163,#139,.T.);
#196=EDGE_CURVE('',#164,#164,#140,.T.);
#197=EDGE_CURVE('',#165,#165,#141,.T.);
#198=EDGE_CURVE('',#166,#166,#142,.T.);
#199=EDGE_CURVE('',#167,#167,#143,.T.);
#200=EDGE_CURVE('',#168,#168,#144,.T.);
#201=EDGE_CURVE('',#169,#169,#145,.T.);
#202=EDGE_CURVE('',#170,#170,#146,.T.);
#203=EDGE_CURVE('',#171,#171,#147,.T.);
#204=EDGE_CURVE('',#172,#172,#148,.T.);
#205=EDGE_CURVE('',#173,#173,#149,.T.);
#206=EDGE_CURVE('',#174,#174,#150,.T.);
#207=EDGE_CURVE('',#175,#175,#151,.T.);
#208=EDGE_CURVE('',#176,#177,#152,.T.);
#209=EDGE_CURVE('',#177,#178,#20,.T.);
#210=EDGE_CURVE('',#178,#179,#153,.T.);
#211=EDGE_CURVE('',#179,#176,#21,.T.);
#212=EDGE_CURVE('',#178,#180,#22,.T.);
#213=EDGE_CURVE('',#181,#180,#154,.T.);
#214=EDGE_CURVE('',#181,#182,#23,.T.);
#215=EDGE_CURVE('',#183,#182,#155,.T.);
#216=EDGE_CURVE('',#183,#184,#24,.T.);
#217=EDGE_CURVE('',#185,#184,#156,.T.);
#218=EDGE_CURVE('',#185,#179,#25,.T.);
#219=EDGE_CURVE('',#177,#186,#26,.T.);
#220=EDGE_CURVE('',#180,#186,#27,.T.);
#221=EDGE_CURVE('',#186,#187,#157,.T.);
#222=EDGE_CURVE('',#187,#181,#28,.T.);
#223=EDGE_CURVE('',#188,#189,#158,.T.);
#224=EDGE_CURVE('',#189,#185,#29,.T.);
#225=EDGE_CURVE('',#184,#188,#30,.T.);
#226=EDGE_CURVE('',#190,#183,#31,.T.);
#227=EDGE_CURVE('',#190,#188,#32,.T.);
#228=EDGE_CURVE('',#191,#190,#159,.T.);
#229=EDGE_CURVE('',#182,#191,#33,.T.);
#230=EDGE_CURVE('',#189,#176,#34,.T.);
#231=EDGE_CURVE('',#187,#191,#35,.T.);
#232=ORIENTED_EDGE('',*,*,#192,.F.);
#233=ORIENTED_EDGE('',*,*,#193,.F.);
#234=ORIENTED_EDGE('',*,*,#194,.F.);
#235=ORIENTED_EDGE('',*,*,#195,.F.);
#236=ORIENTED_EDGE('',*,*,#196,.F.);
#237=ORIENTED_EDGE('',*,*,#197,.F.);
#238=ORIENTED_EDGE('',*,*,#198,.F.);
#239=ORIENTED_EDGE('',*,*,#199,.F.);
#240=ORIENTED_EDGE('',*,*,#200,.F.);
#241=ORIENTED_EDGE('',*,*,#201,.F.);
#242=ORIENTED_EDGE('',*,*,#202,.F.);
#243=ORIENTED_EDGE('',*,*,#203,.F.);
#244=ORIENTED_EDGE('',*,*,#204,.F.);
#245=ORIENTED_EDGE('',*,*,#205,.F.);
#246=ORIENTED_EDGE('',*,*,#206,.F.);
#247=ORIENTED_EDGE('',*,*,#207,.F.);
#248=ORIENTED_EDGE('',*,*,#208,.T.);
#249=ORIENTED_EDGE('',*,*,#209,.T.);
#250=ORIENTED_EDGE('',*,*,#210,.T.);
#251=ORIENTED_EDGE('',*,*,#211,.T.);
#252=ORIENTED_EDGE('',*,*,#210,.F.);
#253=ORIENTED_EDGE('',*,*,#212,.T.);
#254=ORIENTED_EDGE('',*,*,#213,.F.);
#255=ORIENTED_EDGE('',*,*,#214,.T.);
#256=ORIENTED_EDGE('',*,*,#215,.F.);
#257=ORIENTED_EDGE('',*,*,#216,.T.);
#258=ORIENTED_EDGE('',*,*,#217,.F.);
#259=ORIENTED_EDGE('',*,*,#218,.T.);
#260=ORIENTED_EDGE('',*,*,#192,.T.);
#261=ORIENTED_EDGE('',*,*,#194,.T.);
#262=ORIENTED_EDGE('',*,*,#196,.T.);
#263=ORIENTED_EDGE('',*,*,#198,.T.);
#264=ORIENTED_EDGE('',*,*,#200,.T.);
#265=ORIENTED_EDGE('',*,*,#202,.T.);
#266=ORIENTED_EDGE('',*,*,#204,.T.);
#267=ORIENTED_EDGE('',*,*,#206,.T.);
#268=ORIENTED_EDGE('',*,*,#209,.F.);
#269=ORIENTED_EDGE('',*,*,#219,.T.);
#270=ORIENTED_EDGE('',*,*,#220,.F.);
#271=ORIENTED_EDGE('',*,*,#212,.F.);
#272=ORIENTED_EDGE('',*,*,#221,.T.);
#273=ORIENTED_EDGE('',*,*,#222,.T.);
#274=ORIENTED_EDGE('',*,*,#213,.T.);
#275=ORIENTED_EDGE('',*,*,#220,.T.);
#276=ORIENTED_EDGE('',*,*,#223,.T.);
#277=ORIENTED_EDGE('',*,*,#224,.T.);
#278=ORIENTED_EDGE('',*,*,#217,.T.);
#279=ORIENTED_EDGE('',*,*,#225,.T.);
#280=ORIENTED_EDGE('',*,*,#225,.F.);
#281=ORIENTED_EDGE('',*,*,#216,.F.);
#282=ORIENTED_EDGE('',*,*,#226,.F.);
#283=ORIENTED_EDGE('',*,*,#227,.T.);
#284=ORIENTED_EDGE('',*,*,#228,.T.);
#285=ORIENTED_EDGE('',*,*,#226,.T.);
#286=ORIENTED_EDGE('',*,*,#215,.T.);
#287=ORIENTED_EDGE('',*,*,#229,.T.);
#288=ORIENTED_EDGE('',*,*,#211,.F.);
#289=ORIENTED_EDGE('',*,*,#218,.F.);
#290=ORIENTED_EDGE('',*,*,#224,.F.);
#291=ORIENTED_EDGE('',*,*,#230,.T.);
#292=ORIENTED_EDGE('',*,*,#222,.F.);
#293=ORIENTED_EDGE('',*,*,#231,.T.);
#294=ORIENTED_EDGE('',*,*,#229,.F.);
#295=ORIENTED_EDGE('',*,*,#214,.F.);
#296=ORIENTED_EDGE('',*,*,#208,.F.);
#297=ORIENTED_EDGE('',*,*,#230,.F.);
#298=ORIENTED_EDGE('',*,*,#223,.F.);
#299=ORIENTED_EDGE('',*,*,#227,.F.);
#300=ORIENTED_EDGE('',*,*,#228,.F.);
#301=ORIENTED_EDGE('',*,*,#231,.F.);
#302=ORIENTED_EDGE('',*,*,#221,.F.);
#303=ORIENTED_EDGE('',*,*,#219,.F.);
#304=ORIENTED_EDGE('',*,*,#193,.T.);
#305=ORIENTED_EDGE('',*,*,#195,.T.);
#306=ORIENTED_EDGE('',*,*,#197,.T.);
#307=ORIENTED_EDGE('',*,*,#199,.T.);
#308=ORIENTED_EDGE('',*,*,#201,.T.);
#309=ORIENTED_EDGE('',*,*,#203,.T.);
#310=ORIENTED_EDGE('',*,*,#205,.T.);
#311=ORIENTED_EDGE('',*,*,#207,.T.);
#312=CYLINDRICAL_SURFACE('',#363,0.1405);
#313=CYLINDRICAL_SURFACE('',#366,0.1405);
#314=CYLINDRICAL_SURFACE('',#369,0.1405);
#315=CYLINDRICAL_SURFACE('',#372,0.1405);
#316=CYLINDRICAL_SURFACE('',#375,0.1405);
#317=CYLINDRICAL_SURFACE('',#378,0.1405);
#318=CYLINDRICAL_SURFACE('',#381,0.1405);
#319=CYLINDRICAL_SURFACE('',#384,0.1405);
#320=CYLINDRICAL_SURFACE('',#387,0.375);
#321=CYLINDRICAL_SURFACE('',#395,0.375);
#322=CYLINDRICAL_SURFACE('',#397,0.375);
#323=CYLINDRICAL_SURFACE('',#400,0.375);
#324=STYLED_ITEM('',(#622),#343);
#325=STYLED_ITEM('',(#622),#344);
#326=STYLED_ITEM('',(#622),#345);
#327=STYLED_ITEM('',(#622),#346);
#328=STYLED_ITEM('',(#622),#347);
#329=STYLED_ITEM('',(#622),#348);
#330=STYLED_ITEM('',(#622),#349);
#331=STYLED_ITEM('',(#622),#350);
#332=STYLED_ITEM('',(#622),#351);
#333=STYLED_ITEM('',(#622),#352);
#334=STYLED_ITEM('',(#622),#353);
#335=STYLED_ITEM('',(#622),#354);
#336=STYLED_ITEM('',(#622),#355);
#337=STYLED_ITEM('',(#622),#356);
#338=STYLED_ITEM('',(#622),#357);
#339=STYLED_ITEM('',(#622),#358);
#340=STYLED_ITEM('',(#622),#359);
#341=STYLED_ITEM('',(#622),#360);
#342=STYLED_ITEM('',(#622),#13);
#343=ADVANCED_FACE('',(#76,#52),#312,.F.);
#344=ADVANCED_FACE('',(#77,#53),#313,.F.);
#345=ADVANCED_FACE('',(#78,#54),#314,.F.);
#346=ADVANCED_FACE('',(#79,#55),#315,.F.);
#347=ADVANCED_FACE('',(#80,#56),#316,.F.);
#348=ADVANCED_FACE('',(#81,#57),#317,.F.);
#349=ADVANCED_FACE('',(#82,#58),#318,.F.);
#350=ADVANCED_FACE('',(#83,#59),#319,.F.);
#351=ADVANCED_FACE('',(#84),#320,.T.);
#352=ADVANCED_FACE('',(#85,#60,#61,#62,#63,#64,#65,#66,#67),#14,.F.);
#353=ADVANCED_FACE('',(#86),#15,.T.);
#354=ADVANCED_FACE('',(#87),#321,.T.);
#355=ADVANCED_FACE('',(#88),#322,.T.);
#356=ADVANCED_FACE('',(#89),#16,.T.);
#357=ADVANCED_FACE('',(#90),#323,.T.);
#358=ADVANCED_FACE('',(#91),#17,.T.);
#359=ADVANCED_FACE('',(#92),#18,.T.);
#360=ADVANCED_FACE('',(#93,#68,#69,#70,#71,#72,#73,#74,#75),#19,.T.);
#361=CLOSED_SHELL('',(#343,#344,#345,#346,#347,#348,#349,#350,#351,#352,
#353,#354,#355,#356,#357,#358,#359,#360));
#362=AXIS2_PLACEMENT_3D('placement',#507,#405,#406);
#363=AXIS2_PLACEMENT_3D('',#508,#407,#408);
#364=AXIS2_PLACEMENT_3D('',#510,#409,#410);
#365=AXIS2_PLACEMENT_3D('',#512,#411,#412);
#366=AXIS2_PLACEMENT_3D('',#513,#413,#414);
#367=AXIS2_PLACEMENT_3D('',#515,#415,#416);
#368=AXIS2_PLACEMENT_3D('',#517,#417,#418);
#369=AXIS2_PLACEMENT_3D('',#518,#419,#420);
#370=AXIS2_PLACEMENT_3D('',#520,#421,#422);
#371=AXIS2_PLACEMENT_3D('',#522,#423,#424);
#372=AXIS2_PLACEMENT_3D('',#523,#425,#426);
#373=AXIS2_PLACEMENT_3D('',#525,#427,#428);
#374=AXIS2_PLACEMENT_3D('',#527,#429,#430);
#375=AXIS2_PLACEMENT_3D('',#528,#431,#432);
#376=AXIS2_PLACEMENT_3D('',#530,#433,#434);
#377=AXIS2_PLACEMENT_3D('',#532,#435,#436);
#378=AXIS2_PLACEMENT_3D('',#533,#437,#438);
#379=AXIS2_PLACEMENT_3D('',#535,#439,#440);
#380=AXIS2_PLACEMENT_3D('',#537,#441,#442);
#381=AXIS2_PLACEMENT_3D('',#538,#443,#444);
#382=AXIS2_PLACEMENT_3D('',#540,#445,#446);
#383=AXIS2_PLACEMENT_3D('',#542,#447,#448);
#384=AXIS2_PLACEMENT_3D('',#543,#449,#450);
#385=AXIS2_PLACEMENT_3D('',#545,#451,#452);
#386=AXIS2_PLACEMENT_3D('',#547,#453,#454);
#387=AXIS2_PLACEMENT_3D('',#548,#455,#456);
#388=AXIS2_PLACEMENT_3D('',#551,#457,#458);
#389=AXIS2_PLACEMENT_3D('',#555,#460,#461);
#390=AXIS2_PLACEMENT_3D('',#557,#463,#464);
#391=AXIS2_PLACEMENT_3D('',#561,#466,#467);
#392=AXIS2_PLACEMENT_3D('',#565,#469,#470);
#393=AXIS2_PLACEMENT_3D('',#569,#472,#473);
#394=AXIS2_PLACEMENT_3D('',#571,#475,#476);
#395=AXIS2_PLACEMENT_3D('',#575,#479,#480);
#396=AXIS2_PLACEMENT_3D('',#577,#481,#482);
#397=AXIS2_PLACEMENT_3D('',#579,#484,#485);
#398=AXIS2_PLACEMENT_3D('',#582,#486,#487);
#399=AXIS2_PLACEMENT_3D('',#585,#490,#491);
#400=AXIS2_PLACEMENT_3D('',#589,#494,#495);
#401=AXIS2_PLACEMENT_3D('',#591,#496,#497);
#402=AXIS2_PLACEMENT_3D('',#593,#499,#500);
#403=AXIS2_PLACEMENT_3D('',#595,#502,#503);
#404=AXIS2_PLACEMENT_3D('',#597,#505,#506);
#405=DIRECTION('axis',(0.,0.,1.));
#406=DIRECTION('refdir',(1.,0.,0.));
#407=DIRECTION('center_axis',(0.,0.,-1.));
#408=DIRECTION('ref_axis',(-1.,0.,0.));
#409=DIRECTION('center_axis',(0.,0.,1.));
#410=DIRECTION('ref_axis',(-1.,0.,0.));
#411=DIRECTION('center_axis',(0.,0.,-1.));
#412=DIRECTION('ref_axis',(-1.,0.,0.));
#413=DIRECTION('center_axis',(0.,0.,-1.));
#414=DIRECTION('ref_axis',(-1.,0.,0.));
#415=DIRECTION('center_axis',(0.,0.,1.));
#416=DIRECTION('ref_axis',(-1.,0.,0.));
#417=DIRECTION('center_axis',(0.,0.,-1.));
#418=DIRECTION('ref_axis',(-1.,0.,0.));
#419=DIRECTION('center_axis',(0.,0.,-1.));
#420=DIRECTION('ref_axis',(-1.,0.,0.));
#421=DIRECTION('center_axis',(0.,0.,1.));
#422=DIRECTION('ref_axis',(-1.,0.,0.));
#423=DIRECTION('center_axis',(0.,0.,-1.));
#424=DIRECTION('ref_axis',(-1.,0.,0.));
#425=DIRECTION('center_axis',(0.,0.,-1.));
#426=DIRECTION('ref_axis',(-1.,0.,0.));
#427=DIRECTION('center_axis',(0.,0.,1.));
#428=DIRECTION('ref_axis',(-1.,0.,0.));
#429=DIRECTION('center_axis',(0.,0.,-1.));
#430=DIRECTION('ref_axis',(-1.,0.,0.));
#431=DIRECTION('center_axis',(0.,0.,-1.));
#432=DIRECTION('ref_axis',(-1.,0.,0.));
#433=DIRECTION('center_axis',(0.,0.,1.));
#434=DIRECTION('ref_axis',(-1.,0.,0.));
#435=DIRECTION('center_axis',(0.,0.,-1.));
#436=DIRECTION('ref_axis',(-1.,0.,0.));
#437=DIRECTION('center_axis',(0.,0.,-1.));
#438=DIRECTION('ref_axis',(-1.,0.,0.));
#439=DIRECTION('center_axis',(0.,0.,1.));
#440=DIRECTION('ref_axis',(-1.,0.,0.));
#441=DIRECTION('center_axis',(0.,0.,-1.));
#442=DIRECTION('ref_axis',(-1.,0.,0.));
#443=DIRECTION('center_axis',(0.,0.,-1.));
#444=DIRECTION('ref_axis',(-1.,0.,0.));
#445=DIRECTION('center_axis',(0.,0.,1.));
#446=DIRECTION('ref_axis',(-1.,0.,0.));
#447=DIRECTION('center_axis',(0.,0.,-1.));
#448=DIRECTION('ref_axis',(-1.,0.,0.));
#449=DIRECTION('center_axis',(0.,0.,-1.));
#450=DIRECTION('ref_axis',(-1.,0.,0.));
#451=DIRECTION('center_axis',(0.,0.,1.));
#452=DIRECTION('ref_axis',(-1.,0.,0.));
#453=DIRECTION('center_axis',(0.,0.,-1.));
#454=DIRECTION('ref_axis',(-1.,0.,0.));
#455=DIRECTION('center_axis',(0.,0.,1.));
#456=DIRECTION('ref_axis',(0.707106781186547,-0.707106781186547,0.));
#457=DIRECTION('center_axis',(0.,0.,-1.));
#458=DIRECTION('ref_axis',(0.707106781186547,-0.707106781186547,0.));
#459=DIRECTION('',(0.,0.,-1.));
#460=DIRECTION('center_axis',(0.,0.,1.));
#461=DIRECTION('ref_axis',(0.707106781186547,-0.707106781186547,0.));
#462=DIRECTION('',(0.,0.,1.));
#463=DIRECTION('center_axis',(0.,0.,1.));
#464=DIRECTION('ref_axis',(1.,0.,0.));
#465=DIRECTION('',(-1.,-1.83436875115554E-16,0.));
#466=DIRECTION('center_axis',(0.,0.,1.));
#467=DIRECTION('ref_axis',(-0.707106781186547,-0.707106781186547,0.));
#468=DIRECTION('',(-1.83436875115554E-16,1.,0.));
#469=DIRECTION('center_axis',(0.,0.,1.));
#470=DIRECTION('ref_axis',(-0.707106781186547,0.707106781186547,0.));
#471=DIRECTION('',(1.,0.,0.));
#472=DIRECTION('center_axis',(0.,0.,1.));
#473=DIRECTION('ref_axis',(0.707106781186547,0.707106781186547,0.));
#474=DIRECTION('',(0.,-1.,0.));
#475=DIRECTION('center_axis',(1.83436875115554E-16,-1.,0.));
#476=DIRECTION('ref_axis',(0.,0.,-1.));
#477=DIRECTION('',(-1.,-1.83436875115554E-16,0.));
#478=DIRECTION('',(0.,0.,1.));
#479=DIRECTION('center_axis',(0.,0.,1.));
#480=DIRECTION('ref_axis',(-0.707106781186547,-0.707106781186547,0.));
#481=DIRECTION('center_axis',(0.,0.,-1.));
#482=DIRECTION('ref_axis',(-0.707106781186547,-0.707106781186547,0.));
#483=DIRECTION('',(0.,0.,-1.));
#484=DIRECTION('center_axis',(0.,0.,1.));
#485=DIRECTION('ref_axis',(0.707106781186547,0.707106781186547,0.));
#486=DIRECTION('center_axis',(0.,0.,-1.));
#487=DIRECTION('ref_axis',(0.707106781186547,0.707106781186547,0.));
#488=DIRECTION('',(0.,0.,-1.));
#489=DIRECTION('',(0.,0.,1.));
#490=DIRECTION('center_axis',(0.,1.,0.));
#491=DIRECTION('ref_axis',(0.,0.,1.));
#492=DIRECTION('',(0.,0.,-1.));
#493=DIRECTION('',(1.,0.,0.));
#494=DIRECTION('center_axis',(0.,0.,1.));
#495=DIRECTION('ref_axis',(-0.707106781186547,0.707106781186547,0.));
#496=DIRECTION('center_axis',(0.,0.,-1.));
#497=DIRECTION('ref_axis',(-0.707106781186547,0.707106781186547,0.));
#498=DIRECTION('',(0.,0.,1.));
#499=DIRECTION('center_axis',(1.,0.,0.));
#500=DIRECTION('ref_axis',(0.,0.,-1.));
#501=DIRECTION('',(0.,-1.,0.));
#502=DIRECTION('center_axis',(-1.,-1.83436875115554E-16,0.));
#503=DIRECTION('ref_axis',(0.,0.,1.));
#504=DIRECTION('',(-1.83436875115554E-16,1.,0.));
#505=DIRECTION('center_axis',(0.,0.,1.));
#506=DIRECTION('ref_axis',(1.,0.,0.));
#507=CARTESIAN_POINT('',(0.,0.,0.));
#508=CARTESIAN_POINT('Origin',(3.4375,0.,0.125));
#509=CARTESIAN_POINT('',(3.578,1.72062875280203E-17,0.));
#510=CARTESIAN_POINT('Origin',(3.4375,0.,0.));
#511=CARTESIAN_POINT('',(3.578,1.72062875280203E-17,0.125));
#512=CARTESIAN_POINT('Origin',(3.4375,0.,0.125));
#513=CARTESIAN_POINT('Origin',(-3.49676543189026E-16,-3.4375,0.125));
#514=CARTESIAN_POINT('',(0.1405,-3.4375,0.));
#515=CARTESIAN_POINT('Origin',(-3.49676543189026E-16,-3.4375,0.));
#516=CARTESIAN_POINT('',(0.1405,-3.4375,0.125));
#517=CARTESIAN_POINT('Origin',(-3.49676543189026E-16,-3.4375,0.125));
#518=CARTESIAN_POINT('Origin',(-3.4375,0.,0.125));
#519=CARTESIAN_POINT('',(-3.297,1.72062875280203E-17,0.));
#520=CARTESIAN_POINT('Origin',(-3.4375,0.,0.));
#521=CARTESIAN_POINT('',(-3.297,1.72062875280203E-17,0.125));
#522=CARTESIAN_POINT('Origin',(-3.4375,0.,0.125));
#523=CARTESIAN_POINT('Origin',(-3.49676543189026E-16,3.4375,0.125));
#524=CARTESIAN_POINT('',(0.1405,3.4375,0.));
#525=CARTESIAN_POINT('Origin',(-3.49676543189026E-16,3.4375,0.));
#526=CARTESIAN_POINT('',(0.1405,3.4375,0.125));
#527=CARTESIAN_POINT('Origin',(-3.49676543189026E-16,3.4375,0.125));
#528=CARTESIAN_POINT('Origin',(3.3125,3.3125,0.125));
#529=CARTESIAN_POINT('',(3.453,3.3125,0.));
#530=CARTESIAN_POINT('Origin',(3.3125,3.3125,0.));
#531=CARTESIAN_POINT('',(3.453,3.3125,0.125));
#532=CARTESIAN_POINT('Origin',(3.3125,3.3125,0.125));
#533=CARTESIAN_POINT('Origin',(-3.3125,-3.3125,0.125));
#534=CARTESIAN_POINT('',(-3.172,-3.3125,0.));
#535=CARTESIAN_POINT('Origin',(-3.3125,-3.3125,0.));
#536=CARTESIAN_POINT('',(-3.172,-3.3125,0.125));
#537=CARTESIAN_POINT('Origin',(-3.3125,-3.3125,0.125));
#538=CARTESIAN_POINT('Origin',(3.3125,-3.3125,0.125));
#539=CARTESIAN_POINT('',(3.453,-3.3125,0.));
#540=CARTESIAN_POINT('Origin',(3.3125,-3.3125,0.));
#541=CARTESIAN_POINT('',(3.453,-3.3125,0.125));
#542=CARTESIAN_POINT('Origin',(3.3125,-3.3125,0.125));
#543=CARTESIAN_POINT('Origin',(-3.3125,3.3125,0.125));
#544=CARTESIAN_POINT('',(-3.172,3.3125,0.));
#545=CARTESIAN_POINT('Origin',(-3.3125,3.3125,0.));
#546=CARTESIAN_POINT('',(-3.172,3.3125,0.125));
#547=CARTESIAN_POINT('Origin',(-3.3125,3.3125,0.125));
#548=CARTESIAN_POINT('Origin',(3.4375,-3.4375,0.));
#549=CARTESIAN_POINT('',(3.8125,-3.4375,0.125));
#550=CARTESIAN_POINT('',(3.4375,-3.8125,0.125));
#551=CARTESIAN_POINT('Origin',(3.4375,-3.4375,0.125));
#552=CARTESIAN_POINT('',(3.4375,-3.8125,0.));
#553=CARTESIAN_POINT('',(3.4375,-3.8125,0.));
#554=CARTESIAN_POINT('',(3.8125,-3.4375,0.));
#555=CARTESIAN_POINT('Origin',(3.4375,-3.4375,0.));
#556=CARTESIAN_POINT('',(3.8125,-3.4375,0.));
#557=CARTESIAN_POINT('Origin',(-1.74838271594513E-16,-1.90732659921287E-16,
0.));
#558=CARTESIAN_POINT('',(-3.4375,-3.8125,0.));
#559=CARTESIAN_POINT('',(3.8125,-3.8125,0.));
#560=CARTESIAN_POINT('',(-3.8125,-3.4375,0.));
#561=CARTESIAN_POINT('Origin',(-3.4375,-3.4375,0.));
#562=CARTESIAN_POINT('',(-3.8125,3.4375,0.));
#563=CARTESIAN_POINT('',(-3.8125,-3.8125,0.));
#564=CARTESIAN_POINT('',(-3.4375,3.8125,0.));
#565=CARTESIAN_POINT('Origin',(-3.4375,3.4375,0.));
#566=CARTESIAN_POINT('',(3.4375,3.8125,0.));
#567=CARTESIAN_POINT('',(-3.8125,3.8125,0.));
#568=CARTESIAN_POINT('',(3.8125,3.4375,0.));
#569=CARTESIAN_POINT('Origin',(3.4375,3.4375,0.));
#570=CARTESIAN_POINT('',(3.8125,3.8125,0.));
#571=CARTESIAN_POINT('Origin',(3.8125,-3.8125,0.));
#572=CARTESIAN_POINT('',(-3.4375,-3.8125,0.125));
#573=CARTESIAN_POINT('',(3.8125,-3.8125,0.125));
#574=CARTESIAN_POINT('',(-3.4375,-3.8125,0.));
#575=CARTESIAN_POINT('Origin',(-3.4375,-3.4375,0.));
#576=CARTESIAN_POINT('',(-3.8125,-3.4375,0.125));
#577=CARTESIAN_POINT('Origin',(-3.4375,-3.4375,0.125));
#578=CARTESIAN_POINT('',(-3.8125,-3.4375,0.));
#579=CARTESIAN_POINT('Origin',(3.4375,3.4375,0.));
#580=CARTESIAN_POINT('',(3.4375,3.8125,0.125));
#581=CARTESIAN_POINT('',(3.8125,3.4375,0.125));
#582=CARTESIAN_POINT('Origin',(3.4375,3.4375,0.125));
#583=CARTESIAN_POINT('',(3.8125,3.4375,0.));
#584=CARTESIAN_POINT('',(3.4375,3.8125,0.));
#585=CARTESIAN_POINT('Origin',(-3.8125,3.8125,0.));
#586=CARTESIAN_POINT('',(-3.4375,3.8125,0.125));
#587=CARTESIAN_POINT('',(-3.4375,3.8125,0.));
#588=CARTESIAN_POINT('',(-3.8125,3.8125,0.125));
#589=CARTESIAN_POINT('Origin',(-3.4375,3.4375,0.));
#590=CARTESIAN_POINT('',(-3.8125,3.4375,0.125));
#591=CARTESIAN_POINT('Origin',(-3.4375,3.4375,0.125));
#592=CARTESIAN_POINT('',(-3.8125,3.4375,0.));
#593=CARTESIAN_POINT('Origin',(3.8125,3.8125,0.));
#594=CARTESIAN_POINT('',(3.8125,3.8125,0.125));
#595=CARTESIAN_POINT('Origin',(-3.8125,-3.8125,0.));
#596=CARTESIAN_POINT('',(-3.8125,-3.8125,0.125));
#597=CARTESIAN_POINT('Origin',(-1.74838271594513E-16,-1.74838271594513E-16,
0.125));
#598=UNCERTAINTY_MEASURE_WITH_UNIT(LENGTH_MEASURE(0.000393700787401575),
#602,'DISTANCE_ACCURACY_VALUE',
'Maximum model space distance between geometric entities at asserted c
onnectivities');
#599=UNCERTAINTY_MEASURE_WITH_UNIT(LENGTH_MEASURE(1.E-6),#603,
'DISTANCE_ACCURACY_VALUE',
'Maximum model space distance between geometric entities at asserted c
onnectivities');
#600=(
GEOMETRIC_REPRESENTATION_CONTEXT(3)
GLOBAL_UNCERTAINTY_ASSIGNED_CONTEXT((#598))
GLOBAL_UNIT_ASSIGNED_CONTEXT((#602,#608,#605))
REPRESENTATION_CONTEXT('','3D')
);
#601=(
GEOMETRIC_REPRESENTATION_CONTEXT(3)
GLOBAL_UNCERTAINTY_ASSIGNED_CONTEXT((#599))
GLOBAL_UNIT_ASSIGNED_CONTEXT((#603,#608,#605))
REPRESENTATION_CONTEXT('','3D')
);
#602=(
CONVERSION_BASED_UNIT('__CONSTANT UNIT inch',#604)
LENGTH_UNIT()
NAMED_UNIT(#607)
);
#603=(
LENGTH_UNIT()
NAMED_UNIT(*)
SI_UNIT(.MILLI.,.METRE.)
);
#604=LENGTH_MEASURE_WITH_UNIT(LENGTH_MEASURE(25.4),#603);
#605=(
NAMED_UNIT(*)
SI_UNIT($,.STERADIAN.)
SOLID_ANGLE_UNIT()
);
#606=DIMENSIONAL_EXPONENTS(0.,0.,0.,0.,0.,0.,0.);
#607=DIMENSIONAL_EXPONENTS(1.,0.,0.,0.,0.,0.,0.);
#608=(
CONVERSION_BASED_UNIT('degree',#610)
NAMED_UNIT(#606)
PLANE_ANGLE_UNIT()
);
#609=(
NAMED_UNIT(*)
PLANE_ANGLE_UNIT()
SI_UNIT($,.RADIAN.)
);
#610=PLANE_ANGLE_MEASURE_WITH_UNIT(PLANE_ANGLE_MEASURE(0.01745329252),#609);
#611=SHAPE_DEFINITION_REPRESENTATION(#612,#613);
#612=PRODUCT_DEFINITION_SHAPE('',$,#615);
#613=SHAPE_REPRESENTATION('',(#362),#600);
#614=PRODUCT_DEFINITION_CONTEXT('part definition',#619,'design');
#615=PRODUCT_DEFINITION('LJWE6','LJWE6',#616,#614);
#616=PRODUCT_DEFINITION_FORMATION('',$,#621);
#617=PRODUCT_RELATED_PRODUCT_CATEGORY('LJWE6','LJWE6',(#621));
#618=APPLICATION_PROTOCOL_DEFINITION('international standard',
'automotive_design',2009,#619);
#619=APPLICATION_CONTEXT(
'Core Data for Automotive Mechanical Design Process');
#620=PRODUCT_CONTEXT('part definition',#619,'mechanical');
#621=PRODUCT('LJWE6','LJWE6',$,(#620));
#622=PRESENTATION_STYLE_ASSIGNMENT((#623));
#623=SURFACE_STYLE_USAGE(.BOTH.,#624);
#624=SURFACE_SIDE_STYLE('',(#625));
#625=SURFACE_STYLE_FILL_AREA(#626);
#626=FILL_AREA_STYLE('',(#627));
#627=FILL_AREA_STYLE_COLOUR('',#628);
#628=COLOUR_RGB('',0.63921568627451,0.63921568627451,0.686274509803922);
ENDSEC;
END-ISO-10303-21;