999
DXF file: _cgs_temp_output.dxf
999
Pro/ENGINEER 2016360 by Parametric Technology Corporation
  0
SECTION
  2
HEADER
  9
$ACADVER
  1
AC1021
  9
$DWGCODEPAGE
  3
ANSI_1252
  9
$EXTMAX
 10
22.0
 20
17.0
 30
0.0
  9
$EXTMIN
 10
0.0
 20
0.0
 30
0.0
  9
$LIMMIN
 10
0.0
 20
0.0
  9
$LIMMAX
 10
22.0
 20
17.0
  9
$VIEWCTR
 10
11.0
 20
8.5
  9
$VIEWSIZE
 40
17.0
  9
$CLAYER
  8
0
  9
$LTSCALE
 40
1.21
  9
$CELTYPE
  6
BYLAYER
  9
$DIMSCALE
 40
1.0
  9
$DIMASZ
 40
0.1875
  9
$DIMEXO
 40
0.0625
  9
$DIMDLI
 40
0.836
  9
$DIMEXE
 40
0.125
  9
$DIMCEN
 40
0.198
  9
$DIMLFAC
 40
1.0
  9
$DIMBLK
  1
_CLOSED
  9
$DIMALT
 70
0
  9
$DIMALTF
 40
25.4
  9
$DIMTXT
 40
0.15625
  9
$DIMTOL
 70
0
  9
$DIMLIM
 70
0
  9
$DIMTFAC
 40
1.0
  9
$DIMGAP
 40
0.09
  9
$DIMDSEP
 70
46
  9
$AUNITS
 70
0
  9
$PDMODE
 70
3
  9
$PDSIZE
 40
0.3125
  9
$HANDSEED
  5
2AE
  9
$TILEMODE
 70
1
  9
$MEASUREMENT
 70
0
  9
$INSUNITS
 70
1
  0
ENDSEC
  0
SECTION
  2
CLASSES
  0
CLASS
  1
ACDBDICTIONARYWDFLT
  2
AcDbDictionaryWithDefault
  3
AutoCAD 2000
 90
0
 91
1
280
0
281
0
  0
CLASS
  1
ACDBPLACEHOLDER
  2
AcDbPlaceHolder
  3
AutoCAD 2000
 90
0
 91
1
280
0
281
0
  0
CLASS
  1
LAYOUT
  2
AcDbLayout
  3
AutoCAD 2000
 90
0
 91
0
280
0
281
0
  0
ENDSEC
  0
SECTION
  2
TABLES
  0
TABLE
  2
VPORT
  5
8
100
AcDbSymbolTable
 70
2
  0
VPORT
  5
1F4
100
AcDbSymbolTableRecord
100
AcDbViewportTableRecord
  2
*ACTIVE
 70
0
 10
0.0
 20
0.0
 11
1.0
 21
1.0
 12
11.0
 22
8.5
 13
0.0
 23
0.0
 14
1.0
 24
1.0
 15
0.0
 25
0.0
 16
0.0
 26
0.0
 36
1.0
 17
0.0
 27
0.0
 37
0.0
 40
17.0
 41
1.2941176471
 42
50.0
 43
0.0
 44
0.0
 50
0.0
 51
0.0
 71
0
 72
100
 73
1
 74
1
 75
0
 76
0
 77
0
 78
0
  0
ENDTAB
  0
TABLE
  2
LTYPE
  5
5
100
AcDbSymbolTable
 70
6
  0
LTYPE
  5
14
100
AcDbSymbolTableRecord
100
AcDbLinetypeTableRecord
  2
BYBLOCK
 70
0
  3

 72
65
 73
0
 40
0.0
  0
LTYPE
  5
15
100
AcDbSymbolTableRecord
100
AcDbLinetypeTableRecord
  2
BYLAYER
 70
0
  3

 72
65
 73
0
 40
0.0
  0
LTYPE
  5
16
100
AcDbSymbolTableRecord
100
AcDbLinetypeTableRecord
  2
CONTINUOUS
 70
64
  3
Solid line
 72
65
 73
0
 40
0.0
  0
LTYPE
  5
1F5
100
AcDbSymbolTableRecord
100
AcDbLinetypeTableRecord
  2
CENTER
 70
64
  3
____ _ ____ _ ____ _ ____ _ ____ _ ____ _ ____
 72
65
 73
4
 40
0.6
 49
0.375
 74
0
 49
-0.075
 74
0
 49
0.075
 74
0
 49
-0.075
 74
0
  0
LTYPE
  5
1F6
100
AcDbSymbolTableRecord
100
AcDbLinetypeTableRecord
  2
HIDDEN
 70
64
  3
- - - - - - - - - - - - - - - - - - - -
 72
65
 73
2
 40
0.2
 49
0.1
 74
0
 49
-0.1
 74
0
  0
LTYPE
  5
1F7
100
AcDbSymbolTableRecord
100
AcDbLinetypeTableRecord
  2
PHANTOM
 70
64
  3
_____ _ _ _____ _ _ _____ _ _ _____
 72
65
 73
6
 40
0.8
 49
0.45
 74
0
 49
-0.05
 74
0
 49
0.1
 74
0
 49
-0.05
 74
0
 49
0.1
 74
0
 49
-0.05
 74
0
  0
LTYPE
  5
1F8
100
AcDbSymbolTableRecord
100
AcDbLinetypeTableRecord
  2
DOT
 70
64
  3
. . . . . . . . . . . . . . . . . . . .
 72
65
 73
2
 40
0.2
 49
0.1
 74
0
 49
-0.1
 74
0
  0
LTYPE
  5
1F9
100
AcDbSymbolTableRecord
100
AcDbLinetypeTableRecord
  2
DASHED
 70
64
  3
- - - - - - - - - - - - - - - - - - - -
 72
65
 73
2
 40
0.2
 49
0.1
 74
0
 49
-0.1
 74
0
  0
ENDTAB
  0
TABLE
  2
LAYER
  5
2
100
AcDbSymbolTable
 70
36
  0
LAYER
  5
10
100
AcDbSymbolTableRecord
100
AcDbLayerTableRecord
  2
0
 70
0
 62
7
  6
CONTINUOUS
370
-3
390
F
  0
LAYER
  5
1FA
100
AcDbSymbolTableRecord
100
AcDbLayerTableRecord
  2
DEFAULT_1
 70
0
 62
7
  6
CENTER
370
-3
390
F
  0
LAYER
  5
1FB
100
AcDbSymbolTableRecord
100
AcDbLayerTableRecord
  2
DEFAULT_2
 70
0
 62
8
  6
HIDDEN
370
-3
390
F
  0
LAYER
  5
1FC
100
AcDbSymbolTableRecord
100
AcDbLayerTableRecord
  2
DEFAULT_3
 70
0
 62
7
  6
PHANTOM
370
-3
390
F
  0
LAYER
  5
1FD
100
AcDbSymbolTableRecord
100
AcDbLayerTableRecord
  2
01_ALL_DTM_PLN
 70
0
 62
7
  6
CONTINUOUS
370
-3
390
F
  0
LAYER
  5
1FE
100
AcDbSymbolTableRecord
100
AcDbLayerTableRecord
  2
01__ASM_ALL_DTM_PLN
 70
0
 62
7
  6
CONTINUOUS
370
-3
390
F
  0
LAYER
  5
1FF
100
AcDbSymbolTableRecord
100
AcDbLayerTableRecord
  2
01__ASM_DEF_DTM_PLN
 70
0
 62
7
  6
CONTINUOUS
370
-3
390
F
  0
LAYER
  5
200
100
AcDbSymbolTableRecord
100
AcDbLayerTableRecord
  2
01___PRT_ALL_DTM_PLN
 70
0
 62
7
  6
CONTINUOUS
370
-3
390
F
  0
LAYER
  5
201
100
AcDbSymbolTableRecord
100
AcDbLayerTableRecord
  2
01___PRT_DEF_DTM_PLN
 70
0
 62
7
  6
CONTINUOUS
370
-3
390
F
  0
LAYER
  5
202
100
AcDbSymbolTableRecord
100
AcDbLayerTableRecord
  2
02_ALL_AXES
 70
0
 62
7
  6
CONTINUOUS
370
-3
390
F
  0
LAYER
  5
203
100
AcDbSymbolTableRecord
100
AcDbLayerTableRecord
  2
02__ASM_ALL_AXES
 70
0
 62
7
  6
CONTINUOUS
370
-3
390
F
  0
LAYER
  5
204
100
AcDbSymbolTableRecord
100
AcDbLayerTableRecord
  2
02___PRT_ALL_AXES
 70
0
 62
7
  6
CONTINUOUS
370
-3
390
F
  0
LAYER
  5
205
100
AcDbSymbolTableRecord
100
AcDbLayerTableRecord
  2
03_ALL_CURVES
 70
0
 62
7
  6
CONTINUOUS
370
-3
390
F
  0
LAYER
  5
206
100
AcDbSymbolTableRecord
100
AcDbLayerTableRecord
  2
03__ASM_ALL_CURVES
 70
0
 62
7
  6
CONTINUOUS
370
-3
390
F
  0
LAYER
  5
207
100
AcDbSymbolTableRecord
100
AcDbLayerTableRecord
  2
03___PRT_ALL_CURVES
 70
0
 62
7
  6
CONTINUOUS
370
-3
390
F
  0
LAYER
  5
208
100
AcDbSymbolTableRecord
100
AcDbLayerTableRecord
  2
04_ALL_DTM_PNT
 70
0
 62
7
  6
CONTINUOUS
370
-3
390
F
  0
LAYER
  5
209
100
AcDbSymbolTableRecord
100
AcDbLayerTableRecord
  2
04__ASM_ALL_DTM_PNT
 70
0
 62
7
  6
CONTINUOUS
370
-3
390
F
  0
LAYER
  5
20A
100
AcDbSymbolTableRecord
100
AcDbLayerTableRecord
  2
04___PRT_ALL_DTM_PNT
 70
0
 62
7
  6
CONTINUOUS
370
-3
390
F
  0
LAYER
  5
20B
100
AcDbSymbolTableRecord
100
AcDbLayerTableRecord
  2
05_ALL_DTM_CSYS
 70
0
 62
7
  6
CONTINUOUS
370
-3
390
F
  0
LAYER
  5
20C
100
AcDbSymbolTableRecord
100
AcDbLayerTableRecord
  2
05__ASM_ALL_DTM_CSYS
 70
0
 62
7
  6
CONTINUOUS
370
-3
390
F
  0
LAYER
  5
20D
100
AcDbSymbolTableRecord
100
AcDbLayerTableRecord
  2
05__ASM_DEF_DTM_CSYS
 70
0
 62
7
  6
CONTINUOUS
370
-3
390
F
  0
LAYER
  5
20E
100
AcDbSymbolTableRecord
100
AcDbLayerTableRecord
  2
05___PRT_ALL_DTM_CSYS
 70
0
 62
7
  6
CONTINUOUS
370
-3
390
F
  0
LAYER
  5
20F
100
AcDbSymbolTableRecord
100
AcDbLayerTableRecord
  2
05___PRT_DEF_DTM_CSYS
 70
0
 62
7
  6
CONTINUOUS
370
-3
390
F
  0
LAYER
  5
210
100
AcDbSymbolTableRecord
100
AcDbLayerTableRecord
  2
06_ALL_SURFS
 70
0
 62
7
  6
CONTINUOUS
370
-3
390
F
  0
LAYER
  5
211
100
AcDbSymbolTableRecord
100
AcDbLayerTableRecord
  2
06__ASM_ALL_SURFS
 70
0
 62
7
  6
CONTINUOUS
370
-3
390
F
  0
LAYER
  5
212
100
AcDbSymbolTableRecord
100
AcDbLayerTableRecord
  2
06___PRT_ALL_SURFS
 70
0
 62
7
  6
CONTINUOUS
370
-3
390
F
  0
LAYER
  5
213
100
AcDbSymbolTableRecord
100
AcDbLayerTableRecord
  2
07__ASM_ALL_SKELETONS
 70
0
 62
7
  6
CONTINUOUS
370
-3
390
F
  0
ENDTAB
  0
TABLE
  2
STYLE
  5
3
100
AcDbSymbolTable
 70
1
  0
STYLE
  5
11
100
AcDbSymbolTableRecord
100
AcDbTextStyleTableRecord
  2
STANDARD
 70
0
 40
0.0
 41
0.8
 50
0.0
 71
0
 42
0.2
  3
txt
  4

  0
STYLE
  5
214
100
AcDbSymbolTableRecord
100
AcDbTextStyleTableRecord
  2
TEXTSTYLE_1
 70
0
 40
0.0
 41
0.8
 50
0.0
 71
0
 42
0.2
  3
gdt
  4

  0
ENDTAB
  0
TABLE
  2
VIEW
  5
6
100
AcDbSymbolTable
 70
0
  0
ENDTAB
  0
TABLE
  2
UCS
  5
7
100
AcDbSymbolTable
 70
0
  0
ENDTAB
  0
TABLE
  2
APPID
  5
9
100
AcDbSymbolTable
 70
1
  0
APPID
  5
215
100
AcDbSymbolTableRecord
100
AcDbRegAppTableRecord
  2
ACAD
 70
0
  0
ENDTAB
  0
TABLE
  2
BLOCK_RECORD
  5
1
100
AcDbSymbolTable
 70
0
  0
BLOCK_RECORD
  5
216
100
AcDbSymbolTableRecord
100
AcDbBlockTableRecord
  2
*Model_Space
  0
BLOCK_RECORD
  5
217
100
AcDbSymbolTableRecord
100
AcDbBlockTableRecord
  2
*Paper_Space
  0
ENDTAB
  0
TABLE
  2
DIMSTYLE
  5
A
100
AcDbSymbolTable
 70
1
100
AcDbDimStyleTable
 71
0
  0
DIMSTYLE
105
218
100
AcDbSymbolTableRecord
100
AcDbDimStyleTableRecord
  2
STANDARD
 70
0
  3

  4

 40
1.0
 41
0.1875
 42
0.0625
 43
0.38
 44
0.125
 45
0.0
 46
0.0
 47
0.0001
 48
0.0001
140
0.15625
141
0.09
142
0.0
143
25.4
144
1.0
145
0.0
146
1.0
147
0.09
 71
0.0
 72
0.0
 73
1
 74
1
 75
0
 76
0
 77
0
 78
4
 79
1
170
0
171
3
172
0
173
0
174
0
175
0
176
0
177
0
178
0
270
2
179
4
271
4
272
4
273
2
274
2
275
0
280
0
281
0
282
0
283
1
284
4
285
0
286
0
287
3
288
0
340
11
278
46
  0
ENDTAB
  0
ENDSEC
  0
SECTION
  2
BLOCKS
  0
BLOCK
  5
20
100
AcDbEntity
  8
0
100
AcDbBlockBegin
  2
*Model_Space
 70
0
 10
0.0
 20
0.0
 30
0.0
  3
*Model_Space
  1

  0
ENDBLK
  5
21
100
AcDbEntity
  8
0
100
AcDbBlockEnd
  0
BLOCK
  5
1C
100
AcDbEntity
  8
0
100
AcDbBlockBegin
  2
*Paper_Space
 70
0
 10
0.0
 20
0.0
 30
0.0
  3
*Paper_Space
  1

  0
ENDBLK
  5
1D
100
AcDbEntity
  8
0
100
AcDbBlockEnd
  0
ENDSEC
  0
SECTION
  2
ENTITIES
  0
MTEXT
  5
219
100
AcDbEntity
  8
0
100
AcDbMText
 62
7
  6
CONTINUOUS
  7
STANDARD
 71
1
 72
1
 10
15.9560215477
 20
0.9479130325
 30
0.0
 11
1.0
 21
0.0
 31
0.0
 44
0.9
  1
SCALE: 1:1.000
 40
0.3
 41
3.36
  0
LINE
  5
21A
100
AcDbEntity
  8
0
100
AcDbLine
 62
7
  6
CONTINUOUS
 10
0.0
 20
0.0
 11
0.0
 21
17.0
  0
LINE
  5
21B
100
AcDbEntity
  8
0
100
AcDbLine
 62
7
  6
CONTINUOUS
 10
0.0
 20
0.0
 11
22.0
 21
0.0
  0
LINE
  5
21C
100
AcDbEntity
  8
0
100
AcDbLine
 62
7
  6
CONTINUOUS
 10
0.0
 20
17.0
 11
22.0
 21
17.0
  0
LINE
  5
21D
100
AcDbEntity
  8
0
100
AcDbLine
 62
7
  6
CONTINUOUS
 10
22.0
 20
0.0
 11
22.0
 21
17.0
  0
LINE
  5
21E
100
AcDbEntity
  8
0
100
AcDbLine
 62
7
  6
CONTINUOUS
 10
5.0053672762
 20
5.5901198968
 11
5.0053672762
 21
5.5251198968
  0
LINE
  5
21F
100
AcDbEntity
  8
0
100
AcDbLine
 62
7
  6
CONTINUOUS
 10
5.0810068781
 20
5.5122591349
 11
5.0987551404
 21
5.4694110395
  0
LINE
  5
220
100
AcDbEntity
  8
0
100
AcDbLine
 62
7
  6
CONTINUOUS
 10
5.2869794119
 20
5.4694110395
 11
5.3047276742
 21
5.5122591349
  0
LINE
  5
221
100
AcDbEntity
  8
0
100
AcDbLine
 62
7
  6
CONTINUOUS
 10
5.4560068781
 20
5.5122591349
 11
5.4737551404
 21
5.4694110395
  0
LINE
  5
222
100
AcDbEntity
  8
0
100
AcDbLine
 62
7
  6
CONTINUOUS
 10
5.6619794119
 20
5.4694110395
 11
5.6797276742
 21
5.5122591349
  0
LINE
  5
223
100
AcDbEntity
  8
0
100
AcDbLine
 62
7
  6
CONTINUOUS
 10
5.8310068781
 20
5.5122591349
 11
5.8487551404
 21
5.4694110395
  0
LINE
  5
224
100
AcDbEntity
  8
0
100
AcDbLine
 62
7
  6
CONTINUOUS
 10
6.0369794119
 20
5.4694110395
 11
6.0547276742
 21
5.5122591349
  0
LINE
  5
225
100
AcDbEntity
  8
0
100
AcDbLine
 62
7
  6
CONTINUOUS
 10
5.1276263758
 20
5.4501198968
 11
5.2581081766
 21
5.4501198968
  0
LINE
  5
226
100
AcDbEntity
  8
0
100
AcDbLine
 62
7
  6
CONTINUOUS
 10
5.5026263758
 20
5.4501198968
 11
5.6331081766
 21
5.4501198968
  0
LINE
  5
227
100
AcDbEntity
  8
0
100
AcDbLine
 62
7
  6
CONTINUOUS
 10
5.8776263758
 20
5.4501198968
 11
6.0081081766
 21
5.4501198968
  0
LINE
  5
228
100
AcDbEntity
  8
0
100
AcDbLine
 62
7
  6
CONTINUOUS
 10
6.2526263758
 20
5.4501198968
 11
6.3831081766
 21
5.4501198968
  0
LINE
  5
229
100
AcDbEntity
  8
0
100
AcDbLine
 62
7
  6
CONTINUOUS
 10
6.6276263758
 20
5.4501198968
 11
6.7581081766
 21
5.4501198968
  0
LINE
  5
22A
100
AcDbEntity
  8
0
100
AcDbLine
 62
7
  6
CONTINUOUS
 10
7.0026263758
 20
5.4501198968
 11
7.1331081766
 21
5.4501198968
  0
LINE
  5
22B
100
AcDbEntity
  8
0
100
AcDbLine
 62
7
  6
CONTINUOUS
 10
5.0053672762
 20
5.5251198968
 11
5.0617593879
 21
5.5251198968
  0
LINE
  5
22C
100
AcDbEntity
  8
0
100
AcDbLine
 62
7
  6
CONTINUOUS
 10
5.3239751645
 20
5.5251198968
 11
5.4367593879
 21
5.5251198968
  0
LINE
  5
22D
100
AcDbEntity
  8
0
100
AcDbLine
 62
7
  6
CONTINUOUS
 10
5.6989751645
 20
5.5251198968
 11
5.8117593879
 21
5.5251198968
  0
LINE
  5
22E
100
AcDbEntity
  8
0
100
AcDbLine
 62
7
  6
CONTINUOUS
 10
6.0739751645
 20
5.5251198968
 11
6.1867593879
 21
5.5251198968
  0
LINE
  5
22F
100
AcDbEntity
  8
0
100
AcDbLine
 62
7
  6
CONTINUOUS
 10
6.4489751645
 20
5.5251198968
 11
6.5617593879
 21
5.5251198968
  0
LINE
  5
230
100
AcDbEntity
  8
0
100
AcDbLine
 62
7
  6
CONTINUOUS
 10
6.8239751645
 20
5.5251198968
 11
6.9367593879
 21
5.5251198968
  0
LINE
  5
231
100
AcDbEntity
  8
0
100
AcDbLine
 62
7
  6
CONTINUOUS
 10
7.1989751645
 20
5.5251198968
 11
7.2553672762
 21
5.5251198968
  0
LINE
  5
232
100
AcDbEntity
  8
0
100
AcDbLine
 62
7
  6
CONTINUOUS
 10
7.2553672762
 20
5.5901198968
 11
5.0053672762
 21
5.5901198968
  0
LINE
  5
233
100
AcDbEntity
  8
0
100
AcDbLine
 62
7
  6
CONTINUOUS
 10
6.2060068781
 20
5.5122591349
 11
6.2237551404
 21
5.4694110395
  0
LINE
  5
234
100
AcDbEntity
  8
0
100
AcDbLine
 62
7
  6
CONTINUOUS
 10
6.4119794119
 20
5.4694110395
 11
6.4297276742
 21
5.5122591349
  0
LINE
  5
235
100
AcDbEntity
  8
0
100
AcDbLine
 62
7
  6
CONTINUOUS
 10
6.5810068781
 20
5.5122591349
 11
6.5987551404
 21
5.4694110395
  0
LINE
  5
236
100
AcDbEntity
  8
0
100
AcDbLine
 62
7
  6
CONTINUOUS
 10
6.7869794119
 20
5.4694110395
 11
6.8047276742
 21
5.5122591349
  0
LINE
  5
237
100
AcDbEntity
  8
0
100
AcDbLine
 62
7
  6
CONTINUOUS
 10
6.9560068781
 20
5.5122591349
 11
6.9737551404
 21
5.4694110395
  0
LINE
  5
238
100
AcDbEntity
  8
0
100
AcDbLine
 62
7
  6
CONTINUOUS
 10
7.1619794119
 20
5.4694110395
 11
7.1797276742
 21
5.5122591349
  0
LINE
  5
239
100
AcDbEntity
  8
0
100
AcDbLine
 62
7
  6
CONTINUOUS
 10
7.2553672762
 20
5.5251198968
 11
7.2553672762
 21
5.5901198968
  0
LINE
  5
23A
100
AcDbEntity
  8
0
100
AcDbLine
 62
7
  6
CONTINUOUS
 10
7.1958720839
 20
11.1000477814
 11
4.9458720839
 21
11.1000477814
  0
LINE
  5
23B
100
AcDbEntity
  8
0
100
AcDbLine
 62
7
  6
CONTINUOUS
 10
4.9458720839
 20
14.1000477814
 11
4.9458720839
 21
11.1000477814
  0
LINE
  5
23C
100
AcDbEntity
  8
0
100
AcDbLine
 62
7
  6
CONTINUOUS
 10
7.1958720839
 20
14.1000477814
 11
7.1958720839
 21
11.1000477814
  0
LINE
  5
23D
100
AcDbEntity
  8
0
100
AcDbLine
 62
7
  6
CONTINUOUS
 10
4.9458720839
 20
14.1000477814
 11
7.1958720839
 21
14.1000477814
  0
LINE
  5
23E
100
AcDbEntity
  8
0
100
AcDbLine
 62
7
  6
CONTINUOUS
 10
14.0603552569
 20
5.3906247044
 11
14.0603552569
 21
5.5306247044
  0
LINE
  5
23F
100
AcDbEntity
  8
0
100
AcDbLine
 62
7
  6
CONTINUOUS
 10
14.0603552569
 20
5.3906247044
 11
17.0603552569
 21
5.3906247044
  0
LINE
  5
240
100
AcDbEntity
  8
0
100
AcDbLine
 62
7
  6
CONTINUOUS
 10
17.0603552569
 20
5.4656247044
 11
14.0603552569
 21
5.4656247044
  0
LINE
  5
241
100
AcDbEntity
  8
0
100
AcDbLine
 62
7
  6
CONTINUOUS
 10
17.0603552569
 20
5.5306247044
 11
14.0603552569
 21
5.5306247044
  0
LINE
  5
242
100
AcDbEntity
  8
0
100
AcDbLine
 62
7
  6
CONTINUOUS
 10
17.0603552569
 20
5.3906247044
 11
17.0603552569
 21
5.5306247044
  0
LINE
  5
243
100
AcDbEntity
  8
0
100
AcDbLine
 62
7
  6
CONTINUOUS
 10
14.1553249835
 20
11.3309283006
 11
14.1847426786
 21
11.3042934973
  0
LINE
  5
244
100
AcDbEntity
  8
0
100
AcDbLine
 62
7
  6
CONTINUOUS
 10
14.0619055044
 20
11.3793273262
 11
14.0817332258
 21
11.3389226783
  0
LINE
  5
245
100
AcDbEntity
  8
0
100
AcDbLine
 62
7
  6
CONTINUOUS
 10
14.5007228563
 20
11.3309283006
 11
14.5301405514
 21
11.3042934973
  0
LINE
  5
246
100
AcDbEntity
  8
0
100
AcDbLine
 62
7
  6
CONTINUOUS
 10
14.846120729
 20
11.3309283006
 11
14.8755384241
 21
11.3042934973
  0
LINE
  5
247
100
AcDbEntity
  8
0
100
AcDbLine
 62
7
  6
CONTINUOUS
 10
14.2172194536
 20
11.2923019307
 11
14.3374011507
 21
11.2923019307
  0
LINE
  5
248
100
AcDbEntity
  8
0
100
AcDbLine
 62
7
  6
CONTINUOUS
 10
14.5626173263
 20
11.2923019307
 11
14.6827990235
 21
11.2923019307
  0
LINE
  5
249
100
AcDbEntity
  8
0
100
AcDbLine
 62
7
  6
CONTINUOUS
 10
14.9080151991
 20
11.2923019307
 11
15.0281968962
 21
11.2923019307
  0
LINE
  5
24A
100
AcDbEntity
  8
0
100
AcDbLine
 62
7
  6
CONTINUOUS
 10
15.2534130718
 20
11.2923019307
 11
15.373594769
 21
11.2923019307
  0
LINE
  5
24B
100
AcDbEntity
  8
0
100
AcDbLine
 62
7
  6
CONTINUOUS
 10
15.5988109446
 20
11.2923019307
 11
15.7189926417
 21
11.2923019307
  0
LINE
  5
24C
100
AcDbEntity
  8
0
100
AcDbLine
 62
7
  6
CONTINUOUS
 10
15.9442088173
 20
11.2923019307
 11
16.0643905145
 21
11.2923019307
  0
LINE
  5
24D
100
AcDbEntity
  8
0
100
AcDbLine
 62
7
  6
CONTINUOUS
 10
14.0817332258
 20
11.3389226783
 11
14.1336738002
 21
11.3389226783
  0
LINE
  5
24E
100
AcDbEntity
  8
0
100
AcDbLine
 62
7
  6
CONTINUOUS
 10
14.3751905241
 20
11.3389226783
 11
14.479071673
 21
11.3389226783
  0
LINE
  5
24F
100
AcDbEntity
  8
0
100
AcDbLine
 62
7
  6
CONTINUOUS
 10
14.7205883968
 20
11.3389226783
 11
14.8244695457
 21
11.3389226783
  0
LINE
  5
250
100
AcDbEntity
  8
0
100
AcDbLine
 62
7
  6
CONTINUOUS
 10
15.0659862696
 20
11.3389226783
 11
15.1698674185
 21
11.3389226783
  0
LINE
  5
251
100
AcDbEntity
  8
0
100
AcDbLine
 62
7
  6
CONTINUOUS
 10
15.4113841423
 20
11.3389226783
 11
15.5152652912
 21
11.3389226783
  0
LINE
  5
252
100
AcDbEntity
  8
0
100
AcDbLine
 62
7
  6
CONTINUOUS
 10
15.7567820151
 20
11.3389226783
 11
15.860663164
 21
11.3389226783
  0
LINE
  5
253
100
AcDbEntity
  8
0
100
AcDbLine
 62
7
  6
CONTINUOUS
 10
16.1021798878
 20
11.3389226783
 11
16.1541204623
 21
11.3389226783
  0
LINE
  5
254
100
AcDbEntity
  8
0
100
AcDbLine
 62
7
  6
CONTINUOUS
 10
16.134292741
 20
11.3793273262
 11
14.0619055044
 21
11.3793273262
  0
LINE
  5
255
100
AcDbEntity
  8
0
100
AcDbLine
 62
7
  6
CONTINUOUS
 10
14.7881044747
 20
13.7293080551
 11
14.0619055044
 21
11.3793273262
  0
LINE
  5
256
100
AcDbEntity
  8
0
100
AcDbLine
 62
7
  6
CONTINUOUS
 10
15.1915186018
 20
11.3309283006
 11
15.2209362969
 21
11.3042934973
  0
LINE
  5
257
100
AcDbEntity
  8
0
100
AcDbLine
 62
7
  6
CONTINUOUS
 10
14.3581087133
 20
11.3042934973
 11
14.3613854823
 21
11.3309283006
  0
LINE
  5
258
100
AcDbEntity
  8
0
100
AcDbLine
 62
7
  6
CONTINUOUS
 10
14.357720194
 20
11.3025023973
 11
14.3581087133
 21
11.3042934973
  0
LINE
  5
259
100
AcDbEntity
  8
0
100
AcDbLine
 62
7
  6
CONTINUOUS
 10
14.3613854823
 20
11.3309283006
 11
14.3616455776
 21
11.3321220328
  0
LINE
  5
25A
100
AcDbEntity
  8
0
100
AcDbLine
 62
7
  6
CONTINUOUS
 10
15.5369164746
 20
11.3309283006
 11
15.5663341696
 21
11.3042934973
  0
LINE
  5
25B
100
AcDbEntity
  8
0
100
AcDbLine
 62
7
  6
CONTINUOUS
 10
14.703506586
 20
11.3042934973
 11
14.7067833551
 21
11.3309283006
  0
LINE
  5
25C
100
AcDbEntity
  8
0
100
AcDbLine
 62
7
  6
CONTINUOUS
 10
14.3582646041
 20
11.3042453234
 11
14.3686649158
 21
11.3379007446
  0
LINE
  5
25D
100
AcDbEntity
  8
0
100
AcDbLine
 62
7
  6
CONTINUOUS
 10
14.7031180667
 20
11.3025023973
 11
14.703506586
 21
11.3042934973
  0
LINE
  5
25E
100
AcDbEntity
  8
0
100
AcDbLine
 62
7
  6
CONTINUOUS
 10
14.7067833551
 20
11.3309283006
 11
14.7070434503
 21
11.3321220328
  0
LINE
  5
25F
100
AcDbEntity
  8
0
100
AcDbLine
 62
7
  6
CONTINUOUS
 10
15.8823143473
 20
11.3309283006
 11
15.9117320424
 21
11.3042934973
  0
LINE
  5
260
100
AcDbEntity
  8
0
100
AcDbLine
 62
7
  6
CONTINUOUS
 10
14.7036624768
 20
11.3042453234
 11
14.7140627886
 21
11.3379007446
  0
LINE
  5
261
100
AcDbEntity
  8
0
100
AcDbLine
 62
7
  6
CONTINUOUS
 10
15.0489044588
 20
11.3042934973
 11
15.0521812278
 21
11.3309283006
  0
LINE
  5
262
100
AcDbEntity
  8
0
100
AcDbLine
 62
7
  6
CONTINUOUS
 10
15.0485159395
 20
11.3025023973
 11
15.0489044588
 21
11.3042934973
  0
LINE
  5
263
100
AcDbEntity
  8
0
100
AcDbLine
 62
7
  6
CONTINUOUS
 10
15.0521812278
 20
11.3309283006
 11
15.0524413231
 21
11.3321220328
  0
LINE
  5
264
100
AcDbEntity
  8
0
100
AcDbLine
 62
7
  6
CONTINUOUS
 10
15.0490603496
 20
11.3042453234
 11
15.0594606613
 21
11.3379007446
  0
LINE
  5
265
100
AcDbEntity
  8
0
100
AcDbLine
 62
7
  6
CONTINUOUS
 10
15.3943023315
 20
11.3042934973
 11
15.3975791006
 21
11.3309283006
  0
LINE
  5
266
100
AcDbEntity
  8
0
100
AcDbLine
 62
7
  6
CONTINUOUS
 10
16.1541204623
 20
11.3389226783
 11
16.134292741
 21
11.3793273262
  0
LINE
  5
267
100
AcDbEntity
  8
0
100
AcDbLine
 62
7
  6
CONTINUOUS
 10
15.3939138122
 20
11.3025023973
 11
15.3943023315
 21
11.3042934973
  0
LINE
  5
268
100
AcDbEntity
  8
0
100
AcDbLine
 62
7
  6
CONTINUOUS
 10
15.3975791006
 20
11.3309283006
 11
15.3978391958
 21
11.3321220328
  0
LINE
  5
269
100
AcDbEntity
  8
0
100
AcDbLine
 62
7
  6
CONTINUOUS
 10
15.3944582223
 20
11.3042453234
 11
15.4048585341
 21
11.3379007446
  0
LINE
  5
26A
100
AcDbEntity
  8
0
100
AcDbLine
 62
7
  6
CONTINUOUS
 10
15.7397002043
 20
11.3042934973
 11
15.7429769733
 21
11.3309283006
  0
LINE
  5
26B
100
AcDbEntity
  8
0
100
AcDbLine
 62
7
  6
CONTINUOUS
 10
15.739311685
 20
11.3025023973
 11
15.7397002043
 21
11.3042934973
  0
LINE
  5
26C
100
AcDbEntity
  8
0
100
AcDbLine
 62
7
  6
CONTINUOUS
 10
15.7429769733
 20
11.3309283006
 11
15.7432370686
 21
11.3321220328
  0
LINE
  5
26D
100
AcDbEntity
  8
0
100
AcDbLine
 62
7
  6
CONTINUOUS
 10
15.7398560951
 20
11.3042453234
 11
15.7502564068
 21
11.3379007446
  0
LINE
  5
26E
100
AcDbEntity
  8
0
100
AcDbLine
 62
7
  6
CONTINUOUS
 10
16.085098077
 20
11.3042934973
 11
16.0883748461
 21
11.3309283006
  0
LINE
  5
26F
100
AcDbEntity
  8
0
100
AcDbLine
 62
7
  6
CONTINUOUS
 10
16.0847095577
 20
11.3025023973
 11
16.085098077
 21
11.3042934973
  0
LINE
  5
270
100
AcDbEntity
  8
0
100
AcDbLine
 62
7
  6
CONTINUOUS
 10
16.0883748461
 20
11.3309283006
 11
16.0886349413
 21
11.3321220328
  0
LINE
  5
271
100
AcDbEntity
  8
0
100
AcDbLine
 62
7
  6
CONTINUOUS
 10
16.0852539678
 20
11.3042453234
 11
16.0956542796
 21
11.3379007446
  0
LINE
  5
272
100
AcDbEntity
  8
0
100
AcDbLine
 62
7
  6
CONTINUOUS
 10
16.8604917112
 20
13.7293080551
 11
16.134292741
 21
11.3793273262
  0
LINE
  5
273
100
AcDbEntity
  8
0
100
AcDbLine
 62
7
  6
CONTINUOUS
 10
16.8803194325
 20
13.6889034072
 11
16.1541204623
 21
11.3389226783
  0
LINE
  5
274
100
AcDbEntity
  8
0
100
AcDbLine
 62
7
  6
CONTINUOUS
 10
14.7881044747
 20
13.7293080551
 11
16.8604917112
 21
13.7293080551
  0
LINE
  5
275
100
AcDbEntity
  8
0
100
AcDbLine
 62
7
  6
CONTINUOUS
 10
16.8803194325
 20
13.6889034072
 11
16.8604917112
 21
13.7293080551
  0
ARC
  5
276
100
AcDbEntity
  8
0
100
AcDbCircle
 62
7
  6
CONTINUOUS
 10
5.5026263758
 20
5.4813698968
 40
0.03125
100
AcDbArc
 50
202.5
 51
270.0
  0
ARC
  5
277
100
AcDbEntity
  8
0
100
AcDbCircle
 62
7
  6
CONTINUOUS
 10
5.6331081766
 20
5.4813698968
 40
0.03125
100
AcDbArc
 50
270.0
 51
337.5
  0
ARC
  5
278
100
AcDbEntity
  8
0
100
AcDbCircle
 62
7
  6
CONTINUOUS
 10
5.8776263758
 20
5.4813698968
 40
0.03125
100
AcDbArc
 50
202.5
 51
270.0
  0
ARC
  5
279
100
AcDbEntity
  8
0
100
AcDbCircle
 62
7
  6
CONTINUOUS
 10
6.0081081766
 20
5.4813698968
 40
0.03125
100
AcDbArc
 50
270.0
 51
337.5
  0
ARC
  5
27A
100
AcDbEntity
  8
0
100
AcDbCircle
 62
7
  6
CONTINUOUS
 10
6.2526263758
 20
5.4813698968
 40
0.03125
100
AcDbArc
 50
202.5
 51
270.0
  0
ARC
  5
27B
100
AcDbEntity
  8
0
100
AcDbCircle
 62
7
  6
CONTINUOUS
 10
6.3831081766
 20
5.4813698968
 40
0.03125
100
AcDbArc
 50
270.0
 51
337.5
  0
ARC
  5
27C
100
AcDbEntity
  8
0
100
AcDbCircle
 62
7
  6
CONTINUOUS
 10
5.2581081766
 20
5.4813698968
 40
0.03125
100
AcDbArc
 50
270.0
 51
337.5
  0
ARC
  5
27D
100
AcDbEntity
  8
0
100
AcDbCircle
 62
7
  6
CONTINUOUS
 10
5.1276263758
 20
5.4813698968
 40
0.03125
100
AcDbArc
 50
202.5
 51
270.0
  0
ARC
  5
27E
100
AcDbEntity
  8
0
100
AcDbCircle
 62
7
  6
CONTINUOUS
 10
7.1331081766
 20
5.4813698968
 40
0.03125
100
AcDbArc
 50
270.0
 51
337.5
  0
ARC
  5
27F
100
AcDbEntity
  8
0
100
AcDbCircle
 62
7
  6
CONTINUOUS
 10
7.0026263758
 20
5.4813698968
 40
0.03125
100
AcDbArc
 50
202.5
 51
270.0
  0
ARC
  5
280
100
AcDbEntity
  8
0
100
AcDbCircle
 62
7
  6
CONTINUOUS
 10
6.7581081766
 20
5.4813698968
 40
0.03125
100
AcDbArc
 50
270.0
 51
337.5
  0
ARC
  5
281
100
AcDbEntity
  8
0
100
AcDbCircle
 62
7
  6
CONTINUOUS
 10
6.6276263758
 20
5.4813698968
 40
0.03125
100
AcDbArc
 50
202.5
 51
270.0
  0
ARC
  5
282
100
AcDbEntity
  8
0
100
AcDbCircle
 62
7
  6
CONTINUOUS
 10
5.3239751645
 20
5.5042865634
 40
0.0208333333
100
AcDbArc
 50
90.0
 51
157.5
  0
ARC
  5
283
100
AcDbEntity
  8
0
100
AcDbCircle
 62
7
  6
CONTINUOUS
 10
5.0617593879
 20
5.5042865634
 40
0.0208333333
100
AcDbArc
 50
22.5
 51
90.0
  0
ARC
  5
284
100
AcDbEntity
  8
0
100
AcDbCircle
 62
7
  6
CONTINUOUS
 10
5.6989751645
 20
5.5042865634
 40
0.0208333333
100
AcDbArc
 50
90.0
 51
157.5
  0
ARC
  5
285
100
AcDbEntity
  8
0
100
AcDbCircle
 62
7
  6
CONTINUOUS
 10
5.4367593879
 20
5.5042865634
 40
0.0208333333
100
AcDbArc
 50
22.5
 51
90.0
  0
ARC
  5
286
100
AcDbEntity
  8
0
100
AcDbCircle
 62
7
  6
CONTINUOUS
 10
6.0739751645
 20
5.5042865634
 40
0.0208333333
100
AcDbArc
 50
90.0
 51
157.5
  0
ARC
  5
287
100
AcDbEntity
  8
0
100
AcDbCircle
 62
7
  6
CONTINUOUS
 10
5.8117593879
 20
5.5042865634
 40
0.0208333333
100
AcDbArc
 50
22.5
 51
90.0
  0
ARC
  5
288
100
AcDbEntity
  8
0
100
AcDbCircle
 62
7
  6
CONTINUOUS
 10
6.4489751645
 20
5.5042865634
 40
0.0208333333
100
AcDbArc
 50
90.0
 51
157.5
  0
ARC
  5
289
100
AcDbEntity
  8
0
100
AcDbCircle
 62
7
  6
CONTINUOUS
 10
6.1867593879
 20
5.5042865634
 40
0.0208333333
100
AcDbArc
 50
22.5
 51
90.0
  0
ARC
  5
28A
100
AcDbEntity
  8
0
100
AcDbCircle
 62
7
  6
CONTINUOUS
 10
6.8239751645
 20
5.5042865634
 40
0.0208333333
100
AcDbArc
 50
90.0
 51
157.5
  0
ARC
  5
28B
100
AcDbEntity
  8
0
100
AcDbCircle
 62
7
  6
CONTINUOUS
 10
6.5617593879
 20
5.5042865634
 40
0.0208333333
100
AcDbArc
 50
22.5
 51
90.0
  0
ARC
  5
28C
100
AcDbEntity
  8
0
100
AcDbCircle
 62
7
  6
CONTINUOUS
 10
7.1989751645
 20
5.5042865634
 40
0.0208333333
100
AcDbArc
 50
90.0
 51
157.5
  0
ARC
  5
28D
100
AcDbEntity
  8
0
100
AcDbCircle
 62
7
  6
CONTINUOUS
 10
6.9367593879
 20
5.5042865634
 40
0.0208333333
100
AcDbArc
 50
22.5
 51
90.0
  0
SPLINE
  5
28E
100
AcDbEntity
  8
0
100
AcDbSpline
 62
7
  6
CONTINUOUS
 70
0
 71
3
 72
12
 73
8
 74
0
 42
0.0000001
 43
0.0000001
 44
0.0000000001
 40
0.0
 40
0.0
 40
0.0
 40
0.0
 40
0.1080142018
 40
0.2181407279
 40
0.4509649437
 40
0.7099683587
 40
1.0
 40
1.0
 40
1.0
 40
1.0
 10
14.3616416256
 20
11.3321232549
 30
0.0
 10
14.3617567087
 20
11.3324949002
 30
0.0
 10
14.362054026
 20
11.3332270393
 30
0.0
 10
14.3629107772
 20
11.3346147694
 30
0.0
 10
14.3644890987
 20
11.3361520794
 30
0.0
 10
14.3669679654
 20
11.3375365378
 30
0.0
 10
14.3688679472
 20
11.3381313342
 30
0.0
 10
14.3698865196
 20
11.338363351
 30
0.0
  0
SPLINE
  5
28F
100
AcDbEntity
  8
0
100
AcDbSpline
 62
7
  6
CONTINUOUS
 70
0
 71
3
 72
9
 73
5
 74
0
 42
0.0000001
 43
0.0000001
 44
0.0000000001
 40
0.0
 40
0.0
 40
0.0
 40
0.0
 40
0.4849750263
 40
1.0
 40
1.0
 40
1.0
 40
1.0
 10
14.3698865196
 20
11.338363351
 30
0.0
 10
14.3707284732
 20
11.3385551364
 30
0.0
 10
14.3724916411
 20
11.3388359236
 30
0.0
 10
14.3742734983
 20
11.3389226783
 30
0.0
 10
14.3751905241
 20
11.3389226783
 30
0.0
  0
SPLINE
  5
290
100
AcDbEntity
  8
0
100
AcDbSpline
 62
7
  6
CONTINUOUS
 70
0
 71
3
 72
12
 73
8
 74
0
 42
0.0000001
 43
0.0000001
 44
0.0000000001
 40
0.0
 40
0.0
 40
0.0
 40
0.0
 40
0.1080142018
 40
0.2181407279
 40
0.4509649437
 40
0.7099683587
 40
1.0
 40
1.0
 40
1.0
 40
1.0
 10
14.7070394984
 20
11.3321232549
 30
0.0
 10
14.7071545814
 20
11.3324949002
 30
0.0
 10
14.7074518988
 20
11.3332270393
 30
0.0
 10
14.7083086499
 20
11.3346147694
 30
0.0
 10
14.7098869714
 20
11.3361520794
 30
0.0
 10
14.7123658382
 20
11.3375365378
 30
0.0
 10
14.7142658199
 20
11.3381313342
 30
0.0
 10
14.7152843923
 20
11.338363351
 30
0.0
  0
SPLINE
  5
291
100
AcDbEntity
  8
0
100
AcDbSpline
 62
7
  6
CONTINUOUS
 70
0
 71
3
 72
9
 73
5
 74
0
 42
0.0000001
 43
0.0000001
 44
0.0000000001
 40
0.0
 40
0.0
 40
0.0
 40
0.0
 40
0.4849750263
 40
1.0
 40
1.0
 40
1.0
 40
1.0
 10
14.7152843923
 20
11.338363351
 30
0.0
 10
14.7161263459
 20
11.3385551364
 30
0.0
 10
14.7178895138
 20
11.3388359236
 30
0.0
 10
14.7196713711
 20
11.3389226783
 30
0.0
 10
14.7205883968
 20
11.3389226783
 30
0.0
  0
SPLINE
  5
292
100
AcDbEntity
  8
0
100
AcDbSpline
 62
7
  6
CONTINUOUS
 70
0
 71
3
 72
12
 73
8
 74
0
 42
0.0000001
 43
0.0000001
 44
0.0000000001
 40
0.0
 40
0.0
 40
0.0
 40
0.0
 40
0.1080142018
 40
0.2181407279
 40
0.4509649437
 40
0.7099683587
 40
1.0
 40
1.0
 40
1.0
 40
1.0
 10
15.0524373711
 20
11.3321232549
 30
0.0
 10
15.0525524542
 20
11.3324949002
 30
0.0
 10
15.0528497715
 20
11.3332270393
 30
0.0
 10
15.0537065227
 20
11.3346147694
 30
0.0
 10
15.0552848442
 20
11.3361520794
 30
0.0
 10
15.0577637109
 20
11.3375365378
 30
0.0
 10
15.0596636927
 20
11.3381313342
 30
0.0
 10
15.0606822651
 20
11.338363351
 30
0.0
  0
SPLINE
  5
293
100
AcDbEntity
  8
0
100
AcDbSpline
 62
7
  6
CONTINUOUS
 70
0
 71
3
 72
9
 73
5
 74
0
 42
0.0000001
 43
0.0000001
 44
0.0000000001
 40
0.0
 40
0.0
 40
0.0
 40
0.0
 40
0.4849750263
 40
1.0
 40
1.0
 40
1.0
 40
1.0
 10
15.0606822651
 20
11.338363351
 30
0.0
 10
15.0615242187
 20
11.3385551364
 30
0.0
 10
15.0632873866
 20
11.3388359236
 30
0.0
 10
15.0650692438
 20
11.3389226783
 30
0.0
 10
15.0659862696
 20
11.3389226783
 30
0.0
  0
SPLINE
  5
294
100
AcDbEntity
  8
0
100
AcDbSpline
 62
7
  6
CONTINUOUS
 70
0
 71
3
 72
12
 73
8
 74
0
 42
0.0000001
 43
0.0000001
 44
0.0000000001
 40
0.0
 40
0.0
 40
0.0
 40
0.0
 40
0.1080142018
 40
0.2181407279
 40
0.4509649437
 40
0.7099683587
 40
1.0
 40
1.0
 40
1.0
 40
1.0
 10
15.3978352439
 20
11.3321232549
 30
0.0
 10
15.397950327
 20
11.3324949002
 30
0.0
 10
15.3982476443
 20
11.3332270393
 30
0.0
 10
15.3991043954
 20
11.3346147694
 30
0.0
 10
15.4006827169
 20
11.3361520794
 30
0.0
 10
15.4031615837
 20
11.3375365378
 30
0.0
 10
15.4050615654
 20
11.3381313342
 30
0.0
 10
15.4060801378
 20
11.338363351
 30
0.0
  0
SPLINE
  5
295
100
AcDbEntity
  8
0
100
AcDbSpline
 62
7
  6
CONTINUOUS
 70
0
 71
3
 72
9
 73
5
 74
0
 42
0.0000001
 43
0.0000001
 44
0.0000000001
 40
0.0
 40
0.0
 40
0.0
 40
0.0
 40
0.4849750263
 40
1.0
 40
1.0
 40
1.0
 40
1.0
 10
15.4060801378
 20
11.338363351
 30
0.0
 10
15.4069220914
 20
11.3385551364
 30
0.0
 10
15.4086852593
 20
11.3388359236
 30
0.0
 10
15.4104671166
 20
11.3389226783
 30
0.0
 10
15.4113841423
 20
11.3389226783
 30
0.0
  0
SPLINE
  5
296
100
AcDbEntity
  8
0
100
AcDbSpline
 62
7
  6
CONTINUOUS
 70
0
 71
3
 72
12
 73
8
 74
0
 42
0.0000001
 43
0.0000001
 44
0.0000000001
 40
0.0
 40
0.0
 40
0.0
 40
0.0
 40
0.1080142018
 40
0.2181407279
 40
0.4509649437
 40
0.7099683587
 40
1.0
 40
1.0
 40
1.0
 40
1.0
 10
15.7432331166
 20
11.3321232549
 30
0.0
 10
15.7433481997
 20
11.3324949002
 30
0.0
 10
15.743645517
 20
11.3332270393
 30
0.0
 10
15.7445022682
 20
11.3346147694
 30
0.0
 10
15.7460805897
 20
11.3361520794
 30
0.0
 10
15.7485594564
 20
11.3375365378
 30
0.0
 10
15.7504594382
 20
11.3381313342
 30
0.0
 10
15.7514780106
 20
11.338363351
 30
0.0
  0
SPLINE
  5
297
100
AcDbEntity
  8
0
100
AcDbSpline
 62
7
  6
CONTINUOUS
 70
0
 71
3
 72
9
 73
5
 74
0
 42
0.0000001
 43
0.0000001
 44
0.0000000001
 40
0.0
 40
0.0
 40
0.0
 40
0.0
 40
0.4849750263
 40
1.0
 40
1.0
 40
1.0
 40
1.0
 10
15.7514780106
 20
11.338363351
 30
0.0
 10
15.7523199642
 20
11.3385551364
 30
0.0
 10
15.7540831321
 20
11.3388359236
 30
0.0
 10
15.7558649893
 20
11.3389226783
 30
0.0
 10
15.7567820151
 20
11.3389226783
 30
0.0
  0
SPLINE
  5
298
100
AcDbEntity
  8
0
100
AcDbSpline
 62
7
  6
CONTINUOUS
 70
0
 71
3
 72
12
 73
8
 74
0
 42
0.0000001
 43
0.0000001
 44
0.0000000001
 40
0.0
 40
0.0
 40
0.0
 40
0.0
 40
0.1080142018
 40
0.2181407279
 40
0.4509649437
 40
0.7099683587
 40
1.0
 40
1.0
 40
1.0
 40
1.0
 10
16.0886309894
 20
11.3321232549
 30
0.0
 10
16.0887460725
 20
11.3324949002
 30
0.0
 10
16.0890433898
 20
11.3332270393
 30
0.0
 10
16.0899001409
 20
11.3346147694
 30
0.0
 10
16.0914784624
 20
11.3361520794
 30
0.0
 10
16.0939573292
 20
11.3375365378
 30
0.0
 10
16.0958573109
 20
11.3381313342
 30
0.0
 10
16.0968758833
 20
11.338363351
 30
0.0
  0
SPLINE
  5
299
100
AcDbEntity
  8
0
100
AcDbSpline
 62
7
  6
CONTINUOUS
 70
0
 71
3
 72
9
 73
5
 74
0
 42
0.0000001
 43
0.0000001
 44
0.0000000001
 40
0.0
 40
0.0
 40
0.0
 40
0.0
 40
0.4849750263
 40
1.0
 40
1.0
 40
1.0
 40
1.0
 10
16.0968758833
 20
11.338363351
 30
0.0
 10
16.0977178369
 20
11.3385551364
 30
0.0
 10
16.0994810048
 20
11.3388359236
 30
0.0
 10
16.1012628621
 20
11.3389226783
 30
0.0
 10
16.1021798878
 20
11.3389226783
 30
0.0
  0
SPLINE
  5
29A
100
AcDbEntity
  8
0
100
AcDbSpline
 62
7
  6
CONTINUOUS
 70
0
 71
3
 72
15
 73
11
 74
0
 42
0.0000001
 43
0.0000001
 44
0.0000000001
 40
0.0
 40
0.0
 40
0.0
 40
0.0
 40
0.1556212668
 40
0.3031472968
 40
0.4410980883
 40
0.5690295824
 40
0.687267052
 40
0.7969834574
 40
0.9002646922
 40
1.0
 40
1.0
 40
1.0
 40
1.0
 10
14.3374011507
 20
11.2923019307
 30
0.0
 10
14.3386582457
 20
11.2923019307
 30
0.0
 10
14.3411088374
 20
11.2924112458
 30
0.0
 10
14.3446418284
 20
11.2929205051
 30
0.0
 10
14.3478800435
 20
11.2937694628
 30
0.0
 10
14.3507639167
 20
11.2949416713
 30
0.0
 10
14.3532436886
 20
11.2964212271
 30
0.0
 10
14.355275287
 20
11.298187987
 30
0.0
 10
14.3568127962
 20
11.3002168031
 30
0.0
 10
14.3574861968
 20
11.3017314629
 30
0.0
 10
14.3577245055
 20
11.302501064
 30
0.0
  0
SPLINE
  5
29B
100
AcDbEntity
  8
0
100
AcDbSpline
 62
7
  6
CONTINUOUS
 70
0
 71
3
 72
15
 73
11
 74
0
 42
0.0000001
 43
0.0000001
 44
0.0000000001
 40
0.0
 40
0.0
 40
0.0
 40
0.0
 40
0.1148030761
 40
0.2360624545
 40
0.3619929654
 40
0.4908819436
 40
0.6209767185
 40
0.7504734869
 40
0.8775136624
 40
1.0
 40
1.0
 40
1.0
 40
1.0
 10
14.1847426786
 20
11.3042934973
 30
0.0
 10
14.185744788
 20
11.3033861868
 30
0.0
 10
14.1879175969
 20
11.3016422491
 30
0.0
 10
14.1914976524
 20
11.2993174836
 30
0.0
 10
14.1954258201
 20
11.2972597341
 30
0.0
 10
14.1996129069
 20
11.2955102187
 30
0.0
 10
14.2039726387
 20
11.2941077305
 30
0.0
 10
14.2084133345
 20
11.2930791871
 30
0.0
 10
14.2128375343
 20
11.2924518611
 30
0.0
 10
14.2157771551
 20
11.2923019307
 30
0.0
 10
14.2172194536
 20
11.2923019307
 30
0.0
  0
SPLINE
  5
29C
100
AcDbEntity
  8
0
100
AcDbSpline
 62
7
  6
CONTINUOUS
 70
0
 71
3
 72
15
 73
11
 74
0
 42
0.0000001
 43
0.0000001
 44
0.0000000001
 40
0.0
 40
0.0
 40
0.0
 40
0.0
 40
0.1556212668
 40
0.3031472968
 40
0.4410980883
 40
0.5690295824
 40
0.687267052
 40
0.7969834574
 40
0.9002646922
 40
1.0
 40
1.0
 40
1.0
 40
1.0
 10
16.0643905145
 20
11.2923019307
 30
0.0
 10
16.0656476095
 20
11.2923019307
 30
0.0
 10
16.0680982011
 20
11.2924112458
 30
0.0
 10
16.0716311921
 20
11.2929205051
 30
0.0
 10
16.0748694073
 20
11.2937694628
 30
0.0
 10
16.0777532804
 20
11.2949416713
 30
0.0
 10
16.0802330523
 20
11.2964212271
 30
0.0
 10
16.0822646507
 20
11.298187987
 30
0.0
 10
16.0838021599
 20
11.3002168031
 30
0.0
 10
16.0844755606
 20
11.3017314629
 30
0.0
 10
16.0847138692
 20
11.302501064
 30
0.0
  0
SPLINE
  5
29D
100
AcDbEntity
  8
0
100
AcDbSpline
 62
7
  6
CONTINUOUS
 70
0
 71
3
 72
15
 73
11
 74
0
 42
0.0000001
 43
0.0000001
 44
0.0000000001
 40
0.0
 40
0.0
 40
0.0
 40
0.0
 40
0.1148030761
 40
0.2360624545
 40
0.3619929654
 40
0.4908819436
 40
0.6209767185
 40
0.7504734869
 40
0.8775136624
 40
1.0
 40
1.0
 40
1.0
 40
1.0
 10
15.9117320424
 20
11.3042934973
 30
0.0
 10
15.9127341517
 20
11.3033861868
 30
0.0
 10
15.9149069607
 20
11.3016422491
 30
0.0
 10
15.9184870161
 20
11.2993174836
 30
0.0
 10
15.9224151838
 20
11.2972597341
 30
0.0
 10
15.9266022706
 20
11.2955102187
 30
0.0
 10
15.9309620024
 20
11.2941077305
 30
0.0
 10
15.9354026982
 20
11.2930791871
 30
0.0
 10
15.939826898
 20
11.2924518611
 30
0.0
 10
15.9427665188
 20
11.2923019307
 30
0.0
 10
15.9442088173
 20
11.2923019307
 30
0.0
  0
SPLINE
  5
29E
100
AcDbEntity
  8
0
100
AcDbSpline
 62
7
  6
CONTINUOUS
 70
0
 71
3
 72
15
 73
11
 74
0
 42
0.0000001
 43
0.0000001
 44
0.0000000001
 40
0.0
 40
0.0
 40
0.0
 40
0.0
 40
0.1556212668
 40
0.3031472968
 40
0.4410980883
 40
0.5690295824
 40
0.687267052
 40
0.7969834574
 40
0.9002646922
 40
1.0
 40
1.0
 40
1.0
 40
1.0
 10
15.7189926417
 20
11.2923019307
 30
0.0
 10
15.7202497367
 20
11.2923019307
 30
0.0
 10
15.7227003284
 20
11.2924112458
 30
0.0
 10
15.7262333194
 20
11.2929205051
 30
0.0
 10
15.7294715345
 20
11.2937694628
 30
0.0
 10
15.7323554077
 20
11.2949416713
 30
0.0
 10
15.7348351796
 20
11.2964212271
 30
0.0
 10
15.736866778
 20
11.298187987
 30
0.0
 10
15.7384042872
 20
11.3002168031
 30
0.0
 10
15.7390776878
 20
11.3017314629
 30
0.0
 10
15.7393159965
 20
11.302501064
 30
0.0
  0
SPLINE
  5
29F
100
AcDbEntity
  8
0
100
AcDbSpline
 62
7
  6
CONTINUOUS
 70
0
 71
3
 72
15
 73
11
 74
0
 42
0.0000001
 43
0.0000001
 44
0.0000000001
 40
0.0
 40
0.0
 40
0.0
 40
0.0
 40
0.1148030761
 40
0.2360624545
 40
0.3619929654
 40
0.4908819436
 40
0.6209767185
 40
0.7504734869
 40
0.8775136624
 40
1.0
 40
1.0
 40
1.0
 40
1.0
 10
15.5663341696
 20
11.3042934973
 30
0.0
 10
15.567336279
 20
11.3033861868
 30
0.0
 10
15.5695090879
 20
11.3016422491
 30
0.0
 10
15.5730891434
 20
11.2993174836
 30
0.0
 10
15.5770173111
 20
11.2972597341
 30
0.0
 10
15.5812043979
 20
11.2955102187
 30
0.0
 10
15.5855641297
 20
11.2941077305
 30
0.0
 10
15.5900048255
 20
11.2930791871
 30
0.0
 10
15.5944290253
 20
11.2924518611
 30
0.0
 10
15.5973686461
 20
11.2923019307
 30
0.0
 10
15.5988109446
 20
11.2923019307
 30
0.0
  0
SPLINE
  5
2A0
100
AcDbEntity
  8
0
100
AcDbSpline
 62
7
  6
CONTINUOUS
 70
0
 71
3
 72
15
 73
11
 74
0
 42
0.0000001
 43
0.0000001
 44
0.0000000001
 40
0.0
 40
0.0
 40
0.0
 40
0.0
 40
0.1556212668
 40
0.3031472968
 40
0.4410980883
 40
0.5690295824
 40
0.687267052
 40
0.7969834574
 40
0.9002646922
 40
1.0
 40
1.0
 40
1.0
 40
1.0
 10
15.373594769
 20
11.2923019307
 30
0.0
 10
15.374851864
 20
11.2923019307
 30
0.0
 10
15.3773024556
 20
11.2924112458
 30
0.0
 10
15.3808354466
 20
11.2929205051
 30
0.0
 10
15.3840736618
 20
11.2937694628
 30
0.0
 10
15.3869575349
 20
11.2949416713
 30
0.0
 10
15.3894373068
 20
11.2964212271
 30
0.0
 10
15.3914689052
 20
11.298187987
 30
0.0
 10
15.3930064144
 20
11.3002168031
 30
0.0
 10
15.3936798151
 20
11.3017314629
 30
0.0
 10
15.3939181237
 20
11.302501064
 30
0.0
  0
SPLINE
  5
2A1
100
AcDbEntity
  8
0
100
AcDbSpline
 62
7
  6
CONTINUOUS
 70
0
 71
3
 72
15
 73
11
 74
0
 42
0.0000001
 43
0.0000001
 44
0.0000000001
 40
0.0
 40
0.0
 40
0.0
 40
0.0
 40
0.1148030761
 40
0.2360624545
 40
0.3619929654
 40
0.4908819436
 40
0.6209767185
 40
0.7504734869
 40
0.8775136624
 40
1.0
 40
1.0
 40
1.0
 40
1.0
 10
15.2209362969
 20
11.3042934973
 30
0.0
 10
15.2219384062
 20
11.3033861868
 30
0.0
 10
15.2241112152
 20
11.3016422491
 30
0.0
 10
15.2276912706
 20
11.2993174836
 30
0.0
 10
15.2316194383
 20
11.2972597341
 30
0.0
 10
15.2358065251
 20
11.2955102187
 30
0.0
 10
15.2401662569
 20
11.2941077305
 30
0.0
 10
15.2446069527
 20
11.2930791871
 30
0.0
 10
15.2490311525
 20
11.2924518611
 30
0.0
 10
15.2519707733
 20
11.2923019307
 30
0.0
 10
15.2534130718
 20
11.2923019307
 30
0.0
  0
SPLINE
  5
2A2
100
AcDbEntity
  8
0
100
AcDbSpline
 62
7
  6
CONTINUOUS
 70
0
 71
3
 72
15
 73
11
 74
0
 42
0.0000001
 43
0.0000001
 44
0.0000000001
 40
0.0
 40
0.0
 40
0.0
 40
0.0
 40
0.1556212668
 40
0.3031472968
 40
0.4410980883
 40
0.5690295824
 40
0.687267052
 40
0.7969834574
 40
0.9002646922
 40
1.0
 40
1.0
 40
1.0
 40
1.0
 10
15.0281968962
 20
11.2923019307
 30
0.0
 10
15.0294539912
 20
11.2923019307
 30
0.0
 10
15.0319045829
 20
11.2924112458
 30
0.0
 10
15.0354375739
 20
11.2929205051
 30
0.0
 10
15.038675789
 20
11.2937694628
 30
0.0
 10
15.0415596622
 20
11.2949416713
 30
0.0
 10
15.0440394341
 20
11.2964212271
 30
0.0
 10
15.0460710325
 20
11.298187987
 30
0.0
 10
15.0476085417
 20
11.3002168031
 30
0.0
 10
15.0482819423
 20
11.3017314629
 30
0.0
 10
15.048520251
 20
11.302501064
 30
0.0
  0
SPLINE
  5
2A3
100
AcDbEntity
  8
0
100
AcDbSpline
 62
7
  6
CONTINUOUS
 70
0
 71
3
 72
15
 73
11
 74
0
 42
0.0000001
 43
0.0000001
 44
0.0000000001
 40
0.0
 40
0.0
 40
0.0
 40
0.0
 40
0.1148030761
 40
0.2360624545
 40
0.3619929654
 40
0.4908819436
 40
0.6209767185
 40
0.7504734869
 40
0.8775136624
 40
1.0
 40
1.0
 40
1.0
 40
1.0
 10
14.8755384241
 20
11.3042934973
 30
0.0
 10
14.8765405335
 20
11.3033861868
 30
0.0
 10
14.8787133424
 20
11.3016422491
 30
0.0
 10
14.8822933979
 20
11.2993174836
 30
0.0
 10
14.8862215656
 20
11.2972597341
 30
0.0
 10
14.8904086524
 20
11.2955102187
 30
0.0
 10
14.8947683842
 20
11.2941077305
 30
0.0
 10
14.89920908
 20
11.2930791871
 30
0.0
 10
14.9036332798
 20
11.2924518611
 30
0.0
 10
14.9065729006
 20
11.2923019307
 30
0.0
 10
14.9080151991
 20
11.2923019307
 30
0.0
  0
SPLINE
  5
2A4
100
AcDbEntity
  8
0
100
AcDbSpline
 62
7
  6
CONTINUOUS
 70
0
 71
3
 72
15
 73
11
 74
0
 42
0.0000001
 43
0.0000001
 44
0.0000000001
 40
0.0
 40
0.0
 40
0.0
 40
0.0
 40
0.1556212668
 40
0.3031472968
 40
0.4410980883
 40
0.5690295824
 40
0.687267052
 40
0.7969834574
 40
0.9002646922
 40
1.0
 40
1.0
 40
1.0
 40
1.0
 10
14.6827990235
 20
11.2923019307
 30
0.0
 10
14.6840561185
 20
11.2923019307
 30
0.0
 10
14.6865067101
 20
11.2924112458
 30
0.0
 10
14.6900397011
 20
11.2929205051
 30
0.0
 10
14.6932779163
 20
11.2937694628
 30
0.0
 10
14.6961617894
 20
11.2949416713
 30
0.0
 10
14.6986415613
 20
11.2964212271
 30
0.0
 10
14.7006731597
 20
11.298187987
 30
0.0
 10
14.7022106689
 20
11.3002168031
 30
0.0
 10
14.7028840696
 20
11.3017314629
 30
0.0
 10
14.7031223782
 20
11.302501064
 30
0.0
  0
SPLINE
  5
2A5
100
AcDbEntity
  8
0
100
AcDbSpline
 62
7
  6
CONTINUOUS
 70
0
 71
3
 72
15
 73
11
 74
0
 42
0.0000001
 43
0.0000001
 44
0.0000000001
 40
0.0
 40
0.0
 40
0.0
 40
0.0
 40
0.1148030761
 40
0.2360624545
 40
0.3619929654
 40
0.4908819436
 40
0.6209767185
 40
0.7504734869
 40
0.8775136624
 40
1.0
 40
1.0
 40
1.0
 40
1.0
 10
14.5301405514
 20
11.3042934973
 30
0.0
 10
14.5311426607
 20
11.3033861868
 30
0.0
 10
14.5333154697
 20
11.3016422491
 30
0.0
 10
14.5368955251
 20
11.2993174836
 30
0.0
 10
14.5408236928
 20
11.2972597341
 30
0.0
 10
14.5450107796
 20
11.2955102187
 30
0.0
 10
14.5493705114
 20
11.2941077305
 30
0.0
 10
14.5538112072
 20
11.2930791871
 30
0.0
 10
14.558235407
 20
11.2924518611
 30
0.0
 10
14.5611750278
 20
11.2923019307
 30
0.0
 10
14.5626173263
 20
11.2923019307
 30
0.0
  0
SPLINE
  5
2A6
100
AcDbEntity
  8
0
100
AcDbSpline
 62
7
  6
CONTINUOUS
 70
0
 71
3
 72
15
 73
11
 74
0
 42
0.0000001
 43
0.0000001
 44
0.0000000001
 40
0.0
 40
0.0
 40
0.0
 40
0.0
 40
0.1224874998
 40
0.2495298787
 40
0.3790272728
 40
0.5091195463
 40
0.6380032632
 40
0.7639311833
 40
0.8851940758
 40
1.0
 40
1.0
 40
1.0
 40
1.0
 10
14.1336738002
 20
11.3389226783
 30
0.0
 10
14.1346353417
 20
11.3389226783
 30
0.0
 10
14.1365951148
 20
11.3388227147
 30
0.0
 10
14.1395446123
 20
11.3384044959
 30
0.0
 10
14.1425050772
 20
11.3377187911
 30
0.0
 10
14.1454115072
 20
11.3367838065
 30
0.0
 10
14.148202837
 20
11.3356175273
 30
0.0
 10
14.1508215768
 20
11.3342456912
 30
0.0
 10
14.1532082973
 20
11.3326958229
 30
0.0
 10
14.1546568941
 20
11.3315331892
 30
0.0
 10
14.1553249835
 20
11.3309283006
 30
0.0
  0
SPLINE
  5
2A7
100
AcDbEntity
  8
0
100
AcDbSpline
 62
7
  6
CONTINUOUS
 70
0
 71
3
 72
15
 73
11
 74
0
 42
0.0000001
 43
0.0000001
 44
0.0000000001
 40
0.0
 40
0.0
 40
0.0
 40
0.0
 40
0.1224874998
 40
0.2495298787
 40
0.3790272728
 40
0.5091195463
 40
0.6380032632
 40
0.7639311833
 40
0.8851940758
 40
1.0
 40
1.0
 40
1.0
 40
1.0
 10
14.479071673
 20
11.3389226783
 30
0.0
 10
14.4800332144
 20
11.3389226783
 30
0.0
 10
14.4819929875
 20
11.3388227147
 30
0.0
 10
14.4849424851
 20
11.3384044959
 30
0.0
 10
14.4879029499
 20
11.3377187911
 30
0.0
 10
14.49080938
 20
11.3367838065
 30
0.0
 10
14.4936007098
 20
11.3356175273
 30
0.0
 10
14.4962194496
 20
11.3342456912
 30
0.0
 10
14.49860617
 20
11.3326958229
 30
0.0
 10
14.5000547669
 20
11.3315331892
 30
0.0
 10
14.5007228563
 20
11.3309283006
 30
0.0
  0
SPLINE
  5
2A8
100
AcDbEntity
  8
0
100
AcDbSpline
 62
7
  6
CONTINUOUS
 70
0
 71
3
 72
15
 73
11
 74
0
 42
0.0000001
 43
0.0000001
 44
0.0000000001
 40
0.0
 40
0.0
 40
0.0
 40
0.0
 40
0.1224874998
 40
0.2495298787
 40
0.3790272728
 40
0.5091195463
 40
0.6380032632
 40
0.7639311833
 40
0.8851940758
 40
1.0
 40
1.0
 40
1.0
 40
1.0
 10
14.8244695457
 20
11.3389226783
 30
0.0
 10
14.8254310872
 20
11.3389226783
 30
0.0
 10
14.8273908603
 20
11.3388227147
 30
0.0
 10
14.8303403578
 20
11.3384044959
 30
0.0
 10
14.8333008227
 20
11.3377187911
 30
0.0
 10
14.8362072527
 20
11.3367838065
 30
0.0
 10
14.8389985825
 20
11.3356175273
 30
0.0
 10
14.8416173223
 20
11.3342456912
 30
0.0
 10
14.8440040428
 20
11.3326958229
 30
0.0
 10
14.8454526396
 20
11.3315331892
 30
0.0
 10
14.846120729
 20
11.3309283006
 30
0.0
  0
SPLINE
  5
2A9
100
AcDbEntity
  8
0
100
AcDbSpline
 62
7
  6
CONTINUOUS
 70
0
 71
3
 72
15
 73
11
 74
0
 42
0.0000001
 43
0.0000001
 44
0.0000000001
 40
0.0
 40
0.0
 40
0.0
 40
0.0
 40
0.1224874998
 40
0.2495298787
 40
0.3790272728
 40
0.5091195463
 40
0.6380032632
 40
0.7639311833
 40
0.8851940758
 40
1.0
 40
1.0
 40
1.0
 40
1.0
 10
15.1698674185
 20
11.3389226783
 30
0.0
 10
15.1708289599
 20
11.3389226783
 30
0.0
 10
15.172788733
 20
11.3388227147
 30
0.0
 10
15.1757382306
 20
11.3384044959
 30
0.0
 10
15.1786986954
 20
11.3377187911
 30
0.0
 10
15.1816051255
 20
11.3367838065
 30
0.0
 10
15.1843964553
 20
11.3356175273
 30
0.0
 10
15.1870151951
 20
11.3342456912
 30
0.0
 10
15.1894019155
 20
11.3326958229
 30
0.0
 10
15.1908505124
 20
11.3315331892
 30
0.0
 10
15.1915186018
 20
11.3309283006
 30
0.0
  0
SPLINE
  5
2AA
100
AcDbEntity
  8
0
100
AcDbSpline
 62
7
  6
CONTINUOUS
 70
0
 71
3
 72
15
 73
11
 74
0
 42
0.0000001
 43
0.0000001
 44
0.0000000001
 40
0.0
 40
0.0
 40
0.0
 40
0.0
 40
0.1224874998
 40
0.2495298787
 40
0.3790272728
 40
0.5091195463
 40
0.6380032632
 40
0.7639311833
 40
0.8851940758
 40
1.0
 40
1.0
 40
1.0
 40
1.0
 10
15.5152652912
 20
11.3389226783
 30
0.0
 10
15.5162268327
 20
11.3389226783
 30
0.0
 10
15.5181866058
 20
11.3388227147
 30
0.0
 10
15.5211361033
 20
11.3384044959
 30
0.0
 10
15.5240965682
 20
11.3377187911
 30
0.0
 10
15.5270029982
 20
11.3367838065
 30
0.0
 10
15.529794328
 20
11.3356175273
 30
0.0
 10
15.5324130678
 20
11.3342456912
 30
0.0
 10
15.5347997883
 20
11.3326958229
 30
0.0
 10
15.5362483851
 20
11.3315331892
 30
0.0
 10
15.5369164746
 20
11.3309283006
 30
0.0
  0
SPLINE
  5
2AB
100
AcDbEntity
  8
0
100
AcDbSpline
 62
7
  6
CONTINUOUS
 70
0
 71
3
 72
15
 73
11
 74
0
 42
0.0000001
 43
0.0000001
 44
0.0000000001
 40
0.0
 40
0.0
 40
0.0
 40
0.0
 40
0.1224874998
 40
0.2495298787
 40
0.3790272728
 40
0.5091195463
 40
0.6380032632
 40
0.7639311833
 40
0.8851940758
 40
1.0
 40
1.0
 40
1.0
 40
1.0
 10
15.860663164
 20
11.3389226783
 30
0.0
 10
15.8616247054
 20
11.3389226783
 30
0.0
 10
15.8635844785
 20
11.3388227147
 30
0.0
 10
15.8665339761
 20
11.3384044959
 30
0.0
 10
15.869494441
 20
11.3377187911
 30
0.0
 10
15.872400871
 20
11.3367838065
 30
0.0
 10
15.8751922008
 20
11.3356175273
 30
0.0
 10
15.8778109406
 20
11.3342456912
 30
0.0
 10
15.880197661
 20
11.3326958229
 30
0.0
 10
15.8816462579
 20
11.3315331892
 30
0.0
 10
15.8823143473
 20
11.3309283006
 30
0.0
  0
ENDSEC
  0
SECTION
  2
OBJECTS
  0
DICTIONARY
  5
C
100
AcDbDictionary
280
0
281
1
  3
ACAD_GROUP
350
D
  3
ACAD_MLINESTYLE
350
17
  3
ACAD_LAYOUT
350
1A
  3
ACAD_PLOTSETTINGS
350
19
  3
ACAD_PLOTSTYLENAME
350
E
  0
DICTIONARY
  5
D
102
{ACAD_REACTORS
330
C
102
}
100
AcDbDictionary
280
0
281
1
  0
ACDBDICTIONARYWDFLT
  5
E
102
{ACAD_REACTORS
330
C
102
}
100
AcDbDictionary
281
1
  3
Normal
350
F
100
AcDbDictionaryWithDefault
340
F
  0
DICTIONARY
  5
17
102
{ACAD_REACTORS
330
C
102
}
100
AcDbDictionary
280
0
281
1
  3
Standard
350
18
  0
DICTIONARY
  5
19
102
{ACAD_REACTORS
330
C
102
}
100
AcDbDictionary
281
1
  0
DICTIONARY
  5
1A
102
{ACAD_REACTORS
330
C
102
}
100
AcDbDictionary
281
1
  3
Model
350
2AC
  3
Layout1
350
2AD
  0
ACDBPLACEHOLDER
  5
F
102
{ACAD_REACTORS
330
E
102
}
  0
MLINESTYLE
  5
18
102
{ACAD_REACTORS
330
17
102
}
100
AcDbMlineStyle
  2
STANDARD
 70
0
  3

 62
256
 51
90.0
 52
90.0
 71
2
 49
0.5
 62
256
  6
BYLAYER
 49
-0.5
 62
256
  6
BYLAYER
  0
LAYOUT
  5
2AC
102
{ACAD_REACTORS
330
1A
102
}
100
AcDbPlotSettings
  1

  2
none_device
  4
ANSI_C_(22.00_x_17.00_Inches)
  6

 40
0.0
 41
0.0
 42
0.0
 43
0.0
 44
558.8
 45
431.8
 46
0.0
 47
0.0
 48
0.0
 49
0.0
140
0.0
141
0.0
142
1.0
143
1.0
 70
1024
 72
0
 73
0
 74
0
  7

 75
0
147
1.0
148
0.0
149
0.0
100
AcDbLayout
  1
Model
 70
0
 71
0
 10
0.0
 20
0.0
 11
22.0
 21
17.0
 12
0.0
 22
0.0
 32
0.0
 14
0.0
 24
0.0
 34
0.0
 15
0.0
 25
0.0
 35
0.0
146
0.0
 13
0.0
 23
0.0
 33
0.0
 16
1.0
 26
0.0
 36
0.0
 17
0.0
 27
1.0
 37
0.0
 76
0
330
216
345
0
346
0
  0
LAYOUT
  5
2AD
102
{ACAD_REACTORS
330
1A
102
}
100
AcDbPlotSettings
  1

  2
none_device
  4
ANSI_C_(22.00_x_17.00_Inches)
  6

 40
0.0
 41
0.0
 42
0.0
 43
0.0
 44
558.8
 45
431.8
 46
0.0
 47
0.0
 48
0.0
 49
0.0
140
0.0
141
0.0
142
1.0
143
1.0
 70
0
 72
0
 73
0
 74
0
  7

 75
0
147
1.0
148
0.0
149
0.0
100
AcDbLayout
  1
Layout1
 70
0
 71
1
 10
0.0
 20
0.0
 11
22.0
 21
17.0
 12
0.0
 22
0.0
 32
0.0
 14
0.0
 24
0.0
 34
0.0
 15
0.0
 25
0.0
 35
0.0
146
0.0
 13
0.0
 23
0.0
 33
0.0
 16
1.0
 26
0.0
 36
0.0
 17
0.0
 27
1.0
 37
0.0
 76
0
330
217
345
0
346
0
  0
ENDSEC
  0
EOF