999
DXF file: _cgs_temp_output.dxf
999
Pro/ENGINEER 2016360 by Parametric Technology Corporation
  0
SECTION
  2
HEADER
  9
$ACADVER
  1
AC1021
  9
$DWGCODEPAGE
  3
ANSI_1252
  9
$EXTMAX
 10
22.0
 20
17.0
 30
0.0
  9
$EXTMIN
 10
0.0
 20
0.0
 30
0.0
  9
$LIMMIN
 10
0.0
 20
0.0
  9
$LIMMAX
 10
22.0
 20
17.0
  9
$VIEWCTR
 10
11.0
 20
8.5
  9
$VIEWSIZE
 40
17.0
  9
$CLAYER
  8
0
  9
$LTSCALE
 40
1.21
  9
$CELTYPE
  6
BYLAYER
  9
$DIMSCALE
 40
1.0
  9
$DIMASZ
 40
0.1875
  9
$DIMEXO
 40
0.0625
  9
$DIMDLI
 40
0.836
  9
$DIMEXE
 40
0.125
  9
$DIMCEN
 40
0.198
  9
$DIMLFAC
 40
1.0
  9
$DIMBLK
  1
_CLOSED
  9
$DIMALT
 70
0
  9
$DIMALTF
 40
25.4
  9
$DIMTXT
 40
0.15625
  9
$DIMTOL
 70
0
  9
$DIMLIM
 70
0
  9
$DIMTFAC
 40
1.0
  9
$DIMGAP
 40
0.09
  9
$DIMDSEP
 70
46
  9
$AUNITS
 70
0
  9
$PDMODE
 70
3
  9
$PDSIZE
 40
0.3125
  9
$HANDSEED
  5
2AE
  9
$TILEMODE
 70
1
  9
$MEASUREMENT
 70
0
  9
$INSUNITS
 70
1
  0
ENDSEC
  0
SECTION
  2
CLASSES
  0
CLASS
  1
ACDBDICTIONARYWDFLT
  2
AcDbDictionaryWithDefault
  3
AutoCAD 2000
 90
0
 91
1
280
0
281
0
  0
CLASS
  1
ACDBPLACEHOLDER
  2
AcDbPlaceHolder
  3
AutoCAD 2000
 90
0
 91
1
280
0
281
0
  0
CLASS
  1
LAYOUT
  2
AcDbLayout
  3
AutoCAD 2000
 90
0
 91
0
280
0
281
0
  0
ENDSEC
  0
SECTION
  2
TABLES
  0
TABLE
  2
VPORT
  5
8
100
AcDbSymbolTable
 70
2
  0
VPORT
  5
1F4
100
AcDbSymbolTableRecord
100
AcDbViewportTableRecord
  2
*ACTIVE
 70
0
 10
0.0
 20
0.0
 11
1.0
 21
1.0
 12
11.0
 22
8.5
 13
0.0
 23
0.0
 14
1.0
 24
1.0
 15
0.0
 25
0.0
 16
0.0
 26
0.0
 36
1.0
 17
0.0
 27
0.0
 37
0.0
 40
17.0
 41
1.2941176471
 42
50.0
 43
0.0
 44
0.0
 50
0.0
 51
0.0
 71
0
 72
100
 73
1
 74
1
 75
0
 76
0
 77
0
 78
0
  0
ENDTAB
  0
TABLE
  2
LTYPE
  5
5
100
AcDbSymbolTable
 70
6
  0
LTYPE
  5
14
100
AcDbSymbolTableRecord
100
AcDbLinetypeTableRecord
  2
BYBLOCK
 70
0
  3

 72
65
 73
0
 40
0.0
  0
LTYPE
  5
15
100
AcDbSymbolTableRecord
100
AcDbLinetypeTableRecord
  2
BYLAYER
 70
0
  3

 72
65
 73
0
 40
0.0
  0
LTYPE
  5
16
100
AcDbSymbolTableRecord
100
AcDbLinetypeTableRecord
  2
CONTINUOUS
 70
64
  3
Solid line
 72
65
 73
0
 40
0.0
  0
LTYPE
  5
1F5
100
AcDbSymbolTableRecord
100
AcDbLinetypeTableRecord
  2
CENTER
 70
64
  3
____ _ ____ _ ____ _ ____ _ ____ _ ____ _ ____
 72
65
 73
4
 40
0.6
 49
0.375
 74
0
 49
-0.075
 74
0
 49
0.075
 74
0
 49
-0.075
 74
0
  0
LTYPE
  5
1F6
100
AcDbSymbolTableRecord
100
AcDbLinetypeTableRecord
  2
HIDDEN
 70
64
  3
- - - - - - - - - - - - - - - - - - - -
 72
65
 73
2
 40
0.2
 49
0.1
 74
0
 49
-0.1
 74
0
  0
LTYPE
  5
1F7
100
AcDbSymbolTableRecord
100
AcDbLinetypeTableRecord
  2
PHANTOM
 70
64
  3
_____ _ _ _____ _ _ _____ _ _ _____
 72
65
 73
6
 40
0.8
 49
0.45
 74
0
 49
-0.05
 74
0
 49
0.1
 74
0
 49
-0.05
 74
0
 49
0.1
 74
0
 49
-0.05
 74
0
  0
LTYPE
  5
1F8
100
AcDbSymbolTableRecord
100
AcDbLinetypeTableRecord
  2
DOT
 70
64
  3
. . . . . . . . . . . . . . . . . . . .
 72
65
 73
2
 40
0.2
 49
0.1
 74
0
 49
-0.1
 74
0
  0
LTYPE
  5
1F9
100
AcDbSymbolTableRecord
100
AcDbLinetypeTableRecord
  2
DASHED
 70
64
  3
- - - - - - - - - - - - - - - - - - - -
 72
65
 73
2
 40
0.2
 49
0.1
 74
0
 49
-0.1
 74
0
  0
ENDTAB
  0
TABLE
  2
LAYER
  5
2
100
AcDbSymbolTable
 70
36
  0
LAYER
  5
10
100
AcDbSymbolTableRecord
100
AcDbLayerTableRecord
  2
0
 70
0
 62
7
  6
CONTINUOUS
370
-3
390
F
  0
LAYER
  5
1FA
100
AcDbSymbolTableRecord
100
AcDbLayerTableRecord
  2
DEFAULT_1
 70
0
 62
7
  6
CENTER
370
-3
390
F
  0
LAYER
  5
1FB
100
AcDbSymbolTableRecord
100
AcDbLayerTableRecord
  2
DEFAULT_2
 70
0
 62
8
  6
HIDDEN
370
-3
390
F
  0
LAYER
  5
1FC
100
AcDbSymbolTableRecord
100
AcDbLayerTableRecord
  2
DEFAULT_3
 70
0
 62
7
  6
PHANTOM
370
-3
390
F
  0
LAYER
  5
1FD
100
AcDbSymbolTableRecord
100
AcDbLayerTableRecord
  2
01_ALL_DTM_PLN
 70
0
 62
7
  6
CONTINUOUS
370
-3
390
F
  0
LAYER
  5
1FE
100
AcDbSymbolTableRecord
100
AcDbLayerTableRecord
  2
01__ASM_ALL_DTM_PLN
 70
0
 62
7
  6
CONTINUOUS
370
-3
390
F
  0
LAYER
  5
1FF
100
AcDbSymbolTableRecord
100
AcDbLayerTableRecord
  2
01__ASM_DEF_DTM_PLN
 70
0
 62
7
  6
CONTINUOUS
370
-3
390
F
  0
LAYER
  5
200
100
AcDbSymbolTableRecord
100
AcDbLayerTableRecord
  2
01___PRT_ALL_DTM_PLN
 70
0
 62
7
  6
CONTINUOUS
370
-3
390
F
  0
LAYER
  5
201
100
AcDbSymbolTableRecord
100
AcDbLayerTableRecord
  2
01___PRT_DEF_DTM_PLN
 70
0
 62
7
  6
CONTINUOUS
370
-3
390
F
  0
LAYER
  5
202
100
AcDbSymbolTableRecord
100
AcDbLayerTableRecord
  2
02_ALL_AXES
 70
0
 62
7
  6
CONTINUOUS
370
-3
390
F
  0
LAYER
  5
203
100
AcDbSymbolTableRecord
100
AcDbLayerTableRecord
  2
02__ASM_ALL_AXES
 70
0
 62
7
  6
CONTINUOUS
370
-3
390
F
  0
LAYER
  5
204
100
AcDbSymbolTableRecord
100
AcDbLayerTableRecord
  2
02___PRT_ALL_AXES
 70
0
 62
7
  6
CONTINUOUS
370
-3
390
F
  0
LAYER
  5
205
100
AcDbSymbolTableRecord
100
AcDbLayerTableRecord
  2
03_ALL_CURVES
 70
0
 62
7
  6
CONTINUOUS
370
-3
390
F
  0
LAYER
  5
206
100
AcDbSymbolTableRecord
100
AcDbLayerTableRecord
  2
03__ASM_ALL_CURVES
 70
0
 62
7
  6
CONTINUOUS
370
-3
390
F
  0
LAYER
  5
207
100
AcDbSymbolTableRecord
100
AcDbLayerTableRecord
  2
03___PRT_ALL_CURVES
 70
0
 62
7
  6
CONTINUOUS
370
-3
390
F
  0
LAYER
  5
208
100
AcDbSymbolTableRecord
100
AcDbLayerTableRecord
  2
04_ALL_DTM_PNT
 70
0
 62
7
  6
CONTINUOUS
370
-3
390
F
  0
LAYER
  5
209
100
AcDbSymbolTableRecord
100
AcDbLayerTableRecord
  2
04__ASM_ALL_DTM_PNT
 70
0
 62
7
  6
CONTINUOUS
370
-3
390
F
  0
LAYER
  5
20A
100
AcDbSymbolTableRecord
100
AcDbLayerTableRecord
  2
04___PRT_ALL_DTM_PNT
 70
0
 62
7
  6
CONTINUOUS
370
-3
390
F
  0
LAYER
  5
20B
100
AcDbSymbolTableRecord
100
AcDbLayerTableRecord
  2
05_ALL_DTM_CSYS
 70
0
 62
7
  6
CONTINUOUS
370
-3
390
F
  0
LAYER
  5
20C
100
AcDbSymbolTableRecord
100
AcDbLayerTableRecord
  2
05__ASM_ALL_DTM_CSYS
 70
0
 62
7
  6
CONTINUOUS
370
-3
390
F
  0
LAYER
  5
20D
100
AcDbSymbolTableRecord
100
AcDbLayerTableRecord
  2
05__ASM_DEF_DTM_CSYS
 70
0
 62
7
  6
CONTINUOUS
370
-3
390
F
  0
LAYER
  5
20E
100
AcDbSymbolTableRecord
100
AcDbLayerTableRecord
  2
05___PRT_ALL_DTM_CSYS
 70
0
 62
7
  6
CONTINUOUS
370
-3
390
F
  0
LAYER
  5
20F
100
AcDbSymbolTableRecord
100
AcDbLayerTableRecord
  2
05___PRT_DEF_DTM_CSYS
 70
0
 62
7
  6
CONTINUOUS
370
-3
390
F
  0
LAYER
  5
210
100
AcDbSymbolTableRecord
100
AcDbLayerTableRecord
  2
06_ALL_SURFS
 70
0
 62
7
  6
CONTINUOUS
370
-3
390
F
  0
LAYER
  5
211
100
AcDbSymbolTableRecord
100
AcDbLayerTableRecord
  2
06__ASM_ALL_SURFS
 70
0
 62
7
  6
CONTINUOUS
370
-3
390
F
  0
LAYER
  5
212
100
AcDbSymbolTableRecord
100
AcDbLayerTableRecord
  2
06___PRT_ALL_SURFS
 70
0
 62
7
  6
CONTINUOUS
370
-3
390
F
  0
LAYER
  5
213
100
AcDbSymbolTableRecord
100
AcDbLayerTableRecord
  2
07__ASM_ALL_SKELETONS
 70
0
 62
7
  6
CONTINUOUS
370
-3
390
F
  0
ENDTAB
  0
TABLE
  2
STYLE
  5
3
100
AcDbSymbolTable
 70
1
  0
STYLE
  5
11
100
AcDbSymbolTableRecord
100
AcDbTextStyleTableRecord
  2
STANDARD
 70
0
 40
0.0
 41
0.8
 50
0.0
 71
0
 42
0.2
  3
txt
  4

  0
STYLE
  5
214
100
AcDbSymbolTableRecord
100
AcDbTextStyleTableRecord
  2
TEXTSTYLE_1
 70
0
 40
0.0
 41
0.8
 50
0.0
 71
0
 42
0.2
  3
gdt
  4

  0
ENDTAB
  0
TABLE
  2
VIEW
  5
6
100
AcDbSymbolTable
 70
0
  0
ENDTAB
  0
TABLE
  2
UCS
  5
7
100
AcDbSymbolTable
 70
0
  0
ENDTAB
  0
TABLE
  2
APPID
  5
9
100
AcDbSymbolTable
 70
1
  0
APPID
  5
215
100
AcDbSymbolTableRecord
100
AcDbRegAppTableRecord
  2
ACAD
 70
0
  0
ENDTAB
  0
TABLE
  2
BLOCK_RECORD
  5
1
100
AcDbSymbolTable
 70
0
  0
BLOCK_RECORD
  5
216
100
AcDbSymbolTableRecord
100
AcDbBlockTableRecord
  2
*Model_Space
  0
BLOCK_RECORD
  5
217
100
AcDbSymbolTableRecord
100
AcDbBlockTableRecord
  2
*Paper_Space
  0
ENDTAB
  0
TABLE
  2
DIMSTYLE
  5
A
100
AcDbSymbolTable
 70
1
100
AcDbDimStyleTable
 71
0
  0
DIMSTYLE
105
218
100
AcDbSymbolTableRecord
100
AcDbDimStyleTableRecord
  2
STANDARD
 70
0
  3

  4

 40
1.0
 41
0.1875
 42
0.0625
 43
0.38
 44
0.125
 45
0.0
 46
0.0
 47
0.0001
 48
0.0001
140
0.15625
141
0.09
142
0.0
143
25.4
144
1.0
145
0.0
146
1.0
147
0.09
 71
0.0
 72
0.0
 73
1
 74
1
 75
0
 76
0
 77
0
 78
4
 79
1
170
0
171
3
172
0
173
0
174
0
175
0
176
0
177
0
178
0
270
2
179
4
271
4
272
4
273
2
274
2
275
0
280
0
281
0
282
0
283
1
284
4
285
0
286
0
287
3
288
0
340
11
278
46
  0
ENDTAB
  0
ENDSEC
  0
SECTION
  2
BLOCKS
  0
BLOCK
  5
20
100
AcDbEntity
  8
0
100
AcDbBlockBegin
  2
*Model_Space
 70
0
 10
0.0
 20
0.0
 30
0.0
  3
*Model_Space
  1

  0
ENDBLK
  5
21
100
AcDbEntity
  8
0
100
AcDbBlockEnd
  0
BLOCK
  5
1C
100
AcDbEntity
  8
0
100
AcDbBlockBegin
  2
*Paper_Space
 70
0
 10
0.0
 20
0.0
 30
0.0
  3
*Paper_Space
  1

  0
ENDBLK
  5
1D
100
AcDbEntity
  8
0
100
AcDbBlockEnd
  0
ENDSEC
  0
SECTION
  2
ENTITIES
  0
MTEXT
  5
219
100
AcDbEntity
  8
0
100
AcDbMText
 62
7
  6
CONTINUOUS
  7
STANDARD
 71
1
 72
1
 10
15.9560215477
 20
0.9479130325
 30
0.0
 11
1.0
 21
0.0
 31
0.0
 44
0.9
  1
SCALE: 1:1.000
 40
0.3
 41
3.36
  0
LINE
  5
21A
100
AcDbEntity
  8
0
100
AcDbLine
 62
7
  6
CONTINUOUS
 10
0.0
 20
0.0
 11
0.0
 21
17.0
  0
LINE
  5
21B
100
AcDbEntity
  8
0
100
AcDbLine
 62
7
  6
CONTINUOUS
 10
0.0
 20
0.0
 11
22.0
 21
0.0
  0
LINE
  5
21C
100
AcDbEntity
  8
0
100
AcDbLine
 62
7
  6
CONTINUOUS
 10
0.0
 20
17.0
 11
22.0
 21
17.0
  0
LINE
  5
21D
100
AcDbEntity
  8
0
100
AcDbLine
 62
7
  6
CONTINUOUS
 10
22.0
 20
0.0
 11
22.0
 21
17.0
  0
LINE
  5
21E
100
AcDbEntity
  8
0
100
AcDbLine
 62
7
  6
CONTINUOUS
 10
5.0053672762
 20
5.5901198968
 11
5.0053672762
 21
5.5251198968
  0
LINE
  5
21F
100
AcDbEntity
  8
0
100
AcDbLine
 62
7
  6
CONTINUOUS
 10
5.0810068781
 20
5.5122591349
 11
5.0987551404
 21
5.4694110395
  0
LINE
  5
220
100
AcDbEntity
  8
0
100
AcDbLine
 62
7
  6
CONTINUOUS
 10
5.2869794119
 20
5.4694110395
 11
5.3047276742
 21
5.5122591349
  0
LINE
  5
221
100
AcDbEntity
  8
0
100
AcDbLine
 62
7
  6
CONTINUOUS
 10
5.4560068781
 20
5.5122591349
 11
5.4737551404
 21
5.4694110395
  0
LINE
  5
222
100
AcDbEntity
  8
0
100
AcDbLine
 62
7
  6
CONTINUOUS
 10
5.6619794119
 20
5.4694110395
 11
5.6797276742
 21
5.5122591349
  0
LINE
  5
223
100
AcDbEntity
  8
0
100
AcDbLine
 62
7
  6
CONTINUOUS
 10
5.8310068781
 20
5.5122591349
 11
5.8487551404
 21
5.4694110395
  0
LINE
  5
224
100
AcDbEntity
  8
0
100
AcDbLine
 62
7
  6
CONTINUOUS
 10
6.0369794119
 20
5.4694110395
 11
6.0547276742
 21
5.5122591349
  0
LINE
  5
225
100
AcDbEntity
  8
0
100
AcDbLine
 62
7
  6
CONTINUOUS
 10
5.1276263758
 20
5.4501198968
 11
5.2581081766
 21
5.4501198968
  0
LINE
  5
226
100
AcDbEntity
  8
0
100
AcDbLine
 62
7
  6
CONTINUOUS
 10
5.5026263758
 20
5.4501198968
 11
5.6331081766
 21
5.4501198968
  0
LINE
  5
227
100
AcDbEntity
  8
0
100
AcDbLine
 62
7
  6
CONTINUOUS
 10
5.8776263758
 20
5.4501198968
 11
6.0081081766
 21
5.4501198968
  0
LINE
  5
228
100
AcDbEntity
  8
0
100
AcDbLine
 62
7
  6
CONTINUOUS
 10
6.2526263758
 20
5.4501198968
 11
6.3831081766
 21
5.4501198968
  0
LINE
  5
229
100
AcDbEntity
  8
0
100
AcDbLine
 62
7
  6
CONTINUOUS
 10
6.6276263758
 20
5.4501198968
 11
6.7581081766
 21
5.4501198968
  0
LINE
  5
22A
100
AcDbEntity
  8
0
100
AcDbLine
 62
7
  6
CONTINUOUS
 10
7.0026263758
 20
5.4501198968
 11
7.1331081766
 21
5.4501198968
  0
LINE
  5
22B
100
AcDbEntity
  8
0
100
AcDbLine
 62
7
  6
CONTINUOUS
 10
5.0053672762
 20
5.5251198968
 11
5.0617593879
 21
5.5251198968
  0
LINE
  5
22C
100
AcDbEntity
  8
0
100
AcDbLine
 62
7
  6
CONTINUOUS
 10
5.3239751645
 20
5.5251198968
 11
5.4367593879
 21
5.5251198968
  0
LINE
  5
22D
100
AcDbEntity
  8
0
100
AcDbLine
 62
7
  6
CONTINUOUS
 10
5.6989751645
 20
5.5251198968
 11
5.8117593879
 21
5.5251198968
  0
LINE
  5
22E
100
AcDbEntity
  8
0
100
AcDbLine
 62
7
  6
CONTINUOUS
 10
6.0739751645
 20
5.5251198968
 11
6.1867593879
 21
5.5251198968
  0
LINE
  5
22F
100
AcDbEntity
  8
0
100
AcDbLine
 62
7
  6
CONTINUOUS
 10
6.4489751645
 20
5.5251198968
 11
6.5617593879
 21
5.5251198968
  0
LINE
  5
230
100
AcDbEntity
  8
0
100
AcDbLine
 62
7
  6
CONTINUOUS
 10
6.8239751645
 20
5.5251198968
 11
6.9367593879
 21
5.5251198968
  0
LINE
  5
231
100
AcDbEntity
  8
0
100
AcDbLine
 62
7
  6
CONTINUOUS
 10
7.1989751645
 20
5.5251198968
 11
7.2553672762
 21
5.5251198968
  0
LINE
  5
232
100
AcDbEntity
  8
0
100
AcDbLine
 62
7
  6
CONTINUOUS
 10
7.2553672762
 20
5.5901198968
 11
5.0053672762
 21
5.5901198968
  0
LINE
  5
233
100
AcDbEntity
  8
0
100
AcDbLine
 62
7
  6
CONTINUOUS
 10
6.2060068781
 20
5.5122591349
 11
6.2237551404
 21
5.4694110395
  0
LINE
  5
234
100
AcDbEntity
  8
0
100
AcDbLine
 62
7
  6
CONTINUOUS
 10
6.4119794119
 20
5.4694110395
 11
6.4297276742
 21
5.5122591349
  0
LINE
  5
235
100
AcDbEntity
  8
0
100
AcDbLine
 62
7
  6
CONTINUOUS
 10
6.5810068781
 20
5.5122591349
 11
6.5987551404
 21
5.4694110395
  0
LINE
  5
236
100
AcDbEntity
  8
0
100
AcDbLine
 62
7
  6
CONTINUOUS
 10
6.7869794119
 20
5.4694110395
 11
6.8047276742
 21
5.5122591349
  0
LINE
  5
237
100
AcDbEntity
  8
0
100
AcDbLine
 62
7
  6
CONTINUOUS
 10
6.9560068781
 20
5.5122591349
 11
6.9737551404
 21
5.4694110395
  0
LINE
  5
238
100
AcDbEntity
  8
0
100
AcDbLine
 62
7
  6
CONTINUOUS
 10
7.1619794119
 20
5.4694110395
 11
7.1797276742
 21
5.5122591349
  0
LINE
  5
239
100
AcDbEntity
  8
0
100
AcDbLine
 62
7
  6
CONTINUOUS
 10
7.2553672762
 20
5.5251198968
 11
7.2553672762
 21
5.5901198968
  0
LINE
  5
23A
100
AcDbEntity
  8
0
100
AcDbLine
 62
7
  6
CONTINUOUS
 10
4.9458720839
 20
13.6000477814
 11
4.9458720839
 21
11.6000477814
  0
LINE
  5
23B
100
AcDbEntity
  8
0
100
AcDbLine
 62
7
  6
CONTINUOUS
 10
7.1958720839
 20
11.6000477814
 11
4.9458720839
 21
11.6000477814
  0
LINE
  5
23C
100
AcDbEntity
  8
0
100
AcDbLine
 62
7
  6
CONTINUOUS
 10
4.9458720839
 20
13.6000477814
 11
7.1958720839
 21
13.6000477814
  0
LINE
  5
23D
100
AcDbEntity
  8
0
100
AcDbLine
 62
7
  6
CONTINUOUS
 10
7.1958720839
 20
13.6000477814
 11
7.1958720839
 21
11.6000477814
  0
LINE
  5
23E
100
AcDbEntity
  8
0
100
AcDbLine
 62
7
  6
CONTINUOUS
 10
14.5603552569
 20
5.3906247044
 11
14.5603552569
 21
5.5306247044
  0
LINE
  5
23F
100
AcDbEntity
  8
0
100
AcDbLine
 62
7
  6
CONTINUOUS
 10
14.5603552569
 20
5.3906247044
 11
16.5603552569
 21
5.3906247044
  0
LINE
  5
240
100
AcDbEntity
  8
0
100
AcDbLine
 62
7
  6
CONTINUOUS
 10
16.5603552569
 20
5.4656247044
 11
14.5603552569
 21
5.4656247044
  0
LINE
  5
241
100
AcDbEntity
  8
0
100
AcDbLine
 62
7
  6
CONTINUOUS
 10
16.5603552569
 20
5.5306247044
 11
14.5603552569
 21
5.5306247044
  0
LINE
  5
242
100
AcDbEntity
  8
0
100
AcDbLine
 62
7
  6
CONTINUOUS
 10
16.5603552569
 20
5.3906247044
 11
16.5603552569
 21
5.5306247044
  0
LINE
  5
243
100
AcDbEntity
  8
0
100
AcDbLine
 62
7
  6
CONTINUOUS
 10
14.1829386661
 20
11.7709907811
 11
14.2027663875
 21
11.7305861331
  0
LINE
  5
244
100
AcDbEntity
  8
0
100
AcDbLine
 62
7
  6
CONTINUOUS
 10
14.2763581453
 20
11.7225917554
 11
14.3057758403
 21
11.6959569521
  0
LINE
  5
245
100
AcDbEntity
  8
0
100
AcDbLine
 62
7
  6
CONTINUOUS
 10
14.621756018
 20
11.7225917554
 11
14.6511737131
 21
11.6959569521
  0
LINE
  5
246
100
AcDbEntity
  8
0
100
AcDbLine
 62
7
  6
CONTINUOUS
 10
14.667071313
 20
13.3376446003
 11
14.1829386661
 21
11.7709907811
  0
LINE
  5
247
100
AcDbEntity
  8
0
100
AcDbLine
 62
7
  6
CONTINUOUS
 10
14.9671538908
 20
11.7225917554
 11
14.9965715858
 21
11.6959569521
  0
LINE
  5
248
100
AcDbEntity
  8
0
100
AcDbLine
 62
7
  6
CONTINUOUS
 10
14.479141875
 20
11.6959569521
 11
14.482418644
 21
11.7225917554
  0
LINE
  5
249
100
AcDbEntity
  8
0
100
AcDbLine
 62
7
  6
CONTINUOUS
 10
14.3382526153
 20
11.6839653855
 11
14.4584343124
 21
11.6839653855
  0
LINE
  5
24A
100
AcDbEntity
  8
0
100
AcDbLine
 62
7
  6
CONTINUOUS
 10
14.683650488
 20
11.6839653855
 11
14.8038321852
 21
11.6839653855
  0
LINE
  5
24B
100
AcDbEntity
  8
0
100
AcDbLine
 62
7
  6
CONTINUOUS
 10
15.0290483608
 20
11.6839653855
 11
15.1492300579
 21
11.6839653855
  0
LINE
  5
24C
100
AcDbEntity
  8
0
100
AcDbLine
 62
7
  6
CONTINUOUS
 10
15.3744462335
 20
11.6839653855
 11
15.4946279307
 21
11.6839653855
  0
LINE
  5
24D
100
AcDbEntity
  8
0
100
AcDbLine
 62
7
  6
CONTINUOUS
 10
15.7198441063
 20
11.6839653855
 11
15.8400258034
 21
11.6839653855
  0
LINE
  5
24E
100
AcDbEntity
  8
0
100
AcDbLine
 62
7
  6
CONTINUOUS
 10
16.065241979
 20
11.6839653855
 11
16.1854236762
 21
11.6839653855
  0
LINE
  5
24F
100
AcDbEntity
  8
0
100
AcDbLine
 62
7
  6
CONTINUOUS
 10
14.478754305
 20
11.6941655589
 11
14.479141875
 21
11.6959569521
  0
LINE
  5
250
100
AcDbEntity
  8
0
100
AcDbLine
 62
7
  6
CONTINUOUS
 10
14.482418644
 20
11.7225917554
 11
14.4826775597
 21
11.7237858521
  0
LINE
  5
251
100
AcDbEntity
  8
0
100
AcDbLine
 62
7
  6
CONTINUOUS
 10
14.4792977658
 20
11.6959087782
 11
14.4896977118
 21
11.7295630158
  0
LINE
  5
252
100
AcDbEntity
  8
0
100
AcDbLine
 62
7
  6
CONTINUOUS
 10
14.2027663875
 20
11.7305861331
 11
14.2547069619
 21
11.7305861331
  0
LINE
  5
253
100
AcDbEntity
  8
0
100
AcDbLine
 62
7
  6
CONTINUOUS
 10
14.4962236858
 20
11.7305861331
 11
14.6001048347
 21
11.7305861331
  0
LINE
  5
254
100
AcDbEntity
  8
0
100
AcDbLine
 62
7
  6
CONTINUOUS
 10
14.8416215585
 20
11.7305861331
 11
14.9455027074
 21
11.7305861331
  0
LINE
  5
255
100
AcDbEntity
  8
0
100
AcDbLine
 62
7
  6
CONTINUOUS
 10
15.1870194313
 20
11.7305861331
 11
15.2909005802
 21
11.7305861331
  0
LINE
  5
256
100
AcDbEntity
  8
0
100
AcDbLine
 62
7
  6
CONTINUOUS
 10
15.532417304
 20
11.7305861331
 11
15.6362984529
 21
11.7305861331
  0
LINE
  5
257
100
AcDbEntity
  8
0
100
AcDbLine
 62
7
  6
CONTINUOUS
 10
15.8778151768
 20
11.7305861331
 11
15.9816963257
 21
11.7305861331
  0
LINE
  5
258
100
AcDbEntity
  8
0
100
AcDbLine
 62
7
  6
CONTINUOUS
 10
16.2232130495
 20
11.7305861331
 11
16.275153624
 21
11.7305861331
  0
LINE
  5
259
100
AcDbEntity
  8
0
100
AcDbLine
 62
7
  6
CONTINUOUS
 10
16.2553259027
 20
11.7709907811
 11
14.1829386661
 21
11.7709907811
  0
LINE
  5
25A
100
AcDbEntity
  8
0
100
AcDbLine
 62
7
  6
CONTINUOUS
 10
15.3125517635
 20
11.7225917554
 11
15.3419694586
 21
11.6959569521
  0
LINE
  5
25B
100
AcDbEntity
  8
0
100
AcDbLine
 62
7
  6
CONTINUOUS
 10
14.8245397477
 20
11.6959569521
 11
14.8278165168
 21
11.7225917554
  0
LINE
  5
25C
100
AcDbEntity
  8
0
100
AcDbLine
 62
7
  6
CONTINUOUS
 10
14.8241521777
 20
11.6941655589
 11
14.8245397477
 21
11.6959569521
  0
LINE
  5
25D
100
AcDbEntity
  8
0
100
AcDbLine
 62
7
  6
CONTINUOUS
 10
14.8278165168
 20
11.7225917554
 11
14.8280754324
 21
11.7237858521
  0
LINE
  5
25E
100
AcDbEntity
  8
0
100
AcDbLine
 62
7
  6
CONTINUOUS
 10
15.6579496363
 20
11.7225917554
 11
15.6873673313
 21
11.6959569521
  0
LINE
  5
25F
100
AcDbEntity
  8
0
100
AcDbLine
 62
7
  6
CONTINUOUS
 10
14.8246956385
 20
11.6959087782
 11
14.8350955845
 21
11.7295630158
  0
LINE
  5
260
100
AcDbEntity
  8
0
100
AcDbLine
 62
7
  6
CONTINUOUS
 10
15.1699376205
 20
11.6959569521
 11
15.1732143895
 21
11.7225917554
  0
LINE
  5
261
100
AcDbEntity
  8
0
100
AcDbLine
 62
7
  6
CONTINUOUS
 10
16.003347509
 20
11.7225917554
 11
16.0327652041
 21
11.6959569521
  0
LINE
  5
262
100
AcDbEntity
  8
0
100
AcDbLine
 62
7
  6
CONTINUOUS
 10
15.1695500505
 20
11.6941655589
 11
15.1699376205
 21
11.6959569521
  0
LINE
  5
263
100
AcDbEntity
  8
0
100
AcDbLine
 62
7
  6
CONTINUOUS
 10
15.1732143895
 20
11.7225917554
 11
15.1734733052
 21
11.7237858521
  0
LINE
  5
264
100
AcDbEntity
  8
0
100
AcDbLine
 62
7
  6
CONTINUOUS
 10
15.1700935113
 20
11.6959087782
 11
15.1804934573
 21
11.7295630158
  0
LINE
  5
265
100
AcDbEntity
  8
0
100
AcDbLine
 62
7
  6
CONTINUOUS
 10
15.5153354932
 20
11.6959569521
 11
15.5186122623
 21
11.7225917554
  0
LINE
  5
266
100
AcDbEntity
  8
0
100
AcDbLine
 62
7
  6
CONTINUOUS
 10
15.5149479233
 20
11.6941655589
 11
15.5153354932
 21
11.6959569521
  0
LINE
  5
267
100
AcDbEntity
  8
0
100
AcDbLine
 62
7
  6
CONTINUOUS
 10
15.5186122623
 20
11.7225917554
 11
15.5188711779
 21
11.7237858521
  0
LINE
  5
268
100
AcDbEntity
  8
0
100
AcDbLine
 62
7
  6
CONTINUOUS
 10
15.515491384
 20
11.6959087782
 11
15.52589133
 21
11.7295630158
  0
LINE
  5
269
100
AcDbEntity
  8
0
100
AcDbLine
 62
7
  6
CONTINUOUS
 10
16.275153624
 20
11.7305861331
 11
16.2553259027
 21
11.7709907811
  0
LINE
  5
26A
100
AcDbEntity
  8
0
100
AcDbLine
 62
7
  6
CONTINUOUS
 10
15.860733366
 20
11.6959569521
 11
15.8640101351
 21
11.7225917554
  0
LINE
  5
26B
100
AcDbEntity
  8
0
100
AcDbLine
 62
7
  6
CONTINUOUS
 10
15.860345796
 20
11.6941655589
 11
15.860733366
 21
11.6959569521
  0
LINE
  5
26C
100
AcDbEntity
  8
0
100
AcDbLine
 62
7
  6
CONTINUOUS
 10
15.8640101351
 20
11.7225917554
 11
15.8642690507
 21
11.7237858521
  0
LINE
  5
26D
100
AcDbEntity
  8
0
100
AcDbLine
 62
7
  6
CONTINUOUS
 10
15.8608892568
 20
11.6959087782
 11
15.8712892028
 21
11.7295630158
  0
LINE
  5
26E
100
AcDbEntity
  8
0
100
AcDbLine
 62
7
  6
CONTINUOUS
 10
16.2061312387
 20
11.6959569521
 11
16.2094080078
 21
11.7225917554
  0
LINE
  5
26F
100
AcDbEntity
  8
0
100
AcDbLine
 62
7
  6
CONTINUOUS
 10
14.667071313
 20
13.3376446003
 11
16.7394585495
 21
13.3376446003
  0
LINE
  5
270
100
AcDbEntity
  8
0
100
AcDbLine
 62
7
  6
CONTINUOUS
 10
16.2057436688
 20
11.6941655589
 11
16.2061312387
 21
11.6959569521
  0
LINE
  5
271
100
AcDbEntity
  8
0
100
AcDbLine
 62
7
  6
CONTINUOUS
 10
16.2094080078
 20
11.7225917554
 11
16.2096669234
 21
11.7237858521
  0
LINE
  5
272
100
AcDbEntity
  8
0
100
AcDbLine
 62
7
  6
CONTINUOUS
 10
16.2062871295
 20
11.6959087782
 11
16.2166870755
 21
11.7295630158
  0
LINE
  5
273
100
AcDbEntity
  8
0
100
AcDbLine
 62
7
  6
CONTINUOUS
 10
16.7394585495
 20
13.3376446003
 11
16.2553259027
 21
11.7709907811
  0
LINE
  5
274
100
AcDbEntity
  8
0
100
AcDbLine
 62
7
  6
CONTINUOUS
 10
16.7592862708
 20
13.2972399524
 11
16.275153624
 21
11.7305861331
  0
LINE
  5
275
100
AcDbEntity
  8
0
100
AcDbLine
 62
7
  6
CONTINUOUS
 10
16.7592862708
 20
13.2972399524
 11
16.7394585495
 21
13.3376446003
  0
ARC
  5
276
100
AcDbEntity
  8
0
100
AcDbCircle
 62
7
  6
CONTINUOUS
 10
5.5026263758
 20
5.4813698968
 40
0.03125
100
AcDbArc
 50
202.5
 51
270.0
  0
ARC
  5
277
100
AcDbEntity
  8
0
100
AcDbCircle
 62
7
  6
CONTINUOUS
 10
5.6331081766
 20
5.4813698968
 40
0.03125
100
AcDbArc
 50
270.0
 51
337.5
  0
ARC
  5
278
100
AcDbEntity
  8
0
100
AcDbCircle
 62
7
  6
CONTINUOUS
 10
5.8776263758
 20
5.4813698968
 40
0.03125
100
AcDbArc
 50
202.5
 51
270.0
  0
ARC
  5
279
100
AcDbEntity
  8
0
100
AcDbCircle
 62
7
  6
CONTINUOUS
 10
6.0081081766
 20
5.4813698968
 40
0.03125
100
AcDbArc
 50
270.0
 51
337.5
  0
ARC
  5
27A
100
AcDbEntity
  8
0
100
AcDbCircle
 62
7
  6
CONTINUOUS
 10
6.2526263758
 20
5.4813698968
 40
0.03125
100
AcDbArc
 50
202.5
 51
270.0
  0
ARC
  5
27B
100
AcDbEntity
  8
0
100
AcDbCircle
 62
7
  6
CONTINUOUS
 10
6.3831081766
 20
5.4813698968
 40
0.03125
100
AcDbArc
 50
270.0
 51
337.5
  0
ARC
  5
27C
100
AcDbEntity
  8
0
100
AcDbCircle
 62
7
  6
CONTINUOUS
 10
5.2581081766
 20
5.4813698968
 40
0.03125
100
AcDbArc
 50
270.0
 51
337.5
  0
ARC
  5
27D
100
AcDbEntity
  8
0
100
AcDbCircle
 62
7
  6
CONTINUOUS
 10
5.1276263758
 20
5.4813698968
 40
0.03125
100
AcDbArc
 50
202.5
 51
270.0
  0
ARC
  5
27E
100
AcDbEntity
  8
0
100
AcDbCircle
 62
7
  6
CONTINUOUS
 10
7.1331081766
 20
5.4813698968
 40
0.03125
100
AcDbArc
 50
270.0
 51
337.5
  0
ARC
  5
27F
100
AcDbEntity
  8
0
100
AcDbCircle
 62
7
  6
CONTINUOUS
 10
7.0026263758
 20
5.4813698968
 40
0.03125
100
AcDbArc
 50
202.5
 51
270.0
  0
ARC
  5
280
100
AcDbEntity
  8
0
100
AcDbCircle
 62
7
  6
CONTINUOUS
 10
6.7581081766
 20
5.4813698968
 40
0.03125
100
AcDbArc
 50
270.0
 51
337.5
  0
ARC
  5
281
100
AcDbEntity
  8
0
100
AcDbCircle
 62
7
  6
CONTINUOUS
 10
6.6276263758
 20
5.4813698968
 40
0.03125
100
AcDbArc
 50
202.5
 51
270.0
  0
ARC
  5
282
100
AcDbEntity
  8
0
100
AcDbCircle
 62
7
  6
CONTINUOUS
 10
5.3239751645
 20
5.5042865634
 40
0.0208333333
100
AcDbArc
 50
90.0
 51
157.5
  0
ARC
  5
283
100
AcDbEntity
  8
0
100
AcDbCircle
 62
7
  6
CONTINUOUS
 10
5.0617593879
 20
5.5042865634
 40
0.0208333333
100
AcDbArc
 50
22.5
 51
90.0
  0
ARC
  5
284
100
AcDbEntity
  8
0
100
AcDbCircle
 62
7
  6
CONTINUOUS
 10
5.6989751645
 20
5.5042865634
 40
0.0208333333
100
AcDbArc
 50
90.0
 51
157.5
  0
ARC
  5
285
100
AcDbEntity
  8
0
100
AcDbCircle
 62
7
  6
CONTINUOUS
 10
5.4367593879
 20
5.5042865634
 40
0.0208333333
100
AcDbArc
 50
22.5
 51
90.0
  0
ARC
  5
286
100
AcDbEntity
  8
0
100
AcDbCircle
 62
7
  6
CONTINUOUS
 10
6.0739751645
 20
5.5042865634
 40
0.0208333333
100
AcDbArc
 50
90.0
 51
157.5
  0
ARC
  5
287
100
AcDbEntity
  8
0
100
AcDbCircle
 62
7
  6
CONTINUOUS
 10
5.8117593879
 20
5.5042865634
 40
0.0208333333
100
AcDbArc
 50
22.5
 51
90.0
  0
ARC
  5
288
100
AcDbEntity
  8
0
100
AcDbCircle
 62
7
  6
CONTINUOUS
 10
6.4489751645
 20
5.5042865634
 40
0.0208333333
100
AcDbArc
 50
90.0
 51
157.5
  0
ARC
  5
289
100
AcDbEntity
  8
0
100
AcDbCircle
 62
7
  6
CONTINUOUS
 10
6.1867593879
 20
5.5042865634
 40
0.0208333333
100
AcDbArc
 50
22.5
 51
90.0
  0
ARC
  5
28A
100
AcDbEntity
  8
0
100
AcDbCircle
 62
7
  6
CONTINUOUS
 10
6.8239751645
 20
5.5042865634
 40
0.0208333333
100
AcDbArc
 50
90.0
 51
157.5
  0
ARC
  5
28B
100
AcDbEntity
  8
0
100
AcDbCircle
 62
7
  6
CONTINUOUS
 10
6.5617593879
 20
5.5042865634
 40
0.0208333333
100
AcDbArc
 50
22.5
 51
90.0
  0
ARC
  5
28C
100
AcDbEntity
  8
0
100
AcDbCircle
 62
7
  6
CONTINUOUS
 10
7.1989751645
 20
5.5042865634
 40
0.0208333333
100
AcDbArc
 50
90.0
 51
157.5
  0
ARC
  5
28D
100
AcDbEntity
  8
0
100
AcDbCircle
 62
7
  6
CONTINUOUS
 10
6.9367593879
 20
5.5042865634
 40
0.0208333333
100
AcDbArc
 50
22.5
 51
90.0
  0
SPLINE
  5
28E
100
AcDbEntity
  8
0
100
AcDbSpline
 62
7
  6
CONTINUOUS
 70
0
 71
3
 72
11
 73
7
 74
0
 42
0.0000001
 43
0.0000001
 44
0.0000000001
 40
0.0
 40
0.0
 40
0.0
 40
0.0
 40
0.2342305718
 40
0.4753713985
 40
0.7291552572
 40
1.0
 40
1.0
 40
1.0
 40
1.0
 10
14.4826747811
 20
11.7237867113
 30
0.0
 10
14.4828184535
 20
11.7242506941
 30
0.0
 10
14.4832120466
 20
11.7251639129
 30
0.0
 10
14.4840909191
 20
11.7264063357
 30
0.0
 10
14.485244429
 20
11.7275098939
 30
0.0
 10
14.4861493075
 20
11.728123036
 30
0.0
 10
14.4866353747
 20
11.7284044295
 30
0.0
  0
SPLINE
  5
28F
100
AcDbEntity
  8
0
100
AcDbSpline
 62
7
  6
CONTINUOUS
 70
0
 71
3
 72
11
 73
7
 74
0
 42
0.0000001
 43
0.0000001
 44
0.0000000001
 40
0.0
 40
0.0
 40
0.0
 40
0.0
 40
0.221883822
 40
0.463237963
 40
0.7235708705
 40
1.0
 40
1.0
 40
1.0
 40
1.0
 10
14.4866353747
 20
11.7284044295
 30
0.0
 10
14.4872713426
 20
11.7287726034
 30
0.0
 10
14.4886715263
 20
11.7294192703
 30
0.0
 10
14.4909780224
 20
11.7300942424
 30
0.0
 10
14.4935289438
 20
11.7304995966
 30
0.0
 10
14.4953081866
 20
11.7305861331
 30
0.0
 10
14.4962236858
 20
11.7305861331
 30
0.0
  0
SPLINE
  5
290
100
AcDbEntity
  8
0
100
AcDbSpline
 62
7
  6
CONTINUOUS
 70
0
 71
3
 72
11
 73
7
 74
0
 42
0.0000001
 43
0.0000001
 44
0.0000000001
 40
0.0
 40
0.0
 40
0.0
 40
0.0
 40
0.2342305718
 40
0.4753713985
 40
0.7291552572
 40
1.0
 40
1.0
 40
1.0
 40
1.0
 10
14.8280726539
 20
11.7237867113
 30
0.0
 10
14.8282163263
 20
11.7242506941
 30
0.0
 10
14.8286099193
 20
11.7251639129
 30
0.0
 10
14.8294887919
 20
11.7264063357
 30
0.0
 10
14.8306423018
 20
11.7275098939
 30
0.0
 10
14.8315471802
 20
11.728123036
 30
0.0
 10
14.8320332474
 20
11.7284044295
 30
0.0
  0
SPLINE
  5
291
100
AcDbEntity
  8
0
100
AcDbSpline
 62
7
  6
CONTINUOUS
 70
0
 71
3
 72
11
 73
7
 74
0
 42
0.0000001
 43
0.0000001
 44
0.0000000001
 40
0.0
 40
0.0
 40
0.0
 40
0.0
 40
0.221883822
 40
0.463237963
 40
0.7235708705
 40
1.0
 40
1.0
 40
1.0
 40
1.0
 10
14.8320332474
 20
11.7284044295
 30
0.0
 10
14.8326692153
 20
11.7287726034
 30
0.0
 10
14.8340693991
 20
11.7294192703
 30
0.0
 10
14.8363758952
 20
11.7300942424
 30
0.0
 10
14.8389268166
 20
11.7304995966
 30
0.0
 10
14.8407060593
 20
11.7305861331
 30
0.0
 10
14.8416215585
 20
11.7305861331
 30
0.0
  0
SPLINE
  5
292
100
AcDbEntity
  8
0
100
AcDbSpline
 62
7
  6
CONTINUOUS
 70
0
 71
3
 72
11
 73
7
 74
0
 42
0.0000001
 43
0.0000001
 44
0.0000000001
 40
0.0
 40
0.0
 40
0.0
 40
0.0
 40
0.2342305718
 40
0.4753713985
 40
0.7291552572
 40
1.0
 40
1.0
 40
1.0
 40
1.0
 10
15.1734705266
 20
11.7237867113
 30
0.0
 10
15.173614199
 20
11.7242506941
 30
0.0
 10
15.1740077921
 20
11.7251639129
 30
0.0
 10
15.1748866646
 20
11.7264063357
 30
0.0
 10
15.1760401745
 20
11.7275098939
 30
0.0
 10
15.176945053
 20
11.728123036
 30
0.0
 10
15.1774311202
 20
11.7284044295
 30
0.0
  0
SPLINE
  5
293
100
AcDbEntity
  8
0
100
AcDbSpline
 62
7
  6
CONTINUOUS
 70
0
 71
3
 72
11
 73
7
 74
0
 42
0.0000001
 43
0.0000001
 44
0.0000000001
 40
0.0
 40
0.0
 40
0.0
 40
0.0
 40
0.221883822
 40
0.463237963
 40
0.7235708705
 40
1.0
 40
1.0
 40
1.0
 40
1.0
 10
15.1774311202
 20
11.7284044295
 30
0.0
 10
15.1780670881
 20
11.7287726034
 30
0.0
 10
15.1794672718
 20
11.7294192703
 30
0.0
 10
15.1817737679
 20
11.7300942424
 30
0.0
 10
15.1843246894
 20
11.7304995966
 30
0.0
 10
15.1861039321
 20
11.7305861331
 30
0.0
 10
15.1870194313
 20
11.7305861331
 30
0.0
  0
SPLINE
  5
294
100
AcDbEntity
  8
0
100
AcDbSpline
 62
7
  6
CONTINUOUS
 70
0
 71
3
 72
11
 73
7
 74
0
 42
0.0000001
 43
0.0000001
 44
0.0000000001
 40
0.0
 40
0.0
 40
0.0
 40
0.0
 40
0.2342305718
 40
0.4753713985
 40
0.7291552572
 40
1.0
 40
1.0
 40
1.0
 40
1.0
 10
15.5188683994
 20
11.7237867113
 30
0.0
 10
15.5190120718
 20
11.7242506941
 30
0.0
 10
15.5194056648
 20
11.7251639129
 30
0.0
 10
15.5202845374
 20
11.7264063357
 30
0.0
 10
15.5214380473
 20
11.7275098939
 30
0.0
 10
15.5223429257
 20
11.728123036
 30
0.0
 10
15.5228289929
 20
11.7284044295
 30
0.0
  0
SPLINE
  5
295
100
AcDbEntity
  8
0
100
AcDbSpline
 62
7
  6
CONTINUOUS
 70
0
 71
3
 72
11
 73
7
 74
0
 42
0.0000001
 43
0.0000001
 44
0.0000000001
 40
0.0
 40
0.0
 40
0.0
 40
0.0
 40
0.221883822
 40
0.463237963
 40
0.7235708705
 40
1.0
 40
1.0
 40
1.0
 40
1.0
 10
15.5228289929
 20
11.7284044295
 30
0.0
 10
15.5234649608
 20
11.7287726034
 30
0.0
 10
15.5248651446
 20
11.7294192703
 30
0.0
 10
15.5271716407
 20
11.7300942424
 30
0.0
 10
15.5297225621
 20
11.7304995966
 30
0.0
 10
15.5315018048
 20
11.7305861331
 30
0.0
 10
15.532417304
 20
11.7305861331
 30
0.0
  0
SPLINE
  5
296
100
AcDbEntity
  8
0
100
AcDbSpline
 62
7
  6
CONTINUOUS
 70
0
 71
3
 72
11
 73
7
 74
0
 42
0.0000001
 43
0.0000001
 44
0.0000000001
 40
0.0
 40
0.0
 40
0.0
 40
0.0
 40
0.2342305718
 40
0.4753713985
 40
0.7291552572
 40
1.0
 40
1.0
 40
1.0
 40
1.0
 10
15.8642662721
 20
11.7237867113
 30
0.0
 10
15.8644099445
 20
11.7242506941
 30
0.0
 10
15.8648035376
 20
11.7251639129
 30
0.0
 10
15.8656824101
 20
11.7264063357
 30
0.0
 10
15.86683592
 20
11.7275098939
 30
0.0
 10
15.8677407985
 20
11.728123036
 30
0.0
 10
15.8682268657
 20
11.7284044295
 30
0.0
  0
SPLINE
  5
297
100
AcDbEntity
  8
0
100
AcDbSpline
 62
7
  6
CONTINUOUS
 70
0
 71
3
 72
11
 73
7
 74
0
 42
0.0000001
 43
0.0000001
 44
0.0000000001
 40
0.0
 40
0.0
 40
0.0
 40
0.0
 40
0.221883822
 40
0.463237963
 40
0.7235708705
 40
1.0
 40
1.0
 40
1.0
 40
1.0
 10
15.8682268657
 20
11.7284044295
 30
0.0
 10
15.8688628336
 20
11.7287726034
 30
0.0
 10
15.8702630173
 20
11.7294192703
 30
0.0
 10
15.8725695134
 20
11.7300942424
 30
0.0
 10
15.8751204349
 20
11.7304995966
 30
0.0
 10
15.8768996776
 20
11.7305861331
 30
0.0
 10
15.8778151768
 20
11.7305861331
 30
0.0
  0
SPLINE
  5
298
100
AcDbEntity
  8
0
100
AcDbSpline
 62
7
  6
CONTINUOUS
 70
0
 71
3
 72
11
 73
7
 74
0
 42
0.0000001
 43
0.0000001
 44
0.0000000001
 40
0.0
 40
0.0
 40
0.0
 40
0.0
 40
0.2342305718
 40
0.4753713985
 40
0.7291552572
 40
1.0
 40
1.0
 40
1.0
 40
1.0
 10
16.2096641449
 20
11.7237867113
 30
0.0
 10
16.2098078173
 20
11.7242506941
 30
0.0
 10
16.2102014103
 20
11.7251639129
 30
0.0
 10
16.2110802829
 20
11.7264063357
 30
0.0
 10
16.2122337928
 20
11.7275098939
 30
0.0
 10
16.2131386712
 20
11.728123036
 30
0.0
 10
16.2136247384
 20
11.7284044295
 30
0.0
  0
SPLINE
  5
299
100
AcDbEntity
  8
0
100
AcDbSpline
 62
7
  6
CONTINUOUS
 70
0
 71
3
 72
11
 73
7
 74
0
 42
0.0000001
 43
0.0000001
 44
0.0000000001
 40
0.0
 40
0.0
 40
0.0
 40
0.0
 40
0.221883822
 40
0.463237963
 40
0.7235708705
 40
1.0
 40
1.0
 40
1.0
 40
1.0
 10
16.2136247384
 20
11.7284044295
 30
0.0
 10
16.2142607064
 20
11.7287726034
 30
0.0
 10
16.2156608901
 20
11.7294192703
 30
0.0
 10
16.2179673862
 20
11.7300942424
 30
0.0
 10
16.2205183076
 20
11.7304995966
 30
0.0
 10
16.2222975503
 20
11.7305861331
 30
0.0
 10
16.2232130495
 20
11.7305861331
 30
0.0
  0
SPLINE
  5
29A
100
AcDbEntity
  8
0
100
AcDbSpline
 62
7
  6
CONTINUOUS
 70
0
 71
3
 72
15
 73
11
 74
0
 42
0.0000001
 43
0.0000001
 44
0.0000000001
 40
0.0
 40
0.0
 40
0.0
 40
0.0
 40
0.1556208167
 40
0.3031460401
 40
0.4410966971
 40
0.5690290471
 40
0.6872674905
 40
0.7969845677
 40
0.9002655537
 40
1.0
 40
1.0
 40
1.0
 40
1.0
 10
14.4584343124
 20
11.6839653855
 30
0.0
 10
14.4596914038
 20
11.6839653855
 30
0.0
 10
14.4621419855
 20
11.6840746959
 30
0.0
 10
14.4656749663
 20
11.6845839516
 30
0.0
 10
14.4689131793
 20
11.6854329141
 30
0.0
 10
14.471797069
 20
11.6866051181
 30
0.0
 10
14.4742768575
 20
11.6880846889
 30
0.0
 10
14.4763084547
 20
11.6898514652
 30
0.0
 10
14.4778459778
 20
11.6918802663
 30
0.0
 10
14.4785193693
 20
11.693394922
 30
0.0
 10
14.4787576726
 20
11.6941645176
 30
0.0
  0
SPLINE
  5
29B
100
AcDbEntity
  8
0
100
AcDbSpline
 62
7
  6
CONTINUOUS
 70
0
 71
3
 72
15
 73
11
 74
0
 42
0.0000001
 43
0.0000001
 44
0.0000000001
 40
0.0
 40
0.0
 40
0.0
 40
0.0
 40
0.1148026467
 40
0.2360614026
 40
0.3619920843
 40
0.4908820031
 40
0.620977994
 40
0.7504751256
 40
0.8775143395
 40
1.0
 40
1.0
 40
1.0
 40
1.0
 10
14.3057758403
 20
11.6959569521
 30
0.0
 10
14.3067779459
 20
11.695049645
 30
0.0
 10
14.3089507415
 20
11.6933057104
 30
0.0
 10
14.3125307898
 20
11.6909809523
 30
0.0
 10
14.3164589625
 20
11.6889232006
 30
0.0
 10
14.3206460724
 20
11.6871736683
 30
0.0
 10
14.3250058363
 20
11.6857711822
 30
0.0
 10
14.3294465378
 20
11.684742633
 30
0.0
 10
14.3338707228
 20
11.6841153057
 30
0.0
 10
14.3368103247
 20
11.6839653855
 30
0.0
 10
14.3382526153
 20
11.6839653855
 30
0.0
  0
SPLINE
  5
29C
100
AcDbEntity
  8
0
100
AcDbSpline
 62
7
  6
CONTINUOUS
 70
0
 71
3
 72
15
 73
11
 74
0
 42
0.0000001
 43
0.0000001
 44
0.0000000001
 40
0.0
 40
0.0
 40
0.0
 40
0.0
 40
0.1556208167
 40
0.3031460401
 40
0.4410966971
 40
0.5690290471
 40
0.6872674905
 40
0.7969845677
 40
0.9002655537
 40
1.0
 40
1.0
 40
1.0
 40
1.0
 10
16.1854236762
 20
11.6839653855
 30
0.0
 10
16.1866807676
 20
11.6839653855
 30
0.0
 10
16.1891313493
 20
11.6840746959
 30
0.0
 10
16.1926643301
 20
11.6845839516
 30
0.0
 10
16.195902543
 20
11.6854329141
 30
0.0
 10
16.1987864328
 20
11.6866051181
 30
0.0
 10
16.2012662213
 20
11.6880846889
 30
0.0
 10
16.2032978184
 20
11.6898514652
 30
0.0
 10
16.2048353415
 20
11.6918802663
 30
0.0
 10
16.205508733
 20
11.693394922
 30
0.0
 10
16.2057470363
 20
11.6941645176
 30
0.0
  0
SPLINE
  5
29D
100
AcDbEntity
  8
0
100
AcDbSpline
 62
7
  6
CONTINUOUS
 70
0
 71
3
 72
15
 73
11
 74
0
 42
0.0000001
 43
0.0000001
 44
0.0000000001
 40
0.0
 40
0.0
 40
0.0
 40
0.0
 40
0.1148026467
 40
0.2360614026
 40
0.3619920843
 40
0.4908820031
 40
0.620977994
 40
0.7504751256
 40
0.8775143395
 40
1.0
 40
1.0
 40
1.0
 40
1.0
 10
16.0327652041
 20
11.6959569521
 30
0.0
 10
16.0337673097
 20
11.695049645
 30
0.0
 10
16.0359401052
 20
11.6933057104
 30
0.0
 10
16.0395201536
 20
11.6909809523
 30
0.0
 10
16.0434483263
 20
11.6889232006
 30
0.0
 10
16.0476354361
 20
11.6871736683
 30
0.0
 10
16.0519952
 20
11.6857711822
 30
0.0
 10
16.0564359015
 20
11.684742633
 30
0.0
 10
16.0608600865
 20
11.6841153057
 30
0.0
 10
16.0637996885
 20
11.6839653855
 30
0.0
 10
16.065241979
 20
11.6839653855
 30
0.0
  0
SPLINE
  5
29E
100
AcDbEntity
  8
0
100
AcDbSpline
 62
7
  6
CONTINUOUS
 70
0
 71
3
 72
15
 73
11
 74
0
 42
0.0000001
 43
0.0000001
 44
0.0000000001
 40
0.0
 40
0.0
 40
0.0
 40
0.0
 40
0.1556208167
 40
0.3031460401
 40
0.4410966971
 40
0.5690290471
 40
0.6872674905
 40
0.7969845677
 40
0.9002655537
 40
1.0
 40
1.0
 40
1.0
 40
1.0
 10
15.8400258034
 20
11.6839653855
 30
0.0
 10
15.8412828949
 20
11.6839653855
 30
0.0
 10
15.8437334765
 20
11.6840746959
 30
0.0
 10
15.8472664573
 20
11.6845839516
 30
0.0
 10
15.8505046703
 20
11.6854329141
 30
0.0
 10
15.85338856
 20
11.6866051181
 30
0.0
 10
15.8558683485
 20
11.6880846889
 30
0.0
 10
15.8578999457
 20
11.6898514652
 30
0.0
 10
15.8594374688
 20
11.6918802663
 30
0.0
 10
15.8601108603
 20
11.693394922
 30
0.0
 10
15.8603491636
 20
11.6941645176
 30
0.0
  0
SPLINE
  5
29F
100
AcDbEntity
  8
0
100
AcDbSpline
 62
7
  6
CONTINUOUS
 70
0
 71
3
 72
15
 73
11
 74
0
 42
0.0000001
 43
0.0000001
 44
0.0000000001
 40
0.0
 40
0.0
 40
0.0
 40
0.0
 40
0.1148026467
 40
0.2360614026
 40
0.3619920843
 40
0.4908820031
 40
0.620977994
 40
0.7504751256
 40
0.8775143395
 40
1.0
 40
1.0
 40
1.0
 40
1.0
 10
15.6873673313
 20
11.6959569521
 30
0.0
 10
15.6883694369
 20
11.695049645
 30
0.0
 10
15.6905422325
 20
11.6933057104
 30
0.0
 10
15.6941222808
 20
11.6909809523
 30
0.0
 10
15.6980504535
 20
11.6889232006
 30
0.0
 10
15.7022375634
 20
11.6871736683
 30
0.0
 10
15.7065973273
 20
11.6857711822
 30
0.0
 10
15.7110380288
 20
11.684742633
 30
0.0
 10
15.7154622138
 20
11.6841153057
 30
0.0
 10
15.7184018157
 20
11.6839653855
 30
0.0
 10
15.7198441063
 20
11.6839653855
 30
0.0
  0
SPLINE
  5
2A0
100
AcDbEntity
  8
0
100
AcDbSpline
 62
7
  6
CONTINUOUS
 70
0
 71
3
 72
15
 73
11
 74
0
 42
0.0000001
 43
0.0000001
 44
0.0000000001
 40
0.0
 40
0.0
 40
0.0
 40
0.0
 40
0.1556208167
 40
0.3031460401
 40
0.4410966971
 40
0.5690290471
 40
0.6872674905
 40
0.7969845677
 40
0.9002655537
 40
1.0
 40
1.0
 40
1.0
 40
1.0
 10
15.4946279307
 20
11.6839653855
 30
0.0
 10
15.4958850221
 20
11.6839653855
 30
0.0
 10
15.4983356038
 20
11.6840746959
 30
0.0
 10
15.5018685846
 20
11.6845839516
 30
0.0
 10
15.5051067975
 20
11.6854329141
 30
0.0
 10
15.5079906873
 20
11.6866051181
 30
0.0
 10
15.5104704758
 20
11.6880846889
 30
0.0
 10
15.5125020729
 20
11.6898514652
 30
0.0
 10
15.514039596
 20
11.6918802663
 30
0.0
 10
15.5147129875
 20
11.693394922
 30
0.0
 10
15.5149512908
 20
11.6941645176
 30
0.0
  0
SPLINE
  5
2A1
100
AcDbEntity
  8
0
100
AcDbSpline
 62
7
  6
CONTINUOUS
 70
0
 71
3
 72
15
 73
11
 74
0
 42
0.0000001
 43
0.0000001
 44
0.0000000001
 40
0.0
 40
0.0
 40
0.0
 40
0.0
 40
0.1148026467
 40
0.2360614026
 40
0.3619920843
 40
0.4908820031
 40
0.620977994
 40
0.7504751256
 40
0.8775143395
 40
1.0
 40
1.0
 40
1.0
 40
1.0
 10
15.3419694586
 20
11.6959569521
 30
0.0
 10
15.3429715642
 20
11.695049645
 30
0.0
 10
15.3451443597
 20
11.6933057104
 30
0.0
 10
15.3487244081
 20
11.6909809523
 30
0.0
 10
15.3526525808
 20
11.6889232006
 30
0.0
 10
15.3568396906
 20
11.6871736683
 30
0.0
 10
15.3611994545
 20
11.6857711822
 30
0.0
 10
15.365640156
 20
11.684742633
 30
0.0
 10
15.370064341
 20
11.6841153057
 30
0.0
 10
15.373003943
 20
11.6839653855
 30
0.0
 10
15.3744462335
 20
11.6839653855
 30
0.0
  0
SPLINE
  5
2A2
100
AcDbEntity
  8
0
100
AcDbSpline
 62
7
  6
CONTINUOUS
 70
0
 71
3
 72
15
 73
11
 74
0
 42
0.0000001
 43
0.0000001
 44
0.0000000001
 40
0.0
 40
0.0
 40
0.0
 40
0.0
 40
0.1556208167
 40
0.3031460401
 40
0.4410966971
 40
0.5690290471
 40
0.6872674905
 40
0.7969845677
 40
0.9002655537
 40
1.0
 40
1.0
 40
1.0
 40
1.0
 10
15.1492300579
 20
11.6839653855
 30
0.0
 10
15.1504871494
 20
11.6839653855
 30
0.0
 10
15.152937731
 20
11.6840746959
 30
0.0
 10
15.1564707118
 20
11.6845839516
 30
0.0
 10
15.1597089248
 20
11.6854329141
 30
0.0
 10
15.1625928145
 20
11.6866051181
 30
0.0
 10
15.165072603
 20
11.6880846889
 30
0.0
 10
15.1671042002
 20
11.6898514652
 30
0.0
 10
15.1686417233
 20
11.6918802663
 30
0.0
 10
15.1693151148
 20
11.693394922
 30
0.0
 10
15.1695534181
 20
11.6941645176
 30
0.0
  0
SPLINE
  5
2A3
100
AcDbEntity
  8
0
100
AcDbSpline
 62
7
  6
CONTINUOUS
 70
0
 71
3
 72
15
 73
11
 74
0
 42
0.0000001
 43
0.0000001
 44
0.0000000001
 40
0.0
 40
0.0
 40
0.0
 40
0.0
 40
0.1148026467
 40
0.2360614026
 40
0.3619920843
 40
0.4908820031
 40
0.620977994
 40
0.7504751256
 40
0.8775143395
 40
1.0
 40
1.0
 40
1.0
 40
1.0
 10
14.9965715858
 20
11.6959569521
 30
0.0
 10
14.9975736914
 20
11.695049645
 30
0.0
 10
14.999746487
 20
11.6933057104
 30
0.0
 10
15.0033265353
 20
11.6909809523
 30
0.0
 10
15.007254708
 20
11.6889232006
 30
0.0
 10
15.0114418179
 20
11.6871736683
 30
0.0
 10
15.0158015818
 20
11.6857711822
 30
0.0
 10
15.0202422833
 20
11.684742633
 30
0.0
 10
15.0246664683
 20
11.6841153057
 30
0.0
 10
15.0276060702
 20
11.6839653855
 30
0.0
 10
15.0290483608
 20
11.6839653855
 30
0.0
  0
SPLINE
  5
2A4
100
AcDbEntity
  8
0
100
AcDbSpline
 62
7
  6
CONTINUOUS
 70
0
 71
3
 72
15
 73
11
 74
0
 42
0.0000001
 43
0.0000001
 44
0.0000000001
 40
0.0
 40
0.0
 40
0.0
 40
0.0
 40
0.1556208167
 40
0.3031460401
 40
0.4410966971
 40
0.5690290471
 40
0.6872674905
 40
0.7969845677
 40
0.9002655537
 40
1.0
 40
1.0
 40
1.0
 40
1.0
 10
14.8038321852
 20
11.6839653855
 30
0.0
 10
14.8050892766
 20
11.6839653855
 30
0.0
 10
14.8075398583
 20
11.6840746959
 30
0.0
 10
14.8110728391
 20
11.6845839516
 30
0.0
 10
14.814311052
 20
11.6854329141
 30
0.0
 10
14.8171949418
 20
11.6866051181
 30
0.0
 10
14.8196747303
 20
11.6880846889
 30
0.0
 10
14.8217063274
 20
11.6898514652
 30
0.0
 10
14.8232438505
 20
11.6918802663
 30
0.0
 10
14.823917242
 20
11.693394922
 30
0.0
 10
14.8241555453
 20
11.6941645176
 30
0.0
  0
SPLINE
  5
2A5
100
AcDbEntity
  8
0
100
AcDbSpline
 62
7
  6
CONTINUOUS
 70
0
 71
3
 72
15
 73
11
 74
0
 42
0.0000001
 43
0.0000001
 44
0.0000000001
 40
0.0
 40
0.0
 40
0.0
 40
0.0
 40
0.1148026467
 40
0.2360614026
 40
0.3619920843
 40
0.4908820031
 40
0.620977994
 40
0.7504751256
 40
0.8775143395
 40
1.0
 40
1.0
 40
1.0
 40
1.0
 10
14.6511737131
 20
11.6959569521
 30
0.0
 10
14.6521758187
 20
11.695049645
 30
0.0
 10
14.6543486142
 20
11.6933057104
 30
0.0
 10
14.6579286626
 20
11.6909809523
 30
0.0
 10
14.6618568353
 20
11.6889232006
 30
0.0
 10
14.6660439451
 20
11.6871736683
 30
0.0
 10
14.670403709
 20
11.6857711822
 30
0.0
 10
14.6748444105
 20
11.684742633
 30
0.0
 10
14.6792685955
 20
11.6841153057
 30
0.0
 10
14.6822081975
 20
11.6839653855
 30
0.0
 10
14.683650488
 20
11.6839653855
 30
0.0
  0
SPLINE
  5
2A6
100
AcDbEntity
  8
0
100
AcDbSpline
 62
7
  6
CONTINUOUS
 70
0
 71
3
 72
15
 73
11
 74
0
 42
0.0000001
 43
0.0000001
 44
0.0000000001
 40
0.0
 40
0.0
 40
0.0
 40
0.0
 40
0.1224862921
 40
0.2495269169
 40
0.3790249215
 40
0.5091196613
 40
0.6380058306
 40
0.7639343526
 40
0.8851953832
 40
1.0
 40
1.0
 40
1.0
 40
1.0
 10
14.2547069619
 20
11.7305861331
 30
0.0
 10
14.2556684939
 20
11.7305861331
 30
0.0
 10
14.2576282443
 20
11.7304861814
 30
0.0
 10
14.2605777237
 20
11.7300679612
 30
0.0
 10
14.2635381974
 20
11.7293822508
 30
0.0
 10
14.2664446734
 20
11.7284472657
 30
0.0
 10
14.2692360378
 20
11.7272809556
 30
0.0
 10
14.2718547872
 20
11.725909119
 30
0.0
 10
14.274241494
 20
11.7243592652
 30
0.0
 10
14.2756900634
 20
11.7231966372
 30
0.0
 10
14.2763581453
 20
11.7225917554
 30
0.0
  0
SPLINE
  5
2A7
100
AcDbEntity
  8
0
100
AcDbSpline
 62
7
  6
CONTINUOUS
 70
0
 71
3
 72
15
 73
11
 74
0
 42
0.0000001
 43
0.0000001
 44
0.0000000001
 40
0.0
 40
0.0
 40
0.0
 40
0.0
 40
0.1224862921
 40
0.2495269169
 40
0.3790249215
 40
0.5091196613
 40
0.6380058306
 40
0.7639343526
 40
0.8851953832
 40
1.0
 40
1.0
 40
1.0
 40
1.0
 10
14.6001048347
 20
11.7305861331
 30
0.0
 10
14.6010663667
 20
11.7305861331
 30
0.0
 10
14.603026117
 20
11.7304861814
 30
0.0
 10
14.6059755965
 20
11.7300679612
 30
0.0
 10
14.6089360702
 20
11.7293822508
 30
0.0
 10
14.6118425461
 20
11.7284472657
 30
0.0
 10
14.6146339105
 20
11.7272809556
 30
0.0
 10
14.61725266
 20
11.725909119
 30
0.0
 10
14.6196393668
 20
11.7243592652
 30
0.0
 10
14.6210879362
 20
11.7231966372
 30
0.0
 10
14.621756018
 20
11.7225917554
 30
0.0
  0
SPLINE
  5
2A8
100
AcDbEntity
  8
0
100
AcDbSpline
 62
7
  6
CONTINUOUS
 70
0
 71
3
 72
15
 73
11
 74
0
 42
0.0000001
 43
0.0000001
 44
0.0000000001
 40
0.0
 40
0.0
 40
0.0
 40
0.0
 40
0.1224862921
 40
0.2495269169
 40
0.3790249215
 40
0.5091196613
 40
0.6380058306
 40
0.7639343526
 40
0.8851953832
 40
1.0
 40
1.0
 40
1.0
 40
1.0
 10
14.9455027074
 20
11.7305861331
 30
0.0
 10
14.9464642394
 20
11.7305861331
 30
0.0
 10
14.9484239898
 20
11.7304861814
 30
0.0
 10
14.9513734692
 20
11.7300679612
 30
0.0
 10
14.9543339429
 20
11.7293822508
 30
0.0
 10
14.9572404189
 20
11.7284472657
 30
0.0
 10
14.9600317833
 20
11.7272809556
 30
0.0
 10
14.9626505327
 20
11.725909119
 30
0.0
 10
14.9650372395
 20
11.7243592652
 30
0.0
 10
14.9664858089
 20
11.7231966372
 30
0.0
 10
14.9671538908
 20
11.7225917554
 30
0.0
  0
SPLINE
  5
2A9
100
AcDbEntity
  8
0
100
AcDbSpline
 62
7
  6
CONTINUOUS
 70
0
 71
3
 72
15
 73
11
 74
0
 42
0.0000001
 43
0.0000001
 44
0.0000000001
 40
0.0
 40
0.0
 40
0.0
 40
0.0
 40
0.1224862921
 40
0.2495269169
 40
0.3790249215
 40
0.5091196613
 40
0.6380058306
 40
0.7639343526
 40
0.8851953832
 40
1.0
 40
1.0
 40
1.0
 40
1.0
 10
15.2909005802
 20
11.7305861331
 30
0.0
 10
15.2918621122
 20
11.7305861331
 30
0.0
 10
15.2938218625
 20
11.7304861814
 30
0.0
 10
15.296771342
 20
11.7300679612
 30
0.0
 10
15.2997318157
 20
11.7293822508
 30
0.0
 10
15.3026382917
 20
11.7284472657
 30
0.0
 10
15.305429656
 20
11.7272809556
 30
0.0
 10
15.3080484055
 20
11.725909119
 30
0.0
 10
15.3104351123
 20
11.7243592652
 30
0.0
 10
15.3118836817
 20
11.7231966372
 30
0.0
 10
15.3125517635
 20
11.7225917554
 30
0.0
  0
SPLINE
  5
2AA
100
AcDbEntity
  8
0
100
AcDbSpline
 62
7
  6
CONTINUOUS
 70
0
 71
3
 72
15
 73
11
 74
0
 42
0.0000001
 43
0.0000001
 44
0.0000000001
 40
0.0
 40
0.0
 40
0.0
 40
0.0
 40
0.1224862921
 40
0.2495269169
 40
0.3790249215
 40
0.5091196613
 40
0.6380058306
 40
0.7639343526
 40
0.8851953832
 40
1.0
 40
1.0
 40
1.0
 40
1.0
 10
15.6362984529
 20
11.7305861331
 30
0.0
 10
15.6372599849
 20
11.7305861331
 30
0.0
 10
15.6392197353
 20
11.7304861814
 30
0.0
 10
15.6421692147
 20
11.7300679612
 30
0.0
 10
15.6451296884
 20
11.7293822508
 30
0.0
 10
15.6480361644
 20
11.7284472657
 30
0.0
 10
15.6508275288
 20
11.7272809556
 30
0.0
 10
15.6534462782
 20
11.725909119
 30
0.0
 10
15.655832985
 20
11.7243592652
 30
0.0
 10
15.6572815544
 20
11.7231966372
 30
0.0
 10
15.6579496363
 20
11.7225917554
 30
0.0
  0
SPLINE
  5
2AB
100
AcDbEntity
  8
0
100
AcDbSpline
 62
7
  6
CONTINUOUS
 70
0
 71
3
 72
15
 73
11
 74
0
 42
0.0000001
 43
0.0000001
 44
0.0000000001
 40
0.0
 40
0.0
 40
0.0
 40
0.0
 40
0.1224862921
 40
0.2495269169
 40
0.3790249215
 40
0.5091196613
 40
0.6380058306
 40
0.7639343526
 40
0.8851953832
 40
1.0
 40
1.0
 40
1.0
 40
1.0
 10
15.9816963257
 20
11.7305861331
 30
0.0
 10
15.9826578577
 20
11.7305861331
 30
0.0
 10
15.9846176081
 20
11.7304861814
 30
0.0
 10
15.9875670875
 20
11.7300679612
 30
0.0
 10
15.9905275612
 20
11.7293822508
 30
0.0
 10
15.9934340372
 20
11.7284472657
 30
0.0
 10
15.9962254015
 20
11.7272809556
 30
0.0
 10
15.998844151
 20
11.725909119
 30
0.0
 10
16.0012308578
 20
11.7243592652
 30
0.0
 10
16.0026794272
 20
11.7231966372
 30
0.0
 10
16.003347509
 20
11.7225917554
 30
0.0
  0
ENDSEC
  0
SECTION
  2
OBJECTS
  0
DICTIONARY
  5
C
100
AcDbDictionary
280
0
281
1
  3
ACAD_GROUP
350
D
  3
ACAD_MLINESTYLE
350
17
  3
ACAD_LAYOUT
350
1A
  3
ACAD_PLOTSETTINGS
350
19
  3
ACAD_PLOTSTYLENAME
350
E
  0
DICTIONARY
  5
D
102
{ACAD_REACTORS
330
C
102
}
100
AcDbDictionary
280
0
281
1
  0
ACDBDICTIONARYWDFLT
  5
E
102
{ACAD_REACTORS
330
C
102
}
100
AcDbDictionary
281
1
  3
Normal
350
F
100
AcDbDictionaryWithDefault
340
F
  0
DICTIONARY
  5
17
102
{ACAD_REACTORS
330
C
102
}
100
AcDbDictionary
280
0
281
1
  3
Standard
350
18
  0
DICTIONARY
  5
19
102
{ACAD_REACTORS
330
C
102
}
100
AcDbDictionary
281
1
  0
DICTIONARY
  5
1A
102
{ACAD_REACTORS
330
C
102
}
100
AcDbDictionary
281
1
  3
Model
350
2AC
  3
Layout1
350
2AD
  0
ACDBPLACEHOLDER
  5
F
102
{ACAD_REACTORS
330
E
102
}
  0
MLINESTYLE
  5
18
102
{ACAD_REACTORS
330
17
102
}
100
AcDbMlineStyle
  2
STANDARD
 70
0
  3

 62
256
 51
90.0
 52
90.0
 71
2
 49
0.5
 62
256
  6
BYLAYER
 49
-0.5
 62
256
  6
BYLAYER
  0
LAYOUT
  5
2AC
102
{ACAD_REACTORS
330
1A
102
}
100
AcDbPlotSettings
  1

  2
none_device
  4
ANSI_C_(22.00_x_17.00_Inches)
  6

 40
0.0
 41
0.0
 42
0.0
 43
0.0
 44
558.8
 45
431.8
 46
0.0
 47
0.0
 48
0.0
 49
0.0
140
0.0
141
0.0
142
1.0
143
1.0
 70
1024
 72
0
 73
0
 74
0
  7

 75
0
147
1.0
148
0.0
149
0.0
100
AcDbLayout
  1
Model
 70
0
 71
0
 10
0.0
 20
0.0
 11
22.0
 21
17.0
 12
0.0
 22
0.0
 32
0.0
 14
0.0
 24
0.0
 34
0.0
 15
0.0
 25
0.0
 35
0.0
146
0.0
 13
0.0
 23
0.0
 33
0.0
 16
1.0
 26
0.0
 36
0.0
 17
0.0
 27
1.0
 37
0.0
 76
0
330
216
345
0
346
0
  0
LAYOUT
  5
2AD
102
{ACAD_REACTORS
330
1A
102
}
100
AcDbPlotSettings
  1

  2
none_device
  4
ANSI_C_(22.00_x_17.00_Inches)
  6

 40
0.0
 41
0.0
 42
0.0
 43
0.0
 44
558.8
 45
431.8
 46
0.0
 47
0.0
 48
0.0
 49
0.0
140
0.0
141
0.0
142
1.0
143
1.0
 70
0
 72
0
 73
0
 74
0
  7

 75
0
147
1.0
148
0.0
149
0.0
100
AcDbLayout
  1
Layout1
 70
0
 71
1
 10
0.0
 20
0.0
 11
22.0
 21
17.0
 12
0.0
 22
0.0
 32
0.0
 14
0.0
 24
0.0
 34
0.0
 15
0.0
 25
0.0
 35
0.0
146
0.0
 13
0.0
 23
0.0
 33
0.0
 16
1.0
 26
0.0
 36
0.0
 17
0.0
 27
1.0
 37
0.0
 76
0
330
217
345
0
346
0
  0
ENDSEC
  0
EOF