999
DXF file: _cgs_temp_output.dxf
999
Pro/ENGINEER 2016360 by Parametric Technology Corporation
  0
SECTION
  2
HEADER
  9
$ACADVER
  1
AC1021
  9
$DWGCODEPAGE
  3
ANSI_1252
  9
$EXTMAX
 10
22.0
 20
17.0
 30
0.0
  9
$EXTMIN
 10
0.0
 20
0.0
 30
0.0
  9
$LIMMIN
 10
0.0
 20
0.0
  9
$LIMMAX
 10
22.0
 20
17.0
  9
$VIEWCTR
 10
11.0
 20
8.5
  9
$VIEWSIZE
 40
17.0
  9
$CLAYER
  8
0
  9
$LTSCALE
 40
1.21
  9
$CELTYPE
  6
BYLAYER
  9
$DIMSCALE
 40
1.0
  9
$DIMASZ
 40
0.1875
  9
$DIMEXO
 40
0.0625
  9
$DIMDLI
 40
0.836
  9
$DIMEXE
 40
0.125
  9
$DIMCEN
 40
0.198
  9
$DIMLFAC
 40
1.0
  9
$DIMBLK
  1
_CLOSED
  9
$DIMALT
 70
0
  9
$DIMALTF
 40
25.4
  9
$DIMTXT
 40
0.15625
  9
$DIMTOL
 70
0
  9
$DIMLIM
 70
0
  9
$DIMTFAC
 40
1.0
  9
$DIMGAP
 40
0.09
  9
$DIMDSEP
 70
46
  9
$AUNITS
 70
0
  9
$PDMODE
 70
3
  9
$PDSIZE
 40
0.3125
  9
$HANDSEED
  5
2AE
  9
$TILEMODE
 70
1
  9
$MEASUREMENT
 70
0
  9
$INSUNITS
 70
1
  0
ENDSEC
  0
SECTION
  2
CLASSES
  0
CLASS
  1
ACDBDICTIONARYWDFLT
  2
AcDbDictionaryWithDefault
  3
AutoCAD 2000
 90
0
 91
1
280
0
281
0
  0
CLASS
  1
ACDBPLACEHOLDER
  2
AcDbPlaceHolder
  3
AutoCAD 2000
 90
0
 91
1
280
0
281
0
  0
CLASS
  1
LAYOUT
  2
AcDbLayout
  3
AutoCAD 2000
 90
0
 91
0
280
0
281
0
  0
ENDSEC
  0
SECTION
  2
TABLES
  0
TABLE
  2
VPORT
  5
8
100
AcDbSymbolTable
 70
2
  0
VPORT
  5
1F4
100
AcDbSymbolTableRecord
100
AcDbViewportTableRecord
  2
*ACTIVE
 70
0
 10
0.0
 20
0.0
 11
1.0
 21
1.0
 12
11.0
 22
8.5
 13
0.0
 23
0.0
 14
1.0
 24
1.0
 15
0.0
 25
0.0
 16
0.0
 26
0.0
 36
1.0
 17
0.0
 27
0.0
 37
0.0
 40
17.0
 41
1.2941176471
 42
50.0
 43
0.0
 44
0.0
 50
0.0
 51
0.0
 71
0
 72
100
 73
1
 74
1
 75
0
 76
0
 77
0
 78
0
  0
ENDTAB
  0
TABLE
  2
LTYPE
  5
5
100
AcDbSymbolTable
 70
6
  0
LTYPE
  5
14
100
AcDbSymbolTableRecord
100
AcDbLinetypeTableRecord
  2
BYBLOCK
 70
0
  3

 72
65
 73
0
 40
0.0
  0
LTYPE
  5
15
100
AcDbSymbolTableRecord
100
AcDbLinetypeTableRecord
  2
BYLAYER
 70
0
  3

 72
65
 73
0
 40
0.0
  0
LTYPE
  5
16
100
AcDbSymbolTableRecord
100
AcDbLinetypeTableRecord
  2
CONTINUOUS
 70
64
  3
Solid line
 72
65
 73
0
 40
0.0
  0
LTYPE
  5
1F5
100
AcDbSymbolTableRecord
100
AcDbLinetypeTableRecord
  2
CENTER
 70
64
  3
____ _ ____ _ ____ _ ____ _ ____ _ ____ _ ____
 72
65
 73
4
 40
0.6
 49
0.375
 74
0
 49
-0.075
 74
0
 49
0.075
 74
0
 49
-0.075
 74
0
  0
LTYPE
  5
1F6
100
AcDbSymbolTableRecord
100
AcDbLinetypeTableRecord
  2
HIDDEN
 70
64
  3
- - - - - - - - - - - - - - - - - - - -
 72
65
 73
2
 40
0.2
 49
0.1
 74
0
 49
-0.1
 74
0
  0
LTYPE
  5
1F7
100
AcDbSymbolTableRecord
100
AcDbLinetypeTableRecord
  2
PHANTOM
 70
64
  3
_____ _ _ _____ _ _ _____ _ _ _____
 72
65
 73
6
 40
0.8
 49
0.45
 74
0
 49
-0.05
 74
0
 49
0.1
 74
0
 49
-0.05
 74
0
 49
0.1
 74
0
 49
-0.05
 74
0
  0
LTYPE
  5
1F8
100
AcDbSymbolTableRecord
100
AcDbLinetypeTableRecord
  2
DOT
 70
64
  3
. . . . . . . . . . . . . . . . . . . .
 72
65
 73
2
 40
0.2
 49
0.1
 74
0
 49
-0.1
 74
0
  0
LTYPE
  5
1F9
100
AcDbSymbolTableRecord
100
AcDbLinetypeTableRecord
  2
DASHED
 70
64
  3
- - - - - - - - - - - - - - - - - - - -
 72
65
 73
2
 40
0.2
 49
0.1
 74
0
 49
-0.1
 74
0
  0
ENDTAB
  0
TABLE
  2
LAYER
  5
2
100
AcDbSymbolTable
 70
36
  0
LAYER
  5
10
100
AcDbSymbolTableRecord
100
AcDbLayerTableRecord
  2
0
 70
0
 62
7
  6
CONTINUOUS
370
-3
390
F
  0
LAYER
  5
1FA
100
AcDbSymbolTableRecord
100
AcDbLayerTableRecord
  2
DEFAULT_1
 70
0
 62
7
  6
CENTER
370
-3
390
F
  0
LAYER
  5
1FB
100
AcDbSymbolTableRecord
100
AcDbLayerTableRecord
  2
DEFAULT_2
 70
0
 62
8
  6
HIDDEN
370
-3
390
F
  0
LAYER
  5
1FC
100
AcDbSymbolTableRecord
100
AcDbLayerTableRecord
  2
DEFAULT_3
 70
0
 62
7
  6
PHANTOM
370
-3
390
F
  0
LAYER
  5
1FD
100
AcDbSymbolTableRecord
100
AcDbLayerTableRecord
  2
01_ALL_DTM_PLN
 70
0
 62
7
  6
CONTINUOUS
370
-3
390
F
  0
LAYER
  5
1FE
100
AcDbSymbolTableRecord
100
AcDbLayerTableRecord
  2
01__ASM_ALL_DTM_PLN
 70
0
 62
7
  6
CONTINUOUS
370
-3
390
F
  0
LAYER
  5
1FF
100
AcDbSymbolTableRecord
100
AcDbLayerTableRecord
  2
01__ASM_DEF_DTM_PLN
 70
0
 62
7
  6
CONTINUOUS
370
-3
390
F
  0
LAYER
  5
200
100
AcDbSymbolTableRecord
100
AcDbLayerTableRecord
  2
01___PRT_ALL_DTM_PLN
 70
0
 62
7
  6
CONTINUOUS
370
-3
390
F
  0
LAYER
  5
201
100
AcDbSymbolTableRecord
100
AcDbLayerTableRecord
  2
01___PRT_DEF_DTM_PLN
 70
0
 62
7
  6
CONTINUOUS
370
-3
390
F
  0
LAYER
  5
202
100
AcDbSymbolTableRecord
100
AcDbLayerTableRecord
  2
02_ALL_AXES
 70
0
 62
7
  6
CONTINUOUS
370
-3
390
F
  0
LAYER
  5
203
100
AcDbSymbolTableRecord
100
AcDbLayerTableRecord
  2
02__ASM_ALL_AXES
 70
0
 62
7
  6
CONTINUOUS
370
-3
390
F
  0
LAYER
  5
204
100
AcDbSymbolTableRecord
100
AcDbLayerTableRecord
  2
02___PRT_ALL_AXES
 70
0
 62
7
  6
CONTINUOUS
370
-3
390
F
  0
LAYER
  5
205
100
AcDbSymbolTableRecord
100
AcDbLayerTableRecord
  2
03_ALL_CURVES
 70
0
 62
7
  6
CONTINUOUS
370
-3
390
F
  0
LAYER
  5
206
100
AcDbSymbolTableRecord
100
AcDbLayerTableRecord
  2
03__ASM_ALL_CURVES
 70
0
 62
7
  6
CONTINUOUS
370
-3
390
F
  0
LAYER
  5
207
100
AcDbSymbolTableRecord
100
AcDbLayerTableRecord
  2
03___PRT_ALL_CURVES
 70
0
 62
7
  6
CONTINUOUS
370
-3
390
F
  0
LAYER
  5
208
100
AcDbSymbolTableRecord
100
AcDbLayerTableRecord
  2
04_ALL_DTM_PNT
 70
0
 62
7
  6
CONTINUOUS
370
-3
390
F
  0
LAYER
  5
209
100
AcDbSymbolTableRecord
100
AcDbLayerTableRecord
  2
04__ASM_ALL_DTM_PNT
 70
0
 62
7
  6
CONTINUOUS
370
-3
390
F
  0
LAYER
  5
20A
100
AcDbSymbolTableRecord
100
AcDbLayerTableRecord
  2
04___PRT_ALL_DTM_PNT
 70
0
 62
7
  6
CONTINUOUS
370
-3
390
F
  0
LAYER
  5
20B
100
AcDbSymbolTableRecord
100
AcDbLayerTableRecord
  2
05_ALL_DTM_CSYS
 70
0
 62
7
  6
CONTINUOUS
370
-3
390
F
  0
LAYER
  5
20C
100
AcDbSymbolTableRecord
100
AcDbLayerTableRecord
  2
05__ASM_ALL_DTM_CSYS
 70
0
 62
7
  6
CONTINUOUS
370
-3
390
F
  0
LAYER
  5
20D
100
AcDbSymbolTableRecord
100
AcDbLayerTableRecord
  2
05__ASM_DEF_DTM_CSYS
 70
0
 62
7
  6
CONTINUOUS
370
-3
390
F
  0
LAYER
  5
20E
100
AcDbSymbolTableRecord
100
AcDbLayerTableRecord
  2
05___PRT_ALL_DTM_CSYS
 70
0
 62
7
  6
CONTINUOUS
370
-3
390
F
  0
LAYER
  5
20F
100
AcDbSymbolTableRecord
100
AcDbLayerTableRecord
  2
05___PRT_DEF_DTM_CSYS
 70
0
 62
7
  6
CONTINUOUS
370
-3
390
F
  0
LAYER
  5
210
100
AcDbSymbolTableRecord
100
AcDbLayerTableRecord
  2
06_ALL_SURFS
 70
0
 62
7
  6
CONTINUOUS
370
-3
390
F
  0
LAYER
  5
211
100
AcDbSymbolTableRecord
100
AcDbLayerTableRecord
  2
06__ASM_ALL_SURFS
 70
0
 62
7
  6
CONTINUOUS
370
-3
390
F
  0
LAYER
  5
212
100
AcDbSymbolTableRecord
100
AcDbLayerTableRecord
  2
06___PRT_ALL_SURFS
 70
0
 62
7
  6
CONTINUOUS
370
-3
390
F
  0
LAYER
  5
213
100
AcDbSymbolTableRecord
100
AcDbLayerTableRecord
  2
07__ASM_ALL_SKELETONS
 70
0
 62
7
  6
CONTINUOUS
370
-3
390
F
  0
ENDTAB
  0
TABLE
  2
STYLE
  5
3
100
AcDbSymbolTable
 70
1
  0
STYLE
  5
11
100
AcDbSymbolTableRecord
100
AcDbTextStyleTableRecord
  2
STANDARD
 70
0
 40
0.0
 41
0.8
 50
0.0
 71
0
 42
0.2
  3
txt
  4

  0
STYLE
  5
214
100
AcDbSymbolTableRecord
100
AcDbTextStyleTableRecord
  2
TEXTSTYLE_1
 70
0
 40
0.0
 41
0.8
 50
0.0
 71
0
 42
0.2
  3
gdt
  4

  0
ENDTAB
  0
TABLE
  2
VIEW
  5
6
100
AcDbSymbolTable
 70
0
  0
ENDTAB
  0
TABLE
  2
UCS
  5
7
100
AcDbSymbolTable
 70
0
  0
ENDTAB
  0
TABLE
  2
APPID
  5
9
100
AcDbSymbolTable
 70
1
  0
APPID
  5
215
100
AcDbSymbolTableRecord
100
AcDbRegAppTableRecord
  2
ACAD
 70
0
  0
ENDTAB
  0
TABLE
  2
BLOCK_RECORD
  5
1
100
AcDbSymbolTable
 70
0
  0
BLOCK_RECORD
  5
216
100
AcDbSymbolTableRecord
100
AcDbBlockTableRecord
  2
*Model_Space
  0
BLOCK_RECORD
  5
217
100
AcDbSymbolTableRecord
100
AcDbBlockTableRecord
  2
*Paper_Space
  0
ENDTAB
  0
TABLE
  2
DIMSTYLE
  5
A
100
AcDbSymbolTable
 70
1
100
AcDbDimStyleTable
 71
0
  0
DIMSTYLE
105
218
100
AcDbSymbolTableRecord
100
AcDbDimStyleTableRecord
  2
STANDARD
 70
0
  3

  4

 40
1.0
 41
0.1875
 42
0.0625
 43
0.38
 44
0.125
 45
0.0
 46
0.0
 47
0.0001
 48
0.0001
140
0.15625
141
0.09
142
0.0
143
25.4
144
1.0
145
0.0
146
1.0
147
0.09
 71
0.0
 72
0.0
 73
1
 74
1
 75
0
 76
0
 77
0
 78
4
 79
1
170
0
171
3
172
0
173
0
174
0
175
0
176
0
177
0
178
0
270
2
179
4
271
4
272
4
273
2
274
2
275
0
280
0
281
0
282
0
283
1
284
4
285
0
286
0
287
3
288
0
340
11
278
46
  0
ENDTAB
  0
ENDSEC
  0
SECTION
  2
BLOCKS
  0
BLOCK
  5
20
100
AcDbEntity
  8
0
100
AcDbBlockBegin
  2
*Model_Space
 70
0
 10
0.0
 20
0.0
 30
0.0
  3
*Model_Space
  1

  0
ENDBLK
  5
21
100
AcDbEntity
  8
0
100
AcDbBlockEnd
  0
BLOCK
  5
1C
100
AcDbEntity
  8
0
100
AcDbBlockBegin
  2
*Paper_Space
 70
0
 10
0.0
 20
0.0
 30
0.0
  3
*Paper_Space
  1

  0
ENDBLK
  5
1D
100
AcDbEntity
  8
0
100
AcDbBlockEnd
  0
ENDSEC
  0
SECTION
  2
ENTITIES
  0
MTEXT
  5
219
100
AcDbEntity
  8
0
100
AcDbMText
 62
7
  6
CONTINUOUS
  7
STANDARD
 71
1
 72
1
 10
15.9560215477
 20
0.9479130325
 30
0.0
 11
1.0
 21
0.0
 31
0.0
 44
0.9
  1
SCALE: 1:1.000
 40
0.3
 41
3.36
  0
LINE
  5
21A
100
AcDbEntity
  8
0
100
AcDbLine
 62
7
  6
CONTINUOUS
 10
0.0
 20
0.0
 11
0.0
 21
17.0
  0
LINE
  5
21B
100
AcDbEntity
  8
0
100
AcDbLine
 62
7
  6
CONTINUOUS
 10
0.0
 20
0.0
 11
22.0
 21
0.0
  0
LINE
  5
21C
100
AcDbEntity
  8
0
100
AcDbLine
 62
7
  6
CONTINUOUS
 10
0.0
 20
17.0
 11
22.0
 21
17.0
  0
LINE
  5
21D
100
AcDbEntity
  8
0
100
AcDbLine
 62
7
  6
CONTINUOUS
 10
22.0
 20
0.0
 11
22.0
 21
17.0
  0
LINE
  5
21E
100
AcDbEntity
  8
0
100
AcDbLine
 62
7
  6
CONTINUOUS
 10
5.0053672762
 20
5.5901198968
 11
5.0053672762
 21
5.5251198968
  0
LINE
  5
21F
100
AcDbEntity
  8
0
100
AcDbLine
 62
7
  6
CONTINUOUS
 10
5.0810068781
 20
5.5122591349
 11
5.0987551404
 21
5.4694110395
  0
LINE
  5
220
100
AcDbEntity
  8
0
100
AcDbLine
 62
7
  6
CONTINUOUS
 10
5.2869794119
 20
5.4694110395
 11
5.3047276742
 21
5.5122591349
  0
LINE
  5
221
100
AcDbEntity
  8
0
100
AcDbLine
 62
7
  6
CONTINUOUS
 10
5.4560068781
 20
5.5122591349
 11
5.4737551404
 21
5.4694110395
  0
LINE
  5
222
100
AcDbEntity
  8
0
100
AcDbLine
 62
7
  6
CONTINUOUS
 10
5.6619794119
 20
5.4694110395
 11
5.6797276742
 21
5.5122591349
  0
LINE
  5
223
100
AcDbEntity
  8
0
100
AcDbLine
 62
7
  6
CONTINUOUS
 10
5.8310068781
 20
5.5122591349
 11
5.8487551404
 21
5.4694110395
  0
LINE
  5
224
100
AcDbEntity
  8
0
100
AcDbLine
 62
7
  6
CONTINUOUS
 10
6.0369794119
 20
5.4694110395
 11
6.0547276742
 21
5.5122591349
  0
LINE
  5
225
100
AcDbEntity
  8
0
100
AcDbLine
 62
7
  6
CONTINUOUS
 10
5.1276263758
 20
5.4501198968
 11
5.2581081766
 21
5.4501198968
  0
LINE
  5
226
100
AcDbEntity
  8
0
100
AcDbLine
 62
7
  6
CONTINUOUS
 10
5.5026263758
 20
5.4501198968
 11
5.6331081766
 21
5.4501198968
  0
LINE
  5
227
100
AcDbEntity
  8
0
100
AcDbLine
 62
7
  6
CONTINUOUS
 10
5.8776263758
 20
5.4501198968
 11
6.0081081766
 21
5.4501198968
  0
LINE
  5
228
100
AcDbEntity
  8
0
100
AcDbLine
 62
7
  6
CONTINUOUS
 10
6.2526263758
 20
5.4501198968
 11
6.3831081766
 21
5.4501198968
  0
LINE
  5
229
100
AcDbEntity
  8
0
100
AcDbLine
 62
7
  6
CONTINUOUS
 10
6.6276263758
 20
5.4501198968
 11
6.7581081766
 21
5.4501198968
  0
LINE
  5
22A
100
AcDbEntity
  8
0
100
AcDbLine
 62
7
  6
CONTINUOUS
 10
7.0026263758
 20
5.4501198968
 11
7.1331081766
 21
5.4501198968
  0
LINE
  5
22B
100
AcDbEntity
  8
0
100
AcDbLine
 62
7
  6
CONTINUOUS
 10
5.0053672762
 20
5.5251198968
 11
5.0617593879
 21
5.5251198968
  0
LINE
  5
22C
100
AcDbEntity
  8
0
100
AcDbLine
 62
7
  6
CONTINUOUS
 10
5.3239751645
 20
5.5251198968
 11
5.4367593879
 21
5.5251198968
  0
LINE
  5
22D
100
AcDbEntity
  8
0
100
AcDbLine
 62
7
  6
CONTINUOUS
 10
5.6989751645
 20
5.5251198968
 11
5.8117593879
 21
5.5251198968
  0
LINE
  5
22E
100
AcDbEntity
  8
0
100
AcDbLine
 62
7
  6
CONTINUOUS
 10
6.0739751645
 20
5.5251198968
 11
6.1867593879
 21
5.5251198968
  0
LINE
  5
22F
100
AcDbEntity
  8
0
100
AcDbLine
 62
7
  6
CONTINUOUS
 10
6.4489751645
 20
5.5251198968
 11
6.5617593879
 21
5.5251198968
  0
LINE
  5
230
100
AcDbEntity
  8
0
100
AcDbLine
 62
7
  6
CONTINUOUS
 10
6.8239751645
 20
5.5251198968
 11
6.9367593879
 21
5.5251198968
  0
LINE
  5
231
100
AcDbEntity
  8
0
100
AcDbLine
 62
7
  6
CONTINUOUS
 10
7.1989751645
 20
5.5251198968
 11
7.2553672762
 21
5.5251198968
  0
LINE
  5
232
100
AcDbEntity
  8
0
100
AcDbLine
 62
7
  6
CONTINUOUS
 10
7.2553672762
 20
5.5901198968
 11
5.0053672762
 21
5.5901198968
  0
LINE
  5
233
100
AcDbEntity
  8
0
100
AcDbLine
 62
7
  6
CONTINUOUS
 10
6.2060068781
 20
5.5122591349
 11
6.2237551404
 21
5.4694110395
  0
LINE
  5
234
100
AcDbEntity
  8
0
100
AcDbLine
 62
7
  6
CONTINUOUS
 10
6.4119794119
 20
5.4694110395
 11
6.4297276742
 21
5.5122591349
  0
LINE
  5
235
100
AcDbEntity
  8
0
100
AcDbLine
 62
7
  6
CONTINUOUS
 10
6.5810068781
 20
5.5122591349
 11
6.5987551404
 21
5.4694110395
  0
LINE
  5
236
100
AcDbEntity
  8
0
100
AcDbLine
 62
7
  6
CONTINUOUS
 10
6.7869794119
 20
5.4694110395
 11
6.8047276742
 21
5.5122591349
  0
LINE
  5
237
100
AcDbEntity
  8
0
100
AcDbLine
 62
7
  6
CONTINUOUS
 10
6.9560068781
 20
5.5122591349
 11
6.9737551404
 21
5.4694110395
  0
LINE
  5
238
100
AcDbEntity
  8
0
100
AcDbLine
 62
7
  6
CONTINUOUS
 10
7.1619794119
 20
5.4694110395
 11
7.1797276742
 21
5.5122591349
  0
LINE
  5
239
100
AcDbEntity
  8
0
100
AcDbLine
 62
7
  6
CONTINUOUS
 10
7.2553672762
 20
5.5251198968
 11
7.2553672762
 21
5.5901198968
  0
LINE
  5
23A
100
AcDbEntity
  8
0
100
AcDbLine
 62
7
  6
CONTINUOUS
 10
4.9458720839
 20
13.3500477814
 11
4.9458720839
 21
11.8500477814
  0
LINE
  5
23B
100
AcDbEntity
  8
0
100
AcDbLine
 62
7
  6
CONTINUOUS
 10
7.1958720839
 20
11.8500477814
 11
4.9458720839
 21
11.8500477814
  0
LINE
  5
23C
100
AcDbEntity
  8
0
100
AcDbLine
 62
7
  6
CONTINUOUS
 10
4.9458720839
 20
13.3500477814
 11
7.1958720839
 21
13.3500477814
  0
LINE
  5
23D
100
AcDbEntity
  8
0
100
AcDbLine
 62
7
  6
CONTINUOUS
 10
7.1958720839
 20
13.3500477814
 11
7.1958720839
 21
11.8500477814
  0
LINE
  5
23E
100
AcDbEntity
  8
0
100
AcDbLine
 62
7
  6
CONTINUOUS
 10
14.8103552569
 20
5.3906247044
 11
14.8103552569
 21
5.5306247044
  0
LINE
  5
23F
100
AcDbEntity
  8
0
100
AcDbLine
 62
7
  6
CONTINUOUS
 10
14.8103552569
 20
5.3906247044
 11
16.3103552569
 21
5.3906247044
  0
LINE
  5
240
100
AcDbEntity
  8
0
100
AcDbLine
 62
7
  6
CONTINUOUS
 10
16.3103552569
 20
5.4656247044
 11
14.8103552569
 21
5.4656247044
  0
LINE
  5
241
100
AcDbEntity
  8
0
100
AcDbLine
 62
7
  6
CONTINUOUS
 10
16.3103552569
 20
5.5306247044
 11
14.8103552569
 21
5.5306247044
  0
LINE
  5
242
100
AcDbEntity
  8
0
100
AcDbLine
 62
7
  6
CONTINUOUS
 10
16.3103552569
 20
5.3906247044
 11
16.3103552569
 21
5.5306247044
  0
LINE
  5
243
100
AcDbEntity
  8
0
100
AcDbLine
 62
7
  6
CONTINUOUS
 10
14.243455247
 20
11.9668225085
 11
14.2632829683
 21
11.9264178605
  0
LINE
  5
244
100
AcDbEntity
  8
0
100
AcDbLine
 62
7
  6
CONTINUOUS
 10
14.3368747261
 20
11.9184234828
 11
14.3662924212
 21
11.8917886795
  0
LINE
  5
245
100
AcDbEntity
  8
0
100
AcDbLine
 62
7
  6
CONTINUOUS
 10
14.6065547321
 20
13.1418128729
 11
14.243455247
 21
11.9668225085
  0
LINE
  5
246
100
AcDbEntity
  8
0
100
AcDbLine
 62
7
  6
CONTINUOUS
 10
14.6822725989
 20
11.9184234828
 11
14.7116902939
 21
11.8917886795
  0
LINE
  5
247
100
AcDbEntity
  8
0
100
AcDbLine
 62
7
  6
CONTINUOUS
 10
14.5396584558
 20
11.8917886795
 11
14.5429352249
 21
11.9184234828
  0
LINE
  5
248
100
AcDbEntity
  8
0
100
AcDbLine
 62
7
  6
CONTINUOUS
 10
14.5392777941
 20
11.8899951546
 11
14.5396584558
 21
11.8917886795
  0
LINE
  5
249
100
AcDbEntity
  8
0
100
AcDbLine
 62
7
  6
CONTINUOUS
 10
14.5429352249
 20
11.9184234828
 11
14.5431937326
 21
11.9196177055
  0
LINE
  5
24A
100
AcDbEntity
  8
0
100
AcDbLine
 62
7
  6
CONTINUOUS
 10
15.0276704716
 20
11.9184234828
 11
15.0570881667
 21
11.8917886795
  0
LINE
  5
24B
100
AcDbEntity
  8
0
100
AcDbLine
 62
7
  6
CONTINUOUS
 10
14.5398143466
 20
11.8917405056
 11
14.5502141499
 21
11.9253942815
  0
LINE
  5
24C
100
AcDbEntity
  8
0
100
AcDbLine
 62
7
  6
CONTINUOUS
 10
14.3987691961
 20
11.8797971129
 11
14.5189508933
 21
11.8797971129
  0
LINE
  5
24D
100
AcDbEntity
  8
0
100
AcDbLine
 62
7
  6
CONTINUOUS
 10
14.7441670689
 20
11.8797971129
 11
14.864348766
 21
11.8797971129
  0
LINE
  5
24E
100
AcDbEntity
  8
0
100
AcDbLine
 62
7
  6
CONTINUOUS
 10
15.0895649416
 20
11.8797971129
 11
15.2097466388
 21
11.8797971129
  0
LINE
  5
24F
100
AcDbEntity
  8
0
100
AcDbLine
 62
7
  6
CONTINUOUS
 10
15.4349628144
 20
11.8797971129
 11
15.5551445115
 21
11.8797971129
  0
LINE
  5
250
100
AcDbEntity
  8
0
100
AcDbLine
 62
7
  6
CONTINUOUS
 10
15.7803606871
 20
11.8797971129
 11
15.9005423843
 21
11.8797971129
  0
LINE
  5
251
100
AcDbEntity
  8
0
100
AcDbLine
 62
7
  6
CONTINUOUS
 10
16.1257585599
 20
11.8797971129
 11
16.245940257
 21
11.8797971129
  0
LINE
  5
252
100
AcDbEntity
  8
0
100
AcDbLine
 62
7
  6
CONTINUOUS
 10
14.2632829683
 20
11.9264178605
 11
14.3152235428
 21
11.9264178605
  0
LINE
  5
253
100
AcDbEntity
  8
0
100
AcDbLine
 62
7
  6
CONTINUOUS
 10
14.5567402666
 20
11.9264178605
 11
14.6606214155
 21
11.9264178605
  0
LINE
  5
254
100
AcDbEntity
  8
0
100
AcDbLine
 62
7
  6
CONTINUOUS
 10
14.9021381394
 20
11.9264178605
 11
15.0060192883
 21
11.9264178605
  0
LINE
  5
255
100
AcDbEntity
  8
0
100
AcDbLine
 62
7
  6
CONTINUOUS
 10
15.2475360121
 20
11.9264178605
 11
15.3514171611
 21
11.9264178605
  0
LINE
  5
256
100
AcDbEntity
  8
0
100
AcDbLine
 62
7
  6
CONTINUOUS
 10
15.5929338849
 20
11.9264178605
 11
15.6968150338
 21
11.9264178605
  0
LINE
  5
257
100
AcDbEntity
  8
0
100
AcDbLine
 62
7
  6
CONTINUOUS
 10
15.9383317576
 20
11.9264178605
 11
16.0422129066
 21
11.9264178605
  0
LINE
  5
258
100
AcDbEntity
  8
0
100
AcDbLine
 62
7
  6
CONTINUOUS
 10
16.2837296304
 20
11.9264178605
 11
16.3356702048
 21
11.9264178605
  0
LINE
  5
259
100
AcDbEntity
  8
0
100
AcDbLine
 62
7
  6
CONTINUOUS
 10
16.3158424835
 20
11.9668225085
 11
14.243455247
 21
11.9668225085
  0
LINE
  5
25A
100
AcDbEntity
  8
0
100
AcDbLine
 62
7
  6
CONTINUOUS
 10
14.8850563286
 20
11.8917886795
 11
14.8883330977
 21
11.9184234828
  0
LINE
  5
25B
100
AcDbEntity
  8
0
100
AcDbLine
 62
7
  6
CONTINUOUS
 10
15.3730683444
 20
11.9184234828
 11
15.4024860394
 21
11.8917886795
  0
LINE
  5
25C
100
AcDbEntity
  8
0
100
AcDbLine
 62
7
  6
CONTINUOUS
 10
14.8846756668
 20
11.8899951546
 11
14.8850563286
 21
11.8917886795
  0
LINE
  5
25D
100
AcDbEntity
  8
0
100
AcDbLine
 62
7
  6
CONTINUOUS
 10
14.8883330977
 20
11.9184234828
 11
14.8885916054
 21
11.9196177055
  0
LINE
  5
25E
100
AcDbEntity
  8
0
100
AcDbLine
 62
7
  6
CONTINUOUS
 10
14.8852122194
 20
11.8917405056
 11
14.8956120227
 21
11.9253942815
  0
LINE
  5
25F
100
AcDbEntity
  8
0
100
AcDbLine
 62
7
  6
CONTINUOUS
 10
15.7184662171
 20
11.9184234828
 11
15.7478839122
 21
11.8917886795
  0
LINE
  5
260
100
AcDbEntity
  8
0
100
AcDbLine
 62
7
  6
CONTINUOUS
 10
15.2304542013
 20
11.8917886795
 11
15.2337309704
 21
11.9184234828
  0
LINE
  5
261
100
AcDbEntity
  8
0
100
AcDbLine
 62
7
  6
CONTINUOUS
 10
15.2300735396
 20
11.8899951546
 11
15.2304542013
 21
11.8917886795
  0
LINE
  5
262
100
AcDbEntity
  8
0
100
AcDbLine
 62
7
  6
CONTINUOUS
 10
15.2337309704
 20
11.9184234828
 11
15.2339894781
 21
11.9196177055
  0
LINE
  5
263
100
AcDbEntity
  8
0
100
AcDbLine
 62
7
  6
CONTINUOUS
 10
15.2306100921
 20
11.8917405056
 11
15.2410098954
 21
11.9253942815
  0
LINE
  5
264
100
AcDbEntity
  8
0
100
AcDbLine
 62
7
  6
CONTINUOUS
 10
16.0638640899
 20
11.9184234828
 11
16.0932817849
 21
11.8917886795
  0
LINE
  5
265
100
AcDbEntity
  8
0
100
AcDbLine
 62
7
  6
CONTINUOUS
 10
15.5758520741
 20
11.8917886795
 11
15.5791288432
 21
11.9184234828
  0
LINE
  5
266
100
AcDbEntity
  8
0
100
AcDbLine
 62
7
  6
CONTINUOUS
 10
15.5754714123
 20
11.8899951546
 11
15.5758520741
 21
11.8917886795
  0
LINE
  5
267
100
AcDbEntity
  8
0
100
AcDbLine
 62
7
  6
CONTINUOUS
 10
15.5791288432
 20
11.9184234828
 11
15.5793873509
 21
11.9196177055
  0
LINE
  5
268
100
AcDbEntity
  8
0
100
AcDbLine
 62
7
  6
CONTINUOUS
 10
15.5760079649
 20
11.8917405056
 11
15.5864077682
 21
11.9253942815
  0
LINE
  5
269
100
AcDbEntity
  8
0
100
AcDbLine
 62
7
  6
CONTINUOUS
 10
15.9212499468
 20
11.8917886795
 11
15.9245267159
 21
11.9184234828
  0
LINE
  5
26A
100
AcDbEntity
  8
0
100
AcDbLine
 62
7
  6
CONTINUOUS
 10
16.3356702048
 20
11.9264178605
 11
16.3158424835
 21
11.9668225085
  0
LINE
  5
26B
100
AcDbEntity
  8
0
100
AcDbLine
 62
7
  6
CONTINUOUS
 10
15.9208692851
 20
11.8899951546
 11
15.9212499468
 21
11.8917886795
  0
LINE
  5
26C
100
AcDbEntity
  8
0
100
AcDbLine
 62
7
  6
CONTINUOUS
 10
15.9245267159
 20
11.9184234828
 11
15.9247852236
 21
11.9196177055
  0
LINE
  5
26D
100
AcDbEntity
  8
0
100
AcDbLine
 62
7
  6
CONTINUOUS
 10
15.9214058376
 20
11.8917405056
 11
15.9318056409
 21
11.9253942815
  0
LINE
  5
26E
100
AcDbEntity
  8
0
100
AcDbLine
 62
7
  6
CONTINUOUS
 10
14.6065547321
 20
13.1418128729
 11
16.6789419686
 21
13.1418128729
  0
LINE
  5
26F
100
AcDbEntity
  8
0
100
AcDbLine
 62
7
  6
CONTINUOUS
 10
16.2666478196
 20
11.8917886795
 11
16.2699245887
 21
11.9184234828
  0
LINE
  5
270
100
AcDbEntity
  8
0
100
AcDbLine
 62
7
  6
CONTINUOUS
 10
16.2662671578
 20
11.8899951546
 11
16.2666478196
 21
11.8917886795
  0
LINE
  5
271
100
AcDbEntity
  8
0
100
AcDbLine
 62
7
  6
CONTINUOUS
 10
16.2699245887
 20
11.9184234828
 11
16.2701830964
 21
11.9196177055
  0
LINE
  5
272
100
AcDbEntity
  8
0
100
AcDbLine
 62
7
  6
CONTINUOUS
 10
16.2668037104
 20
11.8917405056
 11
16.2772035137
 21
11.9253942815
  0
LINE
  5
273
100
AcDbEntity
  8
0
100
AcDbLine
 62
7
  6
CONTINUOUS
 10
16.6789419686
 20
13.1418128729
 11
16.3158424835
 21
11.9668225085
  0
LINE
  5
274
100
AcDbEntity
  8
0
100
AcDbLine
 62
7
  6
CONTINUOUS
 10
16.6987696899
 20
13.101408225
 11
16.3356702048
 21
11.9264178605
  0
LINE
  5
275
100
AcDbEntity
  8
0
100
AcDbLine
 62
7
  6
CONTINUOUS
 10
16.6987696899
 20
13.101408225
 11
16.6789419686
 21
13.1418128729
  0
ARC
  5
276
100
AcDbEntity
  8
0
100
AcDbCircle
 62
7
  6
CONTINUOUS
 10
5.5026263758
 20
5.4813698968
 40
0.03125
100
AcDbArc
 50
202.5
 51
270.0
  0
ARC
  5
277
100
AcDbEntity
  8
0
100
AcDbCircle
 62
7
  6
CONTINUOUS
 10
5.6331081766
 20
5.4813698968
 40
0.03125
100
AcDbArc
 50
270.0
 51
337.5
  0
ARC
  5
278
100
AcDbEntity
  8
0
100
AcDbCircle
 62
7
  6
CONTINUOUS
 10
5.8776263758
 20
5.4813698968
 40
0.03125
100
AcDbArc
 50
202.5
 51
270.0
  0
ARC
  5
279
100
AcDbEntity
  8
0
100
AcDbCircle
 62
7
  6
CONTINUOUS
 10
6.0081081766
 20
5.4813698968
 40
0.03125
100
AcDbArc
 50
270.0
 51
337.5
  0
ARC
  5
27A
100
AcDbEntity
  8
0
100
AcDbCircle
 62
7
  6
CONTINUOUS
 10
6.2526263758
 20
5.4813698968
 40
0.03125
100
AcDbArc
 50
202.5
 51
270.0
  0
ARC
  5
27B
100
AcDbEntity
  8
0
100
AcDbCircle
 62
7
  6
CONTINUOUS
 10
6.3831081766
 20
5.4813698968
 40
0.03125
100
AcDbArc
 50
270.0
 51
337.5
  0
ARC
  5
27C
100
AcDbEntity
  8
0
100
AcDbCircle
 62
7
  6
CONTINUOUS
 10
5.2581081766
 20
5.4813698968
 40
0.03125
100
AcDbArc
 50
270.0
 51
337.5
  0
ARC
  5
27D
100
AcDbEntity
  8
0
100
AcDbCircle
 62
7
  6
CONTINUOUS
 10
5.1276263758
 20
5.4813698968
 40
0.03125
100
AcDbArc
 50
202.5
 51
270.0
  0
ARC
  5
27E
100
AcDbEntity
  8
0
100
AcDbCircle
 62
7
  6
CONTINUOUS
 10
7.1331081766
 20
5.4813698968
 40
0.03125
100
AcDbArc
 50
270.0
 51
337.5
  0
ARC
  5
27F
100
AcDbEntity
  8
0
100
AcDbCircle
 62
7
  6
CONTINUOUS
 10
7.0026263758
 20
5.4813698968
 40
0.03125
100
AcDbArc
 50
202.5
 51
270.0
  0
ARC
  5
280
100
AcDbEntity
  8
0
100
AcDbCircle
 62
7
  6
CONTINUOUS
 10
6.7581081766
 20
5.4813698968
 40
0.03125
100
AcDbArc
 50
270.0
 51
337.5
  0
ARC
  5
281
100
AcDbEntity
  8
0
100
AcDbCircle
 62
7
  6
CONTINUOUS
 10
6.6276263758
 20
5.4813698968
 40
0.03125
100
AcDbArc
 50
202.5
 51
270.0
  0
ARC
  5
282
100
AcDbEntity
  8
0
100
AcDbCircle
 62
7
  6
CONTINUOUS
 10
5.3239751645
 20
5.5042865634
 40
0.0208333333
100
AcDbArc
 50
90.0
 51
157.5
  0
ARC
  5
283
100
AcDbEntity
  8
0
100
AcDbCircle
 62
7
  6
CONTINUOUS
 10
5.0617593879
 20
5.5042865634
 40
0.0208333333
100
AcDbArc
 50
22.5
 51
90.0
  0
ARC
  5
284
100
AcDbEntity
  8
0
100
AcDbCircle
 62
7
  6
CONTINUOUS
 10
5.6989751645
 20
5.5042865634
 40
0.0208333333
100
AcDbArc
 50
90.0
 51
157.5
  0
ARC
  5
285
100
AcDbEntity
  8
0
100
AcDbCircle
 62
7
  6
CONTINUOUS
 10
5.4367593879
 20
5.5042865634
 40
0.0208333333
100
AcDbArc
 50
22.5
 51
90.0
  0
ARC
  5
286
100
AcDbEntity
  8
0
100
AcDbCircle
 62
7
  6
CONTINUOUS
 10
6.0739751645
 20
5.5042865634
 40
0.0208333333
100
AcDbArc
 50
90.0
 51
157.5
  0
ARC
  5
287
100
AcDbEntity
  8
0
100
AcDbCircle
 62
7
  6
CONTINUOUS
 10
5.8117593879
 20
5.5042865634
 40
0.0208333333
100
AcDbArc
 50
22.5
 51
90.0
  0
ARC
  5
288
100
AcDbEntity
  8
0
100
AcDbCircle
 62
7
  6
CONTINUOUS
 10
6.4489751645
 20
5.5042865634
 40
0.0208333333
100
AcDbArc
 50
90.0
 51
157.5
  0
ARC
  5
289
100
AcDbEntity
  8
0
100
AcDbCircle
 62
7
  6
CONTINUOUS
 10
6.1867593879
 20
5.5042865634
 40
0.0208333333
100
AcDbArc
 50
22.5
 51
90.0
  0
ARC
  5
28A
100
AcDbEntity
  8
0
100
AcDbCircle
 62
7
  6
CONTINUOUS
 10
6.8239751645
 20
5.5042865634
 40
0.0208333333
100
AcDbArc
 50
90.0
 51
157.5
  0
ARC
  5
28B
100
AcDbEntity
  8
0
100
AcDbCircle
 62
7
  6
CONTINUOUS
 10
6.5617593879
 20
5.5042865634
 40
0.0208333333
100
AcDbArc
 50
22.5
 51
90.0
  0
ARC
  5
28C
100
AcDbEntity
  8
0
100
AcDbCircle
 62
7
  6
CONTINUOUS
 10
7.1989751645
 20
5.5042865634
 40
0.0208333333
100
AcDbArc
 50
90.0
 51
157.5
  0
ARC
  5
28D
100
AcDbEntity
  8
0
100
AcDbCircle
 62
7
  6
CONTINUOUS
 10
6.9367593879
 20
5.5042865634
 40
0.0208333333
100
AcDbArc
 50
22.5
 51
90.0
  0
SPLINE
  5
28E
100
AcDbEntity
  8
0
100
AcDbSpline
 62
7
  6
CONTINUOUS
 70
0
 71
3
 72
11
 73
7
 74
0
 42
0.0000001
 43
0.0000001
 44
0.0000000001
 40
0.0
 40
0.0
 40
0.0
 40
0.0
 40
0.2342288111
 40
0.4753686389
 40
0.7291532075
 40
1.0
 40
1.0
 40
1.0
 40
1.0
 10
14.5431913599
 20
11.9196184392
 30
0.0
 10
14.5433350325
 20
11.9200824269
 30
0.0
 10
14.5437286292
 20
11.9209956571
 30
0.0
 10
14.5446075258
 20
11.9222380901
 30
0.0
 10
14.5457610629
 20
11.9233416642
 30
0.0
 10
14.5466659659
 20
11.9239548144
 30
0.0
 10
14.5471520478
 20
11.9242362103
 30
0.0
  0
SPLINE
  5
28F
100
AcDbEntity
  8
0
100
AcDbSpline
 62
7
  6
CONTINUOUS
 70
0
 71
3
 72
11
 73
7
 74
0
 42
0.0000001
 43
0.0000001
 44
0.0000000001
 40
0.0
 40
0.0
 40
0.0
 40
0.0
 40
0.2218861471
 40
0.4632409257
 40
0.7235721428
 40
1.0
 40
1.0
 40
1.0
 40
1.0
 10
14.5471520478
 20
11.9242362103
 30
0.0
 10
14.547788019
 20
11.9246043782
 30
0.0
 10
14.5491882033
 20
11.9252510273
 30
0.0
 10
14.55149468
 20
11.9259259867
 30
0.0
 10
14.5540455674
 20
11.9263313312
 30
0.0
 10
14.5558247814
 20
11.9264178605
 30
0.0
 10
14.5567402666
 20
11.9264178605
 30
0.0
  0
SPLINE
  5
290
100
AcDbEntity
  8
0
100
AcDbSpline
 62
7
  6
CONTINUOUS
 70
0
 71
3
 72
11
 73
7
 74
0
 42
0.0000001
 43
0.0000001
 44
0.0000000001
 40
0.0
 40
0.0
 40
0.0
 40
0.0
 40
0.2342288111
 40
0.4753686389
 40
0.7291532075
 40
1.0
 40
1.0
 40
1.0
 40
1.0
 10
14.8885892326
 20
11.9196184392
 30
0.0
 10
14.8887329053
 20
11.9200824269
 30
0.0
 10
14.8891265019
 20
11.9209956571
 30
0.0
 10
14.8900053985
 20
11.9222380901
 30
0.0
 10
14.8911589357
 20
11.9233416642
 30
0.0
 10
14.8920638387
 20
11.9239548144
 30
0.0
 10
14.8925499205
 20
11.9242362103
 30
0.0
  0
SPLINE
  5
291
100
AcDbEntity
  8
0
100
AcDbSpline
 62
7
  6
CONTINUOUS
 70
0
 71
3
 72
11
 73
7
 74
0
 42
0.0000001
 43
0.0000001
 44
0.0000000001
 40
0.0
 40
0.0
 40
0.0
 40
0.0
 40
0.2218861471
 40
0.4632409257
 40
0.7235721428
 40
1.0
 40
1.0
 40
1.0
 40
1.0
 10
14.8925499205
 20
11.9242362103
 30
0.0
 10
14.8931858918
 20
11.9246043782
 30
0.0
 10
14.8945860761
 20
11.9252510273
 30
0.0
 10
14.8968925528
 20
11.9259259867
 30
0.0
 10
14.8994434402
 20
11.9263313312
 30
0.0
 10
14.9012226542
 20
11.9264178605
 30
0.0
 10
14.9021381394
 20
11.9264178605
 30
0.0
  0
SPLINE
  5
292
100
AcDbEntity
  8
0
100
AcDbSpline
 62
7
  6
CONTINUOUS
 70
0
 71
3
 72
11
 73
7
 74
0
 42
0.0000001
 43
0.0000001
 44
0.0000000001
 40
0.0
 40
0.0
 40
0.0
 40
0.0
 40
0.2342288111
 40
0.4753686389
 40
0.7291532075
 40
1.0
 40
1.0
 40
1.0
 40
1.0
 10
15.2339871054
 20
11.9196184392
 30
0.0
 10
15.234130778
 20
11.9200824269
 30
0.0
 10
15.2345243747
 20
11.9209956571
 30
0.0
 10
15.2354032713
 20
11.9222380901
 30
0.0
 10
15.2365568084
 20
11.9233416642
 30
0.0
 10
15.2374617114
 20
11.9239548144
 30
0.0
 10
15.2379477933
 20
11.9242362103
 30
0.0
  0
SPLINE
  5
293
100
AcDbEntity
  8
0
100
AcDbSpline
 62
7
  6
CONTINUOUS
 70
0
 71
3
 72
11
 73
7
 74
0
 42
0.0000001
 43
0.0000001
 44
0.0000000001
 40
0.0
 40
0.0
 40
0.0
 40
0.0
 40
0.2218861471
 40
0.4632409257
 40
0.7235721428
 40
1.0
 40
1.0
 40
1.0
 40
1.0
 10
15.2379477933
 20
11.9242362103
 30
0.0
 10
15.2385837645
 20
11.9246043782
 30
0.0
 10
15.2399839488
 20
11.9252510273
 30
0.0
 10
15.2422904255
 20
11.9259259867
 30
0.0
 10
15.2448413129
 20
11.9263313312
 30
0.0
 10
15.246620527
 20
11.9264178605
 30
0.0
 10
15.2475360121
 20
11.9264178605
 30
0.0
  0
SPLINE
  5
294
100
AcDbEntity
  8
0
100
AcDbSpline
 62
7
  6
CONTINUOUS
 70
0
 71
3
 72
11
 73
7
 74
0
 42
0.0000001
 43
0.0000001
 44
0.0000000001
 40
0.0
 40
0.0
 40
0.0
 40
0.0
 40
0.2342288111
 40
0.4753686389
 40
0.7291532075
 40
1.0
 40
1.0
 40
1.0
 40
1.0
 10
15.5793849781
 20
11.9196184392
 30
0.0
 10
15.5795286508
 20
11.9200824269
 30
0.0
 10
15.5799222475
 20
11.9209956571
 30
0.0
 10
15.580801144
 20
11.9222380901
 30
0.0
 10
15.5819546812
 20
11.9233416642
 30
0.0
 10
15.5828595842
 20
11.9239548144
 30
0.0
 10
15.583345666
 20
11.9242362103
 30
0.0
  0
SPLINE
  5
295
100
AcDbEntity
  8
0
100
AcDbSpline
 62
7
  6
CONTINUOUS
 70
0
 71
3
 72
11
 73
7
 74
0
 42
0.0000001
 43
0.0000001
 44
0.0000000001
 40
0.0
 40
0.0
 40
0.0
 40
0.0
 40
0.2218861471
 40
0.4632409257
 40
0.7235721428
 40
1.0
 40
1.0
 40
1.0
 40
1.0
 10
15.583345666
 20
11.9242362103
 30
0.0
 10
15.5839816373
 20
11.9246043782
 30
0.0
 10
15.5853818216
 20
11.9252510273
 30
0.0
 10
15.5876882983
 20
11.9259259867
 30
0.0
 10
15.5902391857
 20
11.9263313312
 30
0.0
 10
15.5920183997
 20
11.9264178605
 30
0.0
 10
15.5929338849
 20
11.9264178605
 30
0.0
  0
SPLINE
  5
296
100
AcDbEntity
  8
0
100
AcDbSpline
 62
7
  6
CONTINUOUS
 70
0
 71
3
 72
11
 73
7
 74
0
 42
0.0000001
 43
0.0000001
 44
0.0000000001
 40
0.0
 40
0.0
 40
0.0
 40
0.0
 40
0.2342288111
 40
0.4753686389
 40
0.7291532075
 40
1.0
 40
1.0
 40
1.0
 40
1.0
 10
15.9247828509
 20
11.9196184392
 30
0.0
 10
15.9249265235
 20
11.9200824269
 30
0.0
 10
15.9253201202
 20
11.9209956571
 30
0.0
 10
15.9261990168
 20
11.9222380901
 30
0.0
 10
15.9273525539
 20
11.9233416642
 30
0.0
 10
15.9282574569
 20
11.9239548144
 30
0.0
 10
15.9287435388
 20
11.9242362103
 30
0.0
  0
SPLINE
  5
297
100
AcDbEntity
  8
0
100
AcDbSpline
 62
7
  6
CONTINUOUS
 70
0
 71
3
 72
11
 73
7
 74
0
 42
0.0000001
 43
0.0000001
 44
0.0000000001
 40
0.0
 40
0.0
 40
0.0
 40
0.0
 40
0.2218861471
 40
0.4632409257
 40
0.7235721428
 40
1.0
 40
1.0
 40
1.0
 40
1.0
 10
15.9287435388
 20
11.9242362103
 30
0.0
 10
15.92937951
 20
11.9246043782
 30
0.0
 10
15.9307796943
 20
11.9252510273
 30
0.0
 10
15.933086171
 20
11.9259259867
 30
0.0
 10
15.9356370584
 20
11.9263313312
 30
0.0
 10
15.9374162725
 20
11.9264178605
 30
0.0
 10
15.9383317576
 20
11.9264178605
 30
0.0
  0
SPLINE
  5
298
100
AcDbEntity
  8
0
100
AcDbSpline
 62
7
  6
CONTINUOUS
 70
0
 71
3
 72
11
 73
7
 74
0
 42
0.0000001
 43
0.0000001
 44
0.0000000001
 40
0.0
 40
0.0
 40
0.0
 40
0.0
 40
0.2342288111
 40
0.4753686389
 40
0.7291532075
 40
1.0
 40
1.0
 40
1.0
 40
1.0
 10
16.2701807236
 20
11.9196184392
 30
0.0
 10
16.2703243963
 20
11.9200824269
 30
0.0
 10
16.270717993
 20
11.9209956571
 30
0.0
 10
16.2715968895
 20
11.9222380901
 30
0.0
 10
16.2727504267
 20
11.9233416642
 30
0.0
 10
16.2736553297
 20
11.9239548144
 30
0.0
 10
16.2741414115
 20
11.9242362103
 30
0.0
  0
SPLINE
  5
299
100
AcDbEntity
  8
0
100
AcDbSpline
 62
7
  6
CONTINUOUS
 70
0
 71
3
 72
11
 73
7
 74
0
 42
0.0000001
 43
0.0000001
 44
0.0000000001
 40
0.0
 40
0.0
 40
0.0
 40
0.0
 40
0.2218861471
 40
0.4632409257
 40
0.7235721428
 40
1.0
 40
1.0
 40
1.0
 40
1.0
 10
16.2741414115
 20
11.9242362103
 30
0.0
 10
16.2747773828
 20
11.9246043782
 30
0.0
 10
16.2761775671
 20
11.9252510273
 30
0.0
 10
16.2784840438
 20
11.9259259867
 30
0.0
 10
16.2810349312
 20
11.9263313312
 30
0.0
 10
16.2828141452
 20
11.9264178605
 30
0.0
 10
16.2837296304
 20
11.9264178605
 30
0.0
  0
SPLINE
  5
29A
100
AcDbEntity
  8
0
100
AcDbSpline
 62
7
  6
CONTINUOUS
 70
0
 71
3
 72
15
 73
11
 74
0
 42
0.0000001
 43
0.0000001
 44
0.0000000001
 40
0.0
 40
0.0
 40
0.0
 40
0.0
 40
0.1557506564
 40
0.303214013
 40
0.4410977389
 40
0.5690411253
 40
0.6873381446
 40
0.7970484516
 40
0.9002754343
 40
1.0
 40
1.0
 40
1.0
 40
1.0
 10
14.5189508933
 20
11.8797971129
 30
0.0
 10
14.5202090493
 20
11.8797971129
 30
0.0
 10
14.5226602676
 20
11.8799057483
 30
0.0
 10
14.5261931649
 20
11.8804159992
 30
0.0
 10
14.5294305273
 20
11.8812646179
 30
0.0
 10
14.5323141977
 20
11.8824374476
 30
0.0
 10
14.5347947116
 20
11.8839169428
 30
0.0
 10
14.5368257298
 20
11.8856843749
 30
0.0
 10
14.5383635601
 20
11.8877121623
 30
0.0
 10
14.5390367716
 20
11.8892264724
 30
0.0
 10
14.5392747464
 20
11.8899960966
 30
0.0
  0
SPLINE
  5
29B
100
AcDbEntity
  8
0
100
AcDbSpline
 62
7
  6
CONTINUOUS
 70
0
 71
3
 72
15
 73
11
 74
0
 42
0.0000001
 43
0.0000001
 44
0.0000000001
 40
0.0
 40
0.0
 40
0.0
 40
0.0
 40
0.1148729051
 40
0.2360778304
 40
0.361957137
 40
0.4908829087
 40
0.6210133401
 40
0.7504589975
 40
0.8774377376
 40
1.0
 40
1.0
 40
1.0
 40
1.0
 10
14.3662924212
 20
11.8917886795
 30
0.0
 10
14.3672951432
 20
11.8908808143
 30
0.0
 10
14.36946759
 20
11.8891360736
 30
0.0
 10
14.373048085
 20
11.8868127271
 30
0.0
 10
14.3769751082
 20
11.8847545483
 30
0.0
 10
14.3811628706
 20
11.8830059507
 30
0.0
 10
14.3855225221
 20
11.8816023564
 30
0.0
 10
14.3899625343
 20
11.8805748545
 30
0.0
 10
14.3943861292
 20
11.8799462364
 30
0.0
 10
14.3973259991
 20
11.8797971129
 30
0.0
 10
14.3987691961
 20
11.8797971129
 30
0.0
  0
SPLINE
  5
29C
100
AcDbEntity
  8
0
100
AcDbSpline
 62
7
  6
CONTINUOUS
 70
0
 71
3
 72
15
 73
11
 74
0
 42
0.0000001
 43
0.0000001
 44
0.0000000001
 40
0.0
 40
0.0
 40
0.0
 40
0.0
 40
0.1557506564
 40
0.303214013
 40
0.4410977389
 40
0.5690411253
 40
0.6873381446
 40
0.7970484516
 40
0.9002754343
 40
1.0
 40
1.0
 40
1.0
 40
1.0
 10
16.245940257
 20
11.8797971129
 30
0.0
 10
16.2471984131
 20
11.8797971129
 30
0.0
 10
16.2496496314
 20
11.8799057483
 30
0.0
 10
16.2531825286
 20
11.8804159992
 30
0.0
 10
16.256419891
 20
11.8812646179
 30
0.0
 10
16.2593035615
 20
11.8824374476
 30
0.0
 10
16.2617840753
 20
11.8839169428
 30
0.0
 10
16.2638150936
 20
11.8856843749
 30
0.0
 10
16.2653529239
 20
11.8877121623
 30
0.0
 10
16.2660261354
 20
11.8892264724
 30
0.0
 10
16.2662641101
 20
11.8899960966
 30
0.0
  0
SPLINE
  5
29D
100
AcDbEntity
  8
0
100
AcDbSpline
 62
7
  6
CONTINUOUS
 70
0
 71
3
 72
15
 73
11
 74
0
 42
0.0000001
 43
0.0000001
 44
0.0000000001
 40
0.0
 40
0.0
 40
0.0
 40
0.0
 40
0.1148729051
 40
0.2360778304
 40
0.361957137
 40
0.4908829087
 40
0.6210133401
 40
0.7504589975
 40
0.8774377376
 40
1.0
 40
1.0
 40
1.0
 40
1.0
 10
16.0932817849
 20
11.8917886795
 30
0.0
 10
16.0942845069
 20
11.8908808143
 30
0.0
 10
16.0964569538
 20
11.8891360736
 30
0.0
 10
16.1000374488
 20
11.8868127271
 30
0.0
 10
16.1039644719
 20
11.8847545483
 30
0.0
 10
16.1081522343
 20
11.8830059507
 30
0.0
 10
16.1125118859
 20
11.8816023564
 30
0.0
 10
16.1169518981
 20
11.8805748545
 30
0.0
 10
16.1213754929
 20
11.8799462364
 30
0.0
 10
16.1243153629
 20
11.8797971129
 30
0.0
 10
16.1257585599
 20
11.8797971129
 30
0.0
  0
SPLINE
  5
29E
100
AcDbEntity
  8
0
100
AcDbSpline
 62
7
  6
CONTINUOUS
 70
0
 71
3
 72
15
 73
11
 74
0
 42
0.0000001
 43
0.0000001
 44
0.0000000001
 40
0.0
 40
0.0
 40
0.0
 40
0.0
 40
0.1557506564
 40
0.303214013
 40
0.4410977389
 40
0.5690411253
 40
0.6873381446
 40
0.7970484516
 40
0.9002754343
 40
1.0
 40
1.0
 40
1.0
 40
1.0
 10
15.9005423843
 20
11.8797971129
 30
0.0
 10
15.9018005403
 20
11.8797971129
 30
0.0
 10
15.9042517586
 20
11.8799057483
 30
0.0
 10
15.9077846559
 20
11.8804159992
 30
0.0
 10
15.9110220183
 20
11.8812646179
 30
0.0
 10
15.9139056887
 20
11.8824374476
 30
0.0
 10
15.9163862026
 20
11.8839169428
 30
0.0
 10
15.9184172208
 20
11.8856843749
 30
0.0
 10
15.9199550511
 20
11.8877121623
 30
0.0
 10
15.9206282626
 20
11.8892264724
 30
0.0
 10
15.9208662374
 20
11.8899960966
 30
0.0
  0
SPLINE
  5
29F
100
AcDbEntity
  8
0
100
AcDbSpline
 62
7
  6
CONTINUOUS
 70
0
 71
3
 72
15
 73
11
 74
0
 42
0.0000001
 43
0.0000001
 44
0.0000000001
 40
0.0
 40
0.0
 40
0.0
 40
0.0
 40
0.1148729051
 40
0.2360778304
 40
0.361957137
 40
0.4908829087
 40
0.6210133401
 40
0.7504589975
 40
0.8774377376
 40
1.0
 40
1.0
 40
1.0
 40
1.0
 10
15.7478839122
 20
11.8917886795
 30
0.0
 10
15.7488866342
 20
11.8908808143
 30
0.0
 10
15.751059081
 20
11.8891360736
 30
0.0
 10
15.7546395761
 20
11.8868127271
 30
0.0
 10
15.7585665992
 20
11.8847545483
 30
0.0
 10
15.7627543616
 20
11.8830059507
 30
0.0
 10
15.7671140131
 20
11.8816023564
 30
0.0
 10
15.7715540253
 20
11.8805748545
 30
0.0
 10
15.7759776202
 20
11.8799462364
 30
0.0
 10
15.7789174901
 20
11.8797971129
 30
0.0
 10
15.7803606871
 20
11.8797971129
 30
0.0
  0
SPLINE
  5
2A0
100
AcDbEntity
  8
0
100
AcDbSpline
 62
7
  6
CONTINUOUS
 70
0
 71
3
 72
15
 73
11
 74
0
 42
0.0000001
 43
0.0000001
 44
0.0000000001
 40
0.0
 40
0.0
 40
0.0
 40
0.0
 40
0.1557506564
 40
0.303214013
 40
0.4410977389
 40
0.5690411253
 40
0.6873381446
 40
0.7970484516
 40
0.9002754343
 40
1.0
 40
1.0
 40
1.0
 40
1.0
 10
15.5551445115
 20
11.8797971129
 30
0.0
 10
15.5564026676
 20
11.8797971129
 30
0.0
 10
15.5588538859
 20
11.8799057483
 30
0.0
 10
15.5623867831
 20
11.8804159992
 30
0.0
 10
15.5656241455
 20
11.8812646179
 30
0.0
 10
15.568507816
 20
11.8824374476
 30
0.0
 10
15.5709883298
 20
11.8839169428
 30
0.0
 10
15.5730193481
 20
11.8856843749
 30
0.0
 10
15.5745571784
 20
11.8877121623
 30
0.0
 10
15.5752303899
 20
11.8892264724
 30
0.0
 10
15.5754683646
 20
11.8899960966
 30
0.0
  0
SPLINE
  5
2A1
100
AcDbEntity
  8
0
100
AcDbSpline
 62
7
  6
CONTINUOUS
 70
0
 71
3
 72
15
 73
11
 74
0
 42
0.0000001
 43
0.0000001
 44
0.0000000001
 40
0.0
 40
0.0
 40
0.0
 40
0.0
 40
0.1148729051
 40
0.2360778304
 40
0.361957137
 40
0.4908829087
 40
0.6210133401
 40
0.7504589975
 40
0.8774377376
 40
1.0
 40
1.0
 40
1.0
 40
1.0
 10
15.4024860394
 20
11.8917886795
 30
0.0
 10
15.4034887614
 20
11.8908808143
 30
0.0
 10
15.4056612083
 20
11.8891360736
 30
0.0
 10
15.4092417033
 20
11.8868127271
 30
0.0
 10
15.4131687264
 20
11.8847545483
 30
0.0
 10
15.4173564888
 20
11.8830059507
 30
0.0
 10
15.4217161404
 20
11.8816023564
 30
0.0
 10
15.4261561526
 20
11.8805748545
 30
0.0
 10
15.4305797474
 20
11.8799462364
 30
0.0
 10
15.4335196174
 20
11.8797971129
 30
0.0
 10
15.4349628144
 20
11.8797971129
 30
0.0
  0
SPLINE
  5
2A2
100
AcDbEntity
  8
0
100
AcDbSpline
 62
7
  6
CONTINUOUS
 70
0
 71
3
 72
15
 73
11
 74
0
 42
0.0000001
 43
0.0000001
 44
0.0000000001
 40
0.0
 40
0.0
 40
0.0
 40
0.0
 40
0.1557506564
 40
0.303214013
 40
0.4410977389
 40
0.5690411253
 40
0.6873381446
 40
0.7970484516
 40
0.9002754343
 40
1.0
 40
1.0
 40
1.0
 40
1.0
 10
15.2097466388
 20
11.8797971129
 30
0.0
 10
15.2110047948
 20
11.8797971129
 30
0.0
 10
15.2134560131
 20
11.8799057483
 30
0.0
 10
15.2169889104
 20
11.8804159992
 30
0.0
 10
15.2202262728
 20
11.8812646179
 30
0.0
 10
15.2231099432
 20
11.8824374476
 30
0.0
 10
15.2255904571
 20
11.8839169428
 30
0.0
 10
15.2276214753
 20
11.8856843749
 30
0.0
 10
15.2291593056
 20
11.8877121623
 30
0.0
 10
15.2298325171
 20
11.8892264724
 30
0.0
 10
15.2300704919
 20
11.8899960966
 30
0.0
  0
SPLINE
  5
2A3
100
AcDbEntity
  8
0
100
AcDbSpline
 62
7
  6
CONTINUOUS
 70
0
 71
3
 72
15
 73
11
 74
0
 42
0.0000001
 43
0.0000001
 44
0.0000000001
 40
0.0
 40
0.0
 40
0.0
 40
0.0
 40
0.1148729051
 40
0.2360778304
 40
0.361957137
 40
0.4908829087
 40
0.6210133401
 40
0.7504589975
 40
0.8774377376
 40
1.0
 40
1.0
 40
1.0
 40
1.0
 10
15.0570881667
 20
11.8917886795
 30
0.0
 10
15.0580908887
 20
11.8908808143
 30
0.0
 10
15.0602633355
 20
11.8891360736
 30
0.0
 10
15.0638438306
 20
11.8868127271
 30
0.0
 10
15.0677708537
 20
11.8847545483
 30
0.0
 10
15.0719586161
 20
11.8830059507
 30
0.0
 10
15.0763182676
 20
11.8816023564
 30
0.0
 10
15.0807582798
 20
11.8805748545
 30
0.0
 10
15.0851818747
 20
11.8799462364
 30
0.0
 10
15.0881217446
 20
11.8797971129
 30
0.0
 10
15.0895649416
 20
11.8797971129
 30
0.0
  0
SPLINE
  5
2A4
100
AcDbEntity
  8
0
100
AcDbSpline
 62
7
  6
CONTINUOUS
 70
0
 71
3
 72
15
 73
11
 74
0
 42
0.0000001
 43
0.0000001
 44
0.0000000001
 40
0.0
 40
0.0
 40
0.0
 40
0.0
 40
0.1557506564
 40
0.303214013
 40
0.4410977389
 40
0.5690411253
 40
0.6873381446
 40
0.7970484516
 40
0.9002754343
 40
1.0
 40
1.0
 40
1.0
 40
1.0
 10
14.864348766
 20
11.8797971129
 30
0.0
 10
14.865606922
 20
11.8797971129
 30
0.0
 10
14.8680581404
 20
11.8799057483
 30
0.0
 10
14.8715910376
 20
11.8804159992
 30
0.0
 10
14.8748284
 20
11.8812646179
 30
0.0
 10
14.8777120705
 20
11.8824374476
 30
0.0
 10
14.8801925843
 20
11.8839169428
 30
0.0
 10
14.8822236026
 20
11.8856843749
 30
0.0
 10
14.8837614329
 20
11.8877121623
 30
0.0
 10
14.8844346444
 20
11.8892264724
 30
0.0
 10
14.8846726191
 20
11.8899960966
 30
0.0
  0
SPLINE
  5
2A5
100
AcDbEntity
  8
0
100
AcDbSpline
 62
7
  6
CONTINUOUS
 70
0
 71
3
 72
15
 73
11
 74
0
 42
0.0000001
 43
0.0000001
 44
0.0000000001
 40
0.0
 40
0.0
 40
0.0
 40
0.0
 40
0.1148729051
 40
0.2360778304
 40
0.361957137
 40
0.4908829087
 40
0.6210133401
 40
0.7504589975
 40
0.8774377376
 40
1.0
 40
1.0
 40
1.0
 40
1.0
 10
14.7116902939
 20
11.8917886795
 30
0.0
 10
14.7126930159
 20
11.8908808143
 30
0.0
 10
14.7148654628
 20
11.8891360736
 30
0.0
 10
14.7184459578
 20
11.8868127271
 30
0.0
 10
14.7223729809
 20
11.8847545483
 30
0.0
 10
14.7265607433
 20
11.8830059507
 30
0.0
 10
14.7309203949
 20
11.8816023564
 30
0.0
 10
14.7353604071
 20
11.8805748545
 30
0.0
 10
14.7397840019
 20
11.8799462364
 30
0.0
 10
14.7427238719
 20
11.8797971129
 30
0.0
 10
14.7441670689
 20
11.8797971129
 30
0.0
  0
SPLINE
  5
2A6
100
AcDbEntity
  8
0
100
AcDbSpline
 62
7
  6
CONTINUOUS
 70
0
 71
3
 72
15
 73
11
 74
0
 42
0.0000001
 43
0.0000001
 44
0.0000000001
 40
0.0
 40
0.0
 40
0.0
 40
0.0
 40
0.1224858773
 40
0.2495258965
 40
0.3790241006
 40
0.509119714
 40
0.638006819
 40
0.7639355928
 40
0.8851958991
 40
1.0
 40
1.0
 40
1.0
 40
1.0
 10
14.3152235428
 20
11.9264178605
 30
0.0
 10
14.3161850715
 20
11.9264178605
 30
0.0
 10
14.3181448141
 20
11.9263179128
 30
0.0
 10
14.3210942871
 20
11.9258996922
 30
0.0
 10
14.3240547641
 20
11.9252139801
 30
0.0
 10
14.3269612566
 20
11.9242789944
 30
0.0
 10
14.3297526338
 20
11.9231126725
 30
0.0
 10
14.3323713871
 20
11.9217408358
 30
0.0
 10
14.3347580887
 20
11.9201909877
 30
0.0
 10
14.3362066473
 20
11.9190283619
 30
0.0
 10
14.3368747261
 20
11.9184234828
 30
0.0
  0
SPLINE
  5
2A7
100
AcDbEntity
  8
0
100
AcDbSpline
 62
7
  6
CONTINUOUS
 70
0
 71
3
 72
15
 73
11
 74
0
 42
0.0000001
 43
0.0000001
 44
0.0000000001
 40
0.0
 40
0.0
 40
0.0
 40
0.0
 40
0.1224858773
 40
0.2495258965
 40
0.3790241006
 40
0.509119714
 40
0.638006819
 40
0.7639355928
 40
0.8851958991
 40
1.0
 40
1.0
 40
1.0
 40
1.0
 10
14.6606214155
 20
11.9264178605
 30
0.0
 10
14.6615829443
 20
11.9264178605
 30
0.0
 10
14.6635426868
 20
11.9263179128
 30
0.0
 10
14.6664921599
 20
11.9258996922
 30
0.0
 10
14.6694526368
 20
11.9252139801
 30
0.0
 10
14.6723591294
 20
11.9242789944
 30
0.0
 10
14.6751505065
 20
11.9231126725
 30
0.0
 10
14.6777692598
 20
11.9217408358
 30
0.0
 10
14.6801559614
 20
11.9201909877
 30
0.0
 10
14.68160452
 20
11.9190283619
 30
0.0
 10
14.6822725989
 20
11.9184234828
 30
0.0
  0
SPLINE
  5
2A8
100
AcDbEntity
  8
0
100
AcDbSpline
 62
7
  6
CONTINUOUS
 70
0
 71
3
 72
15
 73
11
 74
0
 42
0.0000001
 43
0.0000001
 44
0.0000000001
 40
0.0
 40
0.0
 40
0.0
 40
0.0
 40
0.1224858773
 40
0.2495258965
 40
0.3790241006
 40
0.509119714
 40
0.638006819
 40
0.7639355928
 40
0.8851958991
 40
1.0
 40
1.0
 40
1.0
 40
1.0
 10
15.0060192883
 20
11.9264178605
 30
0.0
 10
15.006980817
 20
11.9264178605
 30
0.0
 10
15.0089405596
 20
11.9263179128
 30
0.0
 10
15.0118900326
 20
11.9258996922
 30
0.0
 10
15.0148505096
 20
11.9252139801
 30
0.0
 10
15.0177570021
 20
11.9242789944
 30
0.0
 10
15.0205483793
 20
11.9231126725
 30
0.0
 10
15.0231671326
 20
11.9217408358
 30
0.0
 10
15.0255538342
 20
11.9201909877
 30
0.0
 10
15.0270023928
 20
11.9190283619
 30
0.0
 10
15.0276704716
 20
11.9184234828
 30
0.0
  0
SPLINE
  5
2A9
100
AcDbEntity
  8
0
100
AcDbSpline
 62
7
  6
CONTINUOUS
 70
0
 71
3
 72
15
 73
11
 74
0
 42
0.0000001
 43
0.0000001
 44
0.0000000001
 40
0.0
 40
0.0
 40
0.0
 40
0.0
 40
0.1224858773
 40
0.2495258965
 40
0.3790241006
 40
0.509119714
 40
0.638006819
 40
0.7639355928
 40
0.8851958991
 40
1.0
 40
1.0
 40
1.0
 40
1.0
 10
15.3514171611
 20
11.9264178605
 30
0.0
 10
15.3523786898
 20
11.9264178605
 30
0.0
 10
15.3543384323
 20
11.9263179128
 30
0.0
 10
15.3572879054
 20
11.9258996922
 30
0.0
 10
15.3602483823
 20
11.9252139801
 30
0.0
 10
15.3631548749
 20
11.9242789944
 30
0.0
 10
15.365946252
 20
11.9231126725
 30
0.0
 10
15.3685650053
 20
11.9217408358
 30
0.0
 10
15.3709517069
 20
11.9201909877
 30
0.0
 10
15.3724002655
 20
11.9190283619
 30
0.0
 10
15.3730683444
 20
11.9184234828
 30
0.0
  0
SPLINE
  5
2AA
100
AcDbEntity
  8
0
100
AcDbSpline
 62
7
  6
CONTINUOUS
 70
0
 71
3
 72
15
 73
11
 74
0
 42
0.0000001
 43
0.0000001
 44
0.0000000001
 40
0.0
 40
0.0
 40
0.0
 40
0.0
 40
0.1224858773
 40
0.2495258965
 40
0.3790241006
 40
0.509119714
 40
0.638006819
 40
0.7639355928
 40
0.8851958991
 40
1.0
 40
1.0
 40
1.0
 40
1.0
 10
15.6968150338
 20
11.9264178605
 30
0.0
 10
15.6977765625
 20
11.9264178605
 30
0.0
 10
15.6997363051
 20
11.9263179128
 30
0.0
 10
15.7026857781
 20
11.9258996922
 30
0.0
 10
15.7056462551
 20
11.9252139801
 30
0.0
 10
15.7085527476
 20
11.9242789944
 30
0.0
 10
15.7113441248
 20
11.9231126725
 30
0.0
 10
15.7139628781
 20
11.9217408358
 30
0.0
 10
15.7163495797
 20
11.9201909877
 30
0.0
 10
15.7177981383
 20
11.9190283619
 30
0.0
 10
15.7184662171
 20
11.9184234828
 30
0.0
  0
SPLINE
  5
2AB
100
AcDbEntity
  8
0
100
AcDbSpline
 62
7
  6
CONTINUOUS
 70
0
 71
3
 72
15
 73
11
 74
0
 42
0.0000001
 43
0.0000001
 44
0.0000000001
 40
0.0
 40
0.0
 40
0.0
 40
0.0
 40
0.1224858773
 40
0.2495258965
 40
0.3790241006
 40
0.509119714
 40
0.638006819
 40
0.7639355928
 40
0.8851958991
 40
1.0
 40
1.0
 40
1.0
 40
1.0
 10
16.0422129066
 20
11.9264178605
 30
0.0
 10
16.0431744353
 20
11.9264178605
 30
0.0
 10
16.0451341778
 20
11.9263179128
 30
0.0
 10
16.0480836509
 20
11.9258996922
 30
0.0
 10
16.0510441278
 20
11.9252139801
 30
0.0
 10
16.0539506204
 20
11.9242789944
 30
0.0
 10
16.0567419975
 20
11.9231126725
 30
0.0
 10
16.0593607508
 20
11.9217408358
 30
0.0
 10
16.0617474524
 20
11.9201909877
 30
0.0
 10
16.063196011
 20
11.9190283619
 30
0.0
 10
16.0638640899
 20
11.9184234828
 30
0.0
  0
ENDSEC
  0
SECTION
  2
OBJECTS
  0
DICTIONARY
  5
C
100
AcDbDictionary
280
0
281
1
  3
ACAD_GROUP
350
D
  3
ACAD_MLINESTYLE
350
17
  3
ACAD_LAYOUT
350
1A
  3
ACAD_PLOTSETTINGS
350
19
  3
ACAD_PLOTSTYLENAME
350
E
  0
DICTIONARY
  5
D
102
{ACAD_REACTORS
330
C
102
}
100
AcDbDictionary
280
0
281
1
  0
ACDBDICTIONARYWDFLT
  5
E
102
{ACAD_REACTORS
330
C
102
}
100
AcDbDictionary
281
1
  3
Normal
350
F
100
AcDbDictionaryWithDefault
340
F
  0
DICTIONARY
  5
17
102
{ACAD_REACTORS
330
C
102
}
100
AcDbDictionary
280
0
281
1
  3
Standard
350
18
  0
DICTIONARY
  5
19
102
{ACAD_REACTORS
330
C
102
}
100
AcDbDictionary
281
1
  0
DICTIONARY
  5
1A
102
{ACAD_REACTORS
330
C
102
}
100
AcDbDictionary
281
1
  3
Model
350
2AC
  3
Layout1
350
2AD
  0
ACDBPLACEHOLDER
  5
F
102
{ACAD_REACTORS
330
E
102
}
  0
MLINESTYLE
  5
18
102
{ACAD_REACTORS
330
17
102
}
100
AcDbMlineStyle
  2
STANDARD
 70
0
  3

 62
256
 51
90.0
 52
90.0
 71
2
 49
0.5
 62
256
  6
BYLAYER
 49
-0.5
 62
256
  6
BYLAYER
  0
LAYOUT
  5
2AC
102
{ACAD_REACTORS
330
1A
102
}
100
AcDbPlotSettings
  1

  2
none_device
  4
ANSI_C_(22.00_x_17.00_Inches)
  6

 40
0.0
 41
0.0
 42
0.0
 43
0.0
 44
558.8
 45
431.8
 46
0.0
 47
0.0
 48
0.0
 49
0.0
140
0.0
141
0.0
142
1.0
143
1.0
 70
1024
 72
0
 73
0
 74
0
  7

 75
0
147
1.0
148
0.0
149
0.0
100
AcDbLayout
  1
Model
 70
0
 71
0
 10
0.0
 20
0.0
 11
22.0
 21
17.0
 12
0.0
 22
0.0
 32
0.0
 14
0.0
 24
0.0
 34
0.0
 15
0.0
 25
0.0
 35
0.0
146
0.0
 13
0.0
 23
0.0
 33
0.0
 16
1.0
 26
0.0
 36
0.0
 17
0.0
 27
1.0
 37
0.0
 76
0
330
216
345
0
346
0
  0
LAYOUT
  5
2AD
102
{ACAD_REACTORS
330
1A
102
}
100
AcDbPlotSettings
  1

  2
none_device
  4
ANSI_C_(22.00_x_17.00_Inches)
  6

 40
0.0
 41
0.0
 42
0.0
 43
0.0
 44
558.8
 45
431.8
 46
0.0
 47
0.0
 48
0.0
 49
0.0
140
0.0
141
0.0
142
1.0
143
1.0
 70
0
 72
0
 73
0
 74
0
  7

 75
0
147
1.0
148
0.0
149
0.0
100
AcDbLayout
  1
Layout1
 70
0
 71
1
 10
0.0
 20
0.0
 11
22.0
 21
17.0
 12
0.0
 22
0.0
 32
0.0
 14
0.0
 24
0.0
 34
0.0
 15
0.0
 25
0.0
 35
0.0
146
0.0
 13
0.0
 23
0.0
 33
0.0
 16
1.0
 26
0.0
 36
0.0
 17
0.0
 27
1.0
 37
0.0
 76
0
330
217
345
0
346
0
  0
ENDSEC
  0
EOF