999
DXF file: _cgs_temp_output.dxf
999
Pro/ENGINEER 2016360 by Parametric Technology Corporation
  0
SECTION
  2
HEADER
  9
$ACADVER
  1
AC1021
  9
$DWGCODEPAGE
  3
ANSI_1252
  9
$EXTMAX
 10
22.0
 20
17.0
 30
0.0
  9
$EXTMIN
 10
0.0
 20
0.0
 30
0.0
  9
$LIMMIN
 10
0.0
 20
0.0
  9
$LIMMAX
 10
22.0
 20
17.0
  9
$VIEWCTR
 10
11.0
 20
8.5
  9
$VIEWSIZE
 40
17.0
  9
$CLAYER
  8
0
  9
$LTSCALE
 40
1.21
  9
$CELTYPE
  6
BYLAYER
  9
$DIMSCALE
 40
1.0
  9
$DIMASZ
 40
0.1875
  9
$DIMEXO
 40
0.0625
  9
$DIMDLI
 40
0.836
  9
$DIMEXE
 40
0.125
  9
$DIMCEN
 40
0.198
  9
$DIMLFAC
 40
1.0
  9
$DIMBLK
  1
_CLOSED
  9
$DIMALT
 70
0
  9
$DIMALTF
 40
25.4
  9
$DIMTXT
 40
0.15625
  9
$DIMTOL
 70
0
  9
$DIMLIM
 70
0
  9
$DIMTFAC
 40
1.0
  9
$DIMGAP
 40
0.09
  9
$DIMDSEP
 70
46
  9
$AUNITS
 70
0
  9
$PDMODE
 70
3
  9
$PDSIZE
 40
0.3125
  9
$HANDSEED
  5
2AE
  9
$TILEMODE
 70
1
  9
$MEASUREMENT
 70
0
  9
$INSUNITS
 70
1
  0
ENDSEC
  0
SECTION
  2
CLASSES
  0
CLASS
  1
ACDBDICTIONARYWDFLT
  2
AcDbDictionaryWithDefault
  3
AutoCAD 2000
 90
0
 91
1
280
0
281
0
  0
CLASS
  1
ACDBPLACEHOLDER
  2
AcDbPlaceHolder
  3
AutoCAD 2000
 90
0
 91
1
280
0
281
0
  0
CLASS
  1
LAYOUT
  2
AcDbLayout
  3
AutoCAD 2000
 90
0
 91
0
280
0
281
0
  0
ENDSEC
  0
SECTION
  2
TABLES
  0
TABLE
  2
VPORT
  5
8
100
AcDbSymbolTable
 70
2
  0
VPORT
  5
1F4
100
AcDbSymbolTableRecord
100
AcDbViewportTableRecord
  2
*ACTIVE
 70
0
 10
0.0
 20
0.0
 11
1.0
 21
1.0
 12
11.0
 22
8.5
 13
0.0
 23
0.0
 14
1.0
 24
1.0
 15
0.0
 25
0.0
 16
0.0
 26
0.0
 36
1.0
 17
0.0
 27
0.0
 37
0.0
 40
17.0
 41
1.2941176471
 42
50.0
 43
0.0
 44
0.0
 50
0.0
 51
0.0
 71
0
 72
100
 73
1
 74
1
 75
0
 76
0
 77
0
 78
0
  0
ENDTAB
  0
TABLE
  2
LTYPE
  5
5
100
AcDbSymbolTable
 70
6
  0
LTYPE
  5
14
100
AcDbSymbolTableRecord
100
AcDbLinetypeTableRecord
  2
BYBLOCK
 70
0
  3

 72
65
 73
0
 40
0.0
  0
LTYPE
  5
15
100
AcDbSymbolTableRecord
100
AcDbLinetypeTableRecord
  2
BYLAYER
 70
0
  3

 72
65
 73
0
 40
0.0
  0
LTYPE
  5
16
100
AcDbSymbolTableRecord
100
AcDbLinetypeTableRecord
  2
CONTINUOUS
 70
64
  3
Solid line
 72
65
 73
0
 40
0.0
  0
LTYPE
  5
1F5
100
AcDbSymbolTableRecord
100
AcDbLinetypeTableRecord
  2
CENTER
 70
64
  3
____ _ ____ _ ____ _ ____ _ ____ _ ____ _ ____
 72
65
 73
4
 40
0.6
 49
0.375
 74
0
 49
-0.075
 74
0
 49
0.075
 74
0
 49
-0.075
 74
0
  0
LTYPE
  5
1F6
100
AcDbSymbolTableRecord
100
AcDbLinetypeTableRecord
  2
HIDDEN
 70
64
  3
- - - - - - - - - - - - - - - - - - - -
 72
65
 73
2
 40
0.2
 49
0.1
 74
0
 49
-0.1
 74
0
  0
LTYPE
  5
1F7
100
AcDbSymbolTableRecord
100
AcDbLinetypeTableRecord
  2
PHANTOM
 70
64
  3
_____ _ _ _____ _ _ _____ _ _ _____
 72
65
 73
6
 40
0.8
 49
0.45
 74
0
 49
-0.05
 74
0
 49
0.1
 74
0
 49
-0.05
 74
0
 49
0.1
 74
0
 49
-0.05
 74
0
  0
LTYPE
  5
1F8
100
AcDbSymbolTableRecord
100
AcDbLinetypeTableRecord
  2
DOT
 70
64
  3
. . . . . . . . . . . . . . . . . . . .
 72
65
 73
2
 40
0.2
 49
0.1
 74
0
 49
-0.1
 74
0
  0
LTYPE
  5
1F9
100
AcDbSymbolTableRecord
100
AcDbLinetypeTableRecord
  2
DASHED
 70
64
  3
- - - - - - - - - - - - - - - - - - - -
 72
65
 73
2
 40
0.2
 49
0.1
 74
0
 49
-0.1
 74
0
  0
ENDTAB
  0
TABLE
  2
LAYER
  5
2
100
AcDbSymbolTable
 70
36
  0
LAYER
  5
10
100
AcDbSymbolTableRecord
100
AcDbLayerTableRecord
  2
0
 70
0
 62
7
  6
CONTINUOUS
370
-3
390
F
  0
LAYER
  5
1FA
100
AcDbSymbolTableRecord
100
AcDbLayerTableRecord
  2
DEFAULT_1
 70
0
 62
7
  6
CENTER
370
-3
390
F
  0
LAYER
  5
1FB
100
AcDbSymbolTableRecord
100
AcDbLayerTableRecord
  2
DEFAULT_2
 70
0
 62
8
  6
HIDDEN
370
-3
390
F
  0
LAYER
  5
1FC
100
AcDbSymbolTableRecord
100
AcDbLayerTableRecord
  2
DEFAULT_3
 70
0
 62
7
  6
PHANTOM
370
-3
390
F
  0
LAYER
  5
1FD
100
AcDbSymbolTableRecord
100
AcDbLayerTableRecord
  2
01_ALL_DTM_PLN
 70
0
 62
7
  6
CONTINUOUS
370
-3
390
F
  0
LAYER
  5
1FE
100
AcDbSymbolTableRecord
100
AcDbLayerTableRecord
  2
01__ASM_ALL_DTM_PLN
 70
0
 62
7
  6
CONTINUOUS
370
-3
390
F
  0
LAYER
  5
1FF
100
AcDbSymbolTableRecord
100
AcDbLayerTableRecord
  2
01__ASM_DEF_DTM_PLN
 70
0
 62
7
  6
CONTINUOUS
370
-3
390
F
  0
LAYER
  5
200
100
AcDbSymbolTableRecord
100
AcDbLayerTableRecord
  2
01___PRT_ALL_DTM_PLN
 70
0
 62
7
  6
CONTINUOUS
370
-3
390
F
  0
LAYER
  5
201
100
AcDbSymbolTableRecord
100
AcDbLayerTableRecord
  2
01___PRT_DEF_DTM_PLN
 70
0
 62
7
  6
CONTINUOUS
370
-3
390
F
  0
LAYER
  5
202
100
AcDbSymbolTableRecord
100
AcDbLayerTableRecord
  2
02_ALL_AXES
 70
0
 62
7
  6
CONTINUOUS
370
-3
390
F
  0
LAYER
  5
203
100
AcDbSymbolTableRecord
100
AcDbLayerTableRecord
  2
02__ASM_ALL_AXES
 70
0
 62
7
  6
CONTINUOUS
370
-3
390
F
  0
LAYER
  5
204
100
AcDbSymbolTableRecord
100
AcDbLayerTableRecord
  2
02___PRT_ALL_AXES
 70
0
 62
7
  6
CONTINUOUS
370
-3
390
F
  0
LAYER
  5
205
100
AcDbSymbolTableRecord
100
AcDbLayerTableRecord
  2
03_ALL_CURVES
 70
0
 62
7
  6
CONTINUOUS
370
-3
390
F
  0
LAYER
  5
206
100
AcDbSymbolTableRecord
100
AcDbLayerTableRecord
  2
03__ASM_ALL_CURVES
 70
0
 62
7
  6
CONTINUOUS
370
-3
390
F
  0
LAYER
  5
207
100
AcDbSymbolTableRecord
100
AcDbLayerTableRecord
  2
03___PRT_ALL_CURVES
 70
0
 62
7
  6
CONTINUOUS
370
-3
390
F
  0
LAYER
  5
208
100
AcDbSymbolTableRecord
100
AcDbLayerTableRecord
  2
04_ALL_DTM_PNT
 70
0
 62
7
  6
CONTINUOUS
370
-3
390
F
  0
LAYER
  5
209
100
AcDbSymbolTableRecord
100
AcDbLayerTableRecord
  2
04__ASM_ALL_DTM_PNT
 70
0
 62
7
  6
CONTINUOUS
370
-3
390
F
  0
LAYER
  5
20A
100
AcDbSymbolTableRecord
100
AcDbLayerTableRecord
  2
04___PRT_ALL_DTM_PNT
 70
0
 62
7
  6
CONTINUOUS
370
-3
390
F
  0
LAYER
  5
20B
100
AcDbSymbolTableRecord
100
AcDbLayerTableRecord
  2
05_ALL_DTM_CSYS
 70
0
 62
7
  6
CONTINUOUS
370
-3
390
F
  0
LAYER
  5
20C
100
AcDbSymbolTableRecord
100
AcDbLayerTableRecord
  2
05__ASM_ALL_DTM_CSYS
 70
0
 62
7
  6
CONTINUOUS
370
-3
390
F
  0
LAYER
  5
20D
100
AcDbSymbolTableRecord
100
AcDbLayerTableRecord
  2
05__ASM_DEF_DTM_CSYS
 70
0
 62
7
  6
CONTINUOUS
370
-3
390
F
  0
LAYER
  5
20E
100
AcDbSymbolTableRecord
100
AcDbLayerTableRecord
  2
05___PRT_ALL_DTM_CSYS
 70
0
 62
7
  6
CONTINUOUS
370
-3
390
F
  0
LAYER
  5
20F
100
AcDbSymbolTableRecord
100
AcDbLayerTableRecord
  2
05___PRT_DEF_DTM_CSYS
 70
0
 62
7
  6
CONTINUOUS
370
-3
390
F
  0
LAYER
  5
210
100
AcDbSymbolTableRecord
100
AcDbLayerTableRecord
  2
06_ALL_SURFS
 70
0
 62
7
  6
CONTINUOUS
370
-3
390
F
  0
LAYER
  5
211
100
AcDbSymbolTableRecord
100
AcDbLayerTableRecord
  2
06__ASM_ALL_SURFS
 70
0
 62
7
  6
CONTINUOUS
370
-3
390
F
  0
LAYER
  5
212
100
AcDbSymbolTableRecord
100
AcDbLayerTableRecord
  2
06___PRT_ALL_SURFS
 70
0
 62
7
  6
CONTINUOUS
370
-3
390
F
  0
LAYER
  5
213
100
AcDbSymbolTableRecord
100
AcDbLayerTableRecord
  2
07__ASM_ALL_SKELETONS
 70
0
 62
7
  6
CONTINUOUS
370
-3
390
F
  0
ENDTAB
  0
TABLE
  2
STYLE
  5
3
100
AcDbSymbolTable
 70
1
  0
STYLE
  5
11
100
AcDbSymbolTableRecord
100
AcDbTextStyleTableRecord
  2
STANDARD
 70
0
 40
0.0
 41
0.8
 50
0.0
 71
0
 42
0.2
  3
txt
  4

  0
STYLE
  5
214
100
AcDbSymbolTableRecord
100
AcDbTextStyleTableRecord
  2
TEXTSTYLE_1
 70
0
 40
0.0
 41
0.8
 50
0.0
 71
0
 42
0.2
  3
gdt
  4

  0
ENDTAB
  0
TABLE
  2
VIEW
  5
6
100
AcDbSymbolTable
 70
0
  0
ENDTAB
  0
TABLE
  2
UCS
  5
7
100
AcDbSymbolTable
 70
0
  0
ENDTAB
  0
TABLE
  2
APPID
  5
9
100
AcDbSymbolTable
 70
1
  0
APPID
  5
215
100
AcDbSymbolTableRecord
100
AcDbRegAppTableRecord
  2
ACAD
 70
0
  0
ENDTAB
  0
TABLE
  2
BLOCK_RECORD
  5
1
100
AcDbSymbolTable
 70
0
  0
BLOCK_RECORD
  5
216
100
AcDbSymbolTableRecord
100
AcDbBlockTableRecord
  2
*Model_Space
  0
BLOCK_RECORD
  5
217
100
AcDbSymbolTableRecord
100
AcDbBlockTableRecord
  2
*Paper_Space
  0
ENDTAB
  0
TABLE
  2
DIMSTYLE
  5
A
100
AcDbSymbolTable
 70
1
100
AcDbDimStyleTable
 71
0
  0
DIMSTYLE
105
218
100
AcDbSymbolTableRecord
100
AcDbDimStyleTableRecord
  2
STANDARD
 70
0
  3

  4

 40
1.0
 41
0.1875
 42
0.0625
 43
0.38
 44
0.125
 45
0.0
 46
0.0
 47
0.0001
 48
0.0001
140
0.15625
141
0.09
142
0.0
143
25.4
144
1.0
145
0.0
146
1.0
147
0.09
 71
0.0
 72
0.0
 73
1
 74
1
 75
0
 76
0
 77
0
 78
4
 79
1
170
0
171
3
172
0
173
0
174
0
175
0
176
0
177
0
178
0
270
2
179
4
271
4
272
4
273
2
274
2
275
0
280
0
281
0
282
0
283
1
284
4
285
0
286
0
287
3
288
0
340
11
278
46
  0
ENDTAB
  0
ENDSEC
  0
SECTION
  2
BLOCKS
  0
BLOCK
  5
20
100
AcDbEntity
  8
0
100
AcDbBlockBegin
  2
*Model_Space
 70
0
 10
0.0
 20
0.0
 30
0.0
  3
*Model_Space
  1

  0
ENDBLK
  5
21
100
AcDbEntity
  8
0
100
AcDbBlockEnd
  0
BLOCK
  5
1C
100
AcDbEntity
  8
0
100
AcDbBlockBegin
  2
*Paper_Space
 70
0
 10
0.0
 20
0.0
 30
0.0
  3
*Paper_Space
  1

  0
ENDBLK
  5
1D
100
AcDbEntity
  8
0
100
AcDbBlockEnd
  0
ENDSEC
  0
SECTION
  2
ENTITIES
  0
MTEXT
  5
219
100
AcDbEntity
  8
0
100
AcDbMText
 62
7
  6
CONTINUOUS
  7
STANDARD
 71
1
 72
1
 10
15.9560215477
 20
0.9479130325
 30
0.0
 11
1.0
 21
0.0
 31
0.0
 44
0.9
  1
SCALE: 1:1.000
 40
0.3
 41
3.36
  0
LINE
  5
21A
100
AcDbEntity
  8
0
100
AcDbLine
 62
7
  6
CONTINUOUS
 10
0.0
 20
0.0
 11
0.0
 21
17.0
  0
LINE
  5
21B
100
AcDbEntity
  8
0
100
AcDbLine
 62
7
  6
CONTINUOUS
 10
0.0
 20
0.0
 11
22.0
 21
0.0
  0
LINE
  5
21C
100
AcDbEntity
  8
0
100
AcDbLine
 62
7
  6
CONTINUOUS
 10
0.0
 20
17.0
 11
22.0
 21
17.0
  0
LINE
  5
21D
100
AcDbEntity
  8
0
100
AcDbLine
 62
7
  6
CONTINUOUS
 10
22.0
 20
0.0
 11
22.0
 21
17.0
  0
LINE
  5
21E
100
AcDbEntity
  8
0
100
AcDbLine
 62
7
  6
CONTINUOUS
 10
5.0053672762
 20
5.5901198968
 11
5.0053672762
 21
5.5251198968
  0
LINE
  5
21F
100
AcDbEntity
  8
0
100
AcDbLine
 62
7
  6
CONTINUOUS
 10
5.0810068781
 20
5.5122591349
 11
5.0987551404
 21
5.4694110395
  0
LINE
  5
220
100
AcDbEntity
  8
0
100
AcDbLine
 62
7
  6
CONTINUOUS
 10
5.2869794119
 20
5.4694110395
 11
5.3047276742
 21
5.5122591349
  0
LINE
  5
221
100
AcDbEntity
  8
0
100
AcDbLine
 62
7
  6
CONTINUOUS
 10
5.4560068781
 20
5.5122591349
 11
5.4737551404
 21
5.4694110395
  0
LINE
  5
222
100
AcDbEntity
  8
0
100
AcDbLine
 62
7
  6
CONTINUOUS
 10
5.6619794119
 20
5.4694110395
 11
5.6797276742
 21
5.5122591349
  0
LINE
  5
223
100
AcDbEntity
  8
0
100
AcDbLine
 62
7
  6
CONTINUOUS
 10
5.8310068781
 20
5.5122591349
 11
5.8487551404
 21
5.4694110395
  0
LINE
  5
224
100
AcDbEntity
  8
0
100
AcDbLine
 62
7
  6
CONTINUOUS
 10
6.0369794119
 20
5.4694110395
 11
6.0547276742
 21
5.5122591349
  0
LINE
  5
225
100
AcDbEntity
  8
0
100
AcDbLine
 62
7
  6
CONTINUOUS
 10
5.1276263758
 20
5.4501198968
 11
5.2581081766
 21
5.4501198968
  0
LINE
  5
226
100
AcDbEntity
  8
0
100
AcDbLine
 62
7
  6
CONTINUOUS
 10
5.5026263758
 20
5.4501198968
 11
5.6331081766
 21
5.4501198968
  0
LINE
  5
227
100
AcDbEntity
  8
0
100
AcDbLine
 62
7
  6
CONTINUOUS
 10
5.8776263758
 20
5.4501198968
 11
6.0081081766
 21
5.4501198968
  0
LINE
  5
228
100
AcDbEntity
  8
0
100
AcDbLine
 62
7
  6
CONTINUOUS
 10
6.2526263758
 20
5.4501198968
 11
6.3831081766
 21
5.4501198968
  0
LINE
  5
229
100
AcDbEntity
  8
0
100
AcDbLine
 62
7
  6
CONTINUOUS
 10
6.6276263758
 20
5.4501198968
 11
6.7581081766
 21
5.4501198968
  0
LINE
  5
22A
100
AcDbEntity
  8
0
100
AcDbLine
 62
7
  6
CONTINUOUS
 10
7.0026263758
 20
5.4501198968
 11
7.1331081766
 21
5.4501198968
  0
LINE
  5
22B
100
AcDbEntity
  8
0
100
AcDbLine
 62
7
  6
CONTINUOUS
 10
5.0053672762
 20
5.5251198968
 11
5.0617593879
 21
5.5251198968
  0
LINE
  5
22C
100
AcDbEntity
  8
0
100
AcDbLine
 62
7
  6
CONTINUOUS
 10
5.3239751645
 20
5.5251198968
 11
5.4367593879
 21
5.5251198968
  0
LINE
  5
22D
100
AcDbEntity
  8
0
100
AcDbLine
 62
7
  6
CONTINUOUS
 10
5.6989751645
 20
5.5251198968
 11
5.8117593879
 21
5.5251198968
  0
LINE
  5
22E
100
AcDbEntity
  8
0
100
AcDbLine
 62
7
  6
CONTINUOUS
 10
6.0739751645
 20
5.5251198968
 11
6.1867593879
 21
5.5251198968
  0
LINE
  5
22F
100
AcDbEntity
  8
0
100
AcDbLine
 62
7
  6
CONTINUOUS
 10
6.4489751645
 20
5.5251198968
 11
6.5617593879
 21
5.5251198968
  0
LINE
  5
230
100
AcDbEntity
  8
0
100
AcDbLine
 62
7
  6
CONTINUOUS
 10
6.8239751645
 20
5.5251198968
 11
6.9367593879
 21
5.5251198968
  0
LINE
  5
231
100
AcDbEntity
  8
0
100
AcDbLine
 62
7
  6
CONTINUOUS
 10
7.1989751645
 20
5.5251198968
 11
7.2553672762
 21
5.5251198968
  0
LINE
  5
232
100
AcDbEntity
  8
0
100
AcDbLine
 62
7
  6
CONTINUOUS
 10
7.2553672762
 20
5.5901198968
 11
5.0053672762
 21
5.5901198968
  0
LINE
  5
233
100
AcDbEntity
  8
0
100
AcDbLine
 62
7
  6
CONTINUOUS
 10
6.2060068781
 20
5.5122591349
 11
6.2237551404
 21
5.4694110395
  0
LINE
  5
234
100
AcDbEntity
  8
0
100
AcDbLine
 62
7
  6
CONTINUOUS
 10
6.4119794119
 20
5.4694110395
 11
6.4297276742
 21
5.5122591349
  0
LINE
  5
235
100
AcDbEntity
  8
0
100
AcDbLine
 62
7
  6
CONTINUOUS
 10
6.5810068781
 20
5.5122591349
 11
6.5987551404
 21
5.4694110395
  0
LINE
  5
236
100
AcDbEntity
  8
0
100
AcDbLine
 62
7
  6
CONTINUOUS
 10
6.7869794119
 20
5.4694110395
 11
6.8047276742
 21
5.5122591349
  0
LINE
  5
237
100
AcDbEntity
  8
0
100
AcDbLine
 62
7
  6
CONTINUOUS
 10
6.9560068781
 20
5.5122591349
 11
6.9737551404
 21
5.4694110395
  0
LINE
  5
238
100
AcDbEntity
  8
0
100
AcDbLine
 62
7
  6
CONTINUOUS
 10
7.1619794119
 20
5.4694110395
 11
7.1797276742
 21
5.5122591349
  0
LINE
  5
239
100
AcDbEntity
  8
0
100
AcDbLine
 62
7
  6
CONTINUOUS
 10
7.2553672762
 20
5.5251198968
 11
7.2553672762
 21
5.5901198968
  0
LINE
  5
23A
100
AcDbEntity
  8
0
100
AcDbLine
 62
7
  6
CONTINUOUS
 10
4.9458720839
 20
13.1000477814
 11
4.9458720839
 21
12.1000477814
  0
LINE
  5
23B
100
AcDbEntity
  8
0
100
AcDbLine
 62
7
  6
CONTINUOUS
 10
7.1958720839
 20
12.1000477814
 11
4.9458720839
 21
12.1000477814
  0
LINE
  5
23C
100
AcDbEntity
  8
0
100
AcDbLine
 62
7
  6
CONTINUOUS
 10
4.9458720839
 20
13.1000477814
 11
7.1958720839
 21
13.1000477814
  0
LINE
  5
23D
100
AcDbEntity
  8
0
100
AcDbLine
 62
7
  6
CONTINUOUS
 10
7.1958720839
 20
13.1000477814
 11
7.1958720839
 21
12.1000477814
  0
LINE
  5
23E
100
AcDbEntity
  8
0
100
AcDbLine
 62
7
  6
CONTINUOUS
 10
15.0603552569
 20
5.3906247044
 11
15.0603552569
 21
5.5306247044
  0
LINE
  5
23F
100
AcDbEntity
  8
0
100
AcDbLine
 62
7
  6
CONTINUOUS
 10
15.0603552569
 20
5.3906247044
 11
16.0603552569
 21
5.3906247044
  0
LINE
  5
240
100
AcDbEntity
  8
0
100
AcDbLine
 62
7
  6
CONTINUOUS
 10
16.0603552569
 20
5.4656247044
 11
15.0603552569
 21
5.4656247044
  0
LINE
  5
241
100
AcDbEntity
  8
0
100
AcDbLine
 62
7
  6
CONTINUOUS
 10
16.0603552569
 20
5.5306247044
 11
15.0603552569
 21
5.5306247044
  0
LINE
  5
242
100
AcDbEntity
  8
0
100
AcDbLine
 62
7
  6
CONTINUOUS
 10
16.0603552569
 20
5.3906247044
 11
16.0603552569
 21
5.5306247044
  0
LINE
  5
243
100
AcDbEntity
  8
0
100
AcDbLine
 62
7
  6
CONTINUOUS
 10
14.3039718279
 20
12.1626542359
 11
14.3237995492
 21
12.1222495879
  0
LINE
  5
244
100
AcDbEntity
  8
0
100
AcDbLine
 62
7
  6
CONTINUOUS
 10
14.5460381513
 20
12.9459811455
 11
14.3039718279
 21
12.1626542359
  0
LINE
  5
245
100
AcDbEntity
  8
0
100
AcDbLine
 62
7
  6
CONTINUOUS
 10
14.397391307
 20
12.1142552102
 11
14.426809002
 21
12.0876204069
  0
LINE
  5
246
100
AcDbEntity
  8
0
100
AcDbLine
 62
7
  6
CONTINUOUS
 10
14.6001750367
 20
12.0876204069
 11
14.6034518058
 21
12.1142552102
  0
LINE
  5
247
100
AcDbEntity
  8
0
100
AcDbLine
 62
7
  6
CONTINUOUS
 10
14.5997944767
 20
12.0858268506
 11
14.6001750367
 21
12.0876204069
  0
LINE
  5
248
100
AcDbEntity
  8
0
100
AcDbLine
 62
7
  6
CONTINUOUS
 10
14.6034518058
 20
12.1142552102
 11
14.6037100354
 21
12.1154495188
  0
LINE
  5
249
100
AcDbEntity
  8
0
100
AcDbLine
 62
7
  6
CONTINUOUS
 10
14.7427891797
 20
12.1142552102
 11
14.7722068748
 21
12.0876204069
  0
LINE
  5
24A
100
AcDbEntity
  8
0
100
AcDbLine
 62
7
  6
CONTINUOUS
 10
14.6003309275
 20
12.087572233
 11
14.6107306263
 21
12.1212256709
  0
LINE
  5
24B
100
AcDbEntity
  8
0
100
AcDbLine
 62
7
  6
CONTINUOUS
 10
15.0881870525
 20
12.1142552102
 11
15.1176047475
 21
12.0876204069
  0
LINE
  5
24C
100
AcDbEntity
  8
0
100
AcDbLine
 62
7
  6
CONTINUOUS
 10
14.9455729094
 20
12.0876204069
 11
14.9488496785
 21
12.1142552102
  0
LINE
  5
24D
100
AcDbEntity
  8
0
100
AcDbLine
 62
7
  6
CONTINUOUS
 10
14.9451923494
 20
12.0858268506
 11
14.9455729094
 21
12.0876204069
  0
LINE
  5
24E
100
AcDbEntity
  8
0
100
AcDbLine
 62
7
  6
CONTINUOUS
 10
14.9488496785
 20
12.1142552102
 11
14.9491079081
 21
12.1154495188
  0
LINE
  5
24F
100
AcDbEntity
  8
0
100
AcDbLine
 62
7
  6
CONTINUOUS
 10
14.459285777
 20
12.0756288403
 11
14.5794674741
 21
12.0756288403
  0
LINE
  5
250
100
AcDbEntity
  8
0
100
AcDbLine
 62
7
  6
CONTINUOUS
 10
14.8046836497
 20
12.0756288403
 11
14.9248653469
 21
12.0756288403
  0
LINE
  5
251
100
AcDbEntity
  8
0
100
AcDbLine
 62
7
  6
CONTINUOUS
 10
15.1500815225
 20
12.0756288403
 11
15.2702632196
 21
12.0756288403
  0
LINE
  5
252
100
AcDbEntity
  8
0
100
AcDbLine
 62
7
  6
CONTINUOUS
 10
15.4954793952
 20
12.0756288403
 11
15.6156610924
 21
12.0756288403
  0
LINE
  5
253
100
AcDbEntity
  8
0
100
AcDbLine
 62
7
  6
CONTINUOUS
 10
15.840877268
 20
12.0756288403
 11
15.9610589651
 21
12.0756288403
  0
LINE
  5
254
100
AcDbEntity
  8
0
100
AcDbLine
 62
7
  6
CONTINUOUS
 10
16.1862751408
 20
12.0756288403
 11
16.3064568379
 21
12.0756288403
  0
LINE
  5
255
100
AcDbEntity
  8
0
100
AcDbLine
 62
7
  6
CONTINUOUS
 10
14.9457288002
 20
12.087572233
 11
14.9561284991
 21
12.1212256709
  0
LINE
  5
256
100
AcDbEntity
  8
0
100
AcDbLine
 62
7
  6
CONTINUOUS
 10
14.3237995492
 20
12.1222495879
 11
14.3757401236
 21
12.1222495879
  0
LINE
  5
257
100
AcDbEntity
  8
0
100
AcDbLine
 62
7
  6
CONTINUOUS
 10
14.6172568475
 20
12.1222495879
 11
14.7211379964
 21
12.1222495879
  0
LINE
  5
258
100
AcDbEntity
  8
0
100
AcDbLine
 62
7
  6
CONTINUOUS
 10
14.9626547202
 20
12.1222495879
 11
15.0665358692
 21
12.1222495879
  0
LINE
  5
259
100
AcDbEntity
  8
0
100
AcDbLine
 62
7
  6
CONTINUOUS
 10
15.308052593
 20
12.1222495879
 11
15.4119337419
 21
12.1222495879
  0
LINE
  5
25A
100
AcDbEntity
  8
0
100
AcDbLine
 62
7
  6
CONTINUOUS
 10
15.6534504657
 20
12.1222495879
 11
15.7573316147
 21
12.1222495879
  0
LINE
  5
25B
100
AcDbEntity
  8
0
100
AcDbLine
 62
7
  6
CONTINUOUS
 10
15.9988483385
 20
12.1222495879
 11
16.1027294874
 21
12.1222495879
  0
LINE
  5
25C
100
AcDbEntity
  8
0
100
AcDbLine
 62
7
  6
CONTINUOUS
 10
16.3442462112
 20
12.1222495879
 11
16.3961867857
 21
12.1222495879
  0
LINE
  5
25D
100
AcDbEntity
  8
0
100
AcDbLine
 62
7
  6
CONTINUOUS
 10
16.3763590644
 20
12.1626542359
 11
14.3039718279
 21
12.1626542359
  0
LINE
  5
25E
100
AcDbEntity
  8
0
100
AcDbLine
 62
7
  6
CONTINUOUS
 10
15.4335849252
 20
12.1142552102
 11
15.4630026203
 21
12.0876204069
  0
LINE
  5
25F
100
AcDbEntity
  8
0
100
AcDbLine
 62
7
  6
CONTINUOUS
 10
15.2909707822
 20
12.0876204069
 11
15.2942475513
 21
12.1142552102
  0
LINE
  5
260
100
AcDbEntity
  8
0
100
AcDbLine
 62
7
  6
CONTINUOUS
 10
15.2905902222
 20
12.0858268506
 11
15.2909707822
 21
12.0876204069
  0
LINE
  5
261
100
AcDbEntity
  8
0
100
AcDbLine
 62
7
  6
CONTINUOUS
 10
15.2942475513
 20
12.1142552102
 11
15.2945057809
 21
12.1154495188
  0
LINE
  5
262
100
AcDbEntity
  8
0
100
AcDbLine
 62
7
  6
CONTINUOUS
 10
15.778982798
 20
12.1142552102
 11
15.808400493
 21
12.0876204069
  0
LINE
  5
263
100
AcDbEntity
  8
0
100
AcDbLine
 62
7
  6
CONTINUOUS
 10
15.291126673
 20
12.087572233
 11
15.3015263718
 21
12.1212256709
  0
LINE
  5
264
100
AcDbEntity
  8
0
100
AcDbLine
 62
7
  6
CONTINUOUS
 10
16.1243806707
 20
12.1142552102
 11
16.1537983658
 21
12.0876204069
  0
LINE
  5
265
100
AcDbEntity
  8
0
100
AcDbLine
 62
7
  6
CONTINUOUS
 10
15.6363686549
 20
12.0876204069
 11
15.639645424
 21
12.1142552102
  0
LINE
  5
266
100
AcDbEntity
  8
0
100
AcDbLine
 62
7
  6
CONTINUOUS
 10
15.6359880949
 20
12.0858268506
 11
15.6363686549
 21
12.0876204069
  0
LINE
  5
267
100
AcDbEntity
  8
0
100
AcDbLine
 62
7
  6
CONTINUOUS
 10
15.639645424
 20
12.1142552102
 11
15.6399036536
 21
12.1154495188
  0
LINE
  5
268
100
AcDbEntity
  8
0
100
AcDbLine
 62
7
  6
CONTINUOUS
 10
15.6365245457
 20
12.087572233
 11
15.6469242446
 21
12.1212256709
  0
LINE
  5
269
100
AcDbEntity
  8
0
100
AcDbLine
 62
7
  6
CONTINUOUS
 10
14.5460381513
 20
12.9459811455
 11
16.6184253878
 21
12.9459811455
  0
LINE
  5
26A
100
AcDbEntity
  8
0
100
AcDbLine
 62
7
  6
CONTINUOUS
 10
15.9817665277
 20
12.0876204069
 11
15.9850432968
 21
12.1142552102
  0
LINE
  5
26B
100
AcDbEntity
  8
0
100
AcDbLine
 62
7
  6
CONTINUOUS
 10
15.9813859677
 20
12.0858268506
 11
15.9817665277
 21
12.0876204069
  0
LINE
  5
26C
100
AcDbEntity
  8
0
100
AcDbLine
 62
7
  6
CONTINUOUS
 10
15.9850432968
 20
12.1142552102
 11
15.9853015264
 21
12.1154495188
  0
LINE
  5
26D
100
AcDbEntity
  8
0
100
AcDbLine
 62
7
  6
CONTINUOUS
 10
15.9819224185
 20
12.087572233
 11
15.9923221173
 21
12.1212256709
  0
LINE
  5
26E
100
AcDbEntity
  8
0
100
AcDbLine
 62
7
  6
CONTINUOUS
 10
16.3961867857
 20
12.1222495879
 11
16.3763590644
 21
12.1626542359
  0
LINE
  5
26F
100
AcDbEntity
  8
0
100
AcDbLine
 62
7
  6
CONTINUOUS
 10
16.3271644004
 20
12.0876204069
 11
16.3304411695
 21
12.1142552102
  0
LINE
  5
270
100
AcDbEntity
  8
0
100
AcDbLine
 62
7
  6
CONTINUOUS
 10
16.3304411695
 20
12.1142552102
 11
16.3306993991
 21
12.1154495188
  0
LINE
  5
271
100
AcDbEntity
  8
0
100
AcDbLine
 62
7
  6
CONTINUOUS
 10
16.3267838404
 20
12.0858268506
 11
16.3271644004
 21
12.0876204069
  0
LINE
  5
272
100
AcDbEntity
  8
0
100
AcDbLine
 62
7
  6
CONTINUOUS
 10
16.3273202912
 20
12.087572233
 11
16.3377199901
 21
12.1212256709
  0
LINE
  5
273
100
AcDbEntity
  8
0
100
AcDbLine
 62
7
  6
CONTINUOUS
 10
16.6184253878
 20
12.9459811455
 11
16.3763590644
 21
12.1626542359
  0
LINE
  5
274
100
AcDbEntity
  8
0
100
AcDbLine
 62
7
  6
CONTINUOUS
 10
16.6382531091
 20
12.9055764976
 11
16.3961867857
 21
12.1222495879
  0
LINE
  5
275
100
AcDbEntity
  8
0
100
AcDbLine
 62
7
  6
CONTINUOUS
 10
16.6382531091
 20
12.9055764976
 11
16.6184253878
 21
12.9459811455
  0
ARC
  5
276
100
AcDbEntity
  8
0
100
AcDbCircle
 62
7
  6
CONTINUOUS
 10
5.5026263758
 20
5.4813698968
 40
0.03125
100
AcDbArc
 50
202.5
 51
270.0
  0
ARC
  5
277
100
AcDbEntity
  8
0
100
AcDbCircle
 62
7
  6
CONTINUOUS
 10
5.6331081766
 20
5.4813698968
 40
0.03125
100
AcDbArc
 50
270.0
 51
337.5
  0
ARC
  5
278
100
AcDbEntity
  8
0
100
AcDbCircle
 62
7
  6
CONTINUOUS
 10
5.8776263758
 20
5.4813698968
 40
0.03125
100
AcDbArc
 50
202.5
 51
270.0
  0
ARC
  5
279
100
AcDbEntity
  8
0
100
AcDbCircle
 62
7
  6
CONTINUOUS
 10
6.0081081766
 20
5.4813698968
 40
0.03125
100
AcDbArc
 50
270.0
 51
337.5
  0
ARC
  5
27A
100
AcDbEntity
  8
0
100
AcDbCircle
 62
7
  6
CONTINUOUS
 10
6.2526263758
 20
5.4813698968
 40
0.03125
100
AcDbArc
 50
202.5
 51
270.0
  0
ARC
  5
27B
100
AcDbEntity
  8
0
100
AcDbCircle
 62
7
  6
CONTINUOUS
 10
6.3831081766
 20
5.4813698968
 40
0.03125
100
AcDbArc
 50
270.0
 51
337.5
  0
ARC
  5
27C
100
AcDbEntity
  8
0
100
AcDbCircle
 62
7
  6
CONTINUOUS
 10
5.2581081766
 20
5.4813698968
 40
0.03125
100
AcDbArc
 50
270.0
 51
337.5
  0
ARC
  5
27D
100
AcDbEntity
  8
0
100
AcDbCircle
 62
7
  6
CONTINUOUS
 10
5.1276263758
 20
5.4813698968
 40
0.03125
100
AcDbArc
 50
202.5
 51
270.0
  0
ARC
  5
27E
100
AcDbEntity
  8
0
100
AcDbCircle
 62
7
  6
CONTINUOUS
 10
7.1331081766
 20
5.4813698968
 40
0.03125
100
AcDbArc
 50
270.0
 51
337.5
  0
ARC
  5
27F
100
AcDbEntity
  8
0
100
AcDbCircle
 62
7
  6
CONTINUOUS
 10
7.0026263758
 20
5.4813698968
 40
0.03125
100
AcDbArc
 50
202.5
 51
270.0
  0
ARC
  5
280
100
AcDbEntity
  8
0
100
AcDbCircle
 62
7
  6
CONTINUOUS
 10
6.7581081766
 20
5.4813698968
 40
0.03125
100
AcDbArc
 50
270.0
 51
337.5
  0
ARC
  5
281
100
AcDbEntity
  8
0
100
AcDbCircle
 62
7
  6
CONTINUOUS
 10
6.6276263758
 20
5.4813698968
 40
0.03125
100
AcDbArc
 50
202.5
 51
270.0
  0
ARC
  5
282
100
AcDbEntity
  8
0
100
AcDbCircle
 62
7
  6
CONTINUOUS
 10
5.3239751645
 20
5.5042865634
 40
0.0208333333
100
AcDbArc
 50
90.0
 51
157.5
  0
ARC
  5
283
100
AcDbEntity
  8
0
100
AcDbCircle
 62
7
  6
CONTINUOUS
 10
5.0617593879
 20
5.5042865634
 40
0.0208333333
100
AcDbArc
 50
22.5
 51
90.0
  0
ARC
  5
284
100
AcDbEntity
  8
0
100
AcDbCircle
 62
7
  6
CONTINUOUS
 10
5.6989751645
 20
5.5042865634
 40
0.0208333333
100
AcDbArc
 50
90.0
 51
157.5
  0
ARC
  5
285
100
AcDbEntity
  8
0
100
AcDbCircle
 62
7
  6
CONTINUOUS
 10
5.4367593879
 20
5.5042865634
 40
0.0208333333
100
AcDbArc
 50
22.5
 51
90.0
  0
ARC
  5
286
100
AcDbEntity
  8
0
100
AcDbCircle
 62
7
  6
CONTINUOUS
 10
6.0739751645
 20
5.5042865634
 40
0.0208333333
100
AcDbArc
 50
90.0
 51
157.5
  0
ARC
  5
287
100
AcDbEntity
  8
0
100
AcDbCircle
 62
7
  6
CONTINUOUS
 10
5.8117593879
 20
5.5042865634
 40
0.0208333333
100
AcDbArc
 50
22.5
 51
90.0
  0
ARC
  5
288
100
AcDbEntity
  8
0
100
AcDbCircle
 62
7
  6
CONTINUOUS
 10
6.4489751645
 20
5.5042865634
 40
0.0208333333
100
AcDbArc
 50
90.0
 51
157.5
  0
ARC
  5
289
100
AcDbEntity
  8
0
100
AcDbCircle
 62
7
  6
CONTINUOUS
 10
6.1867593879
 20
5.5042865634
 40
0.0208333333
100
AcDbArc
 50
22.5
 51
90.0
  0
ARC
  5
28A
100
AcDbEntity
  8
0
100
AcDbCircle
 62
7
  6
CONTINUOUS
 10
6.8239751645
 20
5.5042865634
 40
0.0208333333
100
AcDbArc
 50
90.0
 51
157.5
  0
ARC
  5
28B
100
AcDbEntity
  8
0
100
AcDbCircle
 62
7
  6
CONTINUOUS
 10
6.5617593879
 20
5.5042865634
 40
0.0208333333
100
AcDbArc
 50
22.5
 51
90.0
  0
ARC
  5
28C
100
AcDbEntity
  8
0
100
AcDbCircle
 62
7
  6
CONTINUOUS
 10
7.1989751645
 20
5.5042865634
 40
0.0208333333
100
AcDbArc
 50
90.0
 51
157.5
  0
ARC
  5
28D
100
AcDbEntity
  8
0
100
AcDbCircle
 62
7
  6
CONTINUOUS
 10
6.9367593879
 20
5.5042865634
 40
0.0208333333
100
AcDbArc
 50
22.5
 51
90.0
  0
SPLINE
  5
28E
100
AcDbEntity
  8
0
100
AcDbSpline
 62
7
  6
CONTINUOUS
 70
0
 71
3
 72
11
 73
7
 74
0
 42
0.0000001
 43
0.0000001
 44
0.0000000001
 40
0.0
 40
0.0
 40
0.0
 40
0.0
 40
0.2342275831
 40
0.4753667037
 40
0.7291517461
 40
1.0
 40
1.0
 40
1.0
 40
1.0
 10
14.6037079393
 20
12.1154501669
 30
0.0
 10
14.6038516123
 20
12.1159141584
 30
0.0
 10
14.604245212
 20
12.1168273974
 30
0.0
 10
14.6051241262
 20
12.1180698385
 30
0.0
 10
14.6062776839
 20
12.1191734243
 30
0.0
 10
14.6071826052
 20
12.1197865803
 30
0.0
 10
14.607668698
 20
12.1200679779
 30
0.0
  0
SPLINE
  5
28F
100
AcDbEntity
  8
0
100
AcDbSpline
 62
7
  6
CONTINUOUS
 70
0
 71
3
 72
11
 73
7
 74
0
 42
0.0000001
 43
0.0000001
 44
0.0000000001
 40
0.0
 40
0.0
 40
0.0
 40
0.0
 40
0.2218878497
 40
0.4632431071
 40
0.723573085
 40
1.0
 40
1.0
 40
1.0
 40
1.0
 10
14.607668698
 20
12.1200679779
 30
0.0
 10
14.6083046716
 20
12.1204361411
 30
0.0
 10
14.6097048562
 20
12.1210827768
 30
0.0
 10
14.6120113182
 20
12.1217577267
 30
0.0
 10
14.6145621802
 20
12.122163064
 30
0.0
 10
14.6163413728
 20
12.1222495879
 30
0.0
 10
14.6172568475
 20
12.1222495879
 30
0.0
  0
SPLINE
  5
290
100
AcDbEntity
  8
0
100
AcDbSpline
 62
7
  6
CONTINUOUS
 70
0
 71
3
 72
11
 73
7
 74
0
 42
0.0000001
 43
0.0000001
 44
0.0000000001
 40
0.0
 40
0.0
 40
0.0
 40
0.0
 40
0.2342275831
 40
0.4753667037
 40
0.7291517461
 40
1.0
 40
1.0
 40
1.0
 40
1.0
 10
14.9491058121
 20
12.1154501669
 30
0.0
 10
14.949249485
 20
12.1159141584
 30
0.0
 10
14.9496430848
 20
12.1168273974
 30
0.0
 10
14.950521999
 20
12.1180698385
 30
0.0
 10
14.9516755566
 20
12.1191734243
 30
0.0
 10
14.952580478
 20
12.1197865803
 30
0.0
 10
14.9530665707
 20
12.1200679779
 30
0.0
  0
SPLINE
  5
291
100
AcDbEntity
  8
0
100
AcDbSpline
 62
7
  6
CONTINUOUS
 70
0
 71
3
 72
11
 73
7
 74
0
 42
0.0000001
 43
0.0000001
 44
0.0000000001
 40
0.0
 40
0.0
 40
0.0
 40
0.0
 40
0.2218878497
 40
0.4632431071
 40
0.723573085
 40
1.0
 40
1.0
 40
1.0
 40
1.0
 10
14.9530665707
 20
12.1200679779
 30
0.0
 10
14.9537025444
 20
12.1204361411
 30
0.0
 10
14.9551027289
 20
12.1210827768
 30
0.0
 10
14.957409191
 20
12.1217577267
 30
0.0
 10
14.959960053
 20
12.122163064
 30
0.0
 10
14.9617392455
 20
12.1222495879
 30
0.0
 10
14.9626547202
 20
12.1222495879
 30
0.0
  0
SPLINE
  5
292
100
AcDbEntity
  8
0
100
AcDbSpline
 62
7
  6
CONTINUOUS
 70
0
 71
3
 72
11
 73
7
 74
0
 42
0.0000001
 43
0.0000001
 44
0.0000000001
 40
0.0
 40
0.0
 40
0.0
 40
0.0
 40
0.2342275831
 40
0.4753667037
 40
0.7291517461
 40
1.0
 40
1.0
 40
1.0
 40
1.0
 10
15.2945036848
 20
12.1154501669
 30
0.0
 10
15.2946473578
 20
12.1159141584
 30
0.0
 10
15.2950409575
 20
12.1168273974
 30
0.0
 10
15.2959198717
 20
12.1180698385
 30
0.0
 10
15.2970734294
 20
12.1191734243
 30
0.0
 10
15.2979783507
 20
12.1197865803
 30
0.0
 10
15.2984644435
 20
12.1200679779
 30
0.0
  0
SPLINE
  5
293
100
AcDbEntity
  8
0
100
AcDbSpline
 62
7
  6
CONTINUOUS
 70
0
 71
3
 72
11
 73
7
 74
0
 42
0.0000001
 43
0.0000001
 44
0.0000000001
 40
0.0
 40
0.0
 40
0.0
 40
0.0
 40
0.2218878497
 40
0.4632431071
 40
0.723573085
 40
1.0
 40
1.0
 40
1.0
 40
1.0
 10
15.2984644435
 20
12.1200679779
 30
0.0
 10
15.2991004171
 20
12.1204361411
 30
0.0
 10
15.3005006017
 20
12.1210827768
 30
0.0
 10
15.3028070637
 20
12.1217577267
 30
0.0
 10
15.3053579257
 20
12.122163064
 30
0.0
 10
15.3071371183
 20
12.1222495879
 30
0.0
 10
15.308052593
 20
12.1222495879
 30
0.0
  0
SPLINE
  5
294
100
AcDbEntity
  8
0
100
AcDbSpline
 62
7
  6
CONTINUOUS
 70
0
 71
3
 72
11
 73
7
 74
0
 42
0.0000001
 43
0.0000001
 44
0.0000000001
 40
0.0
 40
0.0
 40
0.0
 40
0.0
 40
0.2342275831
 40
0.4753667037
 40
0.7291517461
 40
1.0
 40
1.0
 40
1.0
 40
1.0
 10
15.6399015576
 20
12.1154501669
 30
0.0
 10
15.6400452305
 20
12.1159141584
 30
0.0
 10
15.6404388303
 20
12.1168273974
 30
0.0
 10
15.6413177445
 20
12.1180698385
 30
0.0
 10
15.6424713021
 20
12.1191734243
 30
0.0
 10
15.6433762235
 20
12.1197865803
 30
0.0
 10
15.6438623162
 20
12.1200679779
 30
0.0
  0
SPLINE
  5
295
100
AcDbEntity
  8
0
100
AcDbSpline
 62
7
  6
CONTINUOUS
 70
0
 71
3
 72
11
 73
7
 74
0
 42
0.0000001
 43
0.0000001
 44
0.0000000001
 40
0.0
 40
0.0
 40
0.0
 40
0.0
 40
0.2218878497
 40
0.4632431071
 40
0.723573085
 40
1.0
 40
1.0
 40
1.0
 40
1.0
 10
15.6438623162
 20
12.1200679779
 30
0.0
 10
15.6444982899
 20
12.1204361411
 30
0.0
 10
15.6458984744
 20
12.1210827768
 30
0.0
 10
15.6482049365
 20
12.1217577267
 30
0.0
 10
15.6507557985
 20
12.122163064
 30
0.0
 10
15.652534991
 20
12.1222495879
 30
0.0
 10
15.6534504657
 20
12.1222495879
 30
0.0
  0
SPLINE
  5
296
100
AcDbEntity
  8
0
100
AcDbSpline
 62
7
  6
CONTINUOUS
 70
0
 71
3
 72
11
 73
7
 74
0
 42
0.0000001
 43
0.0000001
 44
0.0000000001
 40
0.0
 40
0.0
 40
0.0
 40
0.0
 40
0.2342275831
 40
0.4753667037
 40
0.7291517461
 40
1.0
 40
1.0
 40
1.0
 40
1.0
 10
15.9852994303
 20
12.1154501669
 30
0.0
 10
15.9854431033
 20
12.1159141584
 30
0.0
 10
15.985836703
 20
12.1168273974
 30
0.0
 10
15.9867156172
 20
12.1180698385
 30
0.0
 10
15.9878691749
 20
12.1191734243
 30
0.0
 10
15.9887740962
 20
12.1197865803
 30
0.0
 10
15.989260189
 20
12.1200679779
 30
0.0
  0
SPLINE
  5
297
100
AcDbEntity
  8
0
100
AcDbSpline
 62
7
  6
CONTINUOUS
 70
0
 71
3
 72
11
 73
7
 74
0
 42
0.0000001
 43
0.0000001
 44
0.0000000001
 40
0.0
 40
0.0
 40
0.0
 40
0.0
 40
0.2218878497
 40
0.4632431071
 40
0.723573085
 40
1.0
 40
1.0
 40
1.0
 40
1.0
 10
15.989260189
 20
12.1200679779
 30
0.0
 10
15.9898961626
 20
12.1204361411
 30
0.0
 10
15.9912963472
 20
12.1210827768
 30
0.0
 10
15.9936028092
 20
12.1217577267
 30
0.0
 10
15.9961536712
 20
12.122163064
 30
0.0
 10
15.9979328638
 20
12.1222495879
 30
0.0
 10
15.9988483385
 20
12.1222495879
 30
0.0
  0
SPLINE
  5
298
100
AcDbEntity
  8
0
100
AcDbSpline
 62
7
  6
CONTINUOUS
 70
0
 71
3
 72
11
 73
7
 74
0
 42
0.0000001
 43
0.0000001
 44
0.0000000001
 40
0.0
 40
0.0
 40
0.0
 40
0.0
 40
0.2342275831
 40
0.4753667037
 40
0.7291517461
 40
1.0
 40
1.0
 40
1.0
 40
1.0
 10
16.3306973031
 20
12.1154501669
 30
0.0
 10
16.330840976
 20
12.1159141584
 30
0.0
 10
16.3312345758
 20
12.1168273974
 30
0.0
 10
16.33211349
 20
12.1180698385
 30
0.0
 10
16.3332670476
 20
12.1191734243
 30
0.0
 10
16.334171969
 20
12.1197865803
 30
0.0
 10
16.3346580617
 20
12.1200679779
 30
0.0
  0
SPLINE
  5
299
100
AcDbEntity
  8
0
100
AcDbSpline
 62
7
  6
CONTINUOUS
 70
0
 71
3
 72
11
 73
7
 74
0
 42
0.0000001
 43
0.0000001
 44
0.0000000001
 40
0.0
 40
0.0
 40
0.0
 40
0.0
 40
0.2218878497
 40
0.4632431071
 40
0.723573085
 40
1.0
 40
1.0
 40
1.0
 40
1.0
 10
16.3346580617
 20
12.1200679779
 30
0.0
 10
16.3352940354
 20
12.1204361411
 30
0.0
 10
16.3366942199
 20
12.1210827768
 30
0.0
 10
16.339000682
 20
12.1217577267
 30
0.0
 10
16.341551544
 20
12.122163064
 30
0.0
 10
16.3433307365
 20
12.1222495879
 30
0.0
 10
16.3442462112
 20
12.1222495879
 30
0.0
  0
SPLINE
  5
29A
100
AcDbEntity
  8
0
100
AcDbSpline
 62
7
  6
CONTINUOUS
 70
0
 71
3
 72
15
 73
11
 74
0
 42
0.0000001
 43
0.0000001
 44
0.0000000001
 40
0.0
 40
0.0
 40
0.0
 40
0.0
 40
0.1557506823
 40
0.3032141351
 40
0.4410979053
 40
0.5690411704
 40
0.6873379782
 40
0.7970483142
 40
0.900275453
 40
1.0
 40
1.0
 40
1.0
 40
1.0
 10
14.5794674741
 20
12.0756288403
 30
0.0
 10
14.5807256304
 20
12.0756288403
 30
0.0
 10
14.5831768496
 20
12.0757374759
 30
0.0
 10
14.5867097483
 20
12.0762477269
 30
0.0
 10
14.5899471104
 20
12.0770963472
 30
0.0
 10
14.5928307793
 20
12.0782691742
 30
0.0
 10
14.5953112915
 20
12.0797486679
 30
0.0
 10
14.5973423076
 20
12.081516102
 30
0.0
 10
14.5988801408
 20
12.0835438886
 30
0.0
 10
14.5995533533
 20
12.0850581997
 30
0.0
 10
14.5997913278
 20
12.0858278239
 30
0.0
  0
SPLINE
  5
29B
100
AcDbEntity
  8
0
100
AcDbSpline
 62
7
  6
CONTINUOUS
 70
0
 71
3
 72
15
 73
11
 74
0
 42
0.0000001
 43
0.0000001
 44
0.0000000001
 40
0.0
 40
0.0
 40
0.0
 40
0.0
 40
0.1148729344
 40
0.2360779573
 40
0.3619572963
 40
0.490882856
 40
0.6210131533
 40
0.7504589916
 40
0.8774377948
 40
1.0
 40
1.0
 40
1.0
 40
1.0
 10
14.426809002
 20
12.0876204069
 30
0.0
 10
14.4278117243
 20
12.0867125415
 30
0.0
 10
14.4299841724
 20
12.0849677999
 30
0.0
 10
14.4335646692
 20
12.0826444526
 30
0.0
 10
14.4374916919
 20
12.0805862753
 30
0.0
 10
14.44167945
 20
12.0788376771
 30
0.0
 10
14.4460391004
 20
12.0774340852
 30
0.0
 10
14.4504791137
 20
12.0764065828
 30
0.0
 10
14.4549027106
 20
12.0757779628
 30
0.0
 10
14.4578425806
 20
12.0756288403
 30
0.0
 10
14.459285777
 20
12.0756288403
 30
0.0
  0
SPLINE
  5
29C
100
AcDbEntity
  8
0
100
AcDbSpline
 62
7
  6
CONTINUOUS
 70
0
 71
3
 72
15
 73
11
 74
0
 42
0.0000001
 43
0.0000001
 44
0.0000000001
 40
0.0
 40
0.0
 40
0.0
 40
0.0
 40
0.1557506823
 40
0.3032141351
 40
0.4410979053
 40
0.5690411704
 40
0.6873379782
 40
0.7970483142
 40
0.900275453
 40
1.0
 40
1.0
 40
1.0
 40
1.0
 10
16.3064568379
 20
12.0756288403
 30
0.0
 10
16.3077149941
 20
12.0756288403
 30
0.0
 10
16.3101662134
 20
12.0757374759
 30
0.0
 10
16.3136991121
 20
12.0762477269
 30
0.0
 10
16.3169364742
 20
12.0770963472
 30
0.0
 10
16.3198201431
 20
12.0782691742
 30
0.0
 10
16.3223006553
 20
12.0797486679
 30
0.0
 10
16.3243316713
 20
12.081516102
 30
0.0
 10
16.3258695046
 20
12.0835438886
 30
0.0
 10
16.326542717
 20
12.0850581997
 30
0.0
 10
16.3267806915
 20
12.0858278239
 30
0.0
  0
SPLINE
  5
29D
100
AcDbEntity
  8
0
100
AcDbSpline
 62
7
  6
CONTINUOUS
 70
0
 71
3
 72
15
 73
11
 74
0
 42
0.0000001
 43
0.0000001
 44
0.0000000001
 40
0.0
 40
0.0
 40
0.0
 40
0.0
 40
0.1148729344
 40
0.2360779573
 40
0.3619572963
 40
0.490882856
 40
0.6210131533
 40
0.7504589916
 40
0.8774377948
 40
1.0
 40
1.0
 40
1.0
 40
1.0
 10
16.1537983658
 20
12.0876204069
 30
0.0
 10
16.154801088
 20
12.0867125415
 30
0.0
 10
16.1569735361
 20
12.0849677999
 30
0.0
 10
16.1605540329
 20
12.0826444526
 30
0.0
 10
16.1644810556
 20
12.0805862753
 30
0.0
 10
16.1686688138
 20
12.0788376771
 30
0.0
 10
16.1730284641
 20
12.0774340852
 30
0.0
 10
16.1774684775
 20
12.0764065828
 30
0.0
 10
16.1818920743
 20
12.0757779628
 30
0.0
 10
16.1848319444
 20
12.0756288403
 30
0.0
 10
16.1862751408
 20
12.0756288403
 30
0.0
  0
SPLINE
  5
29E
100
AcDbEntity
  8
0
100
AcDbSpline
 62
7
  6
CONTINUOUS
 70
0
 71
3
 72
15
 73
11
 74
0
 42
0.0000001
 43
0.0000001
 44
0.0000000001
 40
0.0
 40
0.0
 40
0.0
 40
0.0
 40
0.1557506823
 40
0.3032141351
 40
0.4410979053
 40
0.5690411704
 40
0.6873379782
 40
0.7970483142
 40
0.900275453
 40
1.0
 40
1.0
 40
1.0
 40
1.0
 10
15.9610589651
 20
12.0756288403
 30
0.0
 10
15.9623171214
 20
12.0756288403
 30
0.0
 10
15.9647683406
 20
12.0757374759
 30
0.0
 10
15.9683012393
 20
12.0762477269
 30
0.0
 10
15.9715386014
 20
12.0770963472
 30
0.0
 10
15.9744222703
 20
12.0782691742
 30
0.0
 10
15.9769027825
 20
12.0797486679
 30
0.0
 10
15.9789337986
 20
12.081516102
 30
0.0
 10
15.9804716318
 20
12.0835438886
 30
0.0
 10
15.9811448443
 20
12.0850581997
 30
0.0
 10
15.9813828188
 20
12.0858278239
 30
0.0
  0
SPLINE
  5
29F
100
AcDbEntity
  8
0
100
AcDbSpline
 62
7
  6
CONTINUOUS
 70
0
 71
3
 72
15
 73
11
 74
0
 42
0.0000001
 43
0.0000001
 44
0.0000000001
 40
0.0
 40
0.0
 40
0.0
 40
0.0
 40
0.1148729344
 40
0.2360779573
 40
0.3619572963
 40
0.490882856
 40
0.6210131533
 40
0.7504589916
 40
0.8774377948
 40
1.0
 40
1.0
 40
1.0
 40
1.0
 10
15.808400493
 20
12.0876204069
 30
0.0
 10
15.8094032153
 20
12.0867125415
 30
0.0
 10
15.8115756634
 20
12.0849677999
 30
0.0
 10
15.8151561602
 20
12.0826444526
 30
0.0
 10
15.8190831829
 20
12.0805862753
 30
0.0
 10
15.823270941
 20
12.0788376771
 30
0.0
 10
15.8276305914
 20
12.0774340852
 30
0.0
 10
15.8320706047
 20
12.0764065828
 30
0.0
 10
15.8364942016
 20
12.0757779628
 30
0.0
 10
15.8394340716
 20
12.0756288403
 30
0.0
 10
15.840877268
 20
12.0756288403
 30
0.0
  0
SPLINE
  5
2A0
100
AcDbEntity
  8
0
100
AcDbSpline
 62
7
  6
CONTINUOUS
 70
0
 71
3
 72
15
 73
11
 74
0
 42
0.0000001
 43
0.0000001
 44
0.0000000001
 40
0.0
 40
0.0
 40
0.0
 40
0.0
 40
0.1557506823
 40
0.3032141351
 40
0.4410979053
 40
0.5690411704
 40
0.6873379782
 40
0.7970483142
 40
0.900275453
 40
1.0
 40
1.0
 40
1.0
 40
1.0
 10
15.6156610924
 20
12.0756288403
 30
0.0
 10
15.6169192486
 20
12.0756288403
 30
0.0
 10
15.6193704679
 20
12.0757374759
 30
0.0
 10
15.6229033666
 20
12.0762477269
 30
0.0
 10
15.6261407287
 20
12.0770963472
 30
0.0
 10
15.6290243976
 20
12.0782691742
 30
0.0
 10
15.6315049098
 20
12.0797486679
 30
0.0
 10
15.6335359258
 20
12.081516102
 30
0.0
 10
15.6350737591
 20
12.0835438886
 30
0.0
 10
15.6357469715
 20
12.0850581997
 30
0.0
 10
15.635984946
 20
12.0858278239
 30
0.0
  0
SPLINE
  5
2A1
100
AcDbEntity
  8
0
100
AcDbSpline
 62
7
  6
CONTINUOUS
 70
0
 71
3
 72
15
 73
11
 74
0
 42
0.0000001
 43
0.0000001
 44
0.0000000001
 40
0.0
 40
0.0
 40
0.0
 40
0.0
 40
0.1148729344
 40
0.2360779573
 40
0.3619572963
 40
0.490882856
 40
0.6210131533
 40
0.7504589916
 40
0.8774377948
 40
1.0
 40
1.0
 40
1.0
 40
1.0
 10
15.4630026203
 20
12.0876204069
 30
0.0
 10
15.4640053425
 20
12.0867125415
 30
0.0
 10
15.4661777906
 20
12.0849677999
 30
0.0
 10
15.4697582874
 20
12.0826444526
 30
0.0
 10
15.4736853101
 20
12.0805862753
 30
0.0
 10
15.4778730683
 20
12.0788376771
 30
0.0
 10
15.4822327186
 20
12.0774340852
 30
0.0
 10
15.486672732
 20
12.0764065828
 30
0.0
 10
15.4910963288
 20
12.0757779628
 30
0.0
 10
15.4940361989
 20
12.0756288403
 30
0.0
 10
15.4954793952
 20
12.0756288403
 30
0.0
  0
SPLINE
  5
2A2
100
AcDbEntity
  8
0
100
AcDbSpline
 62
7
  6
CONTINUOUS
 70
0
 71
3
 72
15
 73
11
 74
0
 42
0.0000001
 43
0.0000001
 44
0.0000000001
 40
0.0
 40
0.0
 40
0.0
 40
0.0
 40
0.1557506823
 40
0.3032141351
 40
0.4410979053
 40
0.5690411704
 40
0.6873379782
 40
0.7970483142
 40
0.900275453
 40
1.0
 40
1.0
 40
1.0
 40
1.0
 10
15.2702632196
 20
12.0756288403
 30
0.0
 10
15.2715213759
 20
12.0756288403
 30
0.0
 10
15.2739725951
 20
12.0757374759
 30
0.0
 10
15.2775054938
 20
12.0762477269
 30
0.0
 10
15.2807428559
 20
12.0770963472
 30
0.0
 10
15.2836265248
 20
12.0782691742
 30
0.0
 10
15.286107037
 20
12.0797486679
 30
0.0
 10
15.2881380531
 20
12.081516102
 30
0.0
 10
15.2896758863
 20
12.0835438886
 30
0.0
 10
15.2903490988
 20
12.0850581997
 30
0.0
 10
15.2905870733
 20
12.0858278239
 30
0.0
  0
SPLINE
  5
2A3
100
AcDbEntity
  8
0
100
AcDbSpline
 62
7
  6
CONTINUOUS
 70
0
 71
3
 72
15
 73
11
 74
0
 42
0.0000001
 43
0.0000001
 44
0.0000000001
 40
0.0
 40
0.0
 40
0.0
 40
0.0
 40
0.1148729344
 40
0.2360779573
 40
0.3619572963
 40
0.490882856
 40
0.6210131533
 40
0.7504589916
 40
0.8774377948
 40
1.0
 40
1.0
 40
1.0
 40
1.0
 10
15.1176047475
 20
12.0876204069
 30
0.0
 10
15.1186074698
 20
12.0867125415
 30
0.0
 10
15.1207799179
 20
12.0849677999
 30
0.0
 10
15.1243604147
 20
12.0826444526
 30
0.0
 10
15.1282874374
 20
12.0805862753
 30
0.0
 10
15.1324751955
 20
12.0788376771
 30
0.0
 10
15.1368348459
 20
12.0774340852
 30
0.0
 10
15.1412748592
 20
12.0764065828
 30
0.0
 10
15.1456984561
 20
12.0757779628
 30
0.0
 10
15.1486383261
 20
12.0756288403
 30
0.0
 10
15.1500815225
 20
12.0756288403
 30
0.0
  0
SPLINE
  5
2A4
100
AcDbEntity
  8
0
100
AcDbSpline
 62
7
  6
CONTINUOUS
 70
0
 71
3
 72
15
 73
11
 74
0
 42
0.0000001
 43
0.0000001
 44
0.0000000001
 40
0.0
 40
0.0
 40
0.0
 40
0.0
 40
0.1557506823
 40
0.3032141351
 40
0.4410979053
 40
0.5690411704
 40
0.6873379782
 40
0.7970483142
 40
0.900275453
 40
1.0
 40
1.0
 40
1.0
 40
1.0
 10
14.9248653469
 20
12.0756288403
 30
0.0
 10
14.9261235031
 20
12.0756288403
 30
0.0
 10
14.9285747224
 20
12.0757374759
 30
0.0
 10
14.9321076211
 20
12.0762477269
 30
0.0
 10
14.9353449831
 20
12.0770963472
 30
0.0
 10
14.9382286521
 20
12.0782691742
 30
0.0
 10
14.9407091643
 20
12.0797486679
 30
0.0
 10
14.9427401803
 20
12.081516102
 30
0.0
 10
14.9442780136
 20
12.0835438886
 30
0.0
 10
14.944951226
 20
12.0850581997
 30
0.0
 10
14.9451892005
 20
12.0858278239
 30
0.0
  0
SPLINE
  5
2A5
100
AcDbEntity
  8
0
100
AcDbSpline
 62
7
  6
CONTINUOUS
 70
0
 71
3
 72
15
 73
11
 74
0
 42
0.0000001
 43
0.0000001
 44
0.0000000001
 40
0.0
 40
0.0
 40
0.0
 40
0.0
 40
0.1148729344
 40
0.2360779573
 40
0.3619572963
 40
0.490882856
 40
0.6210131533
 40
0.7504589916
 40
0.8774377948
 40
1.0
 40
1.0
 40
1.0
 40
1.0
 10
14.7722068748
 20
12.0876204069
 30
0.0
 10
14.773209597
 20
12.0867125415
 30
0.0
 10
14.7753820451
 20
12.0849677999
 30
0.0
 10
14.7789625419
 20
12.0826444526
 30
0.0
 10
14.7828895646
 20
12.0805862753
 30
0.0
 10
14.7870773228
 20
12.0788376771
 30
0.0
 10
14.7914369731
 20
12.0774340852
 30
0.0
 10
14.7958769865
 20
12.0764065828
 30
0.0
 10
14.8003005833
 20
12.0757779628
 30
0.0
 10
14.8032404534
 20
12.0756288403
 30
0.0
 10
14.8046836497
 20
12.0756288403
 30
0.0
  0
SPLINE
  5
2A6
100
AcDbEntity
  8
0
100
AcDbSpline
 62
7
  6
CONTINUOUS
 70
0
 71
3
 72
15
 73
11
 74
0
 42
0.0000001
 43
0.0000001
 44
0.0000000001
 40
0.0
 40
0.0
 40
0.0
 40
0.0
 40
0.1224855956
 40
0.2495252012
 40
0.3790235348
 40
0.5091197524
 40
0.6380075348
 40
0.7639365009
 40
0.8851962786
 40
1.0
 40
1.0
 40
1.0
 40
1.0
 10
14.3757401236
 20
12.1222495879
 30
0.0
 10
14.3767016502
 20
12.1222495879
 30
0.0
 10
14.3786613874
 20
12.1221496429
 30
0.0
 10
14.3816108561
 20
12.121731422
 30
0.0
 10
14.3845713353
 20
12.1210457089
 30
0.0
 10
14.3874778394
 20
12.1201107227
 30
0.0
 10
14.3902692256
 20
12.1189443921
 30
0.0
 10
14.3928879818
 20
12.1175725556
 30
0.0
 10
14.3952746796
 20
12.1160227115
 30
0.0
 10
14.3967232303
 20
12.1148600873
 30
0.0
 10
14.397391307
 20
12.1142552102
 30
0.0
  0
SPLINE
  5
2A7
100
AcDbEntity
  8
0
100
AcDbSpline
 62
7
  6
CONTINUOUS
 70
0
 71
3
 72
15
 73
11
 74
0
 42
0.0000001
 43
0.0000001
 44
0.0000000001
 40
0.0
 40
0.0
 40
0.0
 40
0.0
 40
0.1224855956
 40
0.2495252012
 40
0.3790235348
 40
0.5091197524
 40
0.6380075348
 40
0.7639365009
 40
0.8851962786
 40
1.0
 40
1.0
 40
1.0
 40
1.0
 10
14.7211379964
 20
12.1222495879
 30
0.0
 10
14.7220995229
 20
12.1222495879
 30
0.0
 10
14.7240592601
 20
12.1221496429
 30
0.0
 10
14.7270087288
 20
12.121731422
 30
0.0
 10
14.729969208
 20
12.1210457089
 30
0.0
 10
14.7328757122
 20
12.1201107227
 30
0.0
 10
14.7356670983
 20
12.1189443921
 30
0.0
 10
14.7382858545
 20
12.1175725556
 30
0.0
 10
14.7406725524
 20
12.1160227115
 30
0.0
 10
14.7421211031
 20
12.1148600873
 30
0.0
 10
14.7427891797
 20
12.1142552102
 30
0.0
  0
SPLINE
  5
2A8
100
AcDbEntity
  8
0
100
AcDbSpline
 62
7
  6
CONTINUOUS
 70
0
 71
3
 72
15
 73
11
 74
0
 42
0.0000001
 43
0.0000001
 44
0.0000000001
 40
0.0
 40
0.0
 40
0.0
 40
0.0
 40
0.1224855956
 40
0.2495252012
 40
0.3790235348
 40
0.5091197524
 40
0.6380075348
 40
0.7639365009
 40
0.8851962786
 40
1.0
 40
1.0
 40
1.0
 40
1.0
 10
15.0665358692
 20
12.1222495879
 30
0.0
 10
15.0674973957
 20
12.1222495879
 30
0.0
 10
15.0694571329
 20
12.1221496429
 30
0.0
 10
15.0724066016
 20
12.121731422
 30
0.0
 10
15.0753670808
 20
12.1210457089
 30
0.0
 10
15.0782735849
 20
12.1201107227
 30
0.0
 10
15.0810649711
 20
12.1189443921
 30
0.0
 10
15.0836837273
 20
12.1175725556
 30
0.0
 10
15.0860704251
 20
12.1160227115
 30
0.0
 10
15.0875189758
 20
12.1148600873
 30
0.0
 10
15.0881870525
 20
12.1142552102
 30
0.0
  0
SPLINE
  5
2A9
100
AcDbEntity
  8
0
100
AcDbSpline
 62
7
  6
CONTINUOUS
 70
0
 71
3
 72
15
 73
11
 74
0
 42
0.0000001
 43
0.0000001
 44
0.0000000001
 40
0.0
 40
0.0
 40
0.0
 40
0.0
 40
0.1224855956
 40
0.2495252012
 40
0.3790235348
 40
0.5091197524
 40
0.6380075348
 40
0.7639365009
 40
0.8851962786
 40
1.0
 40
1.0
 40
1.0
 40
1.0
 10
15.4119337419
 20
12.1222495879
 30
0.0
 10
15.4128952684
 20
12.1222495879
 30
0.0
 10
15.4148550056
 20
12.1221496429
 30
0.0
 10
15.4178044743
 20
12.121731422
 30
0.0
 10
15.4207649535
 20
12.1210457089
 30
0.0
 10
15.4236714577
 20
12.1201107227
 30
0.0
 10
15.4264628438
 20
12.1189443921
 30
0.0
 10
15.4290816
 20
12.1175725556
 30
0.0
 10
15.4314682979
 20
12.1160227115
 30
0.0
 10
15.4329168486
 20
12.1148600873
 30
0.0
 10
15.4335849252
 20
12.1142552102
 30
0.0
  0
SPLINE
  5
2AA
100
AcDbEntity
  8
0
100
AcDbSpline
 62
7
  6
CONTINUOUS
 70
0
 71
3
 72
15
 73
11
 74
0
 42
0.0000001
 43
0.0000001
 44
0.0000000001
 40
0.0
 40
0.0
 40
0.0
 40
0.0
 40
0.1224855956
 40
0.2495252012
 40
0.3790235348
 40
0.5091197524
 40
0.6380075348
 40
0.7639365009
 40
0.8851962786
 40
1.0
 40
1.0
 40
1.0
 40
1.0
 10
15.7573316147
 20
12.1222495879
 30
0.0
 10
15.7582931412
 20
12.1222495879
 30
0.0
 10
15.7602528784
 20
12.1221496429
 30
0.0
 10
15.7632023471
 20
12.121731422
 30
0.0
 10
15.7661628263
 20
12.1210457089
 30
0.0
 10
15.7690693304
 20
12.1201107227
 30
0.0
 10
15.7718607166
 20
12.1189443921
 30
0.0
 10
15.7744794728
 20
12.1175725556
 30
0.0
 10
15.7768661706
 20
12.1160227115
 30
0.0
 10
15.7783147213
 20
12.1148600873
 30
0.0
 10
15.778982798
 20
12.1142552102
 30
0.0
  0
SPLINE
  5
2AB
100
AcDbEntity
  8
0
100
AcDbSpline
 62
7
  6
CONTINUOUS
 70
0
 71
3
 72
15
 73
11
 74
0
 42
0.0000001
 43
0.0000001
 44
0.0000000001
 40
0.0
 40
0.0
 40
0.0
 40
0.0
 40
0.1224855956
 40
0.2495252012
 40
0.3790235348
 40
0.5091197524
 40
0.6380075348
 40
0.7639365009
 40
0.8851962786
 40
1.0
 40
1.0
 40
1.0
 40
1.0
 10
16.1027294874
 20
12.1222495879
 30
0.0
 10
16.1036910139
 20
12.1222495879
 30
0.0
 10
16.1056507511
 20
12.1221496429
 30
0.0
 10
16.1086002198
 20
12.121731422
 30
0.0
 10
16.111560699
 20
12.1210457089
 30
0.0
 10
16.1144672032
 20
12.1201107227
 30
0.0
 10
16.1172585893
 20
12.1189443921
 30
0.0
 10
16.1198773455
 20
12.1175725556
 30
0.0
 10
16.1222640434
 20
12.1160227115
 30
0.0
 10
16.1237125941
 20
12.1148600873
 30
0.0
 10
16.1243806707
 20
12.1142552102
 30
0.0
  0
ENDSEC
  0
SECTION
  2
OBJECTS
  0
DICTIONARY
  5
C
100
AcDbDictionary
280
0
281
1
  3
ACAD_GROUP
350
D
  3
ACAD_MLINESTYLE
350
17
  3
ACAD_LAYOUT
350
1A
  3
ACAD_PLOTSETTINGS
350
19
  3
ACAD_PLOTSTYLENAME
350
E
  0
DICTIONARY
  5
D
102
{ACAD_REACTORS
330
C
102
}
100
AcDbDictionary
280
0
281
1
  0
ACDBDICTIONARYWDFLT
  5
E
102
{ACAD_REACTORS
330
C
102
}
100
AcDbDictionary
281
1
  3
Normal
350
F
100
AcDbDictionaryWithDefault
340
F
  0
DICTIONARY
  5
17
102
{ACAD_REACTORS
330
C
102
}
100
AcDbDictionary
280
0
281
1
  3
Standard
350
18
  0
DICTIONARY
  5
19
102
{ACAD_REACTORS
330
C
102
}
100
AcDbDictionary
281
1
  0
DICTIONARY
  5
1A
102
{ACAD_REACTORS
330
C
102
}
100
AcDbDictionary
281
1
  3
Model
350
2AC
  3
Layout1
350
2AD
  0
ACDBPLACEHOLDER
  5
F
102
{ACAD_REACTORS
330
E
102
}
  0
MLINESTYLE
  5
18
102
{ACAD_REACTORS
330
17
102
}
100
AcDbMlineStyle
  2
STANDARD
 70
0
  3

 62
256
 51
90.0
 52
90.0
 71
2
 49
0.5
 62
256
  6
BYLAYER
 49
-0.5
 62
256
  6
BYLAYER
  0
LAYOUT
  5
2AC
102
{ACAD_REACTORS
330
1A
102
}
100
AcDbPlotSettings
  1

  2
none_device
  4
ANSI_C_(22.00_x_17.00_Inches)
  6

 40
0.0
 41
0.0
 42
0.0
 43
0.0
 44
558.8
 45
431.8
 46
0.0
 47
0.0
 48
0.0
 49
0.0
140
0.0
141
0.0
142
1.0
143
1.0
 70
1024
 72
0
 73
0
 74
0
  7

 75
0
147
1.0
148
0.0
149
0.0
100
AcDbLayout
  1
Model
 70
0
 71
0
 10
0.0
 20
0.0
 11
22.0
 21
17.0
 12
0.0
 22
0.0
 32
0.0
 14
0.0
 24
0.0
 34
0.0
 15
0.0
 25
0.0
 35
0.0
146
0.0
 13
0.0
 23
0.0
 33
0.0
 16
1.0
 26
0.0
 36
0.0
 17
0.0
 27
1.0
 37
0.0
 76
0
330
216
345
0
346
0
  0
LAYOUT
  5
2AD
102
{ACAD_REACTORS
330
1A
102
}
100
AcDbPlotSettings
  1

  2
none_device
  4
ANSI_C_(22.00_x_17.00_Inches)
  6

 40
0.0
 41
0.0
 42
0.0
 43
0.0
 44
558.8
 45
431.8
 46
0.0
 47
0.0
 48
0.0
 49
0.0
140
0.0
141
0.0
142
1.0
143
1.0
 70
0
 72
0
 73
0
 74
0
  7

 75
0
147
1.0
148
0.0
149
0.0
100
AcDbLayout
  1
Layout1
 70
0
 71
1
 10
0.0
 20
0.0
 11
22.0
 21
17.0
 12
0.0
 22
0.0
 32
0.0
 14
0.0
 24
0.0
 34
0.0
 15
0.0
 25
0.0
 35
0.0
146
0.0
 13
0.0
 23
0.0
 33
0.0
 16
1.0
 26
0.0
 36
0.0
 17
0.0
 27
1.0
 37
0.0
 76
0
330
217
345
0
346
0
  0
ENDSEC
  0
EOF