999
DXF file: _cgs_temp_output.dxf
999
Pro/ENGINEER 2016360 by Parametric Technology Corporation
  0
SECTION
  2
HEADER
  9
$ACADVER
  1
AC1021
  9
$DWGCODEPAGE
  3
ANSI_1252
  9
$EXTMAX
 10
22.0
 20
17.0
 30
0.0
  9
$EXTMIN
 10
0.0
 20
0.0
 30
0.0
  9
$LIMMIN
 10
0.0
 20
0.0
  9
$LIMMAX
 10
22.0
 20
17.0
  9
$VIEWCTR
 10
11.0
 20
8.5
  9
$VIEWSIZE
 40
17.0
  9
$CLAYER
  8
0
  9
$LTSCALE
 40
1.21
  9
$CELTYPE
  6
BYLAYER
  9
$DIMSCALE
 40
1.0
  9
$DIMASZ
 40
0.1875
  9
$DIMEXO
 40
0.0625
  9
$DIMDLI
 40
0.836
  9
$DIMEXE
 40
0.125
  9
$DIMCEN
 40
0.198
  9
$DIMLFAC
 40
1.0
  9
$DIMBLK
  1
_CLOSED
  9
$DIMALT
 70
0
  9
$DIMALTF
 40
25.4
  9
$DIMTXT
 40
0.15625
  9
$DIMTOL
 70
0
  9
$DIMLIM
 70
0
  9
$DIMTFAC
 40
1.0
  9
$DIMGAP
 40
0.09
  9
$DIMDSEP
 70
46
  9
$AUNITS
 70
0
  9
$PDMODE
 70
3
  9
$PDSIZE
 40
0.3125
  9
$HANDSEED
  5
2AE
  9
$TILEMODE
 70
1
  9
$MEASUREMENT
 70
0
  9
$INSUNITS
 70
1
  0
ENDSEC
  0
SECTION
  2
CLASSES
  0
CLASS
  1
ACDBDICTIONARYWDFLT
  2
AcDbDictionaryWithDefault
  3
AutoCAD 2000
 90
0
 91
1
280
0
281
0
  0
CLASS
  1
ACDBPLACEHOLDER
  2
AcDbPlaceHolder
  3
AutoCAD 2000
 90
0
 91
1
280
0
281
0
  0
CLASS
  1
LAYOUT
  2
AcDbLayout
  3
AutoCAD 2000
 90
0
 91
0
280
0
281
0
  0
ENDSEC
  0
SECTION
  2
TABLES
  0
TABLE
  2
VPORT
  5
8
100
AcDbSymbolTable
 70
2
  0
VPORT
  5
1F4
100
AcDbSymbolTableRecord
100
AcDbViewportTableRecord
  2
*ACTIVE
 70
0
 10
0.0
 20
0.0
 11
1.0
 21
1.0
 12
11.0
 22
8.5
 13
0.0
 23
0.0
 14
1.0
 24
1.0
 15
0.0
 25
0.0
 16
0.0
 26
0.0
 36
1.0
 17
0.0
 27
0.0
 37
0.0
 40
17.0
 41
1.2941176471
 42
50.0
 43
0.0
 44
0.0
 50
0.0
 51
0.0
 71
0
 72
100
 73
1
 74
1
 75
0
 76
0
 77
0
 78
0
  0
ENDTAB
  0
TABLE
  2
LTYPE
  5
5
100
AcDbSymbolTable
 70
6
  0
LTYPE
  5
14
100
AcDbSymbolTableRecord
100
AcDbLinetypeTableRecord
  2
BYBLOCK
 70
0
  3

 72
65
 73
0
 40
0.0
  0
LTYPE
  5
15
100
AcDbSymbolTableRecord
100
AcDbLinetypeTableRecord
  2
BYLAYER
 70
0
  3

 72
65
 73
0
 40
0.0
  0
LTYPE
  5
16
100
AcDbSymbolTableRecord
100
AcDbLinetypeTableRecord
  2
CONTINUOUS
 70
64
  3
Solid line
 72
65
 73
0
 40
0.0
  0
LTYPE
  5
1F5
100
AcDbSymbolTableRecord
100
AcDbLinetypeTableRecord
  2
CENTER
 70
64
  3
____ _ ____ _ ____ _ ____ _ ____ _ ____ _ ____
 72
65
 73
4
 40
0.6
 49
0.375
 74
0
 49
-0.075
 74
0
 49
0.075
 74
0
 49
-0.075
 74
0
  0
LTYPE
  5
1F6
100
AcDbSymbolTableRecord
100
AcDbLinetypeTableRecord
  2
HIDDEN
 70
64
  3
- - - - - - - - - - - - - - - - - - - -
 72
65
 73
2
 40
0.2
 49
0.1
 74
0
 49
-0.1
 74
0
  0
LTYPE
  5
1F7
100
AcDbSymbolTableRecord
100
AcDbLinetypeTableRecord
  2
PHANTOM
 70
64
  3
_____ _ _ _____ _ _ _____ _ _ _____
 72
65
 73
6
 40
0.8
 49
0.45
 74
0
 49
-0.05
 74
0
 49
0.1
 74
0
 49
-0.05
 74
0
 49
0.1
 74
0
 49
-0.05
 74
0
  0
LTYPE
  5
1F8
100
AcDbSymbolTableRecord
100
AcDbLinetypeTableRecord
  2
DOT
 70
64
  3
. . . . . . . . . . . . . . . . . . . .
 72
65
 73
2
 40
0.2
 49
0.1
 74
0
 49
-0.1
 74
0
  0
LTYPE
  5
1F9
100
AcDbSymbolTableRecord
100
AcDbLinetypeTableRecord
  2
DASHED
 70
64
  3
- - - - - - - - - - - - - - - - - - - -
 72
65
 73
2
 40
0.2
 49
0.1
 74
0
 49
-0.1
 74
0
  0
ENDTAB
  0
TABLE
  2
LAYER
  5
2
100
AcDbSymbolTable
 70
36
  0
LAYER
  5
10
100
AcDbSymbolTableRecord
100
AcDbLayerTableRecord
  2
0
 70
0
 62
7
  6
CONTINUOUS
370
-3
390
F
  0
LAYER
  5
1FA
100
AcDbSymbolTableRecord
100
AcDbLayerTableRecord
  2
DEFAULT_1
 70
0
 62
7
  6
CENTER
370
-3
390
F
  0
LAYER
  5
1FB
100
AcDbSymbolTableRecord
100
AcDbLayerTableRecord
  2
DEFAULT_2
 70
0
 62
8
  6
HIDDEN
370
-3
390
F
  0
LAYER
  5
1FC
100
AcDbSymbolTableRecord
100
AcDbLayerTableRecord
  2
DEFAULT_3
 70
0
 62
7
  6
PHANTOM
370
-3
390
F
  0
LAYER
  5
1FD
100
AcDbSymbolTableRecord
100
AcDbLayerTableRecord
  2
01_ALL_DTM_PLN
 70
0
 62
7
  6
CONTINUOUS
370
-3
390
F
  0
LAYER
  5
1FE
100
AcDbSymbolTableRecord
100
AcDbLayerTableRecord
  2
01__ASM_ALL_DTM_PLN
 70
0
 62
7
  6
CONTINUOUS
370
-3
390
F
  0
LAYER
  5
1FF
100
AcDbSymbolTableRecord
100
AcDbLayerTableRecord
  2
01__ASM_DEF_DTM_PLN
 70
0
 62
7
  6
CONTINUOUS
370
-3
390
F
  0
LAYER
  5
200
100
AcDbSymbolTableRecord
100
AcDbLayerTableRecord
  2
01___PRT_ALL_DTM_PLN
 70
0
 62
7
  6
CONTINUOUS
370
-3
390
F
  0
LAYER
  5
201
100
AcDbSymbolTableRecord
100
AcDbLayerTableRecord
  2
01___PRT_DEF_DTM_PLN
 70
0
 62
7
  6
CONTINUOUS
370
-3
390
F
  0
LAYER
  5
202
100
AcDbSymbolTableRecord
100
AcDbLayerTableRecord
  2
02_ALL_AXES
 70
0
 62
7
  6
CONTINUOUS
370
-3
390
F
  0
LAYER
  5
203
100
AcDbSymbolTableRecord
100
AcDbLayerTableRecord
  2
02__ASM_ALL_AXES
 70
0
 62
7
  6
CONTINUOUS
370
-3
390
F
  0
LAYER
  5
204
100
AcDbSymbolTableRecord
100
AcDbLayerTableRecord
  2
02___PRT_ALL_AXES
 70
0
 62
7
  6
CONTINUOUS
370
-3
390
F
  0
LAYER
  5
205
100
AcDbSymbolTableRecord
100
AcDbLayerTableRecord
  2
03_ALL_CURVES
 70
0
 62
7
  6
CONTINUOUS
370
-3
390
F
  0
LAYER
  5
206
100
AcDbSymbolTableRecord
100
AcDbLayerTableRecord
  2
03__ASM_ALL_CURVES
 70
0
 62
7
  6
CONTINUOUS
370
-3
390
F
  0
LAYER
  5
207
100
AcDbSymbolTableRecord
100
AcDbLayerTableRecord
  2
03___PRT_ALL_CURVES
 70
0
 62
7
  6
CONTINUOUS
370
-3
390
F
  0
LAYER
  5
208
100
AcDbSymbolTableRecord
100
AcDbLayerTableRecord
  2
04_ALL_DTM_PNT
 70
0
 62
7
  6
CONTINUOUS
370
-3
390
F
  0
LAYER
  5
209
100
AcDbSymbolTableRecord
100
AcDbLayerTableRecord
  2
04__ASM_ALL_DTM_PNT
 70
0
 62
7
  6
CONTINUOUS
370
-3
390
F
  0
LAYER
  5
20A
100
AcDbSymbolTableRecord
100
AcDbLayerTableRecord
  2
04___PRT_ALL_DTM_PNT
 70
0
 62
7
  6
CONTINUOUS
370
-3
390
F
  0
LAYER
  5
20B
100
AcDbSymbolTableRecord
100
AcDbLayerTableRecord
  2
05_ALL_DTM_CSYS
 70
0
 62
7
  6
CONTINUOUS
370
-3
390
F
  0
LAYER
  5
20C
100
AcDbSymbolTableRecord
100
AcDbLayerTableRecord
  2
05__ASM_ALL_DTM_CSYS
 70
0
 62
7
  6
CONTINUOUS
370
-3
390
F
  0
LAYER
  5
20D
100
AcDbSymbolTableRecord
100
AcDbLayerTableRecord
  2
05__ASM_DEF_DTM_CSYS
 70
0
 62
7
  6
CONTINUOUS
370
-3
390
F
  0
LAYER
  5
20E
100
AcDbSymbolTableRecord
100
AcDbLayerTableRecord
  2
05___PRT_ALL_DTM_CSYS
 70
0
 62
7
  6
CONTINUOUS
370
-3
390
F
  0
LAYER
  5
20F
100
AcDbSymbolTableRecord
100
AcDbLayerTableRecord
  2
05___PRT_DEF_DTM_CSYS
 70
0
 62
7
  6
CONTINUOUS
370
-3
390
F
  0
LAYER
  5
210
100
AcDbSymbolTableRecord
100
AcDbLayerTableRecord
  2
06_ALL_SURFS
 70
0
 62
7
  6
CONTINUOUS
370
-3
390
F
  0
LAYER
  5
211
100
AcDbSymbolTableRecord
100
AcDbLayerTableRecord
  2
06__ASM_ALL_SURFS
 70
0
 62
7
  6
CONTINUOUS
370
-3
390
F
  0
LAYER
  5
212
100
AcDbSymbolTableRecord
100
AcDbLayerTableRecord
  2
06___PRT_ALL_SURFS
 70
0
 62
7
  6
CONTINUOUS
370
-3
390
F
  0
LAYER
  5
213
100
AcDbSymbolTableRecord
100
AcDbLayerTableRecord
  2
07__ASM_ALL_SKELETONS
 70
0
 62
7
  6
CONTINUOUS
370
-3
390
F
  0
ENDTAB
  0
TABLE
  2
STYLE
  5
3
100
AcDbSymbolTable
 70
1
  0
STYLE
  5
11
100
AcDbSymbolTableRecord
100
AcDbTextStyleTableRecord
  2
STANDARD
 70
0
 40
0.0
 41
0.8
 50
0.0
 71
0
 42
0.2
  3
txt
  4

  0
STYLE
  5
214
100
AcDbSymbolTableRecord
100
AcDbTextStyleTableRecord
  2
TEXTSTYLE_1
 70
0
 40
0.0
 41
0.8
 50
0.0
 71
0
 42
0.2
  3
gdt
  4

  0
ENDTAB
  0
TABLE
  2
VIEW
  5
6
100
AcDbSymbolTable
 70
0
  0
ENDTAB
  0
TABLE
  2
UCS
  5
7
100
AcDbSymbolTable
 70
0
  0
ENDTAB
  0
TABLE
  2
APPID
  5
9
100
AcDbSymbolTable
 70
1
  0
APPID
  5
215
100
AcDbSymbolTableRecord
100
AcDbRegAppTableRecord
  2
ACAD
 70
0
  0
ENDTAB
  0
TABLE
  2
BLOCK_RECORD
  5
1
100
AcDbSymbolTable
 70
0
  0
BLOCK_RECORD
  5
216
100
AcDbSymbolTableRecord
100
AcDbBlockTableRecord
  2
*Model_Space
  0
BLOCK_RECORD
  5
217
100
AcDbSymbolTableRecord
100
AcDbBlockTableRecord
  2
*Paper_Space
  0
ENDTAB
  0
TABLE
  2
DIMSTYLE
  5
A
100
AcDbSymbolTable
 70
1
100
AcDbDimStyleTable
 71
0
  0
DIMSTYLE
105
218
100
AcDbSymbolTableRecord
100
AcDbDimStyleTableRecord
  2
STANDARD
 70
0
  3

  4

 40
1.0
 41
0.1875
 42
0.0625
 43
0.38
 44
0.125
 45
0.0
 46
0.0
 47
0.0001
 48
0.0001
140
0.15625
141
0.09
142
0.0
143
25.4
144
1.0
145
0.0
146
1.0
147
0.09
 71
0.0
 72
0.0
 73
1
 74
1
 75
0
 76
0
 77
0
 78
4
 79
1
170
0
171
3
172
0
173
0
174
0
175
0
176
0
177
0
178
0
270
2
179
4
271
4
272
4
273
2
274
2
275
0
280
0
281
0
282
0
283
1
284
4
285
0
286
0
287
3
288
0
340
11
278
46
  0
ENDTAB
  0
ENDSEC
  0
SECTION
  2
BLOCKS
  0
BLOCK
  5
20
100
AcDbEntity
  8
0
100
AcDbBlockBegin
  2
*Model_Space
 70
0
 10
0.0
 20
0.0
 30
0.0
  3
*Model_Space
  1

  0
ENDBLK
  5
21
100
AcDbEntity
  8
0
100
AcDbBlockEnd
  0
BLOCK
  5
1C
100
AcDbEntity
  8
0
100
AcDbBlockBegin
  2
*Paper_Space
 70
0
 10
0.0
 20
0.0
 30
0.0
  3
*Paper_Space
  1

  0
ENDBLK
  5
1D
100
AcDbEntity
  8
0
100
AcDbBlockEnd
  0
ENDSEC
  0
SECTION
  2
ENTITIES
  0
MTEXT
  5
219
100
AcDbEntity
  8
0
100
AcDbMText
 62
7
  6
CONTINUOUS
  7
STANDARD
 71
1
 72
1
 10
15.9560215477
 20
0.9479130325
 30
0.0
 11
1.0
 21
0.0
 31
0.0
 44
0.9
  1
SCALE: 1:1.000
 40
0.3
 41
3.36
  0
LINE
  5
21A
100
AcDbEntity
  8
0
100
AcDbLine
 62
7
  6
CONTINUOUS
 10
0.0
 20
0.0
 11
0.0
 21
17.0
  0
LINE
  5
21B
100
AcDbEntity
  8
0
100
AcDbLine
 62
7
  6
CONTINUOUS
 10
0.0
 20
0.0
 11
22.0
 21
0.0
  0
LINE
  5
21C
100
AcDbEntity
  8
0
100
AcDbLine
 62
7
  6
CONTINUOUS
 10
0.0
 20
17.0
 11
22.0
 21
17.0
  0
LINE
  5
21D
100
AcDbEntity
  8
0
100
AcDbLine
 62
7
  6
CONTINUOUS
 10
22.0
 20
0.0
 11
22.0
 21
17.0
  0
LINE
  5
21E
100
AcDbEntity
  8
0
100
AcDbLine
 62
7
  6
CONTINUOUS
 10
5.0053672762
 20
5.5901198968
 11
5.0053672762
 21
5.5251198968
  0
LINE
  5
21F
100
AcDbEntity
  8
0
100
AcDbLine
 62
7
  6
CONTINUOUS
 10
5.0810068781
 20
5.5122591349
 11
5.0987551404
 21
5.4694110395
  0
LINE
  5
220
100
AcDbEntity
  8
0
100
AcDbLine
 62
7
  6
CONTINUOUS
 10
5.2869794119
 20
5.4694110395
 11
5.3047276742
 21
5.5122591349
  0
LINE
  5
221
100
AcDbEntity
  8
0
100
AcDbLine
 62
7
  6
CONTINUOUS
 10
5.4560068781
 20
5.5122591349
 11
5.4737551404
 21
5.4694110395
  0
LINE
  5
222
100
AcDbEntity
  8
0
100
AcDbLine
 62
7
  6
CONTINUOUS
 10
5.6619794119
 20
5.4694110395
 11
5.6797276742
 21
5.5122591349
  0
LINE
  5
223
100
AcDbEntity
  8
0
100
AcDbLine
 62
7
  6
CONTINUOUS
 10
5.8310068781
 20
5.5122591349
 11
5.8487551404
 21
5.4694110395
  0
LINE
  5
224
100
AcDbEntity
  8
0
100
AcDbLine
 62
7
  6
CONTINUOUS
 10
6.0369794119
 20
5.4694110395
 11
6.0547276742
 21
5.5122591349
  0
LINE
  5
225
100
AcDbEntity
  8
0
100
AcDbLine
 62
7
  6
CONTINUOUS
 10
5.1276263758
 20
5.4501198968
 11
5.2581081766
 21
5.4501198968
  0
LINE
  5
226
100
AcDbEntity
  8
0
100
AcDbLine
 62
7
  6
CONTINUOUS
 10
5.5026263758
 20
5.4501198968
 11
5.6331081766
 21
5.4501198968
  0
LINE
  5
227
100
AcDbEntity
  8
0
100
AcDbLine
 62
7
  6
CONTINUOUS
 10
5.8776263758
 20
5.4501198968
 11
6.0081081766
 21
5.4501198968
  0
LINE
  5
228
100
AcDbEntity
  8
0
100
AcDbLine
 62
7
  6
CONTINUOUS
 10
6.2526263758
 20
5.4501198968
 11
6.3831081766
 21
5.4501198968
  0
LINE
  5
229
100
AcDbEntity
  8
0
100
AcDbLine
 62
7
  6
CONTINUOUS
 10
6.6276263758
 20
5.4501198968
 11
6.7581081766
 21
5.4501198968
  0
LINE
  5
22A
100
AcDbEntity
  8
0
100
AcDbLine
 62
7
  6
CONTINUOUS
 10
7.0026263758
 20
5.4501198968
 11
7.1331081766
 21
5.4501198968
  0
LINE
  5
22B
100
AcDbEntity
  8
0
100
AcDbLine
 62
7
  6
CONTINUOUS
 10
5.0053672762
 20
5.5251198968
 11
5.0617593879
 21
5.5251198968
  0
LINE
  5
22C
100
AcDbEntity
  8
0
100
AcDbLine
 62
7
  6
CONTINUOUS
 10
5.3239751645
 20
5.5251198968
 11
5.4367593879
 21
5.5251198968
  0
LINE
  5
22D
100
AcDbEntity
  8
0
100
AcDbLine
 62
7
  6
CONTINUOUS
 10
5.6989751645
 20
5.5251198968
 11
5.8117593879
 21
5.5251198968
  0
LINE
  5
22E
100
AcDbEntity
  8
0
100
AcDbLine
 62
7
  6
CONTINUOUS
 10
6.0739751645
 20
5.5251198968
 11
6.1867593879
 21
5.5251198968
  0
LINE
  5
22F
100
AcDbEntity
  8
0
100
AcDbLine
 62
7
  6
CONTINUOUS
 10
6.4489751645
 20
5.5251198968
 11
6.5617593879
 21
5.5251198968
  0
LINE
  5
230
100
AcDbEntity
  8
0
100
AcDbLine
 62
7
  6
CONTINUOUS
 10
6.8239751645
 20
5.5251198968
 11
6.9367593879
 21
5.5251198968
  0
LINE
  5
231
100
AcDbEntity
  8
0
100
AcDbLine
 62
7
  6
CONTINUOUS
 10
7.1989751645
 20
5.5251198968
 11
7.2553672762
 21
5.5251198968
  0
LINE
  5
232
100
AcDbEntity
  8
0
100
AcDbLine
 62
7
  6
CONTINUOUS
 10
7.2553672762
 20
5.5901198968
 11
5.0053672762
 21
5.5901198968
  0
LINE
  5
233
100
AcDbEntity
  8
0
100
AcDbLine
 62
7
  6
CONTINUOUS
 10
6.2060068781
 20
5.5122591349
 11
6.2237551404
 21
5.4694110395
  0
LINE
  5
234
100
AcDbEntity
  8
0
100
AcDbLine
 62
7
  6
CONTINUOUS
 10
6.4119794119
 20
5.4694110395
 11
6.4297276742
 21
5.5122591349
  0
LINE
  5
235
100
AcDbEntity
  8
0
100
AcDbLine
 62
7
  6
CONTINUOUS
 10
6.5810068781
 20
5.5122591349
 11
6.5987551404
 21
5.4694110395
  0
LINE
  5
236
100
AcDbEntity
  8
0
100
AcDbLine
 62
7
  6
CONTINUOUS
 10
6.7869794119
 20
5.4694110395
 11
6.8047276742
 21
5.5122591349
  0
LINE
  5
237
100
AcDbEntity
  8
0
100
AcDbLine
 62
7
  6
CONTINUOUS
 10
6.9560068781
 20
5.5122591349
 11
6.9737551404
 21
5.4694110395
  0
LINE
  5
238
100
AcDbEntity
  8
0
100
AcDbLine
 62
7
  6
CONTINUOUS
 10
7.1619794119
 20
5.4694110395
 11
7.1797276742
 21
5.5122591349
  0
LINE
  5
239
100
AcDbEntity
  8
0
100
AcDbLine
 62
7
  6
CONTINUOUS
 10
7.2553672762
 20
5.5251198968
 11
7.2553672762
 21
5.5901198968
  0
LINE
  5
23A
100
AcDbEntity
  8
0
100
AcDbLine
 62
7
  6
CONTINUOUS
 10
4.9458720839
 20
12.8500477814
 11
4.9458720839
 21
12.3500477814
  0
LINE
  5
23B
100
AcDbEntity
  8
0
100
AcDbLine
 62
7
  6
CONTINUOUS
 10
7.1958720839
 20
12.3500477814
 11
4.9458720839
 21
12.3500477814
  0
LINE
  5
23C
100
AcDbEntity
  8
0
100
AcDbLine
 62
7
  6
CONTINUOUS
 10
4.9458720839
 20
12.8500477814
 11
7.1958720839
 21
12.8500477814
  0
LINE
  5
23D
100
AcDbEntity
  8
0
100
AcDbLine
 62
7
  6
CONTINUOUS
 10
7.1958720839
 20
12.8500477814
 11
7.1958720839
 21
12.3500477814
  0
LINE
  5
23E
100
AcDbEntity
  8
0
100
AcDbLine
 62
7
  6
CONTINUOUS
 10
15.3103552569
 20
5.3906247044
 11
15.3103552569
 21
5.5306247044
  0
LINE
  5
23F
100
AcDbEntity
  8
0
100
AcDbLine
 62
7
  6
CONTINUOUS
 10
15.3103552569
 20
5.3906247044
 11
15.8103552569
 21
5.3906247044
  0
LINE
  5
240
100
AcDbEntity
  8
0
100
AcDbLine
 62
7
  6
CONTINUOUS
 10
15.8103552569
 20
5.4656247044
 11
15.3103552569
 21
5.4656247044
  0
LINE
  5
241
100
AcDbEntity
  8
0
100
AcDbLine
 62
7
  6
CONTINUOUS
 10
15.8103552569
 20
5.5306247044
 11
15.3103552569
 21
5.5306247044
  0
LINE
  5
242
100
AcDbEntity
  8
0
100
AcDbLine
 62
7
  6
CONTINUOUS
 10
15.8103552569
 20
5.3906247044
 11
15.8103552569
 21
5.5306247044
  0
LINE
  5
243
100
AcDbEntity
  8
0
100
AcDbLine
 62
7
  6
CONTINUOUS
 10
14.3644884087
 20
12.3584859633
 11
14.38431613
 21
12.3180813153
  0
LINE
  5
244
100
AcDbEntity
  8
0
100
AcDbLine
 62
7
  6
CONTINUOUS
 10
14.4855215704
 20
12.7501494181
 11
14.3644884087
 21
12.3584859633
  0
LINE
  5
245
100
AcDbEntity
  8
0
100
AcDbLine
 62
7
  6
CONTINUOUS
 10
14.4579078878
 20
12.3100869376
 11
14.4873255829
 21
12.2834521343
  0
LINE
  5
246
100
AcDbEntity
  8
0
100
AcDbLine
 62
7
  6
CONTINUOUS
 10
14.6606916175
 20
12.2834521343
 11
14.6639683866
 21
12.3100869376
  0
LINE
  5
247
100
AcDbEntity
  8
0
100
AcDbLine
 62
7
  6
CONTINUOUS
 10
14.6603110933
 20
12.2816585669
 11
14.6606916175
 21
12.2834521343
  0
LINE
  5
248
100
AcDbEntity
  8
0
100
AcDbLine
 62
7
  6
CONTINUOUS
 10
14.6639683866
 20
12.3100869376
 11
14.6642264594
 21
12.3112812946
  0
LINE
  5
249
100
AcDbEntity
  8
0
100
AcDbLine
 62
7
  6
CONTINUOUS
 10
14.6608475083
 20
12.2834039605
 11
14.6712471446
 21
12.3170571957
  0
LINE
  5
24A
100
AcDbEntity
  8
0
100
AcDbLine
 62
7
  6
CONTINUOUS
 10
14.8033057606
 20
12.3100869376
 11
14.8327234556
 21
12.2834521343
  0
LINE
  5
24B
100
AcDbEntity
  8
0
100
AcDbLine
 62
7
  6
CONTINUOUS
 10
15.0060894903
 20
12.2834521343
 11
15.0093662594
 21
12.3100869376
  0
LINE
  5
24C
100
AcDbEntity
  8
0
100
AcDbLine
 62
7
  6
CONTINUOUS
 10
15.0057089661
 20
12.2816585669
 11
15.0060894903
 21
12.2834521343
  0
LINE
  5
24D
100
AcDbEntity
  8
0
100
AcDbLine
 62
7
  6
CONTINUOUS
 10
15.0093662594
 20
12.3100869376
 11
15.0096243322
 21
12.3112812946
  0
LINE
  5
24E
100
AcDbEntity
  8
0
100
AcDbLine
 62
7
  6
CONTINUOUS
 10
15.0062453811
 20
12.2834039605
 11
15.0166450173
 21
12.3170571957
  0
LINE
  5
24F
100
AcDbEntity
  8
0
100
AcDbLine
 62
7
  6
CONTINUOUS
 10
15.1487036333
 20
12.3100869376
 11
15.1781213284
 21
12.2834521343
  0
LINE
  5
250
100
AcDbEntity
  8
0
100
AcDbLine
 62
7
  6
CONTINUOUS
 10
14.5198023578
 20
12.2714605677
 11
14.639984055
 21
12.2714605677
  0
LINE
  5
251
100
AcDbEntity
  8
0
100
AcDbLine
 62
7
  6
CONTINUOUS
 10
14.8652002306
 20
12.2714605677
 11
14.9853819277
 21
12.2714605677
  0
LINE
  5
252
100
AcDbEntity
  8
0
100
AcDbLine
 62
7
  6
CONTINUOUS
 10
15.2105981033
 20
12.2714605677
 11
15.3307798005
 21
12.2714605677
  0
LINE
  5
253
100
AcDbEntity
  8
0
100
AcDbLine
 62
7
  6
CONTINUOUS
 10
15.5559959761
 20
12.2714605677
 11
15.6761776732
 21
12.2714605677
  0
LINE
  5
254
100
AcDbEntity
  8
0
100
AcDbLine
 62
7
  6
CONTINUOUS
 10
15.9013938489
 20
12.2714605677
 11
16.021575546
 21
12.2714605677
  0
LINE
  5
255
100
AcDbEntity
  8
0
100
AcDbLine
 62
7
  6
CONTINUOUS
 10
16.2467917216
 20
12.2714605677
 11
16.3669734187
 21
12.2714605677
  0
LINE
  5
256
100
AcDbEntity
  8
0
100
AcDbLine
 62
7
  6
CONTINUOUS
 10
14.38431613
 20
12.3180813153
 11
14.4362567045
 21
12.3180813153
  0
LINE
  5
257
100
AcDbEntity
  8
0
100
AcDbLine
 62
7
  6
CONTINUOUS
 10
14.6777734283
 20
12.3180813153
 11
14.7816545773
 21
12.3180813153
  0
LINE
  5
258
100
AcDbEntity
  8
0
100
AcDbLine
 62
7
  6
CONTINUOUS
 10
15.0231713011
 20
12.3180813153
 11
15.12705245
 21
12.3180813153
  0
LINE
  5
259
100
AcDbEntity
  8
0
100
AcDbLine
 62
7
  6
CONTINUOUS
 10
15.3685691738
 20
12.3180813153
 11
15.4724503228
 21
12.3180813153
  0
LINE
  5
25A
100
AcDbEntity
  8
0
100
AcDbLine
 62
7
  6
CONTINUOUS
 10
15.7139670466
 20
12.3180813153
 11
15.8178481955
 21
12.3180813153
  0
LINE
  5
25B
100
AcDbEntity
  8
0
100
AcDbLine
 62
7
  6
CONTINUOUS
 10
16.0593649193
 20
12.3180813153
 11
16.1632460683
 21
12.3180813153
  0
LINE
  5
25C
100
AcDbEntity
  8
0
100
AcDbLine
 62
7
  6
CONTINUOUS
 10
16.4047627921
 20
12.3180813153
 11
16.4567033665
 21
12.3180813153
  0
LINE
  5
25D
100
AcDbEntity
  8
0
100
AcDbLine
 62
7
  6
CONTINUOUS
 10
16.4368756452
 20
12.3584859633
 11
14.3644884087
 21
12.3584859633
  0
LINE
  5
25E
100
AcDbEntity
  8
0
100
AcDbLine
 62
7
  6
CONTINUOUS
 10
15.351487363
 20
12.2834521343
 11
15.3547641321
 21
12.3100869376
  0
LINE
  5
25F
100
AcDbEntity
  8
0
100
AcDbLine
 62
7
  6
CONTINUOUS
 10
15.3511068389
 20
12.2816585669
 11
15.351487363
 21
12.2834521343
  0
LINE
  5
260
100
AcDbEntity
  8
0
100
AcDbLine
 62
7
  6
CONTINUOUS
 10
15.3547641321
 20
12.3100869376
 11
15.3550222049
 21
12.3112812946
  0
LINE
  5
261
100
AcDbEntity
  8
0
100
AcDbLine
 62
7
  6
CONTINUOUS
 10
15.4941015061
 20
12.3100869376
 11
15.5235192011
 21
12.2834521343
  0
LINE
  5
262
100
AcDbEntity
  8
0
100
AcDbLine
 62
7
  6
CONTINUOUS
 10
15.3516432538
 20
12.2834039605
 11
15.3620428901
 21
12.3170571957
  0
LINE
  5
263
100
AcDbEntity
  8
0
100
AcDbLine
 62
7
  6
CONTINUOUS
 10
15.8394993788
 20
12.3100869376
 11
15.8689170739
 21
12.2834521343
  0
LINE
  5
264
100
AcDbEntity
  8
0
100
AcDbLine
 62
7
  6
CONTINUOUS
 10
15.6968852358
 20
12.2834521343
 11
15.7001620049
 21
12.3100869376
  0
LINE
  5
265
100
AcDbEntity
  8
0
100
AcDbLine
 62
7
  6
CONTINUOUS
 10
15.6965047116
 20
12.2816585669
 11
15.6968852358
 21
12.2834521343
  0
LINE
  5
266
100
AcDbEntity
  8
0
100
AcDbLine
 62
7
  6
CONTINUOUS
 10
15.7001620049
 20
12.3100869376
 11
15.7004200777
 21
12.3112812946
  0
LINE
  5
267
100
AcDbEntity
  8
0
100
AcDbLine
 62
7
  6
CONTINUOUS
 10
15.6970411266
 20
12.2834039605
 11
15.7074407628
 21
12.3170571957
  0
LINE
  5
268
100
AcDbEntity
  8
0
100
AcDbLine
 62
7
  6
CONTINUOUS
 10
14.4855215704
 20
12.7501494181
 11
16.5579088069
 21
12.7501494181
  0
LINE
  5
269
100
AcDbEntity
  8
0
100
AcDbLine
 62
7
  6
CONTINUOUS
 10
16.1848972516
 20
12.3100869376
 11
16.2143149466
 21
12.2834521343
  0
LINE
  5
26A
100
AcDbEntity
  8
0
100
AcDbLine
 62
7
  6
CONTINUOUS
 10
16.0422831085
 20
12.2834521343
 11
16.0455598776
 21
12.3100869376
  0
LINE
  5
26B
100
AcDbEntity
  8
0
100
AcDbLine
 62
7
  6
CONTINUOUS
 10
16.0419025844
 20
12.2816585669
 11
16.0422831085
 21
12.2834521343
  0
LINE
  5
26C
100
AcDbEntity
  8
0
100
AcDbLine
 62
7
  6
CONTINUOUS
 10
16.0455598776
 20
12.3100869376
 11
16.0458179504
 21
12.3112812946
  0
LINE
  5
26D
100
AcDbEntity
  8
0
100
AcDbLine
 62
7
  6
CONTINUOUS
 10
16.0424389993
 20
12.2834039605
 11
16.0528386356
 21
12.3170571957
  0
LINE
  5
26E
100
AcDbEntity
  8
0
100
AcDbLine
 62
7
  6
CONTINUOUS
 10
16.4567033665
 20
12.3180813153
 11
16.4368756452
 21
12.3584859633
  0
LINE
  5
26F
100
AcDbEntity
  8
0
100
AcDbLine
 62
7
  6
CONTINUOUS
 10
16.3876809813
 20
12.2834521343
 11
16.3909577504
 21
12.3100869376
  0
LINE
  5
270
100
AcDbEntity
  8
0
100
AcDbLine
 62
7
  6
CONTINUOUS
 10
16.3873004571
 20
12.2816585669
 11
16.3876809813
 21
12.2834521343
  0
LINE
  5
271
100
AcDbEntity
  8
0
100
AcDbLine
 62
7
  6
CONTINUOUS
 10
16.3909577504
 20
12.3100869376
 11
16.3912158232
 21
12.3112812946
  0
LINE
  5
272
100
AcDbEntity
  8
0
100
AcDbLine
 62
7
  6
CONTINUOUS
 10
16.3878368721
 20
12.2834039605
 11
16.3982365083
 21
12.3170571957
  0
LINE
  5
273
100
AcDbEntity
  8
0
100
AcDbLine
 62
7
  6
CONTINUOUS
 10
16.5579088069
 20
12.7501494181
 11
16.4368756452
 21
12.3584859633
  0
LINE
  5
274
100
AcDbEntity
  8
0
100
AcDbLine
 62
7
  6
CONTINUOUS
 10
16.5777365282
 20
12.7097447702
 11
16.4567033665
 21
12.3180813153
  0
LINE
  5
275
100
AcDbEntity
  8
0
100
AcDbLine
 62
7
  6
CONTINUOUS
 10
16.5777365282
 20
12.7097447702
 11
16.5579088069
 21
12.7501494181
  0
ARC
  5
276
100
AcDbEntity
  8
0
100
AcDbCircle
 62
7
  6
CONTINUOUS
 10
5.5026263758
 20
5.4813698968
 40
0.03125
100
AcDbArc
 50
202.5
 51
270.0
  0
ARC
  5
277
100
AcDbEntity
  8
0
100
AcDbCircle
 62
7
  6
CONTINUOUS
 10
5.6331081766
 20
5.4813698968
 40
0.03125
100
AcDbArc
 50
270.0
 51
337.5
  0
ARC
  5
278
100
AcDbEntity
  8
0
100
AcDbCircle
 62
7
  6
CONTINUOUS
 10
5.8776263758
 20
5.4813698968
 40
0.03125
100
AcDbArc
 50
202.5
 51
270.0
  0
ARC
  5
279
100
AcDbEntity
  8
0
100
AcDbCircle
 62
7
  6
CONTINUOUS
 10
6.0081081766
 20
5.4813698968
 40
0.03125
100
AcDbArc
 50
270.0
 51
337.5
  0
ARC
  5
27A
100
AcDbEntity
  8
0
100
AcDbCircle
 62
7
  6
CONTINUOUS
 10
6.2526263758
 20
5.4813698968
 40
0.03125
100
AcDbArc
 50
202.5
 51
270.0
  0
ARC
  5
27B
100
AcDbEntity
  8
0
100
AcDbCircle
 62
7
  6
CONTINUOUS
 10
6.3831081766
 20
5.4813698968
 40
0.03125
100
AcDbArc
 50
270.0
 51
337.5
  0
ARC
  5
27C
100
AcDbEntity
  8
0
100
AcDbCircle
 62
7
  6
CONTINUOUS
 10
5.2581081766
 20
5.4813698968
 40
0.03125
100
AcDbArc
 50
270.0
 51
337.5
  0
ARC
  5
27D
100
AcDbEntity
  8
0
100
AcDbCircle
 62
7
  6
CONTINUOUS
 10
5.1276263758
 20
5.4813698968
 40
0.03125
100
AcDbArc
 50
202.5
 51
270.0
  0
ARC
  5
27E
100
AcDbEntity
  8
0
100
AcDbCircle
 62
7
  6
CONTINUOUS
 10
7.1331081766
 20
5.4813698968
 40
0.03125
100
AcDbArc
 50
270.0
 51
337.5
  0
ARC
  5
27F
100
AcDbEntity
  8
0
100
AcDbCircle
 62
7
  6
CONTINUOUS
 10
7.0026263758
 20
5.4813698968
 40
0.03125
100
AcDbArc
 50
202.5
 51
270.0
  0
ARC
  5
280
100
AcDbEntity
  8
0
100
AcDbCircle
 62
7
  6
CONTINUOUS
 10
6.7581081766
 20
5.4813698968
 40
0.03125
100
AcDbArc
 50
270.0
 51
337.5
  0
ARC
  5
281
100
AcDbEntity
  8
0
100
AcDbCircle
 62
7
  6
CONTINUOUS
 10
6.6276263758
 20
5.4813698968
 40
0.03125
100
AcDbArc
 50
202.5
 51
270.0
  0
ARC
  5
282
100
AcDbEntity
  8
0
100
AcDbCircle
 62
7
  6
CONTINUOUS
 10
5.3239751645
 20
5.5042865634
 40
0.0208333333
100
AcDbArc
 50
90.0
 51
157.5
  0
ARC
  5
283
100
AcDbEntity
  8
0
100
AcDbCircle
 62
7
  6
CONTINUOUS
 10
5.0617593879
 20
5.5042865634
 40
0.0208333333
100
AcDbArc
 50
22.5
 51
90.0
  0
ARC
  5
284
100
AcDbEntity
  8
0
100
AcDbCircle
 62
7
  6
CONTINUOUS
 10
5.6989751645
 20
5.5042865634
 40
0.0208333333
100
AcDbArc
 50
90.0
 51
157.5
  0
ARC
  5
285
100
AcDbEntity
  8
0
100
AcDbCircle
 62
7
  6
CONTINUOUS
 10
5.4367593879
 20
5.5042865634
 40
0.0208333333
100
AcDbArc
 50
22.5
 51
90.0
  0
ARC
  5
286
100
AcDbEntity
  8
0
100
AcDbCircle
 62
7
  6
CONTINUOUS
 10
6.0739751645
 20
5.5042865634
 40
0.0208333333
100
AcDbArc
 50
90.0
 51
157.5
  0
ARC
  5
287
100
AcDbEntity
  8
0
100
AcDbCircle
 62
7
  6
CONTINUOUS
 10
5.8117593879
 20
5.5042865634
 40
0.0208333333
100
AcDbArc
 50
22.5
 51
90.0
  0
ARC
  5
288
100
AcDbEntity
  8
0
100
AcDbCircle
 62
7
  6
CONTINUOUS
 10
6.4489751645
 20
5.5042865634
 40
0.0208333333
100
AcDbArc
 50
90.0
 51
157.5
  0
ARC
  5
289
100
AcDbEntity
  8
0
100
AcDbCircle
 62
7
  6
CONTINUOUS
 10
6.1867593879
 20
5.5042865634
 40
0.0208333333
100
AcDbArc
 50
22.5
 51
90.0
  0
ARC
  5
28A
100
AcDbEntity
  8
0
100
AcDbCircle
 62
7
  6
CONTINUOUS
 10
6.8239751645
 20
5.5042865634
 40
0.0208333333
100
AcDbArc
 50
90.0
 51
157.5
  0
ARC
  5
28B
100
AcDbEntity
  8
0
100
AcDbCircle
 62
7
  6
CONTINUOUS
 10
6.5617593879
 20
5.5042865634
 40
0.0208333333
100
AcDbArc
 50
22.5
 51
90.0
  0
ARC
  5
28C
100
AcDbEntity
  8
0
100
AcDbCircle
 62
7
  6
CONTINUOUS
 10
7.1989751645
 20
5.5042865634
 40
0.0208333333
100
AcDbArc
 50
90.0
 51
157.5
  0
ARC
  5
28D
100
AcDbEntity
  8
0
100
AcDbCircle
 62
7
  6
CONTINUOUS
 10
6.9367593879
 20
5.5042865634
 40
0.0208333333
100
AcDbArc
 50
22.5
 51
90.0
  0
LINE
  5
28E
100
AcDbEntity
  8
0
100
AcDbLine
 62
7
  6
CONTINUOUS
 10
14.6642245194
 20
12.3112818945
 11
14.6652577011
 21
12.3133382767
  0
SPLINE
  5
28F
100
AcDbEntity
  8
0
100
AcDbSpline
 62
7
  6
CONTINUOUS
 70
0
 71
3
 72
14
 73
10
 74
0
 42
0.0000001
 43
0.0000001
 44
0.0000000001
 40
0.0
 40
0.0
 40
0.0
 40
0.0
 40
0.1008719612
 40
0.2072978238
 40
0.3205373713
 40
0.4413686853
 40
0.7063101084
 40
0.8500851712
 40
1.0
 40
1.0
 40
1.0
 40
1.0
 10
14.6652577011
 20
12.3133382767
 30
0.0
 10
14.6655304469
 20
12.3137156814
 30
0.0
 10
14.6661642287
 20
12.3144402311
 30
0.0
 10
14.6673109467
 20
12.3153838991
 30
0.0
 10
14.6686603524
 20
12.3161996904
 30
0.0
 10
14.6707717737
 20
12.3171328403
 30
0.0
 10
14.6731623835
 20
12.3177306501
 30
0.0
 10
14.6757246922
 20
12.3180312366
 30
0.0
 10
14.6770813928
 20
12.3180813153
 30
0.0
 10
14.6777734283
 20
12.3180813153
 30
0.0
  0
LINE
  5
290
100
AcDbEntity
  8
0
100
AcDbLine
 62
7
  6
CONTINUOUS
 10
15.0096223921
 20
12.3112818945
 11
15.0106555738
 21
12.3133382767
  0
SPLINE
  5
291
100
AcDbEntity
  8
0
100
AcDbSpline
 62
7
  6
CONTINUOUS
 70
0
 71
3
 72
14
 73
10
 74
0
 42
0.0000001
 43
0.0000001
 44
0.0000000001
 40
0.0
 40
0.0
 40
0.0
 40
0.0
 40
0.1008719612
 40
0.2072978238
 40
0.3205373713
 40
0.4413686853
 40
0.7063101084
 40
0.8500851712
 40
1.0
 40
1.0
 40
1.0
 40
1.0
 10
15.0106555738
 20
12.3133382767
 30
0.0
 10
15.0109283197
 20
12.3137156814
 30
0.0
 10
15.0115621014
 20
12.3144402311
 30
0.0
 10
15.0127088195
 20
12.3153838991
 30
0.0
 10
15.0140582251
 20
12.3161996904
 30
0.0
 10
15.0161696464
 20
12.3171328403
 30
0.0
 10
15.0185602562
 20
12.3177306501
 30
0.0
 10
15.021122565
 20
12.3180312366
 30
0.0
 10
15.0224792655
 20
12.3180813153
 30
0.0
 10
15.0231713011
 20
12.3180813153
 30
0.0
  0
LINE
  5
292
100
AcDbEntity
  8
0
100
AcDbLine
 62
7
  6
CONTINUOUS
 10
15.3550202649
 20
12.3112818945
 11
15.3560534466
 21
12.3133382767
  0
SPLINE
  5
293
100
AcDbEntity
  8
0
100
AcDbSpline
 62
7
  6
CONTINUOUS
 70
0
 71
3
 72
14
 73
10
 74
0
 42
0.0000001
 43
0.0000001
 44
0.0000000001
 40
0.0
 40
0.0
 40
0.0
 40
0.0
 40
0.1008719612
 40
0.2072978238
 40
0.3205373713
 40
0.4413686853
 40
0.7063101084
 40
0.8500851712
 40
1.0
 40
1.0
 40
1.0
 40
1.0
 10
15.3560534466
 20
12.3133382767
 30
0.0
 10
15.3563261924
 20
12.3137156814
 30
0.0
 10
15.3569599742
 20
12.3144402311
 30
0.0
 10
15.3581066922
 20
12.3153838991
 30
0.0
 10
15.3594560979
 20
12.3161996904
 30
0.0
 10
15.3615675192
 20
12.3171328403
 30
0.0
 10
15.363958129
 20
12.3177306501
 30
0.0
 10
15.3665204377
 20
12.3180312366
 30
0.0
 10
15.3678771383
 20
12.3180813153
 30
0.0
 10
15.3685691738
 20
12.3180813153
 30
0.0
  0
LINE
  5
294
100
AcDbEntity
  8
0
100
AcDbLine
 62
7
  6
CONTINUOUS
 10
15.7004181376
 20
12.3112818945
 11
15.7014513193
 21
12.3133382767
  0
SPLINE
  5
295
100
AcDbEntity
  8
0
100
AcDbSpline
 62
7
  6
CONTINUOUS
 70
0
 71
3
 72
14
 73
10
 74
0
 42
0.0000001
 43
0.0000001
 44
0.0000000001
 40
0.0
 40
0.0
 40
0.0
 40
0.0
 40
0.1008719612
 40
0.2072978238
 40
0.3205373713
 40
0.4413686853
 40
0.7063101084
 40
0.8500851712
 40
1.0
 40
1.0
 40
1.0
 40
1.0
 10
15.7014513193
 20
12.3133382767
 30
0.0
 10
15.7017240652
 20
12.3137156814
 30
0.0
 10
15.7023578469
 20
12.3144402311
 30
0.0
 10
15.703504565
 20
12.3153838991
 30
0.0
 10
15.7048539706
 20
12.3161996904
 30
0.0
 10
15.7069653919
 20
12.3171328403
 30
0.0
 10
15.7093560017
 20
12.3177306501
 30
0.0
 10
15.7119183105
 20
12.3180312366
 30
0.0
 10
15.713275011
 20
12.3180813153
 30
0.0
 10
15.7139670466
 20
12.3180813153
 30
0.0
  0
LINE
  5
296
100
AcDbEntity
  8
0
100
AcDbLine
 62
7
  6
CONTINUOUS
 10
16.0458160104
 20
12.3112818945
 11
16.0468491921
 21
12.3133382767
  0
SPLINE
  5
297
100
AcDbEntity
  8
0
100
AcDbSpline
 62
7
  6
CONTINUOUS
 70
0
 71
3
 72
14
 73
10
 74
0
 42
0.0000001
 43
0.0000001
 44
0.0000000001
 40
0.0
 40
0.0
 40
0.0
 40
0.0
 40
0.1008719612
 40
0.2072978238
 40
0.3205373713
 40
0.4413686853
 40
0.7063101084
 40
0.8500851712
 40
1.0
 40
1.0
 40
1.0
 40
1.0
 10
16.0468491921
 20
12.3133382767
 30
0.0
 10
16.0471219379
 20
12.3137156814
 30
0.0
 10
16.0477557197
 20
12.3144402311
 30
0.0
 10
16.0489024377
 20
12.3153838991
 30
0.0
 10
16.0502518434
 20
12.3161996904
 30
0.0
 10
16.0523632647
 20
12.3171328403
 30
0.0
 10
16.0547538745
 20
12.3177306501
 30
0.0
 10
16.0573161832
 20
12.3180312366
 30
0.0
 10
16.0586728838
 20
12.3180813153
 30
0.0
 10
16.0593649193
 20
12.3180813153
 30
0.0
  0
LINE
  5
298
100
AcDbEntity
  8
0
100
AcDbLine
 62
7
  6
CONTINUOUS
 10
16.3912138831
 20
12.3112818945
 11
16.3922470648
 21
12.3133382767
  0
SPLINE
  5
299
100
AcDbEntity
  8
0
100
AcDbSpline
 62
7
  6
CONTINUOUS
 70
0
 71
3
 72
14
 73
10
 74
0
 42
0.0000001
 43
0.0000001
 44
0.0000000001
 40
0.0
 40
0.0
 40
0.0
 40
0.0
 40
0.1008719612
 40
0.2072978238
 40
0.3205373713
 40
0.4413686853
 40
0.7063101084
 40
0.8500851712
 40
1.0
 40
1.0
 40
1.0
 40
1.0
 10
16.3922470648
 20
12.3133382767
 30
0.0
 10
16.3925198107
 20
12.3137156814
 30
0.0
 10
16.3931535924
 20
12.3144402311
 30
0.0
 10
16.3943003105
 20
12.3153838991
 30
0.0
 10
16.3956497161
 20
12.3161996904
 30
0.0
 10
16.3977611374
 20
12.3171328403
 30
0.0
 10
16.4001517472
 20
12.3177306501
 30
0.0
 10
16.402714056
 20
12.3180312366
 30
0.0
 10
16.4040707565
 20
12.3180813153
 30
0.0
 10
16.4047627921
 20
12.3180813153
 30
0.0
  0
SPLINE
  5
29A
100
AcDbEntity
  8
0
100
AcDbSpline
 62
7
  6
CONTINUOUS
 70
0
 71
3
 72
15
 73
11
 74
0
 42
0.0000001
 43
0.0000001
 44
0.0000000001
 40
0.0
 40
0.0
 40
0.0
 40
0.0
 40
0.1557507219
 40
0.3032142644
 40
0.4410980388
 40
0.5690412036
 40
0.6873378734
 40
0.7970482108
 40
0.900275439
 40
1.0
 40
1.0
 40
1.0
 40
1.0
 10
14.639984055
 20
12.2714605677
 30
0.0
 10
14.6412422115
 20
12.2714605677
 30
0.0
 10
14.6436934318
 20
12.2715692037
 30
0.0
 10
14.6472263317
 20
12.2720794545
 30
0.0
 10
14.6504636934
 20
12.2729280759
 30
0.0
 10
14.6533473608
 20
12.2741009013
 30
0.0
 10
14.6558278716
 20
12.275580394
 30
0.0
 10
14.6578588864
 20
12.2773478287
 30
0.0
 10
14.6593967214
 20
12.279375615
 30
0.0
 10
14.6600699343
 20
12.2808899269
 30
0.0
 10
14.6603079088
 20
12.2816595512
 30
0.0
  0
SPLINE
  5
29B
100
AcDbEntity
  8
0
100
AcDbSpline
 62
7
  6
CONTINUOUS
 70
0
 71
3
 72
15
 73
11
 74
0
 42
0.0000001
 43
0.0000001
 44
0.0000000001
 40
0.0
 40
0.0
 40
0.0
 40
0.0
 40
0.1148729742
 40
0.2360780722
 40
0.3619574067
 40
0.4908828203
 40
0.6210130191
 40
0.7504589453
 40
0.8774378066
 40
1.0
 40
1.0
 40
1.0
 40
1.0
 10
14.4873255829
 20
12.2834521343
 30
0.0
 10
14.4883283055
 20
12.2825442686
 30
0.0
 10
14.4905007549
 20
12.2807995265
 30
0.0
 10
14.4940812526
 20
12.2784761783
 30
0.0
 10
14.4980082749
 20
12.2764180022
 30
0.0
 10
14.5021960299
 20
12.274669404
 30
0.0
 10
14.5065556789
 20
12.2732658136
 30
0.0
 10
14.5109956927
 20
12.2722383109
 30
0.0
 10
14.515419291
 20
12.2716096899
 30
0.0
 10
14.5183591616
 20
12.2714605677
 30
0.0
 10
14.5198023578
 20
12.2714605677
 30
0.0
  0
SPLINE
  5
29C
100
AcDbEntity
  8
0
100
AcDbSpline
 62
7
  6
CONTINUOUS
 70
0
 71
3
 72
15
 73
11
 74
0
 42
0.0000001
 43
0.0000001
 44
0.0000000001
 40
0.0
 40
0.0
 40
0.0
 40
0.0
 40
0.1557507219
 40
0.3032142644
 40
0.4410980388
 40
0.5690412036
 40
0.6873378734
 40
0.7970482108
 40
0.900275439
 40
1.0
 40
1.0
 40
1.0
 40
1.0
 10
16.3669734187
 20
12.2714605677
 30
0.0
 10
16.3682315753
 20
12.2714605677
 30
0.0
 10
16.3706827956
 20
12.2715692037
 30
0.0
 10
16.3742156954
 20
12.2720794545
 30
0.0
 10
16.3774530572
 20
12.2729280759
 30
0.0
 10
16.3803367246
 20
12.2741009013
 30
0.0
 10
16.3828172354
 20
12.275580394
 30
0.0
 10
16.3848482501
 20
12.2773478287
 30
0.0
 10
16.3863860851
 20
12.279375615
 30
0.0
 10
16.3870592981
 20
12.2808899269
 30
0.0
 10
16.3872972725
 20
12.2816595512
 30
0.0
  0
SPLINE
  5
29D
100
AcDbEntity
  8
0
100
AcDbSpline
 62
7
  6
CONTINUOUS
 70
0
 71
3
 72
15
 73
11
 74
0
 42
0.0000001
 43
0.0000001
 44
0.0000000001
 40
0.0
 40
0.0
 40
0.0
 40
0.0
 40
0.1148729742
 40
0.2360780722
 40
0.3619574067
 40
0.4908828203
 40
0.6210130191
 40
0.7504589453
 40
0.8774378066
 40
1.0
 40
1.0
 40
1.0
 40
1.0
 10
16.2143149466
 20
12.2834521343
 30
0.0
 10
16.2153176692
 20
12.2825442686
 30
0.0
 10
16.2174901186
 20
12.2807995265
 30
0.0
 10
16.2210706164
 20
12.2784761783
 30
0.0
 10
16.2249976387
 20
12.2764180022
 30
0.0
 10
16.2291853937
 20
12.274669404
 30
0.0
 10
16.2335450426
 20
12.2732658136
 30
0.0
 10
16.2379850564
 20
12.2722383109
 30
0.0
 10
16.2424086547
 20
12.2716096899
 30
0.0
 10
16.2453485254
 20
12.2714605677
 30
0.0
 10
16.2467917216
 20
12.2714605677
 30
0.0
  0
SPLINE
  5
29E
100
AcDbEntity
  8
0
100
AcDbSpline
 62
7
  6
CONTINUOUS
 70
0
 71
3
 72
15
 73
11
 74
0
 42
0.0000001
 43
0.0000001
 44
0.0000000001
 40
0.0
 40
0.0
 40
0.0
 40
0.0
 40
0.1557507219
 40
0.3032142644
 40
0.4410980388
 40
0.5690412036
 40
0.6873378734
 40
0.7970482108
 40
0.900275439
 40
1.0
 40
1.0
 40
1.0
 40
1.0
 10
16.021575546
 20
12.2714605677
 30
0.0
 10
16.0228337025
 20
12.2714605677
 30
0.0
 10
16.0252849228
 20
12.2715692037
 30
0.0
 10
16.0288178227
 20
12.2720794545
 30
0.0
 10
16.0320551844
 20
12.2729280759
 30
0.0
 10
16.0349388518
 20
12.2741009013
 30
0.0
 10
16.0374193626
 20
12.275580394
 30
0.0
 10
16.0394503774
 20
12.2773478287
 30
0.0
 10
16.0409882124
 20
12.279375615
 30
0.0
 10
16.0416614254
 20
12.2808899269
 30
0.0
 10
16.0418993998
 20
12.2816595512
 30
0.0
  0
SPLINE
  5
29F
100
AcDbEntity
  8
0
100
AcDbSpline
 62
7
  6
CONTINUOUS
 70
0
 71
3
 72
15
 73
11
 74
0
 42
0.0000001
 43
0.0000001
 44
0.0000000001
 40
0.0
 40
0.0
 40
0.0
 40
0.0
 40
0.1148729742
 40
0.2360780722
 40
0.3619574067
 40
0.4908828203
 40
0.6210130191
 40
0.7504589453
 40
0.8774378066
 40
1.0
 40
1.0
 40
1.0
 40
1.0
 10
15.8689170739
 20
12.2834521343
 30
0.0
 10
15.8699197965
 20
12.2825442686
 30
0.0
 10
15.8720922459
 20
12.2807995265
 30
0.0
 10
15.8756727437
 20
12.2784761783
 30
0.0
 10
15.879599766
 20
12.2764180022
 30
0.0
 10
15.8837875209
 20
12.274669404
 30
0.0
 10
15.8881471699
 20
12.2732658136
 30
0.0
 10
15.8925871837
 20
12.2722383109
 30
0.0
 10
15.897010782
 20
12.2716096899
 30
0.0
 10
15.8999506526
 20
12.2714605677
 30
0.0
 10
15.9013938489
 20
12.2714605677
 30
0.0
  0
SPLINE
  5
2A0
100
AcDbEntity
  8
0
100
AcDbSpline
 62
7
  6
CONTINUOUS
 70
0
 71
3
 72
15
 73
11
 74
0
 42
0.0000001
 43
0.0000001
 44
0.0000000001
 40
0.0
 40
0.0
 40
0.0
 40
0.0
 40
0.1557507219
 40
0.3032142644
 40
0.4410980388
 40
0.5690412036
 40
0.6873378734
 40
0.7970482108
 40
0.900275439
 40
1.0
 40
1.0
 40
1.0
 40
1.0
 10
15.6761776732
 20
12.2714605677
 30
0.0
 10
15.6774358298
 20
12.2714605677
 30
0.0
 10
15.6798870501
 20
12.2715692037
 30
0.0
 10
15.6834199499
 20
12.2720794545
 30
0.0
 10
15.6866573116
 20
12.2729280759
 30
0.0
 10
15.6895409791
 20
12.2741009013
 30
0.0
 10
15.6920214899
 20
12.275580394
 30
0.0
 10
15.6940525046
 20
12.2773478287
 30
0.0
 10
15.6955903396
 20
12.279375615
 30
0.0
 10
15.6962635526
 20
12.2808899269
 30
0.0
 10
15.696501527
 20
12.2816595512
 30
0.0
  0
SPLINE
  5
2A1
100
AcDbEntity
  8
0
100
AcDbSpline
 62
7
  6
CONTINUOUS
 70
0
 71
3
 72
15
 73
11
 74
0
 42
0.0000001
 43
0.0000001
 44
0.0000000001
 40
0.0
 40
0.0
 40
0.0
 40
0.0
 40
0.1148729742
 40
0.2360780722
 40
0.3619574067
 40
0.4908828203
 40
0.6210130191
 40
0.7504589453
 40
0.8774378066
 40
1.0
 40
1.0
 40
1.0
 40
1.0
 10
15.5235192011
 20
12.2834521343
 30
0.0
 10
15.5245219237
 20
12.2825442686
 30
0.0
 10
15.5266943731
 20
12.2807995265
 30
0.0
 10
15.5302748709
 20
12.2784761783
 30
0.0
 10
15.5342018932
 20
12.2764180022
 30
0.0
 10
15.5383896482
 20
12.274669404
 30
0.0
 10
15.5427492971
 20
12.2732658136
 30
0.0
 10
15.5471893109
 20
12.2722383109
 30
0.0
 10
15.5516129092
 20
12.2716096899
 30
0.0
 10
15.5545527799
 20
12.2714605677
 30
0.0
 10
15.5559959761
 20
12.2714605677
 30
0.0
  0
SPLINE
  5
2A2
100
AcDbEntity
  8
0
100
AcDbSpline
 62
7
  6
CONTINUOUS
 70
0
 71
3
 72
15
 73
11
 74
0
 42
0.0000001
 43
0.0000001
 44
0.0000000001
 40
0.0
 40
0.0
 40
0.0
 40
0.0
 40
0.1557507219
 40
0.3032142644
 40
0.4410980388
 40
0.5690412036
 40
0.6873378734
 40
0.7970482108
 40
0.900275439
 40
1.0
 40
1.0
 40
1.0
 40
1.0
 10
15.3307798005
 20
12.2714605677
 30
0.0
 10
15.332037957
 20
12.2714605677
 30
0.0
 10
15.3344891773
 20
12.2715692037
 30
0.0
 10
15.3380220772
 20
12.2720794545
 30
0.0
 10
15.3412594389
 20
12.2729280759
 30
0.0
 10
15.3441431063
 20
12.2741009013
 30
0.0
 10
15.3466236171
 20
12.275580394
 30
0.0
 10
15.3486546319
 20
12.2773478287
 30
0.0
 10
15.3501924669
 20
12.279375615
 30
0.0
 10
15.3508656798
 20
12.2808899269
 30
0.0
 10
15.3511036543
 20
12.2816595512
 30
0.0
  0
SPLINE
  5
2A3
100
AcDbEntity
  8
0
100
AcDbSpline
 62
7
  6
CONTINUOUS
 70
0
 71
3
 72
15
 73
11
 74
0
 42
0.0000001
 43
0.0000001
 44
0.0000000001
 40
0.0
 40
0.0
 40
0.0
 40
0.0
 40
0.1148729742
 40
0.2360780722
 40
0.3619574067
 40
0.4908828203
 40
0.6210130191
 40
0.7504589453
 40
0.8774378066
 40
1.0
 40
1.0
 40
1.0
 40
1.0
 10
15.1781213284
 20
12.2834521343
 30
0.0
 10
15.179124051
 20
12.2825442686
 30
0.0
 10
15.1812965004
 20
12.2807995265
 30
0.0
 10
15.1848769982
 20
12.2784761783
 30
0.0
 10
15.1888040204
 20
12.2764180022
 30
0.0
 10
15.1929917754
 20
12.274669404
 30
0.0
 10
15.1973514244
 20
12.2732658136
 30
0.0
 10
15.2017914382
 20
12.2722383109
 30
0.0
 10
15.2062150365
 20
12.2716096899
 30
0.0
 10
15.2091549071
 20
12.2714605677
 30
0.0
 10
15.2105981033
 20
12.2714605677
 30
0.0
  0
SPLINE
  5
2A4
100
AcDbEntity
  8
0
100
AcDbSpline
 62
7
  6
CONTINUOUS
 70
0
 71
3
 72
15
 73
11
 74
0
 42
0.0000001
 43
0.0000001
 44
0.0000000001
 40
0.0
 40
0.0
 40
0.0
 40
0.0
 40
0.1557507219
 40
0.3032142644
 40
0.4410980388
 40
0.5690412036
 40
0.6873378734
 40
0.7970482108
 40
0.900275439
 40
1.0
 40
1.0
 40
1.0
 40
1.0
 10
14.9853819277
 20
12.2714605677
 30
0.0
 10
14.9866400843
 20
12.2714605677
 30
0.0
 10
14.9890913046
 20
12.2715692037
 30
0.0
 10
14.9926242044
 20
12.2720794545
 30
0.0
 10
14.9958615661
 20
12.2729280759
 30
0.0
 10
14.9987452336
 20
12.2741009013
 30
0.0
 10
15.0012257443
 20
12.275580394
 30
0.0
 10
15.0032567591
 20
12.2773478287
 30
0.0
 10
15.0047945941
 20
12.279375615
 30
0.0
 10
15.0054678071
 20
12.2808899269
 30
0.0
 10
15.0057057815
 20
12.2816595512
 30
0.0
  0
SPLINE
  5
2A5
100
AcDbEntity
  8
0
100
AcDbSpline
 62
7
  6
CONTINUOUS
 70
0
 71
3
 72
15
 73
11
 74
0
 42
0.0000001
 43
0.0000001
 44
0.0000000001
 40
0.0
 40
0.0
 40
0.0
 40
0.0
 40
0.1148729742
 40
0.2360780722
 40
0.3619574067
 40
0.4908828203
 40
0.6210130191
 40
0.7504589453
 40
0.8774378066
 40
1.0
 40
1.0
 40
1.0
 40
1.0
 10
14.8327234556
 20
12.2834521343
 30
0.0
 10
14.8337261782
 20
12.2825442686
 30
0.0
 10
14.8358986276
 20
12.2807995265
 30
0.0
 10
14.8394791254
 20
12.2784761783
 30
0.0
 10
14.8434061477
 20
12.2764180022
 30
0.0
 10
14.8475939027
 20
12.274669404
 30
0.0
 10
14.8519535516
 20
12.2732658136
 30
0.0
 10
14.8563935654
 20
12.2722383109
 30
0.0
 10
14.8608171637
 20
12.2716096899
 30
0.0
 10
14.8637570344
 20
12.2714605677
 30
0.0
 10
14.8652002306
 20
12.2714605677
 30
0.0
  0
SPLINE
  5
2A6
100
AcDbEntity
  8
0
100
AcDbSpline
 62
7
  6
CONTINUOUS
 70
0
 71
3
 72
15
 73
11
 74
0
 42
0.0000001
 43
0.0000001
 44
0.0000000001
 40
0.0
 40
0.0
 40
0.0
 40
0.0
 40
0.1224854372
 40
0.249524809
 40
0.3790232115
 40
0.5091197741
 40
0.6380079594
 40
0.763937045
 40
0.8851965069
 40
1.0
 40
1.0
 40
1.0
 40
1.0
 10
14.4362567045
 20
12.3180813153
 30
0.0
 10
14.4372182298
 20
12.3180813153
 30
0.0
 10
14.439177964
 20
12.3179813718
 30
0.0
 10
14.4421274302
 20
12.3175631508
 30
0.0
 10
14.4450879106
 20
12.3168774372
 30
0.0
 10
14.4479944215
 20
12.3159424506
 30
0.0
 10
14.450785813
 20
12.3147761148
 30
0.0
 10
14.4534045709
 20
12.3134042784
 30
0.0
 10
14.4557912666
 20
12.3118544368
 30
0.0
 10
14.4572398125
 20
12.3106918135
 30
0.0
 10
14.4579078878
 20
12.3100869376
 30
0.0
  0
SPLINE
  5
2A7
100
AcDbEntity
  8
0
100
AcDbSpline
 62
7
  6
CONTINUOUS
 70
0
 71
3
 72
15
 73
11
 74
0
 42
0.0000001
 43
0.0000001
 44
0.0000000001
 40
0.0
 40
0.0
 40
0.0
 40
0.0
 40
0.1224854372
 40
0.249524809
 40
0.3790232115
 40
0.5091197741
 40
0.6380079594
 40
0.763937045
 40
0.8851965069
 40
1.0
 40
1.0
 40
1.0
 40
1.0
 10
14.7816545773
 20
12.3180813153
 30
0.0
 10
14.7826161025
 20
12.3180813153
 30
0.0
 10
14.7845758367
 20
12.3179813718
 30
0.0
 10
14.7875253029
 20
12.3175631508
 30
0.0
 10
14.7904857834
 20
12.3168774372
 30
0.0
 10
14.7933922943
 20
12.3159424506
 30
0.0
 10
14.7961836857
 20
12.3147761148
 30
0.0
 10
14.7988024436
 20
12.3134042784
 30
0.0
 10
14.8011891393
 20
12.3118544368
 30
0.0
 10
14.8026376852
 20
12.3106918135
 30
0.0
 10
14.8033057606
 20
12.3100869376
 30
0.0
  0
SPLINE
  5
2A8
100
AcDbEntity
  8
0
100
AcDbSpline
 62
7
  6
CONTINUOUS
 70
0
 71
3
 72
15
 73
11
 74
0
 42
0.0000001
 43
0.0000001
 44
0.0000000001
 40
0.0
 40
0.0
 40
0.0
 40
0.0
 40
0.1224854372
 40
0.249524809
 40
0.3790232115
 40
0.5091197741
 40
0.6380079594
 40
0.763937045
 40
0.8851965069
 40
1.0
 40
1.0
 40
1.0
 40
1.0
 10
15.12705245
 20
12.3180813153
 30
0.0
 10
15.1280139753
 20
12.3180813153
 30
0.0
 10
15.1299737095
 20
12.3179813718
 30
0.0
 10
15.1329231757
 20
12.3175631508
 30
0.0
 10
15.1358836561
 20
12.3168774372
 30
0.0
 10
15.138790167
 20
12.3159424506
 30
0.0
 10
15.1415815585
 20
12.3147761148
 30
0.0
 10
15.1442003164
 20
12.3134042784
 30
0.0
 10
15.1465870121
 20
12.3118544368
 30
0.0
 10
15.148035558
 20
12.3106918135
 30
0.0
 10
15.1487036333
 20
12.3100869376
 30
0.0
  0
SPLINE
  5
2A9
100
AcDbEntity
  8
0
100
AcDbSpline
 62
7
  6
CONTINUOUS
 70
0
 71
3
 72
15
 73
11
 74
0
 42
0.0000001
 43
0.0000001
 44
0.0000000001
 40
0.0
 40
0.0
 40
0.0
 40
0.0
 40
0.1224854372
 40
0.249524809
 40
0.3790232115
 40
0.5091197741
 40
0.6380079594
 40
0.763937045
 40
0.8851965069
 40
1.0
 40
1.0
 40
1.0
 40
1.0
 10
15.4724503228
 20
12.3180813153
 30
0.0
 10
15.473411848
 20
12.3180813153
 30
0.0
 10
15.4753715822
 20
12.3179813718
 30
0.0
 10
15.4783210484
 20
12.3175631508
 30
0.0
 10
15.4812815289
 20
12.3168774372
 30
0.0
 10
15.4841880398
 20
12.3159424506
 30
0.0
 10
15.4869794312
 20
12.3147761148
 30
0.0
 10
15.4895981891
 20
12.3134042784
 30
0.0
 10
15.4919848848
 20
12.3118544368
 30
0.0
 10
15.4934334307
 20
12.3106918135
 30
0.0
 10
15.4941015061
 20
12.3100869376
 30
0.0
  0
SPLINE
  5
2AA
100
AcDbEntity
  8
0
100
AcDbSpline
 62
7
  6
CONTINUOUS
 70
0
 71
3
 72
15
 73
11
 74
0
 42
0.0000001
 43
0.0000001
 44
0.0000000001
 40
0.0
 40
0.0
 40
0.0
 40
0.0
 40
0.1224854372
 40
0.249524809
 40
0.3790232115
 40
0.5091197741
 40
0.6380079594
 40
0.763937045
 40
0.8851965069
 40
1.0
 40
1.0
 40
1.0
 40
1.0
 10
15.8178481955
 20
12.3180813153
 30
0.0
 10
15.8188097208
 20
12.3180813153
 30
0.0
 10
15.820769455
 20
12.3179813718
 30
0.0
 10
15.8237189212
 20
12.3175631508
 30
0.0
 10
15.8266794016
 20
12.3168774372
 30
0.0
 10
15.8295859125
 20
12.3159424506
 30
0.0
 10
15.832377304
 20
12.3147761148
 30
0.0
 10
15.8349960619
 20
12.3134042784
 30
0.0
 10
15.8373827576
 20
12.3118544368
 30
0.0
 10
15.8388313035
 20
12.3106918135
 30
0.0
 10
15.8394993788
 20
12.3100869376
 30
0.0
  0
SPLINE
  5
2AB
100
AcDbEntity
  8
0
100
AcDbSpline
 62
7
  6
CONTINUOUS
 70
0
 71
3
 72
15
 73
11
 74
0
 42
0.0000001
 43
0.0000001
 44
0.0000000001
 40
0.0
 40
0.0
 40
0.0
 40
0.0
 40
0.1224854372
 40
0.249524809
 40
0.3790232115
 40
0.5091197741
 40
0.6380079594
 40
0.763937045
 40
0.8851965069
 40
1.0
 40
1.0
 40
1.0
 40
1.0
 10
16.1632460683
 20
12.3180813153
 30
0.0
 10
16.1642075935
 20
12.3180813153
 30
0.0
 10
16.1661673278
 20
12.3179813718
 30
0.0
 10
16.1691167939
 20
12.3175631508
 30
0.0
 10
16.1720772744
 20
12.3168774372
 30
0.0
 10
16.1749837853
 20
12.3159424506
 30
0.0
 10
16.1777751767
 20
12.3147761148
 30
0.0
 10
16.1803939346
 20
12.3134042784
 30
0.0
 10
16.1827806303
 20
12.3118544368
 30
0.0
 10
16.1842291762
 20
12.3106918135
 30
0.0
 10
16.1848972516
 20
12.3100869376
 30
0.0
  0
ENDSEC
  0
SECTION
  2
OBJECTS
  0
DICTIONARY
  5
C
100
AcDbDictionary
280
0
281
1
  3
ACAD_GROUP
350
D
  3
ACAD_MLINESTYLE
350
17
  3
ACAD_LAYOUT
350
1A
  3
ACAD_PLOTSETTINGS
350
19
  3
ACAD_PLOTSTYLENAME
350
E
  0
DICTIONARY
  5
D
102
{ACAD_REACTORS
330
C
102
}
100
AcDbDictionary
280
0
281
1
  0
ACDBDICTIONARYWDFLT
  5
E
102
{ACAD_REACTORS
330
C
102
}
100
AcDbDictionary
281
1
  3
Normal
350
F
100
AcDbDictionaryWithDefault
340
F
  0
DICTIONARY
  5
17
102
{ACAD_REACTORS
330
C
102
}
100
AcDbDictionary
280
0
281
1
  3
Standard
350
18
  0
DICTIONARY
  5
19
102
{ACAD_REACTORS
330
C
102
}
100
AcDbDictionary
281
1
  0
DICTIONARY
  5
1A
102
{ACAD_REACTORS
330
C
102
}
100
AcDbDictionary
281
1
  3
Model
350
2AC
  3
Layout1
350
2AD
  0
ACDBPLACEHOLDER
  5
F
102
{ACAD_REACTORS
330
E
102
}
  0
MLINESTYLE
  5
18
102
{ACAD_REACTORS
330
17
102
}
100
AcDbMlineStyle
  2
STANDARD
 70
0
  3

 62
256
 51
90.0
 52
90.0
 71
2
 49
0.5
 62
256
  6
BYLAYER
 49
-0.5
 62
256
  6
BYLAYER
  0
LAYOUT
  5
2AC
102
{ACAD_REACTORS
330
1A
102
}
100
AcDbPlotSettings
  1

  2
none_device
  4
ANSI_C_(22.00_x_17.00_Inches)
  6

 40
0.0
 41
0.0
 42
0.0
 43
0.0
 44
558.8
 45
431.8
 46
0.0
 47
0.0
 48
0.0
 49
0.0
140
0.0
141
0.0
142
1.0
143
1.0
 70
1024
 72
0
 73
0
 74
0
  7

 75
0
147
1.0
148
0.0
149
0.0
100
AcDbLayout
  1
Model
 70
0
 71
0
 10
0.0
 20
0.0
 11
22.0
 21
17.0
 12
0.0
 22
0.0
 32
0.0
 14
0.0
 24
0.0
 34
0.0
 15
0.0
 25
0.0
 35
0.0
146
0.0
 13
0.0
 23
0.0
 33
0.0
 16
1.0
 26
0.0
 36
0.0
 17
0.0
 27
1.0
 37
0.0
 76
0
330
216
345
0
346
0
  0
LAYOUT
  5
2AD
102
{ACAD_REACTORS
330
1A
102
}
100
AcDbPlotSettings
  1

  2
none_device
  4
ANSI_C_(22.00_x_17.00_Inches)
  6

 40
0.0
 41
0.0
 42
0.0
 43
0.0
 44
558.8
 45
431.8
 46
0.0
 47
0.0
 48
0.0
 49
0.0
140
0.0
141
0.0
142
1.0
143
1.0
 70
0
 72
0
 73
0
 74
0
  7

 75
0
147
1.0
148
0.0
149
0.0
100
AcDbLayout
  1
Layout1
 70
0
 71
1
 10
0.0
 20
0.0
 11
22.0
 21
17.0
 12
0.0
 22
0.0
 32
0.0
 14
0.0
 24
0.0
 34
0.0
 15
0.0
 25
0.0
 35
0.0
146
0.0
 13
0.0
 23
0.0
 33
0.0
 16
1.0
 26
0.0
 36
0.0
 17
0.0
 27
1.0
 37
0.0
 76
0
330
217
345
0
346
0
  0
ENDSEC
  0
EOF