999
DXF file: _cgs_temp_output.dxf
999
Pro/ENGINEER 2016360 by Parametric Technology Corporation
  0
SECTION
  2
HEADER
  9
$ACADVER
  1
AC1021
  9
$DWGCODEPAGE
  3
ANSI_1252
  9
$EXTMAX
 10
22.0
 20
17.0
 30
0.0
  9
$EXTMIN
 10
0.0
 20
0.0
 30
0.0
  9
$LIMMIN
 10
0.0
 20
0.0
  9
$LIMMAX
 10
22.0
 20
17.0
  9
$VIEWCTR
 10
11.0
 20
8.5
  9
$VIEWSIZE
 40
17.0
  9
$CLAYER
  8
0
  9
$LTSCALE
 40
1.21
  9
$CELTYPE
  6
BYLAYER
  9
$DIMSCALE
 40
1.0
  9
$DIMASZ
 40
0.1875
  9
$DIMEXO
 40
0.0625
  9
$DIMDLI
 40
0.836
  9
$DIMEXE
 40
0.125
  9
$DIMCEN
 40
0.198
  9
$DIMLFAC
 40
1.0
  9
$DIMBLK
  1
_CLOSED
  9
$DIMALT
 70
0
  9
$DIMALTF
 40
25.4
  9
$DIMTXT
 40
0.15625
  9
$DIMTOL
 70
0
  9
$DIMLIM
 70
0
  9
$DIMTFAC
 40
1.0
  9
$DIMGAP
 40
0.09
  9
$DIMDSEP
 70
46
  9
$AUNITS
 70
0
  9
$PDMODE
 70
3
  9
$PDSIZE
 40
0.3125
  9
$HANDSEED
  5
2AE
  9
$TILEMODE
 70
1
  9
$MEASUREMENT
 70
0
  9
$INSUNITS
 70
1
  0
ENDSEC
  0
SECTION
  2
CLASSES
  0
CLASS
  1
ACDBDICTIONARYWDFLT
  2
AcDbDictionaryWithDefault
  3
AutoCAD 2000
 90
0
 91
1
280
0
281
0
  0
CLASS
  1
ACDBPLACEHOLDER
  2
AcDbPlaceHolder
  3
AutoCAD 2000
 90
0
 91
1
280
0
281
0
  0
CLASS
  1
LAYOUT
  2
AcDbLayout
  3
AutoCAD 2000
 90
0
 91
0
280
0
281
0
  0
ENDSEC
  0
SECTION
  2
TABLES
  0
TABLE
  2
VPORT
  5
8
100
AcDbSymbolTable
 70
2
  0
VPORT
  5
1F4
100
AcDbSymbolTableRecord
100
AcDbViewportTableRecord
  2
*ACTIVE
 70
0
 10
0.0
 20
0.0
 11
1.0
 21
1.0
 12
11.0
 22
8.5
 13
0.0
 23
0.0
 14
1.0
 24
1.0
 15
0.0
 25
0.0
 16
0.0
 26
0.0
 36
1.0
 17
0.0
 27
0.0
 37
0.0
 40
17.0
 41
1.2941176471
 42
50.0
 43
0.0
 44
0.0
 50
0.0
 51
0.0
 71
0
 72
100
 73
1
 74
1
 75
0
 76
0
 77
0
 78
0
  0
ENDTAB
  0
TABLE
  2
LTYPE
  5
5
100
AcDbSymbolTable
 70
6
  0
LTYPE
  5
14
100
AcDbSymbolTableRecord
100
AcDbLinetypeTableRecord
  2
BYBLOCK
 70
0
  3

 72
65
 73
0
 40
0.0
  0
LTYPE
  5
15
100
AcDbSymbolTableRecord
100
AcDbLinetypeTableRecord
  2
BYLAYER
 70
0
  3

 72
65
 73
0
 40
0.0
  0
LTYPE
  5
16
100
AcDbSymbolTableRecord
100
AcDbLinetypeTableRecord
  2
CONTINUOUS
 70
64
  3
Solid line
 72
65
 73
0
 40
0.0
  0
LTYPE
  5
1F5
100
AcDbSymbolTableRecord
100
AcDbLinetypeTableRecord
  2
CENTER
 70
64
  3
____ _ ____ _ ____ _ ____ _ ____ _ ____ _ ____
 72
65
 73
4
 40
0.6
 49
0.375
 74
0
 49
-0.075
 74
0
 49
0.075
 74
0
 49
-0.075
 74
0
  0
LTYPE
  5
1F6
100
AcDbSymbolTableRecord
100
AcDbLinetypeTableRecord
  2
HIDDEN
 70
64
  3
- - - - - - - - - - - - - - - - - - - -
 72
65
 73
2
 40
0.2
 49
0.1
 74
0
 49
-0.1
 74
0
  0
LTYPE
  5
1F7
100
AcDbSymbolTableRecord
100
AcDbLinetypeTableRecord
  2
PHANTOM
 70
64
  3
_____ _ _ _____ _ _ _____ _ _ _____
 72
65
 73
6
 40
0.8
 49
0.45
 74
0
 49
-0.05
 74
0
 49
0.1
 74
0
 49
-0.05
 74
0
 49
0.1
 74
0
 49
-0.05
 74
0
  0
LTYPE
  5
1F8
100
AcDbSymbolTableRecord
100
AcDbLinetypeTableRecord
  2
DOT
 70
64
  3
. . . . . . . . . . . . . . . . . . . .
 72
65
 73
2
 40
0.2
 49
0.1
 74
0
 49
-0.1
 74
0
  0
LTYPE
  5
1F9
100
AcDbSymbolTableRecord
100
AcDbLinetypeTableRecord
  2
DASHED
 70
64
  3
- - - - - - - - - - - - - - - - - - - -
 72
65
 73
2
 40
0.2
 49
0.1
 74
0
 49
-0.1
 74
0
  0
ENDTAB
  0
TABLE
  2
LAYER
  5
2
100
AcDbSymbolTable
 70
36
  0
LAYER
  5
10
100
AcDbSymbolTableRecord
100
AcDbLayerTableRecord
  2
0
 70
0
 62
7
  6
CONTINUOUS
370
-3
390
F
  0
LAYER
  5
1FA
100
AcDbSymbolTableRecord
100
AcDbLayerTableRecord
  2
DEFAULT_1
 70
0
 62
7
  6
CENTER
370
-3
390
F
  0
LAYER
  5
1FB
100
AcDbSymbolTableRecord
100
AcDbLayerTableRecord
  2
DEFAULT_2
 70
0
 62
8
  6
HIDDEN
370
-3
390
F
  0
LAYER
  5
1FC
100
AcDbSymbolTableRecord
100
AcDbLayerTableRecord
  2
DEFAULT_3
 70
0
 62
7
  6
PHANTOM
370
-3
390
F
  0
LAYER
  5
1FD
100
AcDbSymbolTableRecord
100
AcDbLayerTableRecord
  2
01_ALL_DTM_PLN
 70
0
 62
7
  6
CONTINUOUS
370
-3
390
F
  0
LAYER
  5
1FE
100
AcDbSymbolTableRecord
100
AcDbLayerTableRecord
  2
01__ASM_ALL_DTM_PLN
 70
0
 62
7
  6
CONTINUOUS
370
-3
390
F
  0
LAYER
  5
1FF
100
AcDbSymbolTableRecord
100
AcDbLayerTableRecord
  2
01__ASM_DEF_DTM_PLN
 70
0
 62
7
  6
CONTINUOUS
370
-3
390
F
  0
LAYER
  5
200
100
AcDbSymbolTableRecord
100
AcDbLayerTableRecord
  2
01___PRT_ALL_DTM_PLN
 70
0
 62
7
  6
CONTINUOUS
370
-3
390
F
  0
LAYER
  5
201
100
AcDbSymbolTableRecord
100
AcDbLayerTableRecord
  2
01___PRT_DEF_DTM_PLN
 70
0
 62
7
  6
CONTINUOUS
370
-3
390
F
  0
LAYER
  5
202
100
AcDbSymbolTableRecord
100
AcDbLayerTableRecord
  2
02_ALL_AXES
 70
0
 62
7
  6
CONTINUOUS
370
-3
390
F
  0
LAYER
  5
203
100
AcDbSymbolTableRecord
100
AcDbLayerTableRecord
  2
02__ASM_ALL_AXES
 70
0
 62
7
  6
CONTINUOUS
370
-3
390
F
  0
LAYER
  5
204
100
AcDbSymbolTableRecord
100
AcDbLayerTableRecord
  2
02___PRT_ALL_AXES
 70
0
 62
7
  6
CONTINUOUS
370
-3
390
F
  0
LAYER
  5
205
100
AcDbSymbolTableRecord
100
AcDbLayerTableRecord
  2
03_ALL_CURVES
 70
0
 62
7
  6
CONTINUOUS
370
-3
390
F
  0
LAYER
  5
206
100
AcDbSymbolTableRecord
100
AcDbLayerTableRecord
  2
03__ASM_ALL_CURVES
 70
0
 62
7
  6
CONTINUOUS
370
-3
390
F
  0
LAYER
  5
207
100
AcDbSymbolTableRecord
100
AcDbLayerTableRecord
  2
03___PRT_ALL_CURVES
 70
0
 62
7
  6
CONTINUOUS
370
-3
390
F
  0
LAYER
  5
208
100
AcDbSymbolTableRecord
100
AcDbLayerTableRecord
  2
04_ALL_DTM_PNT
 70
0
 62
7
  6
CONTINUOUS
370
-3
390
F
  0
LAYER
  5
209
100
AcDbSymbolTableRecord
100
AcDbLayerTableRecord
  2
04__ASM_ALL_DTM_PNT
 70
0
 62
7
  6
CONTINUOUS
370
-3
390
F
  0
LAYER
  5
20A
100
AcDbSymbolTableRecord
100
AcDbLayerTableRecord
  2
04___PRT_ALL_DTM_PNT
 70
0
 62
7
  6
CONTINUOUS
370
-3
390
F
  0
LAYER
  5
20B
100
AcDbSymbolTableRecord
100
AcDbLayerTableRecord
  2
05_ALL_DTM_CSYS
 70
0
 62
7
  6
CONTINUOUS
370
-3
390
F
  0
LAYER
  5
20C
100
AcDbSymbolTableRecord
100
AcDbLayerTableRecord
  2
05__ASM_ALL_DTM_CSYS
 70
0
 62
7
  6
CONTINUOUS
370
-3
390
F
  0
LAYER
  5
20D
100
AcDbSymbolTableRecord
100
AcDbLayerTableRecord
  2
05__ASM_DEF_DTM_CSYS
 70
0
 62
7
  6
CONTINUOUS
370
-3
390
F
  0
LAYER
  5
20E
100
AcDbSymbolTableRecord
100
AcDbLayerTableRecord
  2
05___PRT_ALL_DTM_CSYS
 70
0
 62
7
  6
CONTINUOUS
370
-3
390
F
  0
LAYER
  5
20F
100
AcDbSymbolTableRecord
100
AcDbLayerTableRecord
  2
05___PRT_DEF_DTM_CSYS
 70
0
 62
7
  6
CONTINUOUS
370
-3
390
F
  0
LAYER
  5
210
100
AcDbSymbolTableRecord
100
AcDbLayerTableRecord
  2
06_ALL_SURFS
 70
0
 62
7
  6
CONTINUOUS
370
-3
390
F
  0
LAYER
  5
211
100
AcDbSymbolTableRecord
100
AcDbLayerTableRecord
  2
06__ASM_ALL_SURFS
 70
0
 62
7
  6
CONTINUOUS
370
-3
390
F
  0
LAYER
  5
212
100
AcDbSymbolTableRecord
100
AcDbLayerTableRecord
  2
06___PRT_ALL_SURFS
 70
0
 62
7
  6
CONTINUOUS
370
-3
390
F
  0
LAYER
  5
213
100
AcDbSymbolTableRecord
100
AcDbLayerTableRecord
  2
07__ASM_ALL_SKELETONS
 70
0
 62
7
  6
CONTINUOUS
370
-3
390
F
  0
ENDTAB
  0
TABLE
  2
STYLE
  5
3
100
AcDbSymbolTable
 70
1
  0
STYLE
  5
11
100
AcDbSymbolTableRecord
100
AcDbTextStyleTableRecord
  2
STANDARD
 70
0
 40
0.0
 41
0.8
 50
0.0
 71
0
 42
0.2
  3
txt
  4

  0
STYLE
  5
214
100
AcDbSymbolTableRecord
100
AcDbTextStyleTableRecord
  2
TEXTSTYLE_1
 70
0
 40
0.0
 41
0.8
 50
0.0
 71
0
 42
0.2
  3
gdt
  4

  0
ENDTAB
  0
TABLE
  2
VIEW
  5
6
100
AcDbSymbolTable
 70
0
  0
ENDTAB
  0
TABLE
  2
UCS
  5
7
100
AcDbSymbolTable
 70
0
  0
ENDTAB
  0
TABLE
  2
APPID
  5
9
100
AcDbSymbolTable
 70
1
  0
APPID
  5
215
100
AcDbSymbolTableRecord
100
AcDbRegAppTableRecord
  2
ACAD
 70
0
  0
ENDTAB
  0
TABLE
  2
BLOCK_RECORD
  5
1
100
AcDbSymbolTable
 70
0
  0
BLOCK_RECORD
  5
216
100
AcDbSymbolTableRecord
100
AcDbBlockTableRecord
  2
*Model_Space
  0
BLOCK_RECORD
  5
217
100
AcDbSymbolTableRecord
100
AcDbBlockTableRecord
  2
*Paper_Space
  0
ENDTAB
  0
TABLE
  2
DIMSTYLE
  5
A
100
AcDbSymbolTable
 70
1
100
AcDbDimStyleTable
 71
0
  0
DIMSTYLE
105
218
100
AcDbSymbolTableRecord
100
AcDbDimStyleTableRecord
  2
STANDARD
 70
0
  3

  4

 40
1.0
 41
0.1875
 42
0.0625
 43
0.38
 44
0.125
 45
0.0
 46
0.0
 47
0.0001
 48
0.0001
140
0.15625
141
0.09
142
0.0
143
25.4
144
1.0
145
0.0
146
1.0
147
0.09
 71
0.0
 72
0.0
 73
1
 74
1
 75
0
 76
0
 77
0
 78
4
 79
1
170
0
171
3
172
0
173
0
174
0
175
0
176
0
177
0
178
0
270
2
179
4
271
4
272
4
273
2
274
2
275
0
280
0
281
0
282
0
283
1
284
4
285
0
286
0
287
3
288
0
340
11
278
46
  0
ENDTAB
  0
ENDSEC
  0
SECTION
  2
BLOCKS
  0
BLOCK
  5
20
100
AcDbEntity
  8
0
100
AcDbBlockBegin
  2
*Model_Space
 70
0
 10
0.0
 20
0.0
 30
0.0
  3
*Model_Space
  1

  0
ENDBLK
  5
21
100
AcDbEntity
  8
0
100
AcDbBlockEnd
  0
BLOCK
  5
1C
100
AcDbEntity
  8
0
100
AcDbBlockBegin
  2
*Paper_Space
 70
0
 10
0.0
 20
0.0
 30
0.0
  3
*Paper_Space
  1

  0
ENDBLK
  5
1D
100
AcDbEntity
  8
0
100
AcDbBlockEnd
  0
ENDSEC
  0
SECTION
  2
ENTITIES
  0
MTEXT
  5
219
100
AcDbEntity
  8
0
100
AcDbMText
 62
7
  6
CONTINUOUS
  7
STANDARD
 71
1
 72
1
 10
15.9560215477
 20
0.9479130325
 30
0.0
 11
1.0
 21
0.0
 31
0.0
 44
0.9
  1
SCALE: 1:1.000
 40
0.3
 41
3.36
  0
LINE
  5
21A
100
AcDbEntity
  8
0
100
AcDbLine
 62
7
  6
CONTINUOUS
 10
0.0
 20
0.0
 11
0.0
 21
17.0
  0
LINE
  5
21B
100
AcDbEntity
  8
0
100
AcDbLine
 62
7
  6
CONTINUOUS
 10
0.0
 20
0.0
 11
22.0
 21
0.0
  0
LINE
  5
21C
100
AcDbEntity
  8
0
100
AcDbLine
 62
7
  6
CONTINUOUS
 10
0.0
 20
17.0
 11
22.0
 21
17.0
  0
LINE
  5
21D
100
AcDbEntity
  8
0
100
AcDbLine
 62
7
  6
CONTINUOUS
 10
22.0
 20
0.0
 11
22.0
 21
17.0
  0
LINE
  5
21E
100
AcDbEntity
  8
0
100
AcDbLine
 62
7
  6
CONTINUOUS
 10
5.0053672762
 20
5.5901198968
 11
5.0053672762
 21
5.5251198968
  0
LINE
  5
21F
100
AcDbEntity
  8
0
100
AcDbLine
 62
7
  6
CONTINUOUS
 10
5.0810068781
 20
5.5122591349
 11
5.0987551404
 21
5.4694110395
  0
LINE
  5
220
100
AcDbEntity
  8
0
100
AcDbLine
 62
7
  6
CONTINUOUS
 10
5.2869794119
 20
5.4694110395
 11
5.3047276742
 21
5.5122591349
  0
LINE
  5
221
100
AcDbEntity
  8
0
100
AcDbLine
 62
7
  6
CONTINUOUS
 10
5.4560068781
 20
5.5122591349
 11
5.4737551404
 21
5.4694110395
  0
LINE
  5
222
100
AcDbEntity
  8
0
100
AcDbLine
 62
7
  6
CONTINUOUS
 10
5.6619794119
 20
5.4694110395
 11
5.6797276742
 21
5.5122591349
  0
LINE
  5
223
100
AcDbEntity
  8
0
100
AcDbLine
 62
7
  6
CONTINUOUS
 10
5.8310068781
 20
5.5122591349
 11
5.8487551404
 21
5.4694110395
  0
LINE
  5
224
100
AcDbEntity
  8
0
100
AcDbLine
 62
7
  6
CONTINUOUS
 10
6.0369794119
 20
5.4694110395
 11
6.0547276742
 21
5.5122591349
  0
LINE
  5
225
100
AcDbEntity
  8
0
100
AcDbLine
 62
7
  6
CONTINUOUS
 10
5.1276263758
 20
5.4501198968
 11
5.2581081766
 21
5.4501198968
  0
LINE
  5
226
100
AcDbEntity
  8
0
100
AcDbLine
 62
7
  6
CONTINUOUS
 10
5.5026263758
 20
5.4501198968
 11
5.6331081766
 21
5.4501198968
  0
LINE
  5
227
100
AcDbEntity
  8
0
100
AcDbLine
 62
7
  6
CONTINUOUS
 10
5.8776263758
 20
5.4501198968
 11
6.0081081766
 21
5.4501198968
  0
LINE
  5
228
100
AcDbEntity
  8
0
100
AcDbLine
 62
7
  6
CONTINUOUS
 10
6.2526263758
 20
5.4501198968
 11
6.3831081766
 21
5.4501198968
  0
LINE
  5
229
100
AcDbEntity
  8
0
100
AcDbLine
 62
7
  6
CONTINUOUS
 10
6.6276263758
 20
5.4501198968
 11
6.7581081766
 21
5.4501198968
  0
LINE
  5
22A
100
AcDbEntity
  8
0
100
AcDbLine
 62
7
  6
CONTINUOUS
 10
7.0026263758
 20
5.4501198968
 11
7.1331081766
 21
5.4501198968
  0
LINE
  5
22B
100
AcDbEntity
  8
0
100
AcDbLine
 62
7
  6
CONTINUOUS
 10
5.0053672762
 20
5.5251198968
 11
5.0617593879
 21
5.5251198968
  0
LINE
  5
22C
100
AcDbEntity
  8
0
100
AcDbLine
 62
7
  6
CONTINUOUS
 10
5.3239751645
 20
5.5251198968
 11
5.4367593879
 21
5.5251198968
  0
LINE
  5
22D
100
AcDbEntity
  8
0
100
AcDbLine
 62
7
  6
CONTINUOUS
 10
5.6989751645
 20
5.5251198968
 11
5.8117593879
 21
5.5251198968
  0
LINE
  5
22E
100
AcDbEntity
  8
0
100
AcDbLine
 62
7
  6
CONTINUOUS
 10
6.0739751645
 20
5.5251198968
 11
6.1867593879
 21
5.5251198968
  0
LINE
  5
22F
100
AcDbEntity
  8
0
100
AcDbLine
 62
7
  6
CONTINUOUS
 10
6.4489751645
 20
5.5251198968
 11
6.5617593879
 21
5.5251198968
  0
LINE
  5
230
100
AcDbEntity
  8
0
100
AcDbLine
 62
7
  6
CONTINUOUS
 10
6.8239751645
 20
5.5251198968
 11
6.9367593879
 21
5.5251198968
  0
LINE
  5
231
100
AcDbEntity
  8
0
100
AcDbLine
 62
7
  6
CONTINUOUS
 10
7.1989751645
 20
5.5251198968
 11
7.2553672762
 21
5.5251198968
  0
LINE
  5
232
100
AcDbEntity
  8
0
100
AcDbLine
 62
7
  6
CONTINUOUS
 10
7.2553672762
 20
5.5901198968
 11
5.0053672762
 21
5.5901198968
  0
LINE
  5
233
100
AcDbEntity
  8
0
100
AcDbLine
 62
7
  6
CONTINUOUS
 10
6.2060068781
 20
5.5122591349
 11
6.2237551404
 21
5.4694110395
  0
LINE
  5
234
100
AcDbEntity
  8
0
100
AcDbLine
 62
7
  6
CONTINUOUS
 10
6.4119794119
 20
5.4694110395
 11
6.4297276742
 21
5.5122591349
  0
LINE
  5
235
100
AcDbEntity
  8
0
100
AcDbLine
 62
7
  6
CONTINUOUS
 10
6.5810068781
 20
5.5122591349
 11
6.5987551404
 21
5.4694110395
  0
LINE
  5
236
100
AcDbEntity
  8
0
100
AcDbLine
 62
7
  6
CONTINUOUS
 10
6.7869794119
 20
5.4694110395
 11
6.8047276742
 21
5.5122591349
  0
LINE
  5
237
100
AcDbEntity
  8
0
100
AcDbLine
 62
7
  6
CONTINUOUS
 10
6.9560068781
 20
5.5122591349
 11
6.9737551404
 21
5.4694110395
  0
LINE
  5
238
100
AcDbEntity
  8
0
100
AcDbLine
 62
7
  6
CONTINUOUS
 10
7.1619794119
 20
5.4694110395
 11
7.1797276742
 21
5.5122591349
  0
LINE
  5
239
100
AcDbEntity
  8
0
100
AcDbLine
 62
7
  6
CONTINUOUS
 10
7.2553672762
 20
5.5251198968
 11
7.2553672762
 21
5.5901198968
  0
LINE
  5
23A
100
AcDbEntity
  8
0
100
AcDbLine
 62
7
  6
CONTINUOUS
 10
4.9458720839
 20
12.7850477814
 11
4.9458720839
 21
12.4150477814
  0
LINE
  5
23B
100
AcDbEntity
  8
0
100
AcDbLine
 62
7
  6
CONTINUOUS
 10
7.1958720839
 20
12.4150477814
 11
4.9458720839
 21
12.4150477814
  0
LINE
  5
23C
100
AcDbEntity
  8
0
100
AcDbLine
 62
7
  6
CONTINUOUS
 10
4.9458720839
 20
12.7850477814
 11
7.1958720839
 21
12.7850477814
  0
LINE
  5
23D
100
AcDbEntity
  8
0
100
AcDbLine
 62
7
  6
CONTINUOUS
 10
7.1958720839
 20
12.7850477814
 11
7.1958720839
 21
12.4150477814
  0
LINE
  5
23E
100
AcDbEntity
  8
0
100
AcDbLine
 62
7
  6
CONTINUOUS
 10
15.3753552569
 20
5.3906247044
 11
15.3753552569
 21
5.5306247044
  0
LINE
  5
23F
100
AcDbEntity
  8
0
100
AcDbLine
 62
7
  6
CONTINUOUS
 10
15.3753552569
 20
5.3906247044
 11
15.7453552569
 21
5.3906247044
  0
LINE
  5
240
100
AcDbEntity
  8
0
100
AcDbLine
 62
7
  6
CONTINUOUS
 10
15.7453552569
 20
5.4656247044
 11
15.3753552569
 21
5.4656247044
  0
LINE
  5
241
100
AcDbEntity
  8
0
100
AcDbLine
 62
7
  6
CONTINUOUS
 10
15.7453552569
 20
5.5306247044
 11
15.3753552569
 21
5.5306247044
  0
LINE
  5
242
100
AcDbEntity
  8
0
100
AcDbLine
 62
7
  6
CONTINUOUS
 10
15.7453552569
 20
5.3906247044
 11
15.7453552569
 21
5.5306247044
  0
LINE
  5
243
100
AcDbEntity
  8
0
100
AcDbLine
 62
7
  6
CONTINUOUS
 10
14.3802227197
 20
12.4094022124
 11
14.4000504411
 21
12.3689975645
  0
LINE
  5
244
100
AcDbEntity
  8
0
100
AcDbLine
 62
7
  6
CONTINUOUS
 10
14.4697872594
 20
12.699233169
 11
14.3802227197
 21
12.4094022124
  0
LINE
  5
245
100
AcDbEntity
  8
0
100
AcDbLine
 62
7
  6
CONTINUOUS
 10
14.6764259286
 20
12.3343683835
 11
14.6797026976
 21
12.3610031867
  0
LINE
  5
246
100
AcDbEntity
  8
0
100
AcDbLine
 62
7
  6
CONTINUOUS
 10
14.6760454077
 20
12.332574815
 11
14.6764259286
 21
12.3343683835
  0
LINE
  5
247
100
AcDbEntity
  8
0
100
AcDbLine
 62
7
  6
CONTINUOUS
 10
14.6797026976
 20
12.3610031867
 11
14.6799607477
 21
12.3621975507
  0
LINE
  5
248
100
AcDbEntity
  8
0
100
AcDbLine
 62
7
  6
CONTINUOUS
 10
14.4736421988
 20
12.3610031867
 11
14.5030598939
 21
12.3343683835
  0
LINE
  5
249
100
AcDbEntity
  8
0
100
AcDbLine
 62
7
  6
CONTINUOUS
 10
14.6765818193
 20
12.3343202096
 11
14.6869814462
 21
12.3679734145
  0
LINE
  5
24A
100
AcDbEntity
  8
0
100
AcDbLine
 62
7
  6
CONTINUOUS
 10
14.8190400716
 20
12.3610031867
 11
14.8484577667
 21
12.3343683835
  0
LINE
  5
24B
100
AcDbEntity
  8
0
100
AcDbLine
 62
7
  6
CONTINUOUS
 10
15.0218238013
 20
12.3343683835
 11
15.0251005704
 21
12.3610031867
  0
LINE
  5
24C
100
AcDbEntity
  8
0
100
AcDbLine
 62
7
  6
CONTINUOUS
 10
15.0214432805
 20
12.332574815
 11
15.0218238013
 21
12.3343683835
  0
LINE
  5
24D
100
AcDbEntity
  8
0
100
AcDbLine
 62
7
  6
CONTINUOUS
 10
15.0251005704
 20
12.3610031867
 11
15.0253586205
 21
12.3621975507
  0
LINE
  5
24E
100
AcDbEntity
  8
0
100
AcDbLine
 62
7
  6
CONTINUOUS
 10
15.0219796921
 20
12.3343202096
 11
15.032379319
 21
12.3679734145
  0
LINE
  5
24F
100
AcDbEntity
  8
0
100
AcDbLine
 62
7
  6
CONTINUOUS
 10
15.1644379443
 20
12.3610031867
 11
15.1938556394
 21
12.3343683835
  0
LINE
  5
250
100
AcDbEntity
  8
0
100
AcDbLine
 62
7
  6
CONTINUOUS
 10
14.5355366689
 20
12.3223768168
 11
14.655718366
 21
12.3223768168
  0
LINE
  5
251
100
AcDbEntity
  8
0
100
AcDbLine
 62
7
  6
CONTINUOUS
 10
14.8809345416
 20
12.3223768168
 11
15.0011162387
 21
12.3223768168
  0
LINE
  5
252
100
AcDbEntity
  8
0
100
AcDbLine
 62
7
  6
CONTINUOUS
 10
15.2263324144
 20
12.3223768168
 11
15.3465141115
 21
12.3223768168
  0
LINE
  5
253
100
AcDbEntity
  8
0
100
AcDbLine
 62
7
  6
CONTINUOUS
 10
15.5717302871
 20
12.3223768168
 11
15.6919119842
 21
12.3223768168
  0
LINE
  5
254
100
AcDbEntity
  8
0
100
AcDbLine
 62
7
  6
CONTINUOUS
 10
15.9171281599
 20
12.3223768168
 11
16.037309857
 21
12.3223768168
  0
LINE
  5
255
100
AcDbEntity
  8
0
100
AcDbLine
 62
7
  6
CONTINUOUS
 10
16.2625260326
 20
12.3223768168
 11
16.3827077297
 21
12.3223768168
  0
LINE
  5
256
100
AcDbEntity
  8
0
100
AcDbLine
 62
7
  6
CONTINUOUS
 10
14.4000504411
 20
12.3689975645
 11
14.4519910155
 21
12.3689975645
  0
LINE
  5
257
100
AcDbEntity
  8
0
100
AcDbLine
 62
7
  6
CONTINUOUS
 10
14.6935077393
 20
12.3689975645
 11
14.7973888883
 21
12.3689975645
  0
LINE
  5
258
100
AcDbEntity
  8
0
100
AcDbLine
 62
7
  6
CONTINUOUS
 10
15.0389056121
 20
12.3689975645
 11
15.142786761
 21
12.3689975645
  0
LINE
  5
259
100
AcDbEntity
  8
0
100
AcDbLine
 62
7
  6
CONTINUOUS
 10
15.3843034848
 20
12.3689975645
 11
15.4881846338
 21
12.3689975645
  0
LINE
  5
25A
100
AcDbEntity
  8
0
100
AcDbLine
 62
7
  6
CONTINUOUS
 10
15.7297013576
 20
12.3689975645
 11
15.8335825065
 21
12.3689975645
  0
LINE
  5
25B
100
AcDbEntity
  8
0
100
AcDbLine
 62
7
  6
CONTINUOUS
 10
16.0750992303
 20
12.3689975645
 11
16.1789803793
 21
12.3689975645
  0
LINE
  5
25C
100
AcDbEntity
  8
0
100
AcDbLine
 62
7
  6
CONTINUOUS
 10
16.4204971031
 20
12.3689975645
 11
16.4724376776
 21
12.3689975645
  0
LINE
  5
25D
100
AcDbEntity
  8
0
100
AcDbLine
 62
7
  6
CONTINUOUS
 10
15.3672216741
 20
12.3343683835
 11
15.3704984431
 21
12.3610031867
  0
LINE
  5
25E
100
AcDbEntity
  8
0
100
AcDbLine
 62
7
  6
CONTINUOUS
 10
15.3668411532
 20
12.332574815
 11
15.3672216741
 21
12.3343683835
  0
LINE
  5
25F
100
AcDbEntity
  8
0
100
AcDbLine
 62
7
  6
CONTINUOUS
 10
15.3704984431
 20
12.3610031867
 11
15.3707564932
 21
12.3621975507
  0
LINE
  5
260
100
AcDbEntity
  8
0
100
AcDbLine
 62
7
  6
CONTINUOUS
 10
16.4526099562
 20
12.4094022124
 11
14.3802227197
 21
12.4094022124
  0
LINE
  5
261
100
AcDbEntity
  8
0
100
AcDbLine
 62
7
  6
CONTINUOUS
 10
15.5098358171
 20
12.3610031867
 11
15.5392535122
 21
12.3343683835
  0
LINE
  5
262
100
AcDbEntity
  8
0
100
AcDbLine
 62
7
  6
CONTINUOUS
 10
15.3673775648
 20
12.3343202096
 11
15.3777771917
 21
12.3679734145
  0
LINE
  5
263
100
AcDbEntity
  8
0
100
AcDbLine
 62
7
  6
CONTINUOUS
 10
15.8552336898
 20
12.3610031867
 11
15.8846513849
 21
12.3343683835
  0
LINE
  5
264
100
AcDbEntity
  8
0
100
AcDbLine
 62
7
  6
CONTINUOUS
 10
14.4697872594
 20
12.699233169
 11
16.5421744959
 21
12.699233169
  0
LINE
  5
265
100
AcDbEntity
  8
0
100
AcDbLine
 62
7
  6
CONTINUOUS
 10
15.7126195468
 20
12.3343683835
 11
15.7158963159
 21
12.3610031867
  0
LINE
  5
266
100
AcDbEntity
  8
0
100
AcDbLine
 62
7
  6
CONTINUOUS
 10
15.712239026
 20
12.332574815
 11
15.7126195468
 21
12.3343683835
  0
LINE
  5
267
100
AcDbEntity
  8
0
100
AcDbLine
 62
7
  6
CONTINUOUS
 10
15.7158963159
 20
12.3610031867
 11
15.716154366
 21
12.3621975507
  0
LINE
  5
268
100
AcDbEntity
  8
0
100
AcDbLine
 62
7
  6
CONTINUOUS
 10
15.7127754376
 20
12.3343202096
 11
15.7231750645
 21
12.3679734145
  0
LINE
  5
269
100
AcDbEntity
  8
0
100
AcDbLine
 62
7
  6
CONTINUOUS
 10
16.2006315626
 20
12.3610031867
 11
16.2300492577
 21
12.3343683835
  0
LINE
  5
26A
100
AcDbEntity
  8
0
100
AcDbLine
 62
7
  6
CONTINUOUS
 10
16.0580174196
 20
12.3343683835
 11
16.0612941886
 21
12.3610031867
  0
LINE
  5
26B
100
AcDbEntity
  8
0
100
AcDbLine
 62
7
  6
CONTINUOUS
 10
16.0576368987
 20
12.332574815
 11
16.0580174196
 21
12.3343683835
  0
LINE
  5
26C
100
AcDbEntity
  8
0
100
AcDbLine
 62
7
  6
CONTINUOUS
 10
16.0612941886
 20
12.3610031867
 11
16.0615522387
 21
12.3621975507
  0
LINE
  5
26D
100
AcDbEntity
  8
0
100
AcDbLine
 62
7
  6
CONTINUOUS
 10
16.0581733103
 20
12.3343202096
 11
16.0685729372
 21
12.3679734145
  0
LINE
  5
26E
100
AcDbEntity
  8
0
100
AcDbLine
 62
7
  6
CONTINUOUS
 10
16.4724376776
 20
12.3689975645
 11
16.4526099562
 21
12.4094022124
  0
LINE
  5
26F
100
AcDbEntity
  8
0
100
AcDbLine
 62
7
  6
CONTINUOUS
 10
16.4034152923
 20
12.3343683835
 11
16.4066920614
 21
12.3610031867
  0
LINE
  5
270
100
AcDbEntity
  8
0
100
AcDbLine
 62
7
  6
CONTINUOUS
 10
16.4030347715
 20
12.332574815
 11
16.4034152923
 21
12.3343683835
  0
LINE
  5
271
100
AcDbEntity
  8
0
100
AcDbLine
 62
7
  6
CONTINUOUS
 10
16.4066920614
 20
12.3610031867
 11
16.4069501115
 21
12.3621975507
  0
LINE
  5
272
100
AcDbEntity
  8
0
100
AcDbLine
 62
7
  6
CONTINUOUS
 10
16.4035711831
 20
12.3343202096
 11
16.41397081
 21
12.3679734145
  0
LINE
  5
273
100
AcDbEntity
  8
0
100
AcDbLine
 62
7
  6
CONTINUOUS
 10
16.5421744959
 20
12.699233169
 11
16.4526099562
 21
12.4094022124
  0
LINE
  5
274
100
AcDbEntity
  8
0
100
AcDbLine
 62
7
  6
CONTINUOUS
 10
16.5620022172
 20
12.658828521
 11
16.4724376776
 21
12.3689975645
  0
LINE
  5
275
100
AcDbEntity
  8
0
100
AcDbLine
 62
7
  6
CONTINUOUS
 10
16.5620022172
 20
12.658828521
 11
16.5421744959
 21
12.699233169
  0
ARC
  5
276
100
AcDbEntity
  8
0
100
AcDbCircle
 62
7
  6
CONTINUOUS
 10
5.5026263758
 20
5.4813698968
 40
0.03125
100
AcDbArc
 50
202.5
 51
270.0
  0
ARC
  5
277
100
AcDbEntity
  8
0
100
AcDbCircle
 62
7
  6
CONTINUOUS
 10
5.6331081766
 20
5.4813698968
 40
0.03125
100
AcDbArc
 50
270.0
 51
337.5
  0
ARC
  5
278
100
AcDbEntity
  8
0
100
AcDbCircle
 62
7
  6
CONTINUOUS
 10
5.8776263758
 20
5.4813698968
 40
0.03125
100
AcDbArc
 50
202.5
 51
270.0
  0
ARC
  5
279
100
AcDbEntity
  8
0
100
AcDbCircle
 62
7
  6
CONTINUOUS
 10
6.0081081766
 20
5.4813698968
 40
0.03125
100
AcDbArc
 50
270.0
 51
337.5
  0
ARC
  5
27A
100
AcDbEntity
  8
0
100
AcDbCircle
 62
7
  6
CONTINUOUS
 10
6.2526263758
 20
5.4813698968
 40
0.03125
100
AcDbArc
 50
202.5
 51
270.0
  0
ARC
  5
27B
100
AcDbEntity
  8
0
100
AcDbCircle
 62
7
  6
CONTINUOUS
 10
6.3831081766
 20
5.4813698968
 40
0.03125
100
AcDbArc
 50
270.0
 51
337.5
  0
ARC
  5
27C
100
AcDbEntity
  8
0
100
AcDbCircle
 62
7
  6
CONTINUOUS
 10
5.2581081766
 20
5.4813698968
 40
0.03125
100
AcDbArc
 50
270.0
 51
337.5
  0
ARC
  5
27D
100
AcDbEntity
  8
0
100
AcDbCircle
 62
7
  6
CONTINUOUS
 10
5.1276263758
 20
5.4813698968
 40
0.03125
100
AcDbArc
 50
202.5
 51
270.0
  0
ARC
  5
27E
100
AcDbEntity
  8
0
100
AcDbCircle
 62
7
  6
CONTINUOUS
 10
7.1331081766
 20
5.4813698968
 40
0.03125
100
AcDbArc
 50
270.0
 51
337.5
  0
ARC
  5
27F
100
AcDbEntity
  8
0
100
AcDbCircle
 62
7
  6
CONTINUOUS
 10
7.0026263758
 20
5.4813698968
 40
0.03125
100
AcDbArc
 50
202.5
 51
270.0
  0
ARC
  5
280
100
AcDbEntity
  8
0
100
AcDbCircle
 62
7
  6
CONTINUOUS
 10
6.7581081766
 20
5.4813698968
 40
0.03125
100
AcDbArc
 50
270.0
 51
337.5
  0
ARC
  5
281
100
AcDbEntity
  8
0
100
AcDbCircle
 62
7
  6
CONTINUOUS
 10
6.6276263758
 20
5.4813698968
 40
0.03125
100
AcDbArc
 50
202.5
 51
270.0
  0
ARC
  5
282
100
AcDbEntity
  8
0
100
AcDbCircle
 62
7
  6
CONTINUOUS
 10
5.3239751645
 20
5.5042865634
 40
0.0208333333
100
AcDbArc
 50
90.0
 51
157.5
  0
ARC
  5
283
100
AcDbEntity
  8
0
100
AcDbCircle
 62
7
  6
CONTINUOUS
 10
5.0617593879
 20
5.5042865634
 40
0.0208333333
100
AcDbArc
 50
22.5
 51
90.0
  0
ARC
  5
284
100
AcDbEntity
  8
0
100
AcDbCircle
 62
7
  6
CONTINUOUS
 10
5.6989751645
 20
5.5042865634
 40
0.0208333333
100
AcDbArc
 50
90.0
 51
157.5
  0
ARC
  5
285
100
AcDbEntity
  8
0
100
AcDbCircle
 62
7
  6
CONTINUOUS
 10
5.4367593879
 20
5.5042865634
 40
0.0208333333
100
AcDbArc
 50
22.5
 51
90.0
  0
ARC
  5
286
100
AcDbEntity
  8
0
100
AcDbCircle
 62
7
  6
CONTINUOUS
 10
6.0739751645
 20
5.5042865634
 40
0.0208333333
100
AcDbArc
 50
90.0
 51
157.5
  0
ARC
  5
287
100
AcDbEntity
  8
0
100
AcDbCircle
 62
7
  6
CONTINUOUS
 10
5.8117593879
 20
5.5042865634
 40
0.0208333333
100
AcDbArc
 50
22.5
 51
90.0
  0
ARC
  5
288
100
AcDbEntity
  8
0
100
AcDbCircle
 62
7
  6
CONTINUOUS
 10
6.4489751645
 20
5.5042865634
 40
0.0208333333
100
AcDbArc
 50
90.0
 51
157.5
  0
ARC
  5
289
100
AcDbEntity
  8
0
100
AcDbCircle
 62
7
  6
CONTINUOUS
 10
6.1867593879
 20
5.5042865634
 40
0.0208333333
100
AcDbArc
 50
22.5
 51
90.0
  0
ARC
  5
28A
100
AcDbEntity
  8
0
100
AcDbCircle
 62
7
  6
CONTINUOUS
 10
6.8239751645
 20
5.5042865634
 40
0.0208333333
100
AcDbArc
 50
90.0
 51
157.5
  0
ARC
  5
28B
100
AcDbEntity
  8
0
100
AcDbCircle
 62
7
  6
CONTINUOUS
 10
6.5617593879
 20
5.5042865634
 40
0.0208333333
100
AcDbArc
 50
22.5
 51
90.0
  0
ARC
  5
28C
100
AcDbEntity
  8
0
100
AcDbCircle
 62
7
  6
CONTINUOUS
 10
7.1989751645
 20
5.5042865634
 40
0.0208333333
100
AcDbArc
 50
90.0
 51
157.5
  0
ARC
  5
28D
100
AcDbEntity
  8
0
100
AcDbCircle
 62
7
  6
CONTINUOUS
 10
6.9367593879
 20
5.5042865634
 40
0.0208333333
100
AcDbArc
 50
22.5
 51
90.0
  0
LINE
  5
28E
100
AcDbEntity
  8
0
100
AcDbLine
 62
7
  6
CONTINUOUS
 10
14.6799588303
 20
12.3621981437
 11
14.6809919376
 21
12.3642544229
  0
SPLINE
  5
28F
100
AcDbEntity
  8
0
100
AcDbSpline
 62
7
  6
CONTINUOUS
 70
0
 71
3
 72
14
 73
10
 74
0
 42
0.0000001
 43
0.0000001
 44
0.0000000001
 40
0.0
 40
0.0
 40
0.0
 40
0.0
 40
0.1008717924
 40
0.2072974672
 40
0.3205368748
 40
0.4413681401
 40
0.7063096345
 40
0.8500848702
 40
1.0
 40
1.0
 40
1.0
 40
1.0
 10
14.6809919376
 20
12.3642544229
 30
0.0
 10
14.6812646793
 20
12.3646318349
 30
0.0
 10
14.6818984551
 20
12.3653563997
 30
0.0
 10
14.683045171
 20
12.3663000882
 30
0.0
 10
14.6843945808
 20
12.3671158977
 30
0.0
 10
14.6865060156
 20
12.3680490683
 30
0.0
 10
14.6888966466
 20
12.3686468919
 30
0.0
 10
14.6914589809
 20
12.3689474848
 30
0.0
 10
14.6928156961
 20
12.3689975645
 30
0.0
 10
14.6935077393
 20
12.3689975645
 30
0.0
  0
LINE
  5
290
100
AcDbEntity
  8
0
100
AcDbLine
 62
7
  6
CONTINUOUS
 10
15.025356703
 20
12.3621981437
 11
15.0263898104
 21
12.3642544229
  0
SPLINE
  5
291
100
AcDbEntity
  8
0
100
AcDbSpline
 62
7
  6
CONTINUOUS
 70
0
 71
3
 72
14
 73
10
 74
0
 42
0.0000001
 43
0.0000001
 44
0.0000000001
 40
0.0
 40
0.0
 40
0.0
 40
0.0
 40
0.1008717924
 40
0.2072974672
 40
0.3205368748
 40
0.4413681401
 40
0.7063096345
 40
0.8500848702
 40
1.0
 40
1.0
 40
1.0
 40
1.0
 10
15.0263898104
 20
12.3642544229
 30
0.0
 10
15.026662552
 20
12.3646318349
 30
0.0
 10
15.0272963278
 20
12.3653563997
 30
0.0
 10
15.0284430438
 20
12.3663000882
 30
0.0
 10
15.0297924535
 20
12.3671158977
 30
0.0
 10
15.0319038883
 20
12.3680490683
 30
0.0
 10
15.0342945194
 20
12.3686468919
 30
0.0
 10
15.0368568537
 20
12.3689474848
 30
0.0
 10
15.0382135688
 20
12.3689975645
 30
0.0
 10
15.0389056121
 20
12.3689975645
 30
0.0
  0
LINE
  5
292
100
AcDbEntity
  8
0
100
AcDbLine
 62
7
  6
CONTINUOUS
 10
15.3707545758
 20
12.3621981437
 11
15.3717876831
 21
12.3642544229
  0
SPLINE
  5
293
100
AcDbEntity
  8
0
100
AcDbSpline
 62
7
  6
CONTINUOUS
 70
0
 71
3
 72
14
 73
10
 74
0
 42
0.0000001
 43
0.0000001
 44
0.0000000001
 40
0.0
 40
0.0
 40
0.0
 40
0.0
 40
0.1008717924
 40
0.2072974672
 40
0.3205368748
 40
0.4413681401
 40
0.7063096345
 40
0.8500848702
 40
1.0
 40
1.0
 40
1.0
 40
1.0
 10
15.3717876831
 20
12.3642544229
 30
0.0
 10
15.3720604248
 20
12.3646318349
 30
0.0
 10
15.3726942006
 20
12.3653563997
 30
0.0
 10
15.3738409165
 20
12.3663000882
 30
0.0
 10
15.3751903263
 20
12.3671158977
 30
0.0
 10
15.3773017611
 20
12.3680490683
 30
0.0
 10
15.3796923921
 20
12.3686468919
 30
0.0
 10
15.3822547264
 20
12.3689474848
 30
0.0
 10
15.3836114416
 20
12.3689975645
 30
0.0
 10
15.3843034848
 20
12.3689975645
 30
0.0
  0
LINE
  5
294
100
AcDbEntity
  8
0
100
AcDbLine
 62
7
  6
CONTINUOUS
 10
15.7161524485
 20
12.3621981437
 11
15.7171855559
 21
12.3642544229
  0
SPLINE
  5
295
100
AcDbEntity
  8
0
100
AcDbSpline
 62
7
  6
CONTINUOUS
 70
0
 71
3
 72
14
 73
10
 74
0
 42
0.0000001
 43
0.0000001
 44
0.0000000001
 40
0.0
 40
0.0
 40
0.0
 40
0.0
 40
0.1008717924
 40
0.2072974672
 40
0.3205368748
 40
0.4413681401
 40
0.7063096345
 40
0.8500848702
 40
1.0
 40
1.0
 40
1.0
 40
1.0
 10
15.7171855559
 20
12.3642544229
 30
0.0
 10
15.7174582975
 20
12.3646318349
 30
0.0
 10
15.7180920733
 20
12.3653563997
 30
0.0
 10
15.7192387893
 20
12.3663000882
 30
0.0
 10
15.720588199
 20
12.3671158977
 30
0.0
 10
15.7226996338
 20
12.3680490683
 30
0.0
 10
15.7250902649
 20
12.3686468919
 30
0.0
 10
15.7276525992
 20
12.3689474848
 30
0.0
 10
15.7290093143
 20
12.3689975645
 30
0.0
 10
15.7297013576
 20
12.3689975645
 30
0.0
  0
LINE
  5
296
100
AcDbEntity
  8
0
100
AcDbLine
 62
7
  6
CONTINUOUS
 10
16.0615503213
 20
12.3621981437
 11
16.0625834287
 21
12.3642544229
  0
SPLINE
  5
297
100
AcDbEntity
  8
0
100
AcDbSpline
 62
7
  6
CONTINUOUS
 70
0
 71
3
 72
14
 73
10
 74
0
 42
0.0000001
 43
0.0000001
 44
0.0000000001
 40
0.0
 40
0.0
 40
0.0
 40
0.0
 40
0.1008717924
 40
0.2072974672
 40
0.3205368748
 40
0.4413681401
 40
0.7063096345
 40
0.8500848702
 40
1.0
 40
1.0
 40
1.0
 40
1.0
 10
16.0625834287
 20
12.3642544229
 30
0.0
 10
16.0628561703
 20
12.3646318349
 30
0.0
 10
16.0634899461
 20
12.3653563997
 30
0.0
 10
16.064636662
 20
12.3663000882
 30
0.0
 10
16.0659860718
 20
12.3671158977
 30
0.0
 10
16.0680975066
 20
12.3680490683
 30
0.0
 10
16.0704881376
 20
12.3686468919
 30
0.0
 10
16.0730504719
 20
12.3689474848
 30
0.0
 10
16.0744071871
 20
12.3689975645
 30
0.0
 10
16.0750992303
 20
12.3689975645
 30
0.0
  0
LINE
  5
298
100
AcDbEntity
  8
0
100
AcDbLine
 62
7
  6
CONTINUOUS
 10
16.406948194
 20
12.3621981437
 11
16.4079813014
 21
12.3642544229
  0
SPLINE
  5
299
100
AcDbEntity
  8
0
100
AcDbSpline
 62
7
  6
CONTINUOUS
 70
0
 71
3
 72
14
 73
10
 74
0
 42
0.0000001
 43
0.0000001
 44
0.0000000001
 40
0.0
 40
0.0
 40
0.0
 40
0.0
 40
0.1008717924
 40
0.2072974672
 40
0.3205368748
 40
0.4413681401
 40
0.7063096345
 40
0.8500848702
 40
1.0
 40
1.0
 40
1.0
 40
1.0
 10
16.4079813014
 20
12.3642544229
 30
0.0
 10
16.408254043
 20
12.3646318349
 30
0.0
 10
16.4088878188
 20
12.3653563997
 30
0.0
 10
16.4100345348
 20
12.3663000882
 30
0.0
 10
16.4113839445
 20
12.3671158977
 30
0.0
 10
16.4134953793
 20
12.3680490683
 30
0.0
 10
16.4158860104
 20
12.3686468919
 30
0.0
 10
16.4184483447
 20
12.3689474848
 30
0.0
 10
16.4198050598
 20
12.3689975645
 30
0.0
 10
16.4204971031
 20
12.3689975645
 30
0.0
  0
SPLINE
  5
29A
100
AcDbEntity
  8
0
100
AcDbSpline
 62
7
  6
CONTINUOUS
 70
0
 71
3
 72
15
 73
11
 74
0
 42
0.0000001
 43
0.0000001
 44
0.0000000001
 40
0.0
 40
0.0
 40
0.0
 40
0.0
 40
0.1557507298
 40
0.3032142883
 40
0.4410980616
 40
0.5690412091
 40
0.6873378572
 40
0.7970481935
 40
0.9002754349
 40
1.0
 40
1.0
 40
1.0
 40
1.0
 10
14.655718366
 20
12.3223768168
 30
0.0
 10
14.6569765226
 20
12.3223768168
 30
0.0
 10
14.6594277431
 20
12.3224854529
 30
0.0
 10
14.6629606431
 20
12.3229957037
 30
0.0
 10
14.6661980048
 20
12.3238443252
 30
0.0
 10
14.669081672
 20
12.3250171504
 30
0.0
 10
14.6715621825
 20
12.3264966429
 30
0.0
 10
14.6735931971
 20
12.3282640777
 30
0.0
 10
14.6751310323
 20
12.330291864
 30
0.0
 10
14.6758042454
 20
12.331806176
 30
0.0
 10
14.6760422198
 20
12.3325758004
 30
0.0
  0
SPLINE
  5
29B
100
AcDbEntity
  8
0
100
AcDbSpline
 62
7
  6
CONTINUOUS
 70
0
 71
3
 72
15
 73
11
 74
0
 42
0.0000001
 43
0.0000001
 44
0.0000000001
 40
0.0
 40
0.0
 40
0.0
 40
0.0
 40
0.114872982
 40
0.2360780927
 40
0.3619574245
 40
0.4908828146
 40
0.621012997
 40
0.7504589348
 40
0.8774378065
 40
1.0
 40
1.0
 40
1.0
 40
1.0
 10
14.5030598939
 20
12.3343683835
 30
0.0
 10
14.5040626166
 20
12.3334605176
 30
0.0
 10
14.5062350662
 20
12.3317157754
 30
0.0
 10
14.5098155641
 20
12.3293924271
 30
0.0
 10
14.5137425863
 20
12.3273342512
 30
0.0
 10
14.5179303408
 20
12.325585653
 30
0.0
 10
14.5222899895
 20
12.3241820629
 30
0.0
 10
14.5267300033
 20
12.3231545601
 30
0.0
 10
14.5311536019
 20
12.322525939
 30
0.0
 10
14.5340934726
 20
12.3223768168
 30
0.0
 10
14.5355366689
 20
12.3223768168
 30
0.0
  0
SPLINE
  5
29C
100
AcDbEntity
  8
0
100
AcDbSpline
 62
7
  6
CONTINUOUS
 70
0
 71
3
 72
15
 73
11
 74
0
 42
0.0000001
 43
0.0000001
 44
0.0000000001
 40
0.0
 40
0.0
 40
0.0
 40
0.0
 40
0.1557507298
 40
0.3032142883
 40
0.4410980616
 40
0.5690412091
 40
0.6873378572
 40
0.7970481935
 40
0.9002754349
 40
1.0
 40
1.0
 40
1.0
 40
1.0
 10
16.3827077297
 20
12.3223768168
 30
0.0
 10
16.3839658864
 20
12.3223768168
 30
0.0
 10
16.3864171069
 20
12.3224854529
 30
0.0
 10
16.3899500069
 20
12.3229957037
 30
0.0
 10
16.3931873686
 20
12.3238443252
 30
0.0
 10
16.3960710357
 20
12.3250171504
 30
0.0
 10
16.3985515462
 20
12.3264966429
 30
0.0
 10
16.4005825608
 20
12.3282640777
 30
0.0
 10
16.4021203961
 20
12.330291864
 30
0.0
 10
16.4027936091
 20
12.331806176
 30
0.0
 10
16.4030315836
 20
12.3325758004
 30
0.0
  0
SPLINE
  5
29D
100
AcDbEntity
  8
0
100
AcDbSpline
 62
7
  6
CONTINUOUS
 70
0
 71
3
 72
15
 73
11
 74
0
 42
0.0000001
 43
0.0000001
 44
0.0000000001
 40
0.0
 40
0.0
 40
0.0
 40
0.0
 40
0.114872982
 40
0.2360780927
 40
0.3619574245
 40
0.4908828146
 40
0.621012997
 40
0.7504589348
 40
0.8774378065
 40
1.0
 40
1.0
 40
1.0
 40
1.0
 10
16.2300492577
 20
12.3343683835
 30
0.0
 10
16.2310519803
 20
12.3334605176
 30
0.0
 10
16.2332244299
 20
12.3317157754
 30
0.0
 10
16.2368049279
 20
12.3293924271
 30
0.0
 10
16.2407319501
 20
12.3273342512
 30
0.0
 10
16.2449197045
 20
12.325585653
 30
0.0
 10
16.2492793532
 20
12.3241820629
 30
0.0
 10
16.2537193671
 20
12.3231545601
 30
0.0
 10
16.2581429656
 20
12.322525939
 30
0.0
 10
16.2610828364
 20
12.3223768168
 30
0.0
 10
16.2625260326
 20
12.3223768168
 30
0.0
  0
SPLINE
  5
29E
100
AcDbEntity
  8
0
100
AcDbSpline
 62
7
  6
CONTINUOUS
 70
0
 71
3
 72
15
 73
11
 74
0
 42
0.0000001
 43
0.0000001
 44
0.0000000001
 40
0.0
 40
0.0
 40
0.0
 40
0.0
 40
0.1557507298
 40
0.3032142883
 40
0.4410980616
 40
0.5690412091
 40
0.6873378572
 40
0.7970481935
 40
0.9002754349
 40
1.0
 40
1.0
 40
1.0
 40
1.0
 10
16.037309857
 20
12.3223768168
 30
0.0
 10
16.0385680136
 20
12.3223768168
 30
0.0
 10
16.0410192341
 20
12.3224854529
 30
0.0
 10
16.0445521341
 20
12.3229957037
 30
0.0
 10
16.0477894958
 20
12.3238443252
 30
0.0
 10
16.050673163
 20
12.3250171504
 30
0.0
 10
16.0531536735
 20
12.3264966429
 30
0.0
 10
16.0551846881
 20
12.3282640777
 30
0.0
 10
16.0567225233
 20
12.330291864
 30
0.0
 10
16.0573957364
 20
12.331806176
 30
0.0
 10
16.0576337108
 20
12.3325758004
 30
0.0
  0
SPLINE
  5
29F
100
AcDbEntity
  8
0
100
AcDbSpline
 62
7
  6
CONTINUOUS
 70
0
 71
3
 72
15
 73
11
 74
0
 42
0.0000001
 43
0.0000001
 44
0.0000000001
 40
0.0
 40
0.0
 40
0.0
 40
0.0
 40
0.114872982
 40
0.2360780927
 40
0.3619574245
 40
0.4908828146
 40
0.621012997
 40
0.7504589348
 40
0.8774378065
 40
1.0
 40
1.0
 40
1.0
 40
1.0
 10
15.8846513849
 20
12.3343683835
 30
0.0
 10
15.8856541076
 20
12.3334605176
 30
0.0
 10
15.8878265572
 20
12.3317157754
 30
0.0
 10
15.8914070551
 20
12.3293924271
 30
0.0
 10
15.8953340774
 20
12.3273342512
 30
0.0
 10
15.8995218318
 20
12.325585653
 30
0.0
 10
15.9038814805
 20
12.3241820629
 30
0.0
 10
15.9083214943
 20
12.3231545601
 30
0.0
 10
15.9127450929
 20
12.322525939
 30
0.0
 10
15.9156849636
 20
12.3223768168
 30
0.0
 10
15.9171281599
 20
12.3223768168
 30
0.0
  0
SPLINE
  5
2A0
100
AcDbEntity
  8
0
100
AcDbSpline
 62
7
  6
CONTINUOUS
 70
0
 71
3
 72
15
 73
11
 74
0
 42
0.0000001
 43
0.0000001
 44
0.0000000001
 40
0.0
 40
0.0
 40
0.0
 40
0.0
 40
0.1557507298
 40
0.3032142883
 40
0.4410980616
 40
0.5690412091
 40
0.6873378572
 40
0.7970481935
 40
0.9002754349
 40
1.0
 40
1.0
 40
1.0
 40
1.0
 10
15.6919119842
 20
12.3223768168
 30
0.0
 10
15.6931701409
 20
12.3223768168
 30
0.0
 10
15.6956213614
 20
12.3224854529
 30
0.0
 10
15.6991542614
 20
12.3229957037
 30
0.0
 10
15.7023916231
 20
12.3238443252
 30
0.0
 10
15.7052752902
 20
12.3250171504
 30
0.0
 10
15.7077558007
 20
12.3264966429
 30
0.0
 10
15.7097868153
 20
12.3282640777
 30
0.0
 10
15.7113246506
 20
12.330291864
 30
0.0
 10
15.7119978636
 20
12.331806176
 30
0.0
 10
15.7122358381
 20
12.3325758004
 30
0.0
  0
SPLINE
  5
2A1
100
AcDbEntity
  8
0
100
AcDbSpline
 62
7
  6
CONTINUOUS
 70
0
 71
3
 72
15
 73
11
 74
0
 42
0.0000001
 43
0.0000001
 44
0.0000000001
 40
0.0
 40
0.0
 40
0.0
 40
0.0
 40
0.114872982
 40
0.2360780927
 40
0.3619574245
 40
0.4908828146
 40
0.621012997
 40
0.7504589348
 40
0.8774378065
 40
1.0
 40
1.0
 40
1.0
 40
1.0
 10
15.5392535122
 20
12.3343683835
 30
0.0
 10
15.5402562348
 20
12.3334605176
 30
0.0
 10
15.5424286844
 20
12.3317157754
 30
0.0
 10
15.5460091824
 20
12.3293924271
 30
0.0
 10
15.5499362046
 20
12.3273342512
 30
0.0
 10
15.554123959
 20
12.325585653
 30
0.0
 10
15.5584836077
 20
12.3241820629
 30
0.0
 10
15.5629236216
 20
12.3231545601
 30
0.0
 10
15.5673472201
 20
12.322525939
 30
0.0
 10
15.5702870909
 20
12.3223768168
 30
0.0
 10
15.5717302871
 20
12.3223768168
 30
0.0
  0
SPLINE
  5
2A2
100
AcDbEntity
  8
0
100
AcDbSpline
 62
7
  6
CONTINUOUS
 70
0
 71
3
 72
15
 73
11
 74
0
 42
0.0000001
 43
0.0000001
 44
0.0000000001
 40
0.0
 40
0.0
 40
0.0
 40
0.0
 40
0.1557507298
 40
0.3032142883
 40
0.4410980616
 40
0.5690412091
 40
0.6873378572
 40
0.7970481935
 40
0.9002754349
 40
1.0
 40
1.0
 40
1.0
 40
1.0
 10
15.3465141115
 20
12.3223768168
 30
0.0
 10
15.3477722681
 20
12.3223768168
 30
0.0
 10
15.3502234886
 20
12.3224854529
 30
0.0
 10
15.3537563886
 20
12.3229957037
 30
0.0
 10
15.3569937503
 20
12.3238443252
 30
0.0
 10
15.3598774175
 20
12.3250171504
 30
0.0
 10
15.362357928
 20
12.3264966429
 30
0.0
 10
15.3643889426
 20
12.3282640777
 30
0.0
 10
15.3659267778
 20
12.330291864
 30
0.0
 10
15.3665999909
 20
12.331806176
 30
0.0
 10
15.3668379653
 20
12.3325758004
 30
0.0
  0
SPLINE
  5
2A3
100
AcDbEntity
  8
0
100
AcDbSpline
 62
7
  6
CONTINUOUS
 70
0
 71
3
 72
15
 73
11
 74
0
 42
0.0000001
 43
0.0000001
 44
0.0000000001
 40
0.0
 40
0.0
 40
0.0
 40
0.0
 40
0.114872982
 40
0.2360780927
 40
0.3619574245
 40
0.4908828146
 40
0.621012997
 40
0.7504589348
 40
0.8774378065
 40
1.0
 40
1.0
 40
1.0
 40
1.0
 10
15.1938556394
 20
12.3343683835
 30
0.0
 10
15.1948583621
 20
12.3334605176
 30
0.0
 10
15.1970308117
 20
12.3317157754
 30
0.0
 10
15.2006113096
 20
12.3293924271
 30
0.0
 10
15.2045383319
 20
12.3273342512
 30
0.0
 10
15.2087260863
 20
12.325585653
 30
0.0
 10
15.213085735
 20
12.3241820629
 30
0.0
 10
15.2175257488
 20
12.3231545601
 30
0.0
 10
15.2219493474
 20
12.322525939
 30
0.0
 10
15.2248892181
 20
12.3223768168
 30
0.0
 10
15.2263324144
 20
12.3223768168
 30
0.0
  0
SPLINE
  5
2A4
100
AcDbEntity
  8
0
100
AcDbSpline
 62
7
  6
CONTINUOUS
 70
0
 71
3
 72
15
 73
11
 74
0
 42
0.0000001
 43
0.0000001
 44
0.0000000001
 40
0.0
 40
0.0
 40
0.0
 40
0.0
 40
0.1557507298
 40
0.3032142883
 40
0.4410980616
 40
0.5690412091
 40
0.6873378572
 40
0.7970481935
 40
0.9002754349
 40
1.0
 40
1.0
 40
1.0
 40
1.0
 10
15.0011162387
 20
12.3223768168
 30
0.0
 10
15.0023743954
 20
12.3223768168
 30
0.0
 10
15.0048256159
 20
12.3224854529
 30
0.0
 10
15.0083585159
 20
12.3229957037
 30
0.0
 10
15.0115958776
 20
12.3238443252
 30
0.0
 10
15.0144795447
 20
12.3250171504
 30
0.0
 10
15.0169600552
 20
12.3264966429
 30
0.0
 10
15.0189910698
 20
12.3282640777
 30
0.0
 10
15.0205289051
 20
12.330291864
 30
0.0
 10
15.0212021181
 20
12.331806176
 30
0.0
 10
15.0214400926
 20
12.3325758004
 30
0.0
  0
SPLINE
  5
2A5
100
AcDbEntity
  8
0
100
AcDbSpline
 62
7
  6
CONTINUOUS
 70
0
 71
3
 72
15
 73
11
 74
0
 42
0.0000001
 43
0.0000001
 44
0.0000000001
 40
0.0
 40
0.0
 40
0.0
 40
0.0
 40
0.114872982
 40
0.2360780927
 40
0.3619574245
 40
0.4908828146
 40
0.621012997
 40
0.7504589348
 40
0.8774378065
 40
1.0
 40
1.0
 40
1.0
 40
1.0
 10
14.8484577667
 20
12.3343683835
 30
0.0
 10
14.8494604893
 20
12.3334605176
 30
0.0
 10
14.8516329389
 20
12.3317157754
 30
0.0
 10
14.8552134369
 20
12.3293924271
 30
0.0
 10
14.8591404591
 20
12.3273342512
 30
0.0
 10
14.8633282135
 20
12.325585653
 30
0.0
 10
14.8676878622
 20
12.3241820629
 30
0.0
 10
14.8721278761
 20
12.3231545601
 30
0.0
 10
14.8765514746
 20
12.322525939
 30
0.0
 10
14.8794913454
 20
12.3223768168
 30
0.0
 10
14.8809345416
 20
12.3223768168
 30
0.0
  0
SPLINE
  5
2A6
100
AcDbEntity
  8
0
100
AcDbSpline
 62
7
  6
CONTINUOUS
 70
0
 71
3
 72
15
 73
11
 74
0
 42
0.0000001
 43
0.0000001
 44
0.0000000001
 40
0.0
 40
0.0
 40
0.0
 40
0.0
 40
0.1224854143
 40
0.2495247521
 40
0.3790231642
 40
0.5091197772
 40
0.6380080226
 40
0.7639371265
 40
0.8851965411
 40
1.0
 40
1.0
 40
1.0
 40
1.0
 10
14.4519910155
 20
12.3689975645
 30
0.0
 10
14.4529525406
 20
12.3689975645
 30
0.0
 10
14.4549122744
 20
12.3688976212
 30
0.0
 10
14.4578617402
 20
12.3684794001
 30
0.0
 10
14.4608222209
 20
12.3677936864
 30
0.0
 10
14.4637287327
 20
12.3668586998
 30
0.0
 10
14.466520125
 20
12.3656923633
 30
0.0
 10
14.4691388831
 20
12.3643205268
 30
0.0
 10
14.4715255785
 20
12.3627706856
 30
0.0
 10
14.4729741237
 20
12.3616080624
 30
0.0
 10
14.4736421988
 20
12.3610031867
 30
0.0
  0
SPLINE
  5
2A7
100
AcDbEntity
  8
0
100
AcDbSpline
 62
7
  6
CONTINUOUS
 70
0
 71
3
 72
15
 73
11
 74
0
 42
0.0000001
 43
0.0000001
 44
0.0000000001
 40
0.0
 40
0.0
 40
0.0
 40
0.0
 40
0.1224854143
 40
0.2495247521
 40
0.3790231642
 40
0.5091197772
 40
0.6380080226
 40
0.7639371265
 40
0.8851965411
 40
1.0
 40
1.0
 40
1.0
 40
1.0
 10
14.7973888883
 20
12.3689975645
 30
0.0
 10
14.7983504134
 20
12.3689975645
 30
0.0
 10
14.8003101472
 20
12.3688976212
 30
0.0
 10
14.803259613
 20
12.3684794001
 30
0.0
 10
14.8062200936
 20
12.3677936864
 30
0.0
 10
14.8091266055
 20
12.3668586998
 30
0.0
 10
14.8119179977
 20
12.3656923633
 30
0.0
 10
14.8145367559
 20
12.3643205268
 30
0.0
 10
14.8169234513
 20
12.3627706856
 30
0.0
 10
14.8183719965
 20
12.3616080624
 30
0.0
 10
14.8190400716
 20
12.3610031867
 30
0.0
  0
SPLINE
  5
2A8
100
AcDbEntity
  8
0
100
AcDbSpline
 62
7
  6
CONTINUOUS
 70
0
 71
3
 72
15
 73
11
 74
0
 42
0.0000001
 43
0.0000001
 44
0.0000000001
 40
0.0
 40
0.0
 40
0.0
 40
0.0
 40
0.1224854143
 40
0.2495247521
 40
0.3790231642
 40
0.5091197772
 40
0.6380080226
 40
0.7639371265
 40
0.8851965411
 40
1.0
 40
1.0
 40
1.0
 40
1.0
 10
15.142786761
 20
12.3689975645
 30
0.0
 10
15.1437482861
 20
12.3689975645
 30
0.0
 10
15.1457080199
 20
12.3688976212
 30
0.0
 10
15.1486574857
 20
12.3684794001
 30
0.0
 10
15.1516179664
 20
12.3677936864
 30
0.0
 10
15.1545244782
 20
12.3668586998
 30
0.0
 10
15.1573158705
 20
12.3656923633
 30
0.0
 10
15.1599346286
 20
12.3643205268
 30
0.0
 10
15.162321324
 20
12.3627706856
 30
0.0
 10
15.1637698692
 20
12.3616080624
 30
0.0
 10
15.1644379443
 20
12.3610031867
 30
0.0
  0
SPLINE
  5
2A9
100
AcDbEntity
  8
0
100
AcDbSpline
 62
7
  6
CONTINUOUS
 70
0
 71
3
 72
15
 73
11
 74
0
 42
0.0000001
 43
0.0000001
 44
0.0000000001
 40
0.0
 40
0.0
 40
0.0
 40
0.0
 40
0.1224854143
 40
0.2495247521
 40
0.3790231642
 40
0.5091197772
 40
0.6380080226
 40
0.7639371265
 40
0.8851965411
 40
1.0
 40
1.0
 40
1.0
 40
1.0
 10
15.4881846338
 20
12.3689975645
 30
0.0
 10
15.4891461589
 20
12.3689975645
 30
0.0
 10
15.4911058927
 20
12.3688976212
 30
0.0
 10
15.4940553585
 20
12.3684794001
 30
0.0
 10
15.4970158391
 20
12.3677936864
 30
0.0
 10
15.499922351
 20
12.3668586998
 30
0.0
 10
15.5027137432
 20
12.3656923633
 30
0.0
 10
15.5053325014
 20
12.3643205268
 30
0.0
 10
15.5077191968
 20
12.3627706856
 30
0.0
 10
15.509167742
 20
12.3616080624
 30
0.0
 10
15.5098358171
 20
12.3610031867
 30
0.0
  0
SPLINE
  5
2AA
100
AcDbEntity
  8
0
100
AcDbSpline
 62
7
  6
CONTINUOUS
 70
0
 71
3
 72
15
 73
11
 74
0
 42
0.0000001
 43
0.0000001
 44
0.0000000001
 40
0.0
 40
0.0
 40
0.0
 40
0.0
 40
0.1224854143
 40
0.2495247521
 40
0.3790231642
 40
0.5091197772
 40
0.6380080226
 40
0.7639371265
 40
0.8851965411
 40
1.0
 40
1.0
 40
1.0
 40
1.0
 10
15.8335825065
 20
12.3689975645
 30
0.0
 10
15.8345440316
 20
12.3689975645
 30
0.0
 10
15.8365037654
 20
12.3688976212
 30
0.0
 10
15.8394532312
 20
12.3684794001
 30
0.0
 10
15.8424137119
 20
12.3677936864
 30
0.0
 10
15.8453202237
 20
12.3668586998
 30
0.0
 10
15.848111616
 20
12.3656923633
 30
0.0
 10
15.8507303741
 20
12.3643205268
 30
0.0
 10
15.8531170695
 20
12.3627706856
 30
0.0
 10
15.8545656147
 20
12.3616080624
 30
0.0
 10
15.8552336898
 20
12.3610031867
 30
0.0
  0
SPLINE
  5
2AB
100
AcDbEntity
  8
0
100
AcDbSpline
 62
7
  6
CONTINUOUS
 70
0
 71
3
 72
15
 73
11
 74
0
 42
0.0000001
 43
0.0000001
 44
0.0000000001
 40
0.0
 40
0.0
 40
0.0
 40
0.0
 40
0.1224854143
 40
0.2495247521
 40
0.3790231642
 40
0.5091197772
 40
0.6380080226
 40
0.7639371265
 40
0.8851965411
 40
1.0
 40
1.0
 40
1.0
 40
1.0
 10
16.1789803793
 20
12.3689975645
 30
0.0
 10
16.1799419044
 20
12.3689975645
 30
0.0
 10
16.1819016382
 20
12.3688976212
 30
0.0
 10
16.184851104
 20
12.3684794001
 30
0.0
 10
16.1878115846
 20
12.3677936864
 30
0.0
 10
16.1907180965
 20
12.3668586998
 30
0.0
 10
16.1935094887
 20
12.3656923633
 30
0.0
 10
16.1961282469
 20
12.3643205268
 30
0.0
 10
16.1985149423
 20
12.3627706856
 30
0.0
 10
16.1999634875
 20
12.3616080624
 30
0.0
 10
16.2006315626
 20
12.3610031867
 30
0.0
  0
ENDSEC
  0
SECTION
  2
OBJECTS
  0
DICTIONARY
  5
C
100
AcDbDictionary
280
0
281
1
  3
ACAD_GROUP
350
D
  3
ACAD_MLINESTYLE
350
17
  3
ACAD_LAYOUT
350
1A
  3
ACAD_PLOTSETTINGS
350
19
  3
ACAD_PLOTSTYLENAME
350
E
  0
DICTIONARY
  5
D
102
{ACAD_REACTORS
330
C
102
}
100
AcDbDictionary
280
0
281
1
  0
ACDBDICTIONARYWDFLT
  5
E
102
{ACAD_REACTORS
330
C
102
}
100
AcDbDictionary
281
1
  3
Normal
350
F
100
AcDbDictionaryWithDefault
340
F
  0
DICTIONARY
  5
17
102
{ACAD_REACTORS
330
C
102
}
100
AcDbDictionary
280
0
281
1
  3
Standard
350
18
  0
DICTIONARY
  5
19
102
{ACAD_REACTORS
330
C
102
}
100
AcDbDictionary
281
1
  0
DICTIONARY
  5
1A
102
{ACAD_REACTORS
330
C
102
}
100
AcDbDictionary
281
1
  3
Model
350
2AC
  3
Layout1
350
2AD
  0
ACDBPLACEHOLDER
  5
F
102
{ACAD_REACTORS
330
E
102
}
  0
MLINESTYLE
  5
18
102
{ACAD_REACTORS
330
17
102
}
100
AcDbMlineStyle
  2
STANDARD
 70
0
  3

 62
256
 51
90.0
 52
90.0
 71
2
 49
0.5
 62
256
  6
BYLAYER
 49
-0.5
 62
256
  6
BYLAYER
  0
LAYOUT
  5
2AC
102
{ACAD_REACTORS
330
1A
102
}
100
AcDbPlotSettings
  1

  2
none_device
  4
ANSI_C_(22.00_x_17.00_Inches)
  6

 40
0.0
 41
0.0
 42
0.0
 43
0.0
 44
558.8
 45
431.8
 46
0.0
 47
0.0
 48
0.0
 49
0.0
140
0.0
141
0.0
142
1.0
143
1.0
 70
1024
 72
0
 73
0
 74
0
  7

 75
0
147
1.0
148
0.0
149
0.0
100
AcDbLayout
  1
Model
 70
0
 71
0
 10
0.0
 20
0.0
 11
22.0
 21
17.0
 12
0.0
 22
0.0
 32
0.0
 14
0.0
 24
0.0
 34
0.0
 15
0.0
 25
0.0
 35
0.0
146
0.0
 13
0.0
 23
0.0
 33
0.0
 16
1.0
 26
0.0
 36
0.0
 17
0.0
 27
1.0
 37
0.0
 76
0
330
216
345
0
346
0
  0
LAYOUT
  5
2AD
102
{ACAD_REACTORS
330
1A
102
}
100
AcDbPlotSettings
  1

  2
none_device
  4
ANSI_C_(22.00_x_17.00_Inches)
  6

 40
0.0
 41
0.0
 42
0.0
 43
0.0
 44
558.8
 45
431.8
 46
0.0
 47
0.0
 48
0.0
 49
0.0
140
0.0
141
0.0
142
1.0
143
1.0
 70
0
 72
0
 73
0
 74
0
  7

 75
0
147
1.0
148
0.0
149
0.0
100
AcDbLayout
  1
Layout1
 70
0
 71
1
 10
0.0
 20
0.0
 11
22.0
 21
17.0
 12
0.0
 22
0.0
 32
0.0
 14
0.0
 24
0.0
 34
0.0
 15
0.0
 25
0.0
 35
0.0
146
0.0
 13
0.0
 23
0.0
 33
0.0
 16
1.0
 26
0.0
 36
0.0
 17
0.0
 27
1.0
 37
0.0
 76
0
330
217
345
0
346
0
  0
ENDSEC
  0
EOF