999
DXF file: _cgs_temp_output.dxf
999
Pro/ENGINEER 2016360 by Parametric Technology Corporation
  0
SECTION
  2
HEADER
  9
$ACADVER
  1
AC1021
  9
$DWGCODEPAGE
  3
ANSI_1252
  9
$EXTMAX
 10
22.0
 20
17.0
 30
0.0
  9
$EXTMIN
 10
0.0
 20
0.0
 30
0.0
  9
$LIMMIN
 10
0.0
 20
0.0
  9
$LIMMAX
 10
22.0
 20
17.0
  9
$VIEWCTR
 10
11.0
 20
8.5
  9
$VIEWSIZE
 40
17.0
  9
$CLAYER
  8
0
  9
$LTSCALE
 40
1.21
  9
$CELTYPE
  6
BYLAYER
  9
$DIMSCALE
 40
1.0
  9
$DIMASZ
 40
0.1875
  9
$DIMEXO
 40
0.0625
  9
$DIMDLI
 40
0.836
  9
$DIMEXE
 40
0.125
  9
$DIMCEN
 40
0.198
  9
$DIMLFAC
 40
1.0
  9
$DIMBLK
  1
_CLOSED
  9
$DIMALT
 70
0
  9
$DIMALTF
 40
25.4
  9
$DIMTXT
 40
0.15625
  9
$DIMTOL
 70
0
  9
$DIMLIM
 70
0
  9
$DIMTFAC
 40
1.0
  9
$DIMGAP
 40
0.09
  9
$DIMDSEP
 70
46
  9
$AUNITS
 70
0
  9
$PDMODE
 70
3
  9
$PDSIZE
 40
0.3125
  9
$HANDSEED
  5
2AE
  9
$TILEMODE
 70
1
  9
$MEASUREMENT
 70
0
  9
$INSUNITS
 70
1
  0
ENDSEC
  0
SECTION
  2
CLASSES
  0
CLASS
  1
ACDBDICTIONARYWDFLT
  2
AcDbDictionaryWithDefault
  3
AutoCAD 2000
 90
0
 91
1
280
0
281
0
  0
CLASS
  1
ACDBPLACEHOLDER
  2
AcDbPlaceHolder
  3
AutoCAD 2000
 90
0
 91
1
280
0
281
0
  0
CLASS
  1
LAYOUT
  2
AcDbLayout
  3
AutoCAD 2000
 90
0
 91
0
280
0
281
0
  0
ENDSEC
  0
SECTION
  2
TABLES
  0
TABLE
  2
VPORT
  5
8
100
AcDbSymbolTable
 70
2
  0
VPORT
  5
1F4
100
AcDbSymbolTableRecord
100
AcDbViewportTableRecord
  2
*ACTIVE
 70
0
 10
0.0
 20
0.0
 11
1.0
 21
1.0
 12
11.0
 22
8.5
 13
0.0
 23
0.0
 14
1.0
 24
1.0
 15
0.0
 25
0.0
 16
0.0
 26
0.0
 36
1.0
 17
0.0
 27
0.0
 37
0.0
 40
17.0
 41
1.2941176471
 42
50.0
 43
0.0
 44
0.0
 50
0.0
 51
0.0
 71
0
 72
100
 73
1
 74
1
 75
0
 76
0
 77
0
 78
0
  0
ENDTAB
  0
TABLE
  2
LTYPE
  5
5
100
AcDbSymbolTable
 70
6
  0
LTYPE
  5
14
100
AcDbSymbolTableRecord
100
AcDbLinetypeTableRecord
  2
BYBLOCK
 70
0
  3

 72
65
 73
0
 40
0.0
  0
LTYPE
  5
15
100
AcDbSymbolTableRecord
100
AcDbLinetypeTableRecord
  2
BYLAYER
 70
0
  3

 72
65
 73
0
 40
0.0
  0
LTYPE
  5
16
100
AcDbSymbolTableRecord
100
AcDbLinetypeTableRecord
  2
CONTINUOUS
 70
64
  3
Solid line
 72
65
 73
0
 40
0.0
  0
LTYPE
  5
1F5
100
AcDbSymbolTableRecord
100
AcDbLinetypeTableRecord
  2
CENTER
 70
64
  3
____ _ ____ _ ____ _ ____ _ ____ _ ____ _ ____
 72
65
 73
4
 40
0.6
 49
0.375
 74
0
 49
-0.075
 74
0
 49
0.075
 74
0
 49
-0.075
 74
0
  0
LTYPE
  5
1F6
100
AcDbSymbolTableRecord
100
AcDbLinetypeTableRecord
  2
HIDDEN
 70
64
  3
- - - - - - - - - - - - - - - - - - - -
 72
65
 73
2
 40
0.2
 49
0.1
 74
0
 49
-0.1
 74
0
  0
LTYPE
  5
1F7
100
AcDbSymbolTableRecord
100
AcDbLinetypeTableRecord
  2
PHANTOM
 70
64
  3
_____ _ _ _____ _ _ _____ _ _ _____
 72
65
 73
6
 40
0.8
 49
0.45
 74
0
 49
-0.05
 74
0
 49
0.1
 74
0
 49
-0.05
 74
0
 49
0.1
 74
0
 49
-0.05
 74
0
  0
LTYPE
  5
1F8
100
AcDbSymbolTableRecord
100
AcDbLinetypeTableRecord
  2
DOT
 70
64
  3
. . . . . . . . . . . . . . . . . . . .
 72
65
 73
2
 40
0.2
 49
0.1
 74
0
 49
-0.1
 74
0
  0
LTYPE
  5
1F9
100
AcDbSymbolTableRecord
100
AcDbLinetypeTableRecord
  2
DASHED
 70
64
  3
- - - - - - - - - - - - - - - - - - - -
 72
65
 73
2
 40
0.2
 49
0.1
 74
0
 49
-0.1
 74
0
  0
ENDTAB
  0
TABLE
  2
LAYER
  5
2
100
AcDbSymbolTable
 70
36
  0
LAYER
  5
10
100
AcDbSymbolTableRecord
100
AcDbLayerTableRecord
  2
0
 70
0
 62
7
  6
CONTINUOUS
370
-3
390
F
  0
LAYER
  5
1FA
100
AcDbSymbolTableRecord
100
AcDbLayerTableRecord
  2
DEFAULT_1
 70
0
 62
7
  6
CENTER
370
-3
390
F
  0
LAYER
  5
1FB
100
AcDbSymbolTableRecord
100
AcDbLayerTableRecord
  2
DEFAULT_2
 70
0
 62
8
  6
HIDDEN
370
-3
390
F
  0
LAYER
  5
1FC
100
AcDbSymbolTableRecord
100
AcDbLayerTableRecord
  2
DEFAULT_3
 70
0
 62
7
  6
PHANTOM
370
-3
390
F
  0
LAYER
  5
1FD
100
AcDbSymbolTableRecord
100
AcDbLayerTableRecord
  2
01_ALL_DTM_PLN
 70
0
 62
7
  6
CONTINUOUS
370
-3
390
F
  0
LAYER
  5
1FE
100
AcDbSymbolTableRecord
100
AcDbLayerTableRecord
  2
01__ASM_ALL_DTM_PLN
 70
0
 62
7
  6
CONTINUOUS
370
-3
390
F
  0
LAYER
  5
1FF
100
AcDbSymbolTableRecord
100
AcDbLayerTableRecord
  2
01__ASM_DEF_DTM_PLN
 70
0
 62
7
  6
CONTINUOUS
370
-3
390
F
  0
LAYER
  5
200
100
AcDbSymbolTableRecord
100
AcDbLayerTableRecord
  2
01___PRT_ALL_DTM_PLN
 70
0
 62
7
  6
CONTINUOUS
370
-3
390
F
  0
LAYER
  5
201
100
AcDbSymbolTableRecord
100
AcDbLayerTableRecord
  2
01___PRT_DEF_DTM_PLN
 70
0
 62
7
  6
CONTINUOUS
370
-3
390
F
  0
LAYER
  5
202
100
AcDbSymbolTableRecord
100
AcDbLayerTableRecord
  2
02_ALL_AXES
 70
0
 62
7
  6
CONTINUOUS
370
-3
390
F
  0
LAYER
  5
203
100
AcDbSymbolTableRecord
100
AcDbLayerTableRecord
  2
02__ASM_ALL_AXES
 70
0
 62
7
  6
CONTINUOUS
370
-3
390
F
  0
LAYER
  5
204
100
AcDbSymbolTableRecord
100
AcDbLayerTableRecord
  2
02___PRT_ALL_AXES
 70
0
 62
7
  6
CONTINUOUS
370
-3
390
F
  0
LAYER
  5
205
100
AcDbSymbolTableRecord
100
AcDbLayerTableRecord
  2
03_ALL_CURVES
 70
0
 62
7
  6
CONTINUOUS
370
-3
390
F
  0
LAYER
  5
206
100
AcDbSymbolTableRecord
100
AcDbLayerTableRecord
  2
03__ASM_ALL_CURVES
 70
0
 62
7
  6
CONTINUOUS
370
-3
390
F
  0
LAYER
  5
207
100
AcDbSymbolTableRecord
100
AcDbLayerTableRecord
  2
03___PRT_ALL_CURVES
 70
0
 62
7
  6
CONTINUOUS
370
-3
390
F
  0
LAYER
  5
208
100
AcDbSymbolTableRecord
100
AcDbLayerTableRecord
  2
04_ALL_DTM_PNT
 70
0
 62
7
  6
CONTINUOUS
370
-3
390
F
  0
LAYER
  5
209
100
AcDbSymbolTableRecord
100
AcDbLayerTableRecord
  2
04__ASM_ALL_DTM_PNT
 70
0
 62
7
  6
CONTINUOUS
370
-3
390
F
  0
LAYER
  5
20A
100
AcDbSymbolTableRecord
100
AcDbLayerTableRecord
  2
04___PRT_ALL_DTM_PNT
 70
0
 62
7
  6
CONTINUOUS
370
-3
390
F
  0
LAYER
  5
20B
100
AcDbSymbolTableRecord
100
AcDbLayerTableRecord
  2
05_ALL_DTM_CSYS
 70
0
 62
7
  6
CONTINUOUS
370
-3
390
F
  0
LAYER
  5
20C
100
AcDbSymbolTableRecord
100
AcDbLayerTableRecord
  2
05__ASM_ALL_DTM_CSYS
 70
0
 62
7
  6
CONTINUOUS
370
-3
390
F
  0
LAYER
  5
20D
100
AcDbSymbolTableRecord
100
AcDbLayerTableRecord
  2
05__ASM_DEF_DTM_CSYS
 70
0
 62
7
  6
CONTINUOUS
370
-3
390
F
  0
LAYER
  5
20E
100
AcDbSymbolTableRecord
100
AcDbLayerTableRecord
  2
05___PRT_ALL_DTM_CSYS
 70
0
 62
7
  6
CONTINUOUS
370
-3
390
F
  0
LAYER
  5
20F
100
AcDbSymbolTableRecord
100
AcDbLayerTableRecord
  2
05___PRT_DEF_DTM_CSYS
 70
0
 62
7
  6
CONTINUOUS
370
-3
390
F
  0
LAYER
  5
210
100
AcDbSymbolTableRecord
100
AcDbLayerTableRecord
  2
06_ALL_SURFS
 70
0
 62
7
  6
CONTINUOUS
370
-3
390
F
  0
LAYER
  5
211
100
AcDbSymbolTableRecord
100
AcDbLayerTableRecord
  2
06__ASM_ALL_SURFS
 70
0
 62
7
  6
CONTINUOUS
370
-3
390
F
  0
LAYER
  5
212
100
AcDbSymbolTableRecord
100
AcDbLayerTableRecord
  2
06___PRT_ALL_SURFS
 70
0
 62
7
  6
CONTINUOUS
370
-3
390
F
  0
LAYER
  5
213
100
AcDbSymbolTableRecord
100
AcDbLayerTableRecord
  2
07__ASM_ALL_SKELETONS
 70
0
 62
7
  6
CONTINUOUS
370
-3
390
F
  0
ENDTAB
  0
TABLE
  2
STYLE
  5
3
100
AcDbSymbolTable
 70
1
  0
STYLE
  5
11
100
AcDbSymbolTableRecord
100
AcDbTextStyleTableRecord
  2
STANDARD
 70
0
 40
0.0
 41
0.8
 50
0.0
 71
0
 42
0.2
  3
txt
  4

  0
STYLE
  5
214
100
AcDbSymbolTableRecord
100
AcDbTextStyleTableRecord
  2
TEXTSTYLE_1
 70
0
 40
0.0
 41
0.8
 50
0.0
 71
0
 42
0.2
  3
gdt
  4

  0
ENDTAB
  0
TABLE
  2
VIEW
  5
6
100
AcDbSymbolTable
 70
0
  0
ENDTAB
  0
TABLE
  2
UCS
  5
7
100
AcDbSymbolTable
 70
0
  0
ENDTAB
  0
TABLE
  2
APPID
  5
9
100
AcDbSymbolTable
 70
1
  0
APPID
  5
215
100
AcDbSymbolTableRecord
100
AcDbRegAppTableRecord
  2
ACAD
 70
0
  0
ENDTAB
  0
TABLE
  2
BLOCK_RECORD
  5
1
100
AcDbSymbolTable
 70
0
  0
BLOCK_RECORD
  5
216
100
AcDbSymbolTableRecord
100
AcDbBlockTableRecord
  2
*Model_Space
  0
BLOCK_RECORD
  5
217
100
AcDbSymbolTableRecord
100
AcDbBlockTableRecord
  2
*Paper_Space
  0
ENDTAB
  0
TABLE
  2
DIMSTYLE
  5
A
100
AcDbSymbolTable
 70
1
100
AcDbDimStyleTable
 71
0
  0
DIMSTYLE
105
218
100
AcDbSymbolTableRecord
100
AcDbDimStyleTableRecord
  2
STANDARD
 70
0
  3

  4

 40
1.0
 41
0.1875
 42
0.0625
 43
0.38
 44
0.125
 45
0.0
 46
0.0
 47
0.0001
 48
0.0001
140
0.15625
141
0.09
142
0.0
143
25.4
144
1.0
145
0.0
146
1.0
147
0.09
 71
0.0
 72
0.0
 73
1
 74
1
 75
0
 76
0
 77
0
 78
4
 79
1
170
0
171
3
172
0
173
0
174
0
175
0
176
0
177
0
178
0
270
2
179
4
271
4
272
4
273
2
274
2
275
0
280
0
281
0
282
0
283
1
284
4
285
0
286
0
287
3
288
0
340
11
278
46
  0
ENDTAB
  0
ENDSEC
  0
SECTION
  2
BLOCKS
  0
BLOCK
  5
20
100
AcDbEntity
  8
0
100
AcDbBlockBegin
  2
*Model_Space
 70
0
 10
0.0
 20
0.0
 30
0.0
  3
*Model_Space
  1

  0
ENDBLK
  5
21
100
AcDbEntity
  8
0
100
AcDbBlockEnd
  0
BLOCK
  5
1C
100
AcDbEntity
  8
0
100
AcDbBlockBegin
  2
*Paper_Space
 70
0
 10
0.0
 20
0.0
 30
0.0
  3
*Paper_Space
  1

  0
ENDBLK
  5
1D
100
AcDbEntity
  8
0
100
AcDbBlockEnd
  0
ENDSEC
  0
SECTION
  2
ENTITIES
  0
MTEXT
  5
219
100
AcDbEntity
  8
0
100
AcDbMText
 62
7
  6
CONTINUOUS
  7
STANDARD
 71
1
 72
1
 10
15.9560215477
 20
0.9479130325
 30
0.0
 11
1.0
 21
0.0
 31
0.0
 44
0.9
  1
SCALE: 1:1.000
 40
0.3
 41
3.36
  0
LINE
  5
21A
100
AcDbEntity
  8
0
100
AcDbLine
 62
7
  6
CONTINUOUS
 10
0.0
 20
0.0
 11
0.0
 21
17.0
  0
LINE
  5
21B
100
AcDbEntity
  8
0
100
AcDbLine
 62
7
  6
CONTINUOUS
 10
0.0
 20
0.0
 11
22.0
 21
0.0
  0
LINE
  5
21C
100
AcDbEntity
  8
0
100
AcDbLine
 62
7
  6
CONTINUOUS
 10
0.0
 20
17.0
 11
22.0
 21
17.0
  0
LINE
  5
21D
100
AcDbEntity
  8
0
100
AcDbLine
 62
7
  6
CONTINUOUS
 10
22.0
 20
0.0
 11
22.0
 21
17.0
  0
LINE
  5
21E
100
AcDbEntity
  8
0
100
AcDbLine
 62
7
  6
CONTINUOUS
 10
4.6303672762
 20
5.6001198968
 11
4.6303672762
 21
5.5301198968
  0
LINE
  5
21F
100
AcDbEntity
  8
0
100
AcDbLine
 62
7
  6
CONTINUOUS
 10
4.7312200788
 20
5.5129722143
 11
4.7507422928
 21
5.4658414204
  0
LINE
  5
220
100
AcDbEntity
  8
0
100
AcDbLine
 62
7
  6
CONTINUOUS
 10
5.0099922595
 20
5.4658414204
 11
5.0295144735
 21
5.5129722143
  0
LINE
  5
221
100
AcDbEntity
  8
0
100
AcDbLine
 62
7
  6
CONTINUOUS
 10
5.2312200788
 20
5.5129722143
 11
5.2507422928
 21
5.4658414204
  0
LINE
  5
222
100
AcDbEntity
  8
0
100
AcDbLine
 62
7
  6
CONTINUOUS
 10
5.5099922595
 20
5.4658414204
 11
5.5295144735
 21
5.5129722143
  0
LINE
  5
223
100
AcDbEntity
  8
0
100
AcDbLine
 62
7
  6
CONTINUOUS
 10
5.7312200788
 20
5.5129722143
 11
5.7507422928
 21
5.4658414204
  0
LINE
  5
224
100
AcDbEntity
  8
0
100
AcDbLine
 62
7
  6
CONTINUOUS
 10
6.0099922595
 20
5.4658414204
 11
6.0295144735
 21
5.5129722143
  0
LINE
  5
225
100
AcDbEntity
  8
0
100
AcDbLine
 62
7
  6
CONTINUOUS
 10
4.7892372734
 20
5.4401198968
 11
4.971497279
 21
5.4401198968
  0
LINE
  5
226
100
AcDbEntity
  8
0
100
AcDbLine
 62
7
  6
CONTINUOUS
 10
5.2892372734
 20
5.4401198968
 11
5.471497279
 21
5.4401198968
  0
LINE
  5
227
100
AcDbEntity
  8
0
100
AcDbLine
 62
7
  6
CONTINUOUS
 10
5.7892372734
 20
5.4401198968
 11
5.971497279
 21
5.4401198968
  0
LINE
  5
228
100
AcDbEntity
  8
0
100
AcDbLine
 62
7
  6
CONTINUOUS
 10
6.2892372734
 20
5.4401198968
 11
6.471497279
 21
5.4401198968
  0
LINE
  5
229
100
AcDbEntity
  8
0
100
AcDbLine
 62
7
  6
CONTINUOUS
 10
6.7892372734
 20
5.4401198968
 11
6.971497279
 21
5.4401198968
  0
LINE
  5
22A
100
AcDbEntity
  8
0
100
AcDbLine
 62
7
  6
CONTINUOUS
 10
7.2892372734
 20
5.4401198968
 11
7.471497279
 21
5.4401198968
  0
LINE
  5
22B
100
AcDbEntity
  8
0
100
AcDbLine
 62
7
  6
CONTINUOUS
 10
4.6303672762
 20
5.5301198968
 11
4.7055567584
 21
5.5301198968
  0
LINE
  5
22C
100
AcDbEntity
  8
0
100
AcDbLine
 62
7
  6
CONTINUOUS
 10
5.0551777939
 20
5.5301198968
 11
5.2055567584
 21
5.5301198968
  0
LINE
  5
22D
100
AcDbEntity
  8
0
100
AcDbLine
 62
7
  6
CONTINUOUS
 10
5.5551777939
 20
5.5301198968
 11
5.7055567584
 21
5.5301198968
  0
LINE
  5
22E
100
AcDbEntity
  8
0
100
AcDbLine
 62
7
  6
CONTINUOUS
 10
6.0551777939
 20
5.5301198968
 11
6.2055567584
 21
5.5301198968
  0
LINE
  5
22F
100
AcDbEntity
  8
0
100
AcDbLine
 62
7
  6
CONTINUOUS
 10
6.5551777939
 20
5.5301198968
 11
6.7055567584
 21
5.5301198968
  0
LINE
  5
230
100
AcDbEntity
  8
0
100
AcDbLine
 62
7
  6
CONTINUOUS
 10
7.0551777939
 20
5.5301198968
 11
7.2055567584
 21
5.5301198968
  0
LINE
  5
231
100
AcDbEntity
  8
0
100
AcDbLine
 62
7
  6
CONTINUOUS
 10
7.5551777939
 20
5.5301198968
 11
7.6303672762
 21
5.5301198968
  0
LINE
  5
232
100
AcDbEntity
  8
0
100
AcDbLine
 62
7
  6
CONTINUOUS
 10
7.6303672762
 20
5.6001198968
 11
4.6303672762
 21
5.6001198968
  0
LINE
  5
233
100
AcDbEntity
  8
0
100
AcDbLine
 62
7
  6
CONTINUOUS
 10
6.2312200788
 20
5.5129722143
 11
6.2507422928
 21
5.4658414204
  0
LINE
  5
234
100
AcDbEntity
  8
0
100
AcDbLine
 62
7
  6
CONTINUOUS
 10
6.5099922595
 20
5.4658414204
 11
6.5295144735
 21
5.5129722143
  0
LINE
  5
235
100
AcDbEntity
  8
0
100
AcDbLine
 62
7
  6
CONTINUOUS
 10
6.7312200788
 20
5.5129722143
 11
6.7507422928
 21
5.4658414204
  0
LINE
  5
236
100
AcDbEntity
  8
0
100
AcDbLine
 62
7
  6
CONTINUOUS
 10
7.0099922595
 20
5.4658414204
 11
7.0295144735
 21
5.5129722143
  0
LINE
  5
237
100
AcDbEntity
  8
0
100
AcDbLine
 62
7
  6
CONTINUOUS
 10
7.2312200788
 20
5.5129722143
 11
7.2507422928
 21
5.4658414204
  0
LINE
  5
238
100
AcDbEntity
  8
0
100
AcDbLine
 62
7
  6
CONTINUOUS
 10
7.5099922595
 20
5.4658414204
 11
7.5295144735
 21
5.5129722143
  0
LINE
  5
239
100
AcDbEntity
  8
0
100
AcDbLine
 62
7
  6
CONTINUOUS
 10
7.6303672762
 20
5.5301198968
 11
7.6303672762
 21
5.6001198968
  0
LINE
  5
23A
100
AcDbEntity
  8
0
100
AcDbLine
 62
7
  6
CONTINUOUS
 10
7.5708720839
 20
9.6000477814
 11
4.5708720839
 21
9.6000477814
  0
LINE
  5
23B
100
AcDbEntity
  8
0
100
AcDbLine
 62
7
  6
CONTINUOUS
 10
4.5708720839
 20
15.6000477814
 11
4.5708720839
 21
9.6000477814
  0
LINE
  5
23C
100
AcDbEntity
  8
0
100
AcDbLine
 62
7
  6
CONTINUOUS
 10
7.5708720839
 20
15.6000477814
 11
7.5708720839
 21
9.6000477814
  0
LINE
  5
23D
100
AcDbEntity
  8
0
100
AcDbLine
 62
7
  6
CONTINUOUS
 10
4.5708720839
 20
15.6000477814
 11
7.5708720839
 21
15.6000477814
  0
LINE
  5
23E
100
AcDbEntity
  8
0
100
AcDbLine
 62
7
  6
CONTINUOUS
 10
12.5603552569
 20
5.3806247044
 11
12.5603552569
 21
5.5406247044
  0
LINE
  5
23F
100
AcDbEntity
  8
0
100
AcDbLine
 62
7
  6
CONTINUOUS
 10
12.5603552569
 20
5.3806247044
 11
18.5603552569
 21
5.3806247044
  0
LINE
  5
240
100
AcDbEntity
  8
0
100
AcDbLine
 62
7
  6
CONTINUOUS
 10
18.5603552569
 20
5.4706247044
 11
12.5603552569
 21
5.4706247044
  0
LINE
  5
241
100
AcDbEntity
  8
0
100
AcDbLine
 62
7
  6
CONTINUOUS
 10
18.5603552569
 20
5.5406247044
 11
12.5603552569
 21
5.5406247044
  0
LINE
  5
242
100
AcDbEntity
  8
0
100
AcDbLine
 62
7
  6
CONTINUOUS
 10
18.5603552569
 20
5.3806247044
 11
18.5603552569
 21
5.5406247044
  0
LINE
  5
243
100
AcDbEntity
  8
0
100
AcDbLine
 62
7
  6
CONTINUOUS
 10
13.4721208163
 20
10.1563811934
 11
13.5044788315
 21
10.1270842221
  0
LINE
  5
244
100
AcDbEntity
  8
0
100
AcDbLine
 62
7
  6
CONTINUOUS
 10
13.9326513133
 20
10.1563811934
 11
13.9650093285
 21
10.1270842221
  0
LINE
  5
245
100
AcDbEntity
  8
0
100
AcDbLine
 62
7
  6
CONTINUOUS
 10
13.3526455419
 20
10.2105530615
 11
13.3739984726
 21
10.1670403637
  0
LINE
  5
246
100
AcDbEntity
  8
0
100
AcDbLine
 62
7
  6
CONTINUOUS
 10
13.5477811981
 20
10.1110954666
 11
13.71565378
 21
10.1110954666
  0
LINE
  5
247
100
AcDbEntity
  8
0
100
AcDbLine
 62
7
  6
CONTINUOUS
 10
14.0083116951
 20
10.1110954666
 11
14.1761842771
 21
10.1110954666
  0
LINE
  5
248
100
AcDbEntity
  8
0
100
AcDbLine
 62
7
  6
CONTINUOUS
 10
14.4688421921
 20
10.1110954666
 11
14.6367147741
 21
10.1110954666
  0
LINE
  5
249
100
AcDbEntity
  8
0
100
AcDbLine
 62
7
  6
CONTINUOUS
 10
14.9293726891
 20
10.1110954666
 11
15.0972452711
 21
10.1110954666
  0
LINE
  5
24A
100
AcDbEntity
  8
0
100
AcDbLine
 62
7
  6
CONTINUOUS
 10
15.3899031861
 20
10.1110954666
 11
15.5577757681
 21
10.1110954666
  0
LINE
  5
24B
100
AcDbEntity
  8
0
100
AcDbLine
 62
7
  6
CONTINUOUS
 10
15.8504336831
 20
10.1110954666
 11
16.0183062651
 21
10.1110954666
  0
LINE
  5
24C
100
AcDbEntity
  8
0
100
AcDbLine
 62
7
  6
CONTINUOUS
 10
13.3739984726
 20
10.1670403637
 11
13.4432525719
 21
10.1670403637
  0
LINE
  5
24D
100
AcDbEntity
  8
0
100
AcDbLine
 62
7
  6
CONTINUOUS
 10
13.7652748703
 20
10.1670403637
 11
13.9037830689
 21
10.1670403637
  0
LINE
  5
24E
100
AcDbEntity
  8
0
100
AcDbLine
 62
7
  6
CONTINUOUS
 10
14.2258053673
 20
10.1670403637
 11
14.3643135659
 21
10.1670403637
  0
LINE
  5
24F
100
AcDbEntity
  8
0
100
AcDbLine
 62
7
  6
CONTINUOUS
 10
14.6863358643
 20
10.1670403637
 11
14.8248440629
 21
10.1670403637
  0
LINE
  5
250
100
AcDbEntity
  8
0
100
AcDbLine
 62
7
  6
CONTINUOUS
 10
15.1468663613
 20
10.1670403637
 11
15.2853745599
 21
10.1670403637
  0
LINE
  5
251
100
AcDbEntity
  8
0
100
AcDbLine
 62
7
  6
CONTINUOUS
 10
15.6073968583
 20
10.1670403637
 11
15.7459050569
 21
10.1670403637
  0
LINE
  5
252
100
AcDbEntity
  8
0
100
AcDbLine
 62
7
  6
CONTINUOUS
 10
16.0679273553
 20
10.1670403637
 11
16.1371814546
 21
10.1670403637
  0
LINE
  5
253
100
AcDbEntity
  8
0
100
AcDbLine
 62
7
  6
CONTINUOUS
 10
14.3931818103
 20
10.1563811934
 11
14.4255398255
 21
10.1270842221
  0
LINE
  5
254
100
AcDbEntity
  8
0
100
AcDbLine
 62
7
  6
CONTINUOUS
 10
16.1158285239
 20
10.2105530615
 11
13.3526455419
 21
10.2105530615
  0
LINE
  5
255
100
AcDbEntity
  8
0
100
AcDbLine
 62
7
  6
CONTINUOUS
 10
14.8537123073
 20
10.1563811934
 11
14.8860703225
 21
10.1270842221
  0
LINE
  5
256
100
AcDbEntity
  8
0
100
AcDbLine
 62
7
  6
CONTINUOUS
 10
15.3142428043
 20
10.1563811934
 11
15.3466008195
 21
10.1270842221
  0
LINE
  5
257
100
AcDbEntity
  8
0
100
AcDbLine
 62
7
  6
CONTINUOUS
 10
15.7747733013
 20
10.1563811934
 11
15.8071313165
 21
10.1270842221
  0
LINE
  5
258
100
AcDbEntity
  8
0
100
AcDbLine
 62
7
  6
CONTINUOUS
 10
13.7432638635
 20
10.1270842221
 11
13.746868148
 21
10.1563811934
  0
LINE
  5
259
100
AcDbEntity
  8
0
100
AcDbLine
 62
7
  6
CONTINUOUS
 10
14.8050434824
 20
14.9105145193
 11
13.3526455419
 21
10.2105530615
  0
LINE
  5
25A
100
AcDbEntity
  8
0
100
AcDbLine
 62
7
  6
CONTINUOUS
 10
13.7427430649
 20
10.1246969456
 11
13.7432638635
 21
10.1270842221
  0
LINE
  5
25B
100
AcDbEntity
  8
0
100
AcDbLine
 62
7
  6
CONTINUOUS
 10
13.746868148
 20
10.1563811934
 11
13.7472181048
 21
10.1579718579
  0
LINE
  5
25C
100
AcDbEntity
  8
0
100
AcDbLine
 62
7
  6
CONTINUOUS
 10
14.2037943605
 20
10.1270842221
 11
14.207398645
 21
10.1563811934
  0
LINE
  5
25D
100
AcDbEntity
  8
0
100
AcDbLine
 62
7
  6
CONTINUOUS
 10
13.7427529041
 20
10.1246939081
 11
13.7552651659
 21
10.165183602
  0
LINE
  5
25E
100
AcDbEntity
  8
0
100
AcDbLine
 62
7
  6
CONTINUOUS
 10
14.2032735619
 20
10.1246969456
 11
14.2037943605
 21
10.1270842221
  0
LINE
  5
25F
100
AcDbEntity
  8
0
100
AcDbLine
 62
7
  6
CONTINUOUS
 10
14.207398645
 20
10.1563811934
 11
14.2077486018
 21
10.1579718579
  0
LINE
  5
260
100
AcDbEntity
  8
0
100
AcDbLine
 62
7
  6
CONTINUOUS
 10
14.6643248575
 20
10.1270842221
 11
14.667929142
 21
10.1563811934
  0
LINE
  5
261
100
AcDbEntity
  8
0
100
AcDbLine
 62
7
  6
CONTINUOUS
 10
14.2032834011
 20
10.1246939081
 11
14.2157956629
 21
10.165183602
  0
LINE
  5
262
100
AcDbEntity
  8
0
100
AcDbLine
 62
7
  6
CONTINUOUS
 10
16.1371814546
 20
10.1670403637
 11
16.1158285239
 21
10.2105530615
  0
LINE
  5
263
100
AcDbEntity
  8
0
100
AcDbLine
 62
7
  6
CONTINUOUS
 10
14.6638040589
 20
10.1246969456
 11
14.6643248575
 21
10.1270842221
  0
LINE
  5
264
100
AcDbEntity
  8
0
100
AcDbLine
 62
7
  6
CONTINUOUS
 10
14.667929142
 20
10.1563811934
 11
14.6682790988
 21
10.1579718579
  0
LINE
  5
265
100
AcDbEntity
  8
0
100
AcDbLine
 62
7
  6
CONTINUOUS
 10
15.1248553545
 20
10.1270842221
 11
15.128459639
 21
10.1563811934
  0
LINE
  5
266
100
AcDbEntity
  8
0
100
AcDbLine
 62
7
  6
CONTINUOUS
 10
14.6638138981
 20
10.1246939081
 11
14.6763261599
 21
10.165183602
  0
LINE
  5
267
100
AcDbEntity
  8
0
100
AcDbLine
 62
7
  6
CONTINUOUS
 10
15.1243345559
 20
10.1246969456
 11
15.1248553545
 21
10.1270842221
  0
LINE
  5
268
100
AcDbEntity
  8
0
100
AcDbLine
 62
7
  6
CONTINUOUS
 10
15.128459639
 20
10.1563811934
 11
15.1288095958
 21
10.1579718579
  0
LINE
  5
269
100
AcDbEntity
  8
0
100
AcDbLine
 62
7
  6
CONTINUOUS
 10
15.5853858515
 20
10.1270842221
 11
15.588990136
 21
10.1563811934
  0
LINE
  5
26A
100
AcDbEntity
  8
0
100
AcDbLine
 62
7
  6
CONTINUOUS
 10
15.1243443951
 20
10.1246939081
 11
15.1368566569
 21
10.165183602
  0
LINE
  5
26B
100
AcDbEntity
  8
0
100
AcDbLine
 62
7
  6
CONTINUOUS
 10
15.5848650529
 20
10.1246969456
 11
15.5853858515
 21
10.1270842221
  0
LINE
  5
26C
100
AcDbEntity
  8
0
100
AcDbLine
 62
7
  6
CONTINUOUS
 10
15.588990136
 20
10.1563811934
 11
15.5893400928
 21
10.1579718579
  0
LINE
  5
26D
100
AcDbEntity
  8
0
100
AcDbLine
 62
7
  6
CONTINUOUS
 10
16.0459163485
 20
10.1270842221
 11
16.049520633
 21
10.1563811934
  0
LINE
  5
26E
100
AcDbEntity
  8
0
100
AcDbLine
 62
7
  6
CONTINUOUS
 10
15.5848748921
 20
10.1246939081
 11
15.5973871539
 21
10.165183602
  0
LINE
  5
26F
100
AcDbEntity
  8
0
100
AcDbLine
 62
7
  6
CONTINUOUS
 10
16.0453955499
 20
10.1246969456
 11
16.0459163485
 21
10.1270842221
  0
LINE
  5
270
100
AcDbEntity
  8
0
100
AcDbLine
 62
7
  6
CONTINUOUS
 10
16.049520633
 20
10.1563811934
 11
16.0498705898
 21
10.1579718579
  0
LINE
  5
271
100
AcDbEntity
  8
0
100
AcDbLine
 62
7
  6
CONTINUOUS
 10
16.0454053891
 20
10.1246939081
 11
16.0579176509
 21
10.165183602
  0
LINE
  5
272
100
AcDbEntity
  8
0
100
AcDbLine
 62
7
  6
CONTINUOUS
 10
17.5682264644
 20
14.9105145193
 11
16.1158285239
 21
10.2105530615
  0
LINE
  5
273
100
AcDbEntity
  8
0
100
AcDbLine
 62
7
  6
CONTINUOUS
 10
17.589579395
 20
14.8670018215
 11
16.1371814546
 21
10.1670403637
  0
LINE
  5
274
100
AcDbEntity
  8
0
100
AcDbLine
 62
7
  6
CONTINUOUS
 10
14.8050434824
 20
14.9105145193
 11
17.5682264644
 21
14.9105145193
  0
LINE
  5
275
100
AcDbEntity
  8
0
100
AcDbLine
 62
7
  6
CONTINUOUS
 10
17.589579395
 20
14.8670018215
 11
17.5682264644
 21
14.9105145193
  0
ARC
  5
276
100
AcDbEntity
  8
0
100
AcDbCircle
 62
7
  6
CONTINUOUS
 10
5.2892372734
 20
5.4817865634
 40
0.0416666667
100
AcDbArc
 50
202.5
 51
270.0
  0
ARC
  5
277
100
AcDbEntity
  8
0
100
AcDbCircle
 62
7
  6
CONTINUOUS
 10
5.471497279
 20
5.4817865634
 40
0.0416666667
100
AcDbArc
 50
270.0
 51
337.5
  0
ARC
  5
278
100
AcDbEntity
  8
0
100
AcDbCircle
 62
7
  6
CONTINUOUS
 10
5.7892372734
 20
5.4817865634
 40
0.0416666667
100
AcDbArc
 50
202.5
 51
270.0
  0
ARC
  5
279
100
AcDbEntity
  8
0
100
AcDbCircle
 62
7
  6
CONTINUOUS
 10
5.971497279
 20
5.4817865634
 40
0.0416666667
100
AcDbArc
 50
270.0
 51
337.5
  0
ARC
  5
27A
100
AcDbEntity
  8
0
100
AcDbCircle
 62
7
  6
CONTINUOUS
 10
6.2892372734
 20
5.4817865634
 40
0.0416666667
100
AcDbArc
 50
202.5
 51
270.0
  0
ARC
  5
27B
100
AcDbEntity
  8
0
100
AcDbCircle
 62
7
  6
CONTINUOUS
 10
6.471497279
 20
5.4817865634
 40
0.0416666667
100
AcDbArc
 50
270.0
 51
337.5
  0
ARC
  5
27C
100
AcDbEntity
  8
0
100
AcDbCircle
 62
7
  6
CONTINUOUS
 10
4.971497279
 20
5.4817865634
 40
0.0416666667
100
AcDbArc
 50
270.0
 51
337.5
  0
ARC
  5
27D
100
AcDbEntity
  8
0
100
AcDbCircle
 62
7
  6
CONTINUOUS
 10
4.7892372734
 20
5.4817865634
 40
0.0416666667
100
AcDbArc
 50
202.5
 51
270.0
  0
ARC
  5
27E
100
AcDbEntity
  8
0
100
AcDbCircle
 62
7
  6
CONTINUOUS
 10
7.471497279
 20
5.4817865634
 40
0.0416666667
100
AcDbArc
 50
270.0
 51
337.5
  0
ARC
  5
27F
100
AcDbEntity
  8
0
100
AcDbCircle
 62
7
  6
CONTINUOUS
 10
7.2892372734
 20
5.4817865634
 40
0.0416666667
100
AcDbArc
 50
202.5
 51
270.0
  0
ARC
  5
280
100
AcDbEntity
  8
0
100
AcDbCircle
 62
7
  6
CONTINUOUS
 10
6.971497279
 20
5.4817865634
 40
0.0416666667
100
AcDbArc
 50
270.0
 51
337.5
  0
ARC
  5
281
100
AcDbEntity
  8
0
100
AcDbCircle
 62
7
  6
CONTINUOUS
 10
6.7892372734
 20
5.4817865634
 40
0.0416666667
100
AcDbArc
 50
202.5
 51
270.0
  0
ARC
  5
282
100
AcDbEntity
  8
0
100
AcDbCircle
 62
7
  6
CONTINUOUS
 10
5.0551777939
 20
5.502342119
 40
0.0277777778
100
AcDbArc
 50
90.0
 51
157.5
  0
ARC
  5
283
100
AcDbEntity
  8
0
100
AcDbCircle
 62
7
  6
CONTINUOUS
 10
4.7055567584
 20
5.502342119
 40
0.0277777778
100
AcDbArc
 50
22.5
 51
90.0
  0
ARC
  5
284
100
AcDbEntity
  8
0
100
AcDbCircle
 62
7
  6
CONTINUOUS
 10
5.5551777939
 20
5.502342119
 40
0.0277777778
100
AcDbArc
 50
90.0
 51
157.5
  0
ARC
  5
285
100
AcDbEntity
  8
0
100
AcDbCircle
 62
7
  6
CONTINUOUS
 10
5.2055567584
 20
5.502342119
 40
0.0277777778
100
AcDbArc
 50
22.5
 51
90.0
  0
ARC
  5
286
100
AcDbEntity
  8
0
100
AcDbCircle
 62
7
  6
CONTINUOUS
 10
6.0551777939
 20
5.502342119
 40
0.0277777778
100
AcDbArc
 50
90.0
 51
157.5
  0
ARC
  5
287
100
AcDbEntity
  8
0
100
AcDbCircle
 62
7
  6
CONTINUOUS
 10
5.7055567584
 20
5.502342119
 40
0.0277777778
100
AcDbArc
 50
22.5
 51
90.0
  0
ARC
  5
288
100
AcDbEntity
  8
0
100
AcDbCircle
 62
7
  6
CONTINUOUS
 10
6.5551777939
 20
5.502342119
 40
0.0277777778
100
AcDbArc
 50
90.0
 51
157.5
  0
ARC
  5
289
100
AcDbEntity
  8
0
100
AcDbCircle
 62
7
  6
CONTINUOUS
 10
6.2055567584
 20
5.502342119
 40
0.0277777778
100
AcDbArc
 50
22.5
 51
90.0
  0
ARC
  5
28A
100
AcDbEntity
  8
0
100
AcDbCircle
 62
7
  6
CONTINUOUS
 10
7.0551777939
 20
5.502342119
 40
0.0277777778
100
AcDbArc
 50
90.0
 51
157.5
  0
ARC
  5
28B
100
AcDbEntity
  8
0
100
AcDbCircle
 62
7
  6
CONTINUOUS
 10
6.7055567584
 20
5.502342119
 40
0.0277777778
100
AcDbArc
 50
22.5
 51
90.0
  0
ARC
  5
28C
100
AcDbEntity
  8
0
100
AcDbCircle
 62
7
  6
CONTINUOUS
 10
7.5551777939
 20
5.502342119
 40
0.0277777778
100
AcDbArc
 50
90.0
 51
157.5
  0
ARC
  5
28D
100
AcDbEntity
  8
0
100
AcDbCircle
 62
7
  6
CONTINUOUS
 10
7.2055567584
 20
5.502342119
 40
0.0277777778
100
AcDbArc
 50
22.5
 51
90.0
  0
SPLINE
  5
28E
100
AcDbEntity
  8
0
100
AcDbSpline
 62
7
  6
CONTINUOUS
 70
0
 71
3
 72
11
 73
7
 74
0
 42
0.0000001
 43
0.0000001
 44
0.0000000001
 40
0.0
 40
0.0
 40
0.0
 40
0.0
 40
0.2176101714
 40
0.450631229
 40
0.7098044823
 40
1.0
 40
1.0
 40
1.0
 40
1.0
 10
13.7472096896
 20
10.1579744602
 30
0.0
 10
13.747518164
 20
10.1589705824
 30
0.0
 10
13.7485265745
 20
10.1609347172
 30
0.0
 10
13.7509989243
 20
10.1633386169
 30
0.0
 10
13.7542984875
 20
10.1651869829
 30
0.0
 10
13.7568269768
 20
10.1659800446
 30
0.0
 10
13.7581826235
 20
10.1662899705
 30
0.0
  0
SPLINE
  5
28F
100
AcDbEntity
  8
0
100
AcDbSpline
 62
7
  6
CONTINUOUS
 70
0
 71
3
 72
9
 73
5
 74
0
 42
0.0000001
 43
0.0000001
 44
0.0000000001
 40
0.0
 40
0.0
 40
0.0
 40
0.0
 40
0.2384632856
 40
1.0
 40
1.0
 40
1.0
 40
1.0
 10
13.7581826235
 20
10.1662899705
 30
0.0
 10
13.7587359243
 20
10.1664164654
 30
0.0
 10
13.7610735343
 20
10.16687022
 30
0.0
 10
13.7634623055
 20
10.1670403637
 30
0.0
 10
13.7652748703
 20
10.1670403637
 30
0.0
  0
SPLINE
  5
290
100
AcDbEntity
  8
0
100
AcDbSpline
 62
7
  6
CONTINUOUS
 70
0
 71
3
 72
11
 73
7
 74
0
 42
0.0000001
 43
0.0000001
 44
0.0000000001
 40
0.0
 40
0.0
 40
0.0
 40
0.0
 40
0.2176101714
 40
0.450631229
 40
0.7098044823
 40
1.0
 40
1.0
 40
1.0
 40
1.0
 10
14.2077401866
 20
10.1579744602
 30
0.0
 10
14.208048661
 20
10.1589705824
 30
0.0
 10
14.2090570715
 20
10.1609347172
 30
0.0
 10
14.2115294213
 20
10.1633386169
 30
0.0
 10
14.2148289845
 20
10.1651869829
 30
0.0
 10
14.2173574738
 20
10.1659800446
 30
0.0
 10
14.2187131205
 20
10.1662899705
 30
0.0
  0
SPLINE
  5
291
100
AcDbEntity
  8
0
100
AcDbSpline
 62
7
  6
CONTINUOUS
 70
0
 71
3
 72
9
 73
5
 74
0
 42
0.0000001
 43
0.0000001
 44
0.0000000001
 40
0.0
 40
0.0
 40
0.0
 40
0.0
 40
0.2384632856
 40
1.0
 40
1.0
 40
1.0
 40
1.0
 10
14.2187131205
 20
10.1662899705
 30
0.0
 10
14.2192664213
 20
10.1664164654
 30
0.0
 10
14.2216040313
 20
10.16687022
 30
0.0
 10
14.2239928025
 20
10.1670403637
 30
0.0
 10
14.2258053673
 20
10.1670403637
 30
0.0
  0
SPLINE
  5
292
100
AcDbEntity
  8
0
100
AcDbSpline
 62
7
  6
CONTINUOUS
 70
0
 71
3
 72
11
 73
7
 74
0
 42
0.0000001
 43
0.0000001
 44
0.0000000001
 40
0.0
 40
0.0
 40
0.0
 40
0.0
 40
0.2176101714
 40
0.450631229
 40
0.7098044823
 40
1.0
 40
1.0
 40
1.0
 40
1.0
 10
14.6682706836
 20
10.1579744602
 30
0.0
 10
14.668579158
 20
10.1589705824
 30
0.0
 10
14.6695875685
 20
10.1609347172
 30
0.0
 10
14.6720599183
 20
10.1633386169
 30
0.0
 10
14.6753594815
 20
10.1651869829
 30
0.0
 10
14.6778879708
 20
10.1659800446
 30
0.0
 10
14.6792436175
 20
10.1662899705
 30
0.0
  0
SPLINE
  5
293
100
AcDbEntity
  8
0
100
AcDbSpline
 62
7
  6
CONTINUOUS
 70
0
 71
3
 72
9
 73
5
 74
0
 42
0.0000001
 43
0.0000001
 44
0.0000000001
 40
0.0
 40
0.0
 40
0.0
 40
0.0
 40
0.2384632856
 40
1.0
 40
1.0
 40
1.0
 40
1.0
 10
14.6792436175
 20
10.1662899705
 30
0.0
 10
14.6797969183
 20
10.1664164654
 30
0.0
 10
14.6821345283
 20
10.16687022
 30
0.0
 10
14.6845232995
 20
10.1670403637
 30
0.0
 10
14.6863358643
 20
10.1670403637
 30
0.0
  0
SPLINE
  5
294
100
AcDbEntity
  8
0
100
AcDbSpline
 62
7
  6
CONTINUOUS
 70
0
 71
3
 72
11
 73
7
 74
0
 42
0.0000001
 43
0.0000001
 44
0.0000000001
 40
0.0
 40
0.0
 40
0.0
 40
0.0
 40
0.2176101714
 40
0.450631229
 40
0.7098044823
 40
1.0
 40
1.0
 40
1.0
 40
1.0
 10
15.1288011806
 20
10.1579744602
 30
0.0
 10
15.129109655
 20
10.1589705824
 30
0.0
 10
15.1301180655
 20
10.1609347172
 30
0.0
 10
15.1325904153
 20
10.1633386169
 30
0.0
 10
15.1358899785
 20
10.1651869829
 30
0.0
 10
15.1384184678
 20
10.1659800446
 30
0.0
 10
15.1397741145
 20
10.1662899705
 30
0.0
  0
SPLINE
  5
295
100
AcDbEntity
  8
0
100
AcDbSpline
 62
7
  6
CONTINUOUS
 70
0
 71
3
 72
9
 73
5
 74
0
 42
0.0000001
 43
0.0000001
 44
0.0000000001
 40
0.0
 40
0.0
 40
0.0
 40
0.0
 40
0.2384632856
 40
1.0
 40
1.0
 40
1.0
 40
1.0
 10
15.1397741145
 20
10.1662899705
 30
0.0
 10
15.1403274153
 20
10.1664164654
 30
0.0
 10
15.1426650253
 20
10.16687022
 30
0.0
 10
15.1450537965
 20
10.1670403637
 30
0.0
 10
15.1468663613
 20
10.1670403637
 30
0.0
  0
SPLINE
  5
296
100
AcDbEntity
  8
0
100
AcDbSpline
 62
7
  6
CONTINUOUS
 70
0
 71
3
 72
11
 73
7
 74
0
 42
0.0000001
 43
0.0000001
 44
0.0000000001
 40
0.0
 40
0.0
 40
0.0
 40
0.0
 40
0.2176101714
 40
0.450631229
 40
0.7098044823
 40
1.0
 40
1.0
 40
1.0
 40
1.0
 10
15.5893316776
 20
10.1579744602
 30
0.0
 10
15.589640152
 20
10.1589705824
 30
0.0
 10
15.5906485625
 20
10.1609347172
 30
0.0
 10
15.5931209123
 20
10.1633386169
 30
0.0
 10
15.5964204755
 20
10.1651869829
 30
0.0
 10
15.5989489648
 20
10.1659800446
 30
0.0
 10
15.6003046115
 20
10.1662899705
 30
0.0
  0
SPLINE
  5
297
100
AcDbEntity
  8
0
100
AcDbSpline
 62
7
  6
CONTINUOUS
 70
0
 71
3
 72
9
 73
5
 74
0
 42
0.0000001
 43
0.0000001
 44
0.0000000001
 40
0.0
 40
0.0
 40
0.0
 40
0.0
 40
0.2384632856
 40
1.0
 40
1.0
 40
1.0
 40
1.0
 10
15.6003046115
 20
10.1662899705
 30
0.0
 10
15.6008579123
 20
10.1664164654
 30
0.0
 10
15.6031955223
 20
10.16687022
 30
0.0
 10
15.6055842935
 20
10.1670403637
 30
0.0
 10
15.6073968583
 20
10.1670403637
 30
0.0
  0
SPLINE
  5
298
100
AcDbEntity
  8
0
100
AcDbSpline
 62
7
  6
CONTINUOUS
 70
0
 71
3
 72
11
 73
7
 74
0
 42
0.0000001
 43
0.0000001
 44
0.0000000001
 40
0.0
 40
0.0
 40
0.0
 40
0.0
 40
0.2176101714
 40
0.450631229
 40
0.7098044823
 40
1.0
 40
1.0
 40
1.0
 40
1.0
 10
16.0498621746
 20
10.1579744602
 30
0.0
 10
16.050170649
 20
10.1589705824
 30
0.0
 10
16.0511790595
 20
10.1609347172
 30
0.0
 10
16.0536514093
 20
10.1633386169
 30
0.0
 10
16.0569509725
 20
10.1651869829
 30
0.0
 10
16.0594794618
 20
10.1659800446
 30
0.0
 10
16.0608351085
 20
10.1662899705
 30
0.0
  0
SPLINE
  5
299
100
AcDbEntity
  8
0
100
AcDbSpline
 62
7
  6
CONTINUOUS
 70
0
 71
3
 72
9
 73
5
 74
0
 42
0.0000001
 43
0.0000001
 44
0.0000000001
 40
0.0
 40
0.0
 40
0.0
 40
0.0
 40
0.2384632856
 40
1.0
 40
1.0
 40
1.0
 40
1.0
 10
16.0608351085
 20
10.1662899705
 30
0.0
 10
16.0613884093
 20
10.1664164654
 30
0.0
 10
16.0637260193
 20
10.16687022
 30
0.0
 10
16.0661147905
 20
10.1670403637
 30
0.0
 10
16.0679273553
 20
10.1670403637
 30
0.0
  0
SPLINE
  5
29A
100
AcDbEntity
  8
0
100
AcDbSpline
 62
7
  6
CONTINUOUS
 70
0
 71
3
 72
15
 73
11
 74
0
 42
0.0000001
 43
0.0000001
 44
0.0000000001
 40
0.0
 40
0.0
 40
0.0
 40
0.0
 40
0.155622441
 40
0.3031506025
 40
0.4411016923
 40
0.5690308784
 40
0.6872659821
 40
0.7969809602
 40
0.9002628066
 40
1.0
 40
1.0
 40
1.0
 40
1.0
 10
13.71565378
 20
10.1110954666
 30
0.0
 10
13.7173299192
 20
10.1110954666
 30
0.0
 10
13.7205974099
 20
10.1112412373
 30
0.0
 10
13.7253080996
 20
10.1119202633
 30
0.0
 10
13.7296257274
 20
10.1130521857
 30
0.0
 10
13.7334708351
 20
10.1146151455
 30
0.0
 10
13.7367771405
 20
10.1165878437
 30
0.0
 10
13.739485942
 20
10.1189434729
 30
0.0
 10
13.7415359165
 20
10.1216486046
 30
0.0
 10
13.7424338109
 20
10.123668164
 30
0.0
 10
13.7427515711
 20
10.1246943152
 30
0.0
  0
SPLINE
  5
29B
100
AcDbEntity
  8
0
100
AcDbSpline
 62
7
  6
CONTINUOUS
 70
0
 71
3
 72
15
 73
11
 74
0
 42
0.0000001
 43
0.0000001
 44
0.0000000001
 40
0.0
 40
0.0
 40
0.0
 40
0.0
 40
0.1148042391
 40
0.2360652674
 40
0.3619952237
 40
0.4908817948
 40
0.6209738346
 40
0.75046989
 40
0.8775121944
 40
1.0
 40
1.0
 40
1.0
 40
1.0
 10
13.5044788315
 20
10.1270842221
 30
0.0
 10
13.5058149908
 20
10.1258744625
 30
0.0
 10
13.5087121178
 20
10.1235492018
 30
0.0
 10
13.513485549
 20
10.1204494888
 30
0.0
 10
13.5187230864
 20
10.1177058275
 30
0.0
 10
13.5243057951
 20
10.1153731991
 30
0.0
 10
13.5301186722
 20
10.1135032111
 30
0.0
 10
13.5360395832
 20
10.1121318344
 30
0.0
 10
13.5419385608
 20
10.111295403
 30
0.0
 10
13.5458581104
 20
10.1110954666
 30
0.0
 10
13.5477811981
 20
10.1110954666
 30
0.0
  0
SPLINE
  5
29C
100
AcDbEntity
  8
0
100
AcDbSpline
 62
7
  6
CONTINUOUS
 70
0
 71
3
 72
15
 73
11
 74
0
 42
0.0000001
 43
0.0000001
 44
0.0000000001
 40
0.0
 40
0.0
 40
0.0
 40
0.0
 40
0.155622441
 40
0.3031506025
 40
0.4411016923
 40
0.5690308784
 40
0.6872659821
 40
0.7969809602
 40
0.9002628066
 40
1.0
 40
1.0
 40
1.0
 40
1.0
 10
16.0183062651
 20
10.1110954666
 30
0.0
 10
16.0199824042
 20
10.1110954666
 30
0.0
 10
16.0232498949
 20
10.1112412373
 30
0.0
 10
16.0279605846
 20
10.1119202633
 30
0.0
 10
16.0322782124
 20
10.1130521857
 30
0.0
 10
16.0361233201
 20
10.1146151455
 30
0.0
 10
16.0394296255
 20
10.1165878437
 30
0.0
 10
16.042138427
 20
10.1189434729
 30
0.0
 10
16.0441884015
 20
10.1216486046
 30
0.0
 10
16.0450862959
 20
10.123668164
 30
0.0
 10
16.0454040561
 20
10.1246943152
 30
0.0
  0
SPLINE
  5
29D
100
AcDbEntity
  8
0
100
AcDbSpline
 62
7
  6
CONTINUOUS
 70
0
 71
3
 72
15
 73
11
 74
0
 42
0.0000001
 43
0.0000001
 44
0.0000000001
 40
0.0
 40
0.0
 40
0.0
 40
0.0
 40
0.1148042391
 40
0.2360652674
 40
0.3619952237
 40
0.4908817948
 40
0.6209738346
 40
0.75046989
 40
0.8775121944
 40
1.0
 40
1.0
 40
1.0
 40
1.0
 10
15.8071313165
 20
10.1270842221
 30
0.0
 10
15.8084674758
 20
10.1258744625
 30
0.0
 10
15.8113646028
 20
10.1235492018
 30
0.0
 10
15.816138034
 20
10.1204494888
 30
0.0
 10
15.8213755714
 20
10.1177058275
 30
0.0
 10
15.8269582801
 20
10.1153731991
 30
0.0
 10
15.8327711572
 20
10.1135032111
 30
0.0
 10
15.8386920682
 20
10.1121318344
 30
0.0
 10
15.8445910458
 20
10.111295403
 30
0.0
 10
15.8485105955
 20
10.1110954666
 30
0.0
 10
15.8504336831
 20
10.1110954666
 30
0.0
  0
SPLINE
  5
29E
100
AcDbEntity
  8
0
100
AcDbSpline
 62
7
  6
CONTINUOUS
 70
0
 71
3
 72
15
 73
11
 74
0
 42
0.0000001
 43
0.0000001
 44
0.0000000001
 40
0.0
 40
0.0
 40
0.0
 40
0.0
 40
0.155622441
 40
0.3031506025
 40
0.4411016923
 40
0.5690308784
 40
0.6872659821
 40
0.7969809602
 40
0.9002628066
 40
1.0
 40
1.0
 40
1.0
 40
1.0
 10
15.5577757681
 20
10.1110954666
 30
0.0
 10
15.5594519072
 20
10.1110954666
 30
0.0
 10
15.5627193979
 20
10.1112412373
 30
0.0
 10
15.5674300876
 20
10.1119202633
 30
0.0
 10
15.5717477154
 20
10.1130521857
 30
0.0
 10
15.5755928231
 20
10.1146151455
 30
0.0
 10
15.5788991285
 20
10.1165878437
 30
0.0
 10
15.58160793
 20
10.1189434729
 30
0.0
 10
15.5836579045
 20
10.1216486046
 30
0.0
 10
15.5845557989
 20
10.123668164
 30
0.0
 10
15.5848735591
 20
10.1246943152
 30
0.0
  0
SPLINE
  5
29F
100
AcDbEntity
  8
0
100
AcDbSpline
 62
7
  6
CONTINUOUS
 70
0
 71
3
 72
15
 73
11
 74
0
 42
0.0000001
 43
0.0000001
 44
0.0000000001
 40
0.0
 40
0.0
 40
0.0
 40
0.0
 40
0.1148042391
 40
0.2360652674
 40
0.3619952237
 40
0.4908817948
 40
0.6209738346
 40
0.75046989
 40
0.8775121944
 40
1.0
 40
1.0
 40
1.0
 40
1.0
 10
15.3466008195
 20
10.1270842221
 30
0.0
 10
15.3479369788
 20
10.1258744625
 30
0.0
 10
15.3508341058
 20
10.1235492018
 30
0.0
 10
15.355607537
 20
10.1204494888
 30
0.0
 10
15.3608450744
 20
10.1177058275
 30
0.0
 10
15.3664277831
 20
10.1153731991
 30
0.0
 10
15.3722406602
 20
10.1135032111
 30
0.0
 10
15.3781615712
 20
10.1121318344
 30
0.0
 10
15.3840605488
 20
10.111295403
 30
0.0
 10
15.3879800985
 20
10.1110954666
 30
0.0
 10
15.3899031861
 20
10.1110954666
 30
0.0
  0
SPLINE
  5
2A0
100
AcDbEntity
  8
0
100
AcDbSpline
 62
7
  6
CONTINUOUS
 70
0
 71
3
 72
15
 73
11
 74
0
 42
0.0000001
 43
0.0000001
 44
0.0000000001
 40
0.0
 40
0.0
 40
0.0
 40
0.0
 40
0.155622441
 40
0.3031506025
 40
0.4411016923
 40
0.5690308784
 40
0.6872659821
 40
0.7969809602
 40
0.9002628066
 40
1.0
 40
1.0
 40
1.0
 40
1.0
 10
15.0972452711
 20
10.1110954666
 30
0.0
 10
15.0989214102
 20
10.1110954666
 30
0.0
 10
15.1021889009
 20
10.1112412373
 30
0.0
 10
15.1068995906
 20
10.1119202633
 30
0.0
 10
15.1112172184
 20
10.1130521857
 30
0.0
 10
15.1150623261
 20
10.1146151455
 30
0.0
 10
15.1183686315
 20
10.1165878437
 30
0.0
 10
15.121077433
 20
10.1189434729
 30
0.0
 10
15.1231274075
 20
10.1216486046
 30
0.0
 10
15.1240253019
 20
10.123668164
 30
0.0
 10
15.1243430621
 20
10.1246943152
 30
0.0
  0
SPLINE
  5
2A1
100
AcDbEntity
  8
0
100
AcDbSpline
 62
7
  6
CONTINUOUS
 70
0
 71
3
 72
15
 73
11
 74
0
 42
0.0000001
 43
0.0000001
 44
0.0000000001
 40
0.0
 40
0.0
 40
0.0
 40
0.0
 40
0.1148042391
 40
0.2360652674
 40
0.3619952237
 40
0.4908817948
 40
0.6209738346
 40
0.75046989
 40
0.8775121944
 40
1.0
 40
1.0
 40
1.0
 40
1.0
 10
14.8860703225
 20
10.1270842221
 30
0.0
 10
14.8874064818
 20
10.1258744625
 30
0.0
 10
14.8903036088
 20
10.1235492018
 30
0.0
 10
14.89507704
 20
10.1204494888
 30
0.0
 10
14.9003145774
 20
10.1177058275
 30
0.0
 10
14.9058972861
 20
10.1153731991
 30
0.0
 10
14.9117101632
 20
10.1135032111
 30
0.0
 10
14.9176310742
 20
10.1121318344
 30
0.0
 10
14.9235300518
 20
10.111295403
 30
0.0
 10
14.9274496015
 20
10.1110954666
 30
0.0
 10
14.9293726891
 20
10.1110954666
 30
0.0
  0
SPLINE
  5
2A2
100
AcDbEntity
  8
0
100
AcDbSpline
 62
7
  6
CONTINUOUS
 70
0
 71
3
 72
15
 73
11
 74
0
 42
0.0000001
 43
0.0000001
 44
0.0000000001
 40
0.0
 40
0.0
 40
0.0
 40
0.0
 40
0.155622441
 40
0.3031506025
 40
0.4411016923
 40
0.5690308784
 40
0.6872659821
 40
0.7969809602
 40
0.9002628066
 40
1.0
 40
1.0
 40
1.0
 40
1.0
 10
14.6367147741
 20
10.1110954666
 30
0.0
 10
14.6383909132
 20
10.1110954666
 30
0.0
 10
14.6416584039
 20
10.1112412373
 30
0.0
 10
14.6463690936
 20
10.1119202633
 30
0.0
 10
14.6506867214
 20
10.1130521857
 30
0.0
 10
14.6545318291
 20
10.1146151455
 30
0.0
 10
14.6578381345
 20
10.1165878437
 30
0.0
 10
14.660546936
 20
10.1189434729
 30
0.0
 10
14.6625969105
 20
10.1216486046
 30
0.0
 10
14.6634948049
 20
10.123668164
 30
0.0
 10
14.6638125651
 20
10.1246943152
 30
0.0
  0
SPLINE
  5
2A3
100
AcDbEntity
  8
0
100
AcDbSpline
 62
7
  6
CONTINUOUS
 70
0
 71
3
 72
15
 73
11
 74
0
 42
0.0000001
 43
0.0000001
 44
0.0000000001
 40
0.0
 40
0.0
 40
0.0
 40
0.0
 40
0.1148042391
 40
0.2360652674
 40
0.3619952237
 40
0.4908817948
 40
0.6209738346
 40
0.75046989
 40
0.8775121944
 40
1.0
 40
1.0
 40
1.0
 40
1.0
 10
14.4255398255
 20
10.1270842221
 30
0.0
 10
14.4268759848
 20
10.1258744625
 30
0.0
 10
14.4297731118
 20
10.1235492018
 30
0.0
 10
14.434546543
 20
10.1204494888
 30
0.0
 10
14.4397840804
 20
10.1177058275
 30
0.0
 10
14.4453667891
 20
10.1153731991
 30
0.0
 10
14.4511796662
 20
10.1135032111
 30
0.0
 10
14.4571005772
 20
10.1121318344
 30
0.0
 10
14.4629995548
 20
10.111295403
 30
0.0
 10
14.4669191044
 20
10.1110954666
 30
0.0
 10
14.4688421921
 20
10.1110954666
 30
0.0
  0
SPLINE
  5
2A4
100
AcDbEntity
  8
0
100
AcDbSpline
 62
7
  6
CONTINUOUS
 70
0
 71
3
 72
15
 73
11
 74
0
 42
0.0000001
 43
0.0000001
 44
0.0000000001
 40
0.0
 40
0.0
 40
0.0
 40
0.0
 40
0.155622441
 40
0.3031506025
 40
0.4411016923
 40
0.5690308784
 40
0.6872659821
 40
0.7969809602
 40
0.9002628066
 40
1.0
 40
1.0
 40
1.0
 40
1.0
 10
14.1761842771
 20
10.1110954666
 30
0.0
 10
14.1778604162
 20
10.1110954666
 30
0.0
 10
14.1811279069
 20
10.1112412373
 30
0.0
 10
14.1858385966
 20
10.1119202633
 30
0.0
 10
14.1901562244
 20
10.1130521857
 30
0.0
 10
14.1940013321
 20
10.1146151455
 30
0.0
 10
14.1973076375
 20
10.1165878437
 30
0.0
 10
14.200016439
 20
10.1189434729
 30
0.0
 10
14.2020664135
 20
10.1216486046
 30
0.0
 10
14.2029643079
 20
10.123668164
 30
0.0
 10
14.2032820681
 20
10.1246943152
 30
0.0
  0
SPLINE
  5
2A5
100
AcDbEntity
  8
0
100
AcDbSpline
 62
7
  6
CONTINUOUS
 70
0
 71
3
 72
15
 73
11
 74
0
 42
0.0000001
 43
0.0000001
 44
0.0000000001
 40
0.0
 40
0.0
 40
0.0
 40
0.0
 40
0.1148042391
 40
0.2360652674
 40
0.3619952237
 40
0.4908817948
 40
0.6209738346
 40
0.75046989
 40
0.8775121944
 40
1.0
 40
1.0
 40
1.0
 40
1.0
 10
13.9650093285
 20
10.1270842221
 30
0.0
 10
13.9663454878
 20
10.1258744625
 30
0.0
 10
13.9692426148
 20
10.1235492018
 30
0.0
 10
13.974016046
 20
10.1204494888
 30
0.0
 10
13.9792535834
 20
10.1177058275
 30
0.0
 10
13.9848362921
 20
10.1153731991
 30
0.0
 10
13.9906491692
 20
10.1135032111
 30
0.0
 10
13.9965700802
 20
10.1121318344
 30
0.0
 10
14.0024690578
 20
10.111295403
 30
0.0
 10
14.0063886074
 20
10.1110954666
 30
0.0
 10
14.0083116951
 20
10.1110954666
 30
0.0
  0
SPLINE
  5
2A6
100
AcDbEntity
  8
0
100
AcDbSpline
 62
7
  6
CONTINUOUS
 70
0
 71
3
 72
12
 73
8
 74
0
 42
0.0000001
 43
0.0000001
 44
0.0000000001
 40
0.0
 40
0.0
 40
0.0
 40
0.0
 40
0.2494601495
 40
0.5090031282
 40
0.7637523633
 40
0.8851075078
 40
1.0
 40
1.0
 40
1.0
 40
1.0
 10
13.4432525719
 20
10.1670403637
 30
0.0
 10
13.4458617052
 20
10.1670403637
 30
0.0
 10
13.4511937169
 20
10.1664987076
 30
0.0
 10
13.458922462
 20
10.1643576978
 30
0.0
 10
13.4649856454
 20
10.1615377161
 30
0.0
 10
13.4692984435
 20
10.1587381071
 30
0.0
 10
13.471230015
 20
10.1571877255
 30
0.0
 10
13.4721208163
 20
10.1563811934
 30
0.0
  0
SPLINE
  5
2A7
100
AcDbEntity
  8
0
100
AcDbSpline
 62
7
  6
CONTINUOUS
 70
0
 71
3
 72
12
 73
8
 74
0
 42
0.0000001
 43
0.0000001
 44
0.0000000001
 40
0.0
 40
0.0
 40
0.0
 40
0.0
 40
0.2494601495
 40
0.5090031282
 40
0.7637523633
 40
0.8851075078
 40
1.0
 40
1.0
 40
1.0
 40
1.0
 10
13.9037830689
 20
10.1670403637
 30
0.0
 10
13.9063922022
 20
10.1670403637
 30
0.0
 10
13.9117242139
 20
10.1664987076
 30
0.0
 10
13.919452959
 20
10.1643576978
 30
0.0
 10
13.9255161424
 20
10.1615377161
 30
0.0
 10
13.9298289406
 20
10.1587381071
 30
0.0
 10
13.931760512
 20
10.1571877255
 30
0.0
 10
13.9326513133
 20
10.1563811934
 30
0.0
  0
SPLINE
  5
2A8
100
AcDbEntity
  8
0
100
AcDbSpline
 62
7
  6
CONTINUOUS
 70
0
 71
3
 72
12
 73
8
 74
0
 42
0.0000001
 43
0.0000001
 44
0.0000000001
 40
0.0
 40
0.0
 40
0.0
 40
0.0
 40
0.2494601495
 40
0.5090031282
 40
0.7637523633
 40
0.8851075078
 40
1.0
 40
1.0
 40
1.0
 40
1.0
 10
14.3643135659
 20
10.1670403637
 30
0.0
 10
14.3669226992
 20
10.1670403637
 30
0.0
 10
14.3722547109
 20
10.1664987076
 30
0.0
 10
14.379983456
 20
10.1643576978
 30
0.0
 10
14.3860466394
 20
10.1615377161
 30
0.0
 10
14.3903594376
 20
10.1587381071
 30
0.0
 10
14.392291009
 20
10.1571877255
 30
0.0
 10
14.3931818103
 20
10.1563811934
 30
0.0
  0
SPLINE
  5
2A9
100
AcDbEntity
  8
0
100
AcDbSpline
 62
7
  6
CONTINUOUS
 70
0
 71
3
 72
12
 73
8
 74
0
 42
0.0000001
 43
0.0000001
 44
0.0000000001
 40
0.0
 40
0.0
 40
0.0
 40
0.0
 40
0.2494601495
 40
0.5090031282
 40
0.7637523633
 40
0.8851075078
 40
1.0
 40
1.0
 40
1.0
 40
1.0
 10
14.8248440629
 20
10.1670403637
 30
0.0
 10
14.8274531962
 20
10.1670403637
 30
0.0
 10
14.8327852079
 20
10.1664987076
 30
0.0
 10
14.840513953
 20
10.1643576978
 30
0.0
 10
14.8465771364
 20
10.1615377161
 30
0.0
 10
14.8508899346
 20
10.1587381071
 30
0.0
 10
14.852821506
 20
10.1571877255
 30
0.0
 10
14.8537123073
 20
10.1563811934
 30
0.0
  0
SPLINE
  5
2AA
100
AcDbEntity
  8
0
100
AcDbSpline
 62
7
  6
CONTINUOUS
 70
0
 71
3
 72
12
 73
8
 74
0
 42
0.0000001
 43
0.0000001
 44
0.0000000001
 40
0.0
 40
0.0
 40
0.0
 40
0.0
 40
0.2494601495
 40
0.5090031282
 40
0.7637523633
 40
0.8851075078
 40
1.0
 40
1.0
 40
1.0
 40
1.0
 10
15.2853745599
 20
10.1670403637
 30
0.0
 10
15.2879836932
 20
10.1670403637
 30
0.0
 10
15.2933157049
 20
10.1664987076
 30
0.0
 10
15.30104445
 20
10.1643576978
 30
0.0
 10
15.3071076334
 20
10.1615377161
 30
0.0
 10
15.3114204316
 20
10.1587381071
 30
0.0
 10
15.313352003
 20
10.1571877255
 30
0.0
 10
15.3142428043
 20
10.1563811934
 30
0.0
  0
SPLINE
  5
2AB
100
AcDbEntity
  8
0
100
AcDbSpline
 62
7
  6
CONTINUOUS
 70
0
 71
3
 72
12
 73
8
 74
0
 42
0.0000001
 43
0.0000001
 44
0.0000000001
 40
0.0
 40
0.0
 40
0.0
 40
0.0
 40
0.2494601495
 40
0.5090031282
 40
0.7637523633
 40
0.8851075078
 40
1.0
 40
1.0
 40
1.0
 40
1.0
 10
15.7459050569
 20
10.1670403637
 30
0.0
 10
15.7485141902
 20
10.1670403637
 30
0.0
 10
15.7538462019
 20
10.1664987076
 30
0.0
 10
15.761574947
 20
10.1643576978
 30
0.0
 10
15.7676381304
 20
10.1615377161
 30
0.0
 10
15.7719509286
 20
10.1587381071
 30
0.0
 10
15.7738825
 20
10.1571877255
 30
0.0
 10
15.7747733013
 20
10.1563811934
 30
0.0
  0
ENDSEC
  0
SECTION
  2
OBJECTS
  0
DICTIONARY
  5
C
100
AcDbDictionary
280
0
281
1
  3
ACAD_GROUP
350
D
  3
ACAD_MLINESTYLE
350
17
  3
ACAD_LAYOUT
350
1A
  3
ACAD_PLOTSETTINGS
350
19
  3
ACAD_PLOTSTYLENAME
350
E
  0
DICTIONARY
  5
D
102
{ACAD_REACTORS
330
C
102
}
100
AcDbDictionary
280
0
281
1
  0
ACDBDICTIONARYWDFLT
  5
E
102
{ACAD_REACTORS
330
C
102
}
100
AcDbDictionary
281
1
  3
Normal
350
F
100
AcDbDictionaryWithDefault
340
F
  0
DICTIONARY
  5
17
102
{ACAD_REACTORS
330
C
102
}
100
AcDbDictionary
280
0
281
1
  3
Standard
350
18
  0
DICTIONARY
  5
19
102
{ACAD_REACTORS
330
C
102
}
100
AcDbDictionary
281
1
  0
DICTIONARY
  5
1A
102
{ACAD_REACTORS
330
C
102
}
100
AcDbDictionary
281
1
  3
Model
350
2AC
  3
Layout1
350
2AD
  0
ACDBPLACEHOLDER
  5
F
102
{ACAD_REACTORS
330
E
102
}
  0
MLINESTYLE
  5
18
102
{ACAD_REACTORS
330
17
102
}
100
AcDbMlineStyle
  2
STANDARD
 70
0
  3

 62
256
 51
90.0
 52
90.0
 71
2
 49
0.5
 62
256
  6
BYLAYER
 49
-0.5
 62
256
  6
BYLAYER
  0
LAYOUT
  5
2AC
102
{ACAD_REACTORS
330
1A
102
}
100
AcDbPlotSettings
  1

  2
none_device
  4
ANSI_C_(22.00_x_17.00_Inches)
  6

 40
0.0
 41
0.0
 42
0.0
 43
0.0
 44
558.8
 45
431.8
 46
0.0
 47
0.0
 48
0.0
 49
0.0
140
0.0
141
0.0
142
1.0
143
1.0
 70
1024
 72
0
 73
0
 74
0
  7

 75
0
147
1.0
148
0.0
149
0.0
100
AcDbLayout
  1
Model
 70
0
 71
0
 10
0.0
 20
0.0
 11
22.0
 21
17.0
 12
0.0
 22
0.0
 32
0.0
 14
0.0
 24
0.0
 34
0.0
 15
0.0
 25
0.0
 35
0.0
146
0.0
 13
0.0
 23
0.0
 33
0.0
 16
1.0
 26
0.0
 36
0.0
 17
0.0
 27
1.0
 37
0.0
 76
0
330
216
345
0
346
0
  0
LAYOUT
  5
2AD
102
{ACAD_REACTORS
330
1A
102
}
100
AcDbPlotSettings
  1

  2
none_device
  4
ANSI_C_(22.00_x_17.00_Inches)
  6

 40
0.0
 41
0.0
 42
0.0
 43
0.0
 44
558.8
 45
431.8
 46
0.0
 47
0.0
 48
0.0
 49
0.0
140
0.0
141
0.0
142
1.0
143
1.0
 70
0
 72
0
 73
0
 74
0
  7

 75
0
147
1.0
148
0.0
149
0.0
100
AcDbLayout
  1
Layout1
 70
0
 71
1
 10
0.0
 20
0.0
 11
22.0
 21
17.0
 12
0.0
 22
0.0
 32
0.0
 14
0.0
 24
0.0
 34
0.0
 15
0.0
 25
0.0
 35
0.0
146
0.0
 13
0.0
 23
0.0
 33
0.0
 16
1.0
 26
0.0
 36
0.0
 17
0.0
 27
1.0
 37
0.0
 76
0
330
217
345
0
346
0
  0
ENDSEC
  0
EOF