999
DXF file: _cgs_temp_output.dxf
999
Pro/ENGINEER 2016360 by Parametric Technology Corporation
  0
SECTION
  2
HEADER
  9
$ACADVER
  1
AC1021
  9
$DWGCODEPAGE
  3
ANSI_1252
  9
$EXTMAX
 10
22.0
 20
17.0
 30
0.0
  9
$EXTMIN
 10
0.0
 20
0.0
 30
0.0
  9
$LIMMIN
 10
0.0
 20
0.0
  9
$LIMMAX
 10
22.0
 20
17.0
  9
$VIEWCTR
 10
11.0
 20
8.5
  9
$VIEWSIZE
 40
17.0
  9
$CLAYER
  8
0
  9
$LTSCALE
 40
1.21
  9
$CELTYPE
  6
BYLAYER
  9
$DIMSCALE
 40
1.0
  9
$DIMASZ
 40
0.1875
  9
$DIMEXO
 40
0.0625
  9
$DIMDLI
 40
0.836
  9
$DIMEXE
 40
0.125
  9
$DIMCEN
 40
0.198
  9
$DIMLFAC
 40
1.0
  9
$DIMBLK
  1
_CLOSED
  9
$DIMALT
 70
0
  9
$DIMALTF
 40
25.4
  9
$DIMTXT
 40
0.15625
  9
$DIMTOL
 70
0
  9
$DIMLIM
 70
0
  9
$DIMTFAC
 40
1.0
  9
$DIMGAP
 40
0.09
  9
$DIMDSEP
 70
46
  9
$AUNITS
 70
0
  9
$PDMODE
 70
3
  9
$PDSIZE
 40
0.3125
  9
$HANDSEED
  5
2AE
  9
$TILEMODE
 70
1
  9
$MEASUREMENT
 70
0
  9
$INSUNITS
 70
1
  0
ENDSEC
  0
SECTION
  2
CLASSES
  0
CLASS
  1
ACDBDICTIONARYWDFLT
  2
AcDbDictionaryWithDefault
  3
AutoCAD 2000
 90
0
 91
1
280
0
281
0
  0
CLASS
  1
ACDBPLACEHOLDER
  2
AcDbPlaceHolder
  3
AutoCAD 2000
 90
0
 91
1
280
0
281
0
  0
CLASS
  1
LAYOUT
  2
AcDbLayout
  3
AutoCAD 2000
 90
0
 91
0
280
0
281
0
  0
ENDSEC
  0
SECTION
  2
TABLES
  0
TABLE
  2
VPORT
  5
8
100
AcDbSymbolTable
 70
2
  0
VPORT
  5
1F4
100
AcDbSymbolTableRecord
100
AcDbViewportTableRecord
  2
*ACTIVE
 70
0
 10
0.0
 20
0.0
 11
1.0
 21
1.0
 12
11.0
 22
8.5
 13
0.0
 23
0.0
 14
1.0
 24
1.0
 15
0.0
 25
0.0
 16
0.0
 26
0.0
 36
1.0
 17
0.0
 27
0.0
 37
0.0
 40
17.0
 41
1.2941176471
 42
50.0
 43
0.0
 44
0.0
 50
0.0
 51
0.0
 71
0
 72
100
 73
1
 74
1
 75
0
 76
0
 77
0
 78
0
  0
ENDTAB
  0
TABLE
  2
LTYPE
  5
5
100
AcDbSymbolTable
 70
6
  0
LTYPE
  5
14
100
AcDbSymbolTableRecord
100
AcDbLinetypeTableRecord
  2
BYBLOCK
 70
0
  3

 72
65
 73
0
 40
0.0
  0
LTYPE
  5
15
100
AcDbSymbolTableRecord
100
AcDbLinetypeTableRecord
  2
BYLAYER
 70
0
  3

 72
65
 73
0
 40
0.0
  0
LTYPE
  5
16
100
AcDbSymbolTableRecord
100
AcDbLinetypeTableRecord
  2
CONTINUOUS
 70
64
  3
Solid line
 72
65
 73
0
 40
0.0
  0
LTYPE
  5
1F5
100
AcDbSymbolTableRecord
100
AcDbLinetypeTableRecord
  2
CENTER
 70
64
  3
____ _ ____ _ ____ _ ____ _ ____ _ ____ _ ____
 72
65
 73
4
 40
0.6
 49
0.375
 74
0
 49
-0.075
 74
0
 49
0.075
 74
0
 49
-0.075
 74
0
  0
LTYPE
  5
1F6
100
AcDbSymbolTableRecord
100
AcDbLinetypeTableRecord
  2
HIDDEN
 70
64
  3
- - - - - - - - - - - - - - - - - - - -
 72
65
 73
2
 40
0.2
 49
0.1
 74
0
 49
-0.1
 74
0
  0
LTYPE
  5
1F7
100
AcDbSymbolTableRecord
100
AcDbLinetypeTableRecord
  2
PHANTOM
 70
64
  3
_____ _ _ _____ _ _ _____ _ _ _____
 72
65
 73
6
 40
0.8
 49
0.45
 74
0
 49
-0.05
 74
0
 49
0.1
 74
0
 49
-0.05
 74
0
 49
0.1
 74
0
 49
-0.05
 74
0
  0
LTYPE
  5
1F8
100
AcDbSymbolTableRecord
100
AcDbLinetypeTableRecord
  2
DOT
 70
64
  3
. . . . . . . . . . . . . . . . . . . .
 72
65
 73
2
 40
0.2
 49
0.1
 74
0
 49
-0.1
 74
0
  0
LTYPE
  5
1F9
100
AcDbSymbolTableRecord
100
AcDbLinetypeTableRecord
  2
DASHED
 70
64
  3
- - - - - - - - - - - - - - - - - - - -
 72
65
 73
2
 40
0.2
 49
0.1
 74
0
 49
-0.1
 74
0
  0
ENDTAB
  0
TABLE
  2
LAYER
  5
2
100
AcDbSymbolTable
 70
36
  0
LAYER
  5
10
100
AcDbSymbolTableRecord
100
AcDbLayerTableRecord
  2
0
 70
0
 62
7
  6
CONTINUOUS
370
-3
390
F
  0
LAYER
  5
1FA
100
AcDbSymbolTableRecord
100
AcDbLayerTableRecord
  2
DEFAULT_1
 70
0
 62
7
  6
CENTER
370
-3
390
F
  0
LAYER
  5
1FB
100
AcDbSymbolTableRecord
100
AcDbLayerTableRecord
  2
DEFAULT_2
 70
0
 62
8
  6
HIDDEN
370
-3
390
F
  0
LAYER
  5
1FC
100
AcDbSymbolTableRecord
100
AcDbLayerTableRecord
  2
DEFAULT_3
 70
0
 62
7
  6
PHANTOM
370
-3
390
F
  0
LAYER
  5
1FD
100
AcDbSymbolTableRecord
100
AcDbLayerTableRecord
  2
01_ALL_DTM_PLN
 70
0
 62
7
  6
CONTINUOUS
370
-3
390
F
  0
LAYER
  5
1FE
100
AcDbSymbolTableRecord
100
AcDbLayerTableRecord
  2
01__ASM_ALL_DTM_PLN
 70
0
 62
7
  6
CONTINUOUS
370
-3
390
F
  0
LAYER
  5
1FF
100
AcDbSymbolTableRecord
100
AcDbLayerTableRecord
  2
01__ASM_DEF_DTM_PLN
 70
0
 62
7
  6
CONTINUOUS
370
-3
390
F
  0
LAYER
  5
200
100
AcDbSymbolTableRecord
100
AcDbLayerTableRecord
  2
01___PRT_ALL_DTM_PLN
 70
0
 62
7
  6
CONTINUOUS
370
-3
390
F
  0
LAYER
  5
201
100
AcDbSymbolTableRecord
100
AcDbLayerTableRecord
  2
01___PRT_DEF_DTM_PLN
 70
0
 62
7
  6
CONTINUOUS
370
-3
390
F
  0
LAYER
  5
202
100
AcDbSymbolTableRecord
100
AcDbLayerTableRecord
  2
02_ALL_AXES
 70
0
 62
7
  6
CONTINUOUS
370
-3
390
F
  0
LAYER
  5
203
100
AcDbSymbolTableRecord
100
AcDbLayerTableRecord
  2
02__ASM_ALL_AXES
 70
0
 62
7
  6
CONTINUOUS
370
-3
390
F
  0
LAYER
  5
204
100
AcDbSymbolTableRecord
100
AcDbLayerTableRecord
  2
02___PRT_ALL_AXES
 70
0
 62
7
  6
CONTINUOUS
370
-3
390
F
  0
LAYER
  5
205
100
AcDbSymbolTableRecord
100
AcDbLayerTableRecord
  2
03_ALL_CURVES
 70
0
 62
7
  6
CONTINUOUS
370
-3
390
F
  0
LAYER
  5
206
100
AcDbSymbolTableRecord
100
AcDbLayerTableRecord
  2
03__ASM_ALL_CURVES
 70
0
 62
7
  6
CONTINUOUS
370
-3
390
F
  0
LAYER
  5
207
100
AcDbSymbolTableRecord
100
AcDbLayerTableRecord
  2
03___PRT_ALL_CURVES
 70
0
 62
7
  6
CONTINUOUS
370
-3
390
F
  0
LAYER
  5
208
100
AcDbSymbolTableRecord
100
AcDbLayerTableRecord
  2
04_ALL_DTM_PNT
 70
0
 62
7
  6
CONTINUOUS
370
-3
390
F
  0
LAYER
  5
209
100
AcDbSymbolTableRecord
100
AcDbLayerTableRecord
  2
04__ASM_ALL_DTM_PNT
 70
0
 62
7
  6
CONTINUOUS
370
-3
390
F
  0
LAYER
  5
20A
100
AcDbSymbolTableRecord
100
AcDbLayerTableRecord
  2
04___PRT_ALL_DTM_PNT
 70
0
 62
7
  6
CONTINUOUS
370
-3
390
F
  0
LAYER
  5
20B
100
AcDbSymbolTableRecord
100
AcDbLayerTableRecord
  2
05_ALL_DTM_CSYS
 70
0
 62
7
  6
CONTINUOUS
370
-3
390
F
  0
LAYER
  5
20C
100
AcDbSymbolTableRecord
100
AcDbLayerTableRecord
  2
05__ASM_ALL_DTM_CSYS
 70
0
 62
7
  6
CONTINUOUS
370
-3
390
F
  0
LAYER
  5
20D
100
AcDbSymbolTableRecord
100
AcDbLayerTableRecord
  2
05__ASM_DEF_DTM_CSYS
 70
0
 62
7
  6
CONTINUOUS
370
-3
390
F
  0
LAYER
  5
20E
100
AcDbSymbolTableRecord
100
AcDbLayerTableRecord
  2
05___PRT_ALL_DTM_CSYS
 70
0
 62
7
  6
CONTINUOUS
370
-3
390
F
  0
LAYER
  5
20F
100
AcDbSymbolTableRecord
100
AcDbLayerTableRecord
  2
05___PRT_DEF_DTM_CSYS
 70
0
 62
7
  6
CONTINUOUS
370
-3
390
F
  0
LAYER
  5
210
100
AcDbSymbolTableRecord
100
AcDbLayerTableRecord
  2
06_ALL_SURFS
 70
0
 62
7
  6
CONTINUOUS
370
-3
390
F
  0
LAYER
  5
211
100
AcDbSymbolTableRecord
100
AcDbLayerTableRecord
  2
06__ASM_ALL_SURFS
 70
0
 62
7
  6
CONTINUOUS
370
-3
390
F
  0
LAYER
  5
212
100
AcDbSymbolTableRecord
100
AcDbLayerTableRecord
  2
06___PRT_ALL_SURFS
 70
0
 62
7
  6
CONTINUOUS
370
-3
390
F
  0
LAYER
  5
213
100
AcDbSymbolTableRecord
100
AcDbLayerTableRecord
  2
07__ASM_ALL_SKELETONS
 70
0
 62
7
  6
CONTINUOUS
370
-3
390
F
  0
ENDTAB
  0
TABLE
  2
STYLE
  5
3
100
AcDbSymbolTable
 70
1
  0
STYLE
  5
11
100
AcDbSymbolTableRecord
100
AcDbTextStyleTableRecord
  2
STANDARD
 70
0
 40
0.0
 41
0.8
 50
0.0
 71
0
 42
0.2
  3
txt
  4

  0
STYLE
  5
214
100
AcDbSymbolTableRecord
100
AcDbTextStyleTableRecord
  2
TEXTSTYLE_1
 70
0
 40
0.0
 41
0.8
 50
0.0
 71
0
 42
0.2
  3
gdt
  4

  0
ENDTAB
  0
TABLE
  2
VIEW
  5
6
100
AcDbSymbolTable
 70
0
  0
ENDTAB
  0
TABLE
  2
UCS
  5
7
100
AcDbSymbolTable
 70
0
  0
ENDTAB
  0
TABLE
  2
APPID
  5
9
100
AcDbSymbolTable
 70
1
  0
APPID
  5
215
100
AcDbSymbolTableRecord
100
AcDbRegAppTableRecord
  2
ACAD
 70
0
  0
ENDTAB
  0
TABLE
  2
BLOCK_RECORD
  5
1
100
AcDbSymbolTable
 70
0
  0
BLOCK_RECORD
  5
216
100
AcDbSymbolTableRecord
100
AcDbBlockTableRecord
  2
*Model_Space
  0
BLOCK_RECORD
  5
217
100
AcDbSymbolTableRecord
100
AcDbBlockTableRecord
  2
*Paper_Space
  0
ENDTAB
  0
TABLE
  2
DIMSTYLE
  5
A
100
AcDbSymbolTable
 70
1
100
AcDbDimStyleTable
 71
0
  0
DIMSTYLE
105
218
100
AcDbSymbolTableRecord
100
AcDbDimStyleTableRecord
  2
STANDARD
 70
0
  3

  4

 40
1.0
 41
0.1875
 42
0.0625
 43
0.38
 44
0.125
 45
0.0
 46
0.0
 47
0.0001
 48
0.0001
140
0.15625
141
0.09
142
0.0
143
25.4
144
1.0
145
0.0
146
1.0
147
0.09
 71
0.0
 72
0.0
 73
1
 74
1
 75
0
 76
0
 77
0
 78
4
 79
1
170
0
171
3
172
0
173
0
174
0
175
0
176
0
177
0
178
0
270
2
179
4
271
4
272
4
273
2
274
2
275
0
280
0
281
0
282
0
283
1
284
4
285
0
286
0
287
3
288
0
340
11
278
46
  0
ENDTAB
  0
ENDSEC
  0
SECTION
  2
BLOCKS
  0
BLOCK
  5
20
100
AcDbEntity
  8
0
100
AcDbBlockBegin
  2
*Model_Space
 70
0
 10
0.0
 20
0.0
 30
0.0
  3
*Model_Space
  1

  0
ENDBLK
  5
21
100
AcDbEntity
  8
0
100
AcDbBlockEnd
  0
BLOCK
  5
1C
100
AcDbEntity
  8
0
100
AcDbBlockBegin
  2
*Paper_Space
 70
0
 10
0.0
 20
0.0
 30
0.0
  3
*Paper_Space
  1

  0
ENDBLK
  5
1D
100
AcDbEntity
  8
0
100
AcDbBlockEnd
  0
ENDSEC
  0
SECTION
  2
ENTITIES
  0
MTEXT
  5
219
100
AcDbEntity
  8
0
100
AcDbMText
 62
7
  6
CONTINUOUS
  7
STANDARD
 71
1
 72
1
 10
15.9560215477
 20
0.9479130325
 30
0.0
 11
1.0
 21
0.0
 31
0.0
 44
0.9
  1
SCALE: 1:1.000
 40
0.3
 41
3.36
  0
LINE
  5
21A
100
AcDbEntity
  8
0
100
AcDbLine
 62
7
  6
CONTINUOUS
 10
0.0
 20
0.0
 11
0.0
 21
17.0
  0
LINE
  5
21B
100
AcDbEntity
  8
0
100
AcDbLine
 62
7
  6
CONTINUOUS
 10
0.0
 20
0.0
 11
22.0
 21
0.0
  0
LINE
  5
21C
100
AcDbEntity
  8
0
100
AcDbLine
 62
7
  6
CONTINUOUS
 10
0.0
 20
17.0
 11
22.0
 21
17.0
  0
LINE
  5
21D
100
AcDbEntity
  8
0
100
AcDbLine
 62
7
  6
CONTINUOUS
 10
22.0
 20
0.0
 11
22.0
 21
17.0
  0
LINE
  5
21E
100
AcDbEntity
  8
0
100
AcDbLine
 62
7
  6
CONTINUOUS
 10
4.6303672762
 20
5.6001198968
 11
4.6303672762
 21
5.5301198968
  0
LINE
  5
21F
100
AcDbEntity
  8
0
100
AcDbLine
 62
7
  6
CONTINUOUS
 10
4.7312200788
 20
5.5129722143
 11
4.7507422928
 21
5.4658414204
  0
LINE
  5
220
100
AcDbEntity
  8
0
100
AcDbLine
 62
7
  6
CONTINUOUS
 10
5.0099922595
 20
5.4658414204
 11
5.0295144735
 21
5.5129722143
  0
LINE
  5
221
100
AcDbEntity
  8
0
100
AcDbLine
 62
7
  6
CONTINUOUS
 10
5.2312200788
 20
5.5129722143
 11
5.2507422928
 21
5.4658414204
  0
LINE
  5
222
100
AcDbEntity
  8
0
100
AcDbLine
 62
7
  6
CONTINUOUS
 10
5.5099922595
 20
5.4658414204
 11
5.5295144735
 21
5.5129722143
  0
LINE
  5
223
100
AcDbEntity
  8
0
100
AcDbLine
 62
7
  6
CONTINUOUS
 10
5.7312200788
 20
5.5129722143
 11
5.7507422928
 21
5.4658414204
  0
LINE
  5
224
100
AcDbEntity
  8
0
100
AcDbLine
 62
7
  6
CONTINUOUS
 10
6.0099922595
 20
5.4658414204
 11
6.0295144735
 21
5.5129722143
  0
LINE
  5
225
100
AcDbEntity
  8
0
100
AcDbLine
 62
7
  6
CONTINUOUS
 10
4.7892372734
 20
5.4401198968
 11
4.971497279
 21
5.4401198968
  0
LINE
  5
226
100
AcDbEntity
  8
0
100
AcDbLine
 62
7
  6
CONTINUOUS
 10
5.2892372734
 20
5.4401198968
 11
5.471497279
 21
5.4401198968
  0
LINE
  5
227
100
AcDbEntity
  8
0
100
AcDbLine
 62
7
  6
CONTINUOUS
 10
5.7892372734
 20
5.4401198968
 11
5.971497279
 21
5.4401198968
  0
LINE
  5
228
100
AcDbEntity
  8
0
100
AcDbLine
 62
7
  6
CONTINUOUS
 10
6.2892372734
 20
5.4401198968
 11
6.471497279
 21
5.4401198968
  0
LINE
  5
229
100
AcDbEntity
  8
0
100
AcDbLine
 62
7
  6
CONTINUOUS
 10
6.7892372734
 20
5.4401198968
 11
6.971497279
 21
5.4401198968
  0
LINE
  5
22A
100
AcDbEntity
  8
0
100
AcDbLine
 62
7
  6
CONTINUOUS
 10
7.2892372734
 20
5.4401198968
 11
7.471497279
 21
5.4401198968
  0
LINE
  5
22B
100
AcDbEntity
  8
0
100
AcDbLine
 62
7
  6
CONTINUOUS
 10
4.6303672762
 20
5.5301198968
 11
4.7055567584
 21
5.5301198968
  0
LINE
  5
22C
100
AcDbEntity
  8
0
100
AcDbLine
 62
7
  6
CONTINUOUS
 10
5.0551777939
 20
5.5301198968
 11
5.2055567584
 21
5.5301198968
  0
LINE
  5
22D
100
AcDbEntity
  8
0
100
AcDbLine
 62
7
  6
CONTINUOUS
 10
5.5551777939
 20
5.5301198968
 11
5.7055567584
 21
5.5301198968
  0
LINE
  5
22E
100
AcDbEntity
  8
0
100
AcDbLine
 62
7
  6
CONTINUOUS
 10
6.0551777939
 20
5.5301198968
 11
6.2055567584
 21
5.5301198968
  0
LINE
  5
22F
100
AcDbEntity
  8
0
100
AcDbLine
 62
7
  6
CONTINUOUS
 10
6.5551777939
 20
5.5301198968
 11
6.7055567584
 21
5.5301198968
  0
LINE
  5
230
100
AcDbEntity
  8
0
100
AcDbLine
 62
7
  6
CONTINUOUS
 10
7.0551777939
 20
5.5301198968
 11
7.2055567584
 21
5.5301198968
  0
LINE
  5
231
100
AcDbEntity
  8
0
100
AcDbLine
 62
7
  6
CONTINUOUS
 10
7.5551777939
 20
5.5301198968
 11
7.6303672762
 21
5.5301198968
  0
LINE
  5
232
100
AcDbEntity
  8
0
100
AcDbLine
 62
7
  6
CONTINUOUS
 10
7.6303672762
 20
5.6001198968
 11
4.6303672762
 21
5.6001198968
  0
LINE
  5
233
100
AcDbEntity
  8
0
100
AcDbLine
 62
7
  6
CONTINUOUS
 10
6.2312200788
 20
5.5129722143
 11
6.2507422928
 21
5.4658414204
  0
LINE
  5
234
100
AcDbEntity
  8
0
100
AcDbLine
 62
7
  6
CONTINUOUS
 10
6.5099922595
 20
5.4658414204
 11
6.5295144735
 21
5.5129722143
  0
LINE
  5
235
100
AcDbEntity
  8
0
100
AcDbLine
 62
7
  6
CONTINUOUS
 10
6.7312200788
 20
5.5129722143
 11
6.7507422928
 21
5.4658414204
  0
LINE
  5
236
100
AcDbEntity
  8
0
100
AcDbLine
 62
7
  6
CONTINUOUS
 10
7.0099922595
 20
5.4658414204
 11
7.0295144735
 21
5.5129722143
  0
LINE
  5
237
100
AcDbEntity
  8
0
100
AcDbLine
 62
7
  6
CONTINUOUS
 10
7.2312200788
 20
5.5129722143
 11
7.2507422928
 21
5.4658414204
  0
LINE
  5
238
100
AcDbEntity
  8
0
100
AcDbLine
 62
7
  6
CONTINUOUS
 10
7.5099922595
 20
5.4658414204
 11
7.5295144735
 21
5.5129722143
  0
LINE
  5
239
100
AcDbEntity
  8
0
100
AcDbLine
 62
7
  6
CONTINUOUS
 10
7.6303672762
 20
5.5301198968
 11
7.6303672762
 21
5.6001198968
  0
LINE
  5
23A
100
AcDbEntity
  8
0
100
AcDbLine
 62
7
  6
CONTINUOUS
 10
7.5708720839
 20
10.1000477814
 11
4.5708720839
 21
10.1000477814
  0
LINE
  5
23B
100
AcDbEntity
  8
0
100
AcDbLine
 62
7
  6
CONTINUOUS
 10
4.5708720839
 20
15.1000477814
 11
4.5708720839
 21
10.1000477814
  0
LINE
  5
23C
100
AcDbEntity
  8
0
100
AcDbLine
 62
7
  6
CONTINUOUS
 10
7.5708720839
 20
15.1000477814
 11
7.5708720839
 21
10.1000477814
  0
LINE
  5
23D
100
AcDbEntity
  8
0
100
AcDbLine
 62
7
  6
CONTINUOUS
 10
4.5708720839
 20
15.1000477814
 11
7.5708720839
 21
15.1000477814
  0
LINE
  5
23E
100
AcDbEntity
  8
0
100
AcDbLine
 62
7
  6
CONTINUOUS
 10
13.0603552569
 20
5.3806247044
 11
13.0603552569
 21
5.5406247044
  0
LINE
  5
23F
100
AcDbEntity
  8
0
100
AcDbLine
 62
7
  6
CONTINUOUS
 10
13.0603552569
 20
5.3806247044
 11
18.0603552569
 21
5.3806247044
  0
LINE
  5
240
100
AcDbEntity
  8
0
100
AcDbLine
 62
7
  6
CONTINUOUS
 10
18.0603552569
 20
5.4706247044
 11
13.0603552569
 21
5.4706247044
  0
LINE
  5
241
100
AcDbEntity
  8
0
100
AcDbLine
 62
7
  6
CONTINUOUS
 10
18.0603552569
 20
5.5406247044
 11
13.0603552569
 21
5.5406247044
  0
LINE
  5
242
100
AcDbEntity
  8
0
100
AcDbLine
 62
7
  6
CONTINUOUS
 10
18.0603552569
 20
5.3806247044
 11
18.0603552569
 21
5.5406247044
  0
LINE
  5
243
100
AcDbEntity
  8
0
100
AcDbLine
 62
7
  6
CONTINUOUS
 10
13.593153978
 20
10.5480446482
 11
13.6255119932
 21
10.5187476769
  0
LINE
  5
244
100
AcDbEntity
  8
0
100
AcDbLine
 62
7
  6
CONTINUOUS
 10
13.4736787036
 20
10.6022165163
 11
13.4950316343
 21
10.5587038185
  0
LINE
  5
245
100
AcDbEntity
  8
0
100
AcDbLine
 62
7
  6
CONTINUOUS
 10
14.053684475
 20
10.5480446482
 11
14.0860424902
 21
10.5187476769
  0
LINE
  5
246
100
AcDbEntity
  8
0
100
AcDbLine
 62
7
  6
CONTINUOUS
 10
14.514214972
 20
10.5480446482
 11
14.5465729872
 21
10.5187476769
  0
LINE
  5
247
100
AcDbEntity
  8
0
100
AcDbLine
 62
7
  6
CONTINUOUS
 10
13.6688143598
 20
10.5027589214
 11
13.8366869418
 21
10.5027589214
  0
LINE
  5
248
100
AcDbEntity
  8
0
100
AcDbLine
 62
7
  6
CONTINUOUS
 10
14.1293448568
 20
10.5027589214
 11
14.2972174388
 21
10.5027589214
  0
LINE
  5
249
100
AcDbEntity
  8
0
100
AcDbLine
 62
7
  6
CONTINUOUS
 10
14.5898753538
 20
10.5027589214
 11
14.7577479358
 21
10.5027589214
  0
LINE
  5
24A
100
AcDbEntity
  8
0
100
AcDbLine
 62
7
  6
CONTINUOUS
 10
15.0504058508
 20
10.5027589214
 11
15.2182784328
 21
10.5027589214
  0
LINE
  5
24B
100
AcDbEntity
  8
0
100
AcDbLine
 62
7
  6
CONTINUOUS
 10
15.5109363478
 20
10.5027589214
 11
15.6788089298
 21
10.5027589214
  0
LINE
  5
24C
100
AcDbEntity
  8
0
100
AcDbLine
 62
7
  6
CONTINUOUS
 10
15.9714668448
 20
10.5027589214
 11
16.1393394268
 21
10.5027589214
  0
LINE
  5
24D
100
AcDbEntity
  8
0
100
AcDbLine
 62
7
  6
CONTINUOUS
 10
13.4950316343
 20
10.5587038185
 11
13.5642857336
 21
10.5587038185
  0
LINE
  5
24E
100
AcDbEntity
  8
0
100
AcDbLine
 62
7
  6
CONTINUOUS
 10
13.886308032
 20
10.5587038185
 11
14.0248162306
 21
10.5587038185
  0
LINE
  5
24F
100
AcDbEntity
  8
0
100
AcDbLine
 62
7
  6
CONTINUOUS
 10
14.346838529
 20
10.5587038185
 11
14.4853467276
 21
10.5587038185
  0
LINE
  5
250
100
AcDbEntity
  8
0
100
AcDbLine
 62
7
  6
CONTINUOUS
 10
14.807369026
 20
10.5587038185
 11
14.9458772246
 21
10.5587038185
  0
LINE
  5
251
100
AcDbEntity
  8
0
100
AcDbLine
 62
7
  6
CONTINUOUS
 10
15.267899523
 20
10.5587038185
 11
15.4064077216
 21
10.5587038185
  0
LINE
  5
252
100
AcDbEntity
  8
0
100
AcDbLine
 62
7
  6
CONTINUOUS
 10
15.72843002
 20
10.5587038185
 11
15.8669382186
 21
10.5587038185
  0
LINE
  5
253
100
AcDbEntity
  8
0
100
AcDbLine
 62
7
  6
CONTINUOUS
 10
16.188960517
 20
10.5587038185
 11
16.2582146163
 21
10.5587038185
  0
LINE
  5
254
100
AcDbEntity
  8
0
100
AcDbLine
 62
7
  6
CONTINUOUS
 10
16.2368616856
 20
10.6022165163
 11
13.4736787036
 21
10.6022165163
  0
LINE
  5
255
100
AcDbEntity
  8
0
100
AcDbLine
 62
7
  6
CONTINUOUS
 10
14.974745469
 20
10.5480446482
 11
15.0071034842
 21
10.5187476769
  0
LINE
  5
256
100
AcDbEntity
  8
0
100
AcDbLine
 62
7
  6
CONTINUOUS
 10
13.8642970252
 20
10.5187476769
 11
13.8679013097
 21
10.5480446482
  0
LINE
  5
257
100
AcDbEntity
  8
0
100
AcDbLine
 62
7
  6
CONTINUOUS
 10
14.6840103207
 20
14.5188510644
 11
13.4736787036
 21
10.6022165163
  0
LINE
  5
258
100
AcDbEntity
  8
0
100
AcDbLine
 62
7
  6
CONTINUOUS
 10
15.435275966
 20
10.5480446482
 11
15.4676339812
 21
10.5187476769
  0
LINE
  5
259
100
AcDbEntity
  8
0
100
AcDbLine
 62
7
  6
CONTINUOUS
 10
13.8637777089
 20
10.5163599422
 11
13.8642970252
 21
10.5187476769
  0
LINE
  5
25A
100
AcDbEntity
  8
0
100
AcDbLine
 62
7
  6
CONTINUOUS
 10
13.8679013097
 20
10.5480446482
 11
13.8682496063
 21
10.5496358264
  0
LINE
  5
25B
100
AcDbEntity
  8
0
100
AcDbLine
 62
7
  6
CONTINUOUS
 10
15.895806463
 20
10.5480446482
 11
15.9281644782
 21
10.5187476769
  0
LINE
  5
25C
100
AcDbEntity
  8
0
100
AcDbLine
 62
7
  6
CONTINUOUS
 10
13.8645048796
 20
10.518683445
 11
13.8762980783
 21
10.5568462501
  0
LINE
  5
25D
100
AcDbEntity
  8
0
100
AcDbLine
 62
7
  6
CONTINUOUS
 10
14.3248275222
 20
10.5187476769
 11
14.3284318067
 21
10.5480446482
  0
LINE
  5
25E
100
AcDbEntity
  8
0
100
AcDbLine
 62
7
  6
CONTINUOUS
 10
14.3243082059
 20
10.5163599422
 11
14.3248275222
 21
10.5187476769
  0
LINE
  5
25F
100
AcDbEntity
  8
0
100
AcDbLine
 62
7
  6
CONTINUOUS
 10
14.3284318067
 20
10.5480446482
 11
14.3287801033
 21
10.5496358264
  0
LINE
  5
260
100
AcDbEntity
  8
0
100
AcDbLine
 62
7
  6
CONTINUOUS
 10
14.7853580192
 20
10.5187476769
 11
14.7889623037
 21
10.5480446482
  0
LINE
  5
261
100
AcDbEntity
  8
0
100
AcDbLine
 62
7
  6
CONTINUOUS
 10
14.3250353766
 20
10.518683445
 11
14.3368285753
 21
10.5568462501
  0
LINE
  5
262
100
AcDbEntity
  8
0
100
AcDbLine
 62
7
  6
CONTINUOUS
 10
14.7848387029
 20
10.5163599422
 11
14.7853580192
 21
10.5187476769
  0
LINE
  5
263
100
AcDbEntity
  8
0
100
AcDbLine
 62
7
  6
CONTINUOUS
 10
14.7889623037
 20
10.5480446482
 11
14.7893106003
 21
10.5496358264
  0
LINE
  5
264
100
AcDbEntity
  8
0
100
AcDbLine
 62
7
  6
CONTINUOUS
 10
15.2458885162
 20
10.5187476769
 11
15.2494928007
 21
10.5480446482
  0
LINE
  5
265
100
AcDbEntity
  8
0
100
AcDbLine
 62
7
  6
CONTINUOUS
 10
14.7855658736
 20
10.518683445
 11
14.7973590723
 21
10.5568462501
  0
LINE
  5
266
100
AcDbEntity
  8
0
100
AcDbLine
 62
7
  6
CONTINUOUS
 10
16.2582146163
 20
10.5587038185
 11
16.2368616856
 21
10.6022165163
  0
LINE
  5
267
100
AcDbEntity
  8
0
100
AcDbLine
 62
7
  6
CONTINUOUS
 10
15.2453691999
 20
10.5163599422
 11
15.2458885162
 21
10.5187476769
  0
LINE
  5
268
100
AcDbEntity
  8
0
100
AcDbLine
 62
7
  6
CONTINUOUS
 10
15.2494928007
 20
10.5480446482
 11
15.2498410973
 21
10.5496358264
  0
LINE
  5
269
100
AcDbEntity
  8
0
100
AcDbLine
 62
7
  6
CONTINUOUS
 10
15.2460963706
 20
10.518683445
 11
15.2578895693
 21
10.5568462501
  0
LINE
  5
26A
100
AcDbEntity
  8
0
100
AcDbLine
 62
7
  6
CONTINUOUS
 10
15.7064190132
 20
10.5187476769
 11
15.7100232977
 21
10.5480446482
  0
LINE
  5
26B
100
AcDbEntity
  8
0
100
AcDbLine
 62
7
  6
CONTINUOUS
 10
15.7058996969
 20
10.5163599422
 11
15.7064190132
 21
10.5187476769
  0
LINE
  5
26C
100
AcDbEntity
  8
0
100
AcDbLine
 62
7
  6
CONTINUOUS
 10
15.7100232977
 20
10.5480446482
 11
15.7103715943
 21
10.5496358264
  0
LINE
  5
26D
100
AcDbEntity
  8
0
100
AcDbLine
 62
7
  6
CONTINUOUS
 10
16.1669495102
 20
10.5187476769
 11
16.1705537947
 21
10.5480446482
  0
LINE
  5
26E
100
AcDbEntity
  8
0
100
AcDbLine
 62
7
  6
CONTINUOUS
 10
15.7066268676
 20
10.518683445
 11
15.7184200663
 21
10.5568462501
  0
LINE
  5
26F
100
AcDbEntity
  8
0
100
AcDbLine
 62
7
  6
CONTINUOUS
 10
16.1664301939
 20
10.5163599422
 11
16.1669495102
 21
10.5187476769
  0
LINE
  5
270
100
AcDbEntity
  8
0
100
AcDbLine
 62
7
  6
CONTINUOUS
 10
16.1705537947
 20
10.5480446482
 11
16.1709020913
 21
10.5496358264
  0
LINE
  5
271
100
AcDbEntity
  8
0
100
AcDbLine
 62
7
  6
CONTINUOUS
 10
16.1671573646
 20
10.518683445
 11
16.1789505633
 21
10.5568462501
  0
LINE
  5
272
100
AcDbEntity
  8
0
100
AcDbLine
 62
7
  6
CONTINUOUS
 10
17.4471933027
 20
14.5188510644
 11
16.2368616856
 21
10.6022165163
  0
LINE
  5
273
100
AcDbEntity
  8
0
100
AcDbLine
 62
7
  6
CONTINUOUS
 10
17.4685462333
 20
14.4753383667
 11
16.2582146163
 21
10.5587038185
  0
LINE
  5
274
100
AcDbEntity
  8
0
100
AcDbLine
 62
7
  6
CONTINUOUS
 10
14.6840103207
 20
14.5188510644
 11
17.4471933027
 21
14.5188510644
  0
LINE
  5
275
100
AcDbEntity
  8
0
100
AcDbLine
 62
7
  6
CONTINUOUS
 10
17.4685462333
 20
14.4753383667
 11
17.4471933027
 21
14.5188510644
  0
ARC
  5
276
100
AcDbEntity
  8
0
100
AcDbCircle
 62
7
  6
CONTINUOUS
 10
5.2892372734
 20
5.4817865634
 40
0.0416666667
100
AcDbArc
 50
202.5
 51
270.0
  0
ARC
  5
277
100
AcDbEntity
  8
0
100
AcDbCircle
 62
7
  6
CONTINUOUS
 10
5.471497279
 20
5.4817865634
 40
0.0416666667
100
AcDbArc
 50
270.0
 51
337.5
  0
ARC
  5
278
100
AcDbEntity
  8
0
100
AcDbCircle
 62
7
  6
CONTINUOUS
 10
5.7892372734
 20
5.4817865634
 40
0.0416666667
100
AcDbArc
 50
202.5
 51
270.0
  0
ARC
  5
279
100
AcDbEntity
  8
0
100
AcDbCircle
 62
7
  6
CONTINUOUS
 10
5.971497279
 20
5.4817865634
 40
0.0416666667
100
AcDbArc
 50
270.0
 51
337.5
  0
ARC
  5
27A
100
AcDbEntity
  8
0
100
AcDbCircle
 62
7
  6
CONTINUOUS
 10
6.2892372734
 20
5.4817865634
 40
0.0416666667
100
AcDbArc
 50
202.5
 51
270.0
  0
ARC
  5
27B
100
AcDbEntity
  8
0
100
AcDbCircle
 62
7
  6
CONTINUOUS
 10
6.471497279
 20
5.4817865634
 40
0.0416666667
100
AcDbArc
 50
270.0
 51
337.5
  0
ARC
  5
27C
100
AcDbEntity
  8
0
100
AcDbCircle
 62
7
  6
CONTINUOUS
 10
4.971497279
 20
5.4817865634
 40
0.0416666667
100
AcDbArc
 50
270.0
 51
337.5
  0
ARC
  5
27D
100
AcDbEntity
  8
0
100
AcDbCircle
 62
7
  6
CONTINUOUS
 10
4.7892372734
 20
5.4817865634
 40
0.0416666667
100
AcDbArc
 50
202.5
 51
270.0
  0
ARC
  5
27E
100
AcDbEntity
  8
0
100
AcDbCircle
 62
7
  6
CONTINUOUS
 10
7.471497279
 20
5.4817865634
 40
0.0416666667
100
AcDbArc
 50
270.0
 51
337.5
  0
ARC
  5
27F
100
AcDbEntity
  8
0
100
AcDbCircle
 62
7
  6
CONTINUOUS
 10
7.2892372734
 20
5.4817865634
 40
0.0416666667
100
AcDbArc
 50
202.5
 51
270.0
  0
ARC
  5
280
100
AcDbEntity
  8
0
100
AcDbCircle
 62
7
  6
CONTINUOUS
 10
6.971497279
 20
5.4817865634
 40
0.0416666667
100
AcDbArc
 50
270.0
 51
337.5
  0
ARC
  5
281
100
AcDbEntity
  8
0
100
AcDbCircle
 62
7
  6
CONTINUOUS
 10
6.7892372734
 20
5.4817865634
 40
0.0416666667
100
AcDbArc
 50
202.5
 51
270.0
  0
ARC
  5
282
100
AcDbEntity
  8
0
100
AcDbCircle
 62
7
  6
CONTINUOUS
 10
5.0551777939
 20
5.502342119
 40
0.0277777778
100
AcDbArc
 50
90.0
 51
157.5
  0
ARC
  5
283
100
AcDbEntity
  8
0
100
AcDbCircle
 62
7
  6
CONTINUOUS
 10
4.7055567584
 20
5.502342119
 40
0.0277777778
100
AcDbArc
 50
22.5
 51
90.0
  0
ARC
  5
284
100
AcDbEntity
  8
0
100
AcDbCircle
 62
7
  6
CONTINUOUS
 10
5.5551777939
 20
5.502342119
 40
0.0277777778
100
AcDbArc
 50
90.0
 51
157.5
  0
ARC
  5
285
100
AcDbEntity
  8
0
100
AcDbCircle
 62
7
  6
CONTINUOUS
 10
5.2055567584
 20
5.502342119
 40
0.0277777778
100
AcDbArc
 50
22.5
 51
90.0
  0
ARC
  5
286
100
AcDbEntity
  8
0
100
AcDbCircle
 62
7
  6
CONTINUOUS
 10
6.0551777939
 20
5.502342119
 40
0.0277777778
100
AcDbArc
 50
90.0
 51
157.5
  0
ARC
  5
287
100
AcDbEntity
  8
0
100
AcDbCircle
 62
7
  6
CONTINUOUS
 10
5.7055567584
 20
5.502342119
 40
0.0277777778
100
AcDbArc
 50
22.5
 51
90.0
  0
ARC
  5
288
100
AcDbEntity
  8
0
100
AcDbCircle
 62
7
  6
CONTINUOUS
 10
6.5551777939
 20
5.502342119
 40
0.0277777778
100
AcDbArc
 50
90.0
 51
157.5
  0
ARC
  5
289
100
AcDbEntity
  8
0
100
AcDbCircle
 62
7
  6
CONTINUOUS
 10
6.2055567584
 20
5.502342119
 40
0.0277777778
100
AcDbArc
 50
22.5
 51
90.0
  0
ARC
  5
28A
100
AcDbEntity
  8
0
100
AcDbCircle
 62
7
  6
CONTINUOUS
 10
7.0551777939
 20
5.502342119
 40
0.0277777778
100
AcDbArc
 50
90.0
 51
157.5
  0
ARC
  5
28B
100
AcDbEntity
  8
0
100
AcDbCircle
 62
7
  6
CONTINUOUS
 10
6.7055567584
 20
5.502342119
 40
0.0277777778
100
AcDbArc
 50
22.5
 51
90.0
  0
ARC
  5
28C
100
AcDbEntity
  8
0
100
AcDbCircle
 62
7
  6
CONTINUOUS
 10
7.5551777939
 20
5.502342119
 40
0.0277777778
100
AcDbArc
 50
90.0
 51
157.5
  0
ARC
  5
28D
100
AcDbEntity
  8
0
100
AcDbCircle
 62
7
  6
CONTINUOUS
 10
7.2055567584
 20
5.502342119
 40
0.0277777778
100
AcDbArc
 50
22.5
 51
90.0
  0
SPLINE
  5
28E
100
AcDbEntity
  8
0
100
AcDbSpline
 62
7
  6
CONTINUOUS
 70
0
 71
3
 72
12
 73
8
 74
0
 42
0.0000001
 43
0.0000001
 44
0.0000000001
 40
0.0
 40
0.0
 40
0.0
 40
0.0
 40
0.1080306004
 40
0.2181711528
 40
0.4510067299
 40
0.7099970255
 40
1.0
 40
1.0
 40
1.0
 40
1.0
 10
13.8682428422
 20
10.5496379181
 30
0.0
 10
13.8683961977
 20
10.5501331466
 30
0.0
 10
13.8687923324
 20
10.5511087435
 30
0.0
 10
13.869933605
 20
10.5529580073
 30
0.0
 10
13.8720358863
 20
10.5550068221
 30
0.0
 10
13.8753377242
 20
10.5568525321
 30
0.0
 10
13.8778686063
 20
10.5576459734
 30
0.0
 10
13.879225419
 20
10.557955628
 30
0.0
  0
SPLINE
  5
28F
100
AcDbEntity
  8
0
100
AcDbSpline
 62
7
  6
CONTINUOUS
 70
0
 71
3
 72
9
 73
5
 74
0
 42
0.0000001
 43
0.0000001
 44
0.0000000001
 40
0.0
 40
0.0
 40
0.0
 40
0.0
 40
0.4849451066
 40
1.0
 40
1.0
 40
1.0
 40
1.0
 10
13.879225419
 20
10.557955628
 30
0.0
 10
13.8803495599
 20
10.5582121817
 30
0.0
 10
13.8827039579
 20
10.5585877787
 30
0.0
 10
13.8850833956
 20
10.5587038185
 30
0.0
 10
13.886308032
 20
10.5587038185
 30
0.0
  0
SPLINE
  5
290
100
AcDbEntity
  8
0
100
AcDbSpline
 62
7
  6
CONTINUOUS
 70
0
 71
3
 72
12
 73
8
 74
0
 42
0.0000001
 43
0.0000001
 44
0.0000000001
 40
0.0
 40
0.0
 40
0.0
 40
0.0
 40
0.1080306004
 40
0.2181711528
 40
0.4510067299
 40
0.7099970255
 40
1.0
 40
1.0
 40
1.0
 40
1.0
 10
14.3287733392
 20
10.5496379181
 30
0.0
 10
14.3289266947
 20
10.5501331466
 30
0.0
 10
14.3293228294
 20
10.5511087435
 30
0.0
 10
14.330464102
 20
10.5529580073
 30
0.0
 10
14.3325663833
 20
10.5550068221
 30
0.0
 10
14.3358682212
 20
10.5568525321
 30
0.0
 10
14.3383991033
 20
10.5576459734
 30
0.0
 10
14.339755916
 20
10.557955628
 30
0.0
  0
SPLINE
  5
291
100
AcDbEntity
  8
0
100
AcDbSpline
 62
7
  6
CONTINUOUS
 70
0
 71
3
 72
9
 73
5
 74
0
 42
0.0000001
 43
0.0000001
 44
0.0000000001
 40
0.0
 40
0.0
 40
0.0
 40
0.0
 40
0.4849451066
 40
1.0
 40
1.0
 40
1.0
 40
1.0
 10
14.339755916
 20
10.557955628
 30
0.0
 10
14.3408800569
 20
10.5582121817
 30
0.0
 10
14.3432344549
 20
10.5585877787
 30
0.0
 10
14.3456138926
 20
10.5587038185
 30
0.0
 10
14.346838529
 20
10.5587038185
 30
0.0
  0
SPLINE
  5
292
100
AcDbEntity
  8
0
100
AcDbSpline
 62
7
  6
CONTINUOUS
 70
0
 71
3
 72
12
 73
8
 74
0
 42
0.0000001
 43
0.0000001
 44
0.0000000001
 40
0.0
 40
0.0
 40
0.0
 40
0.0
 40
0.1080306004
 40
0.2181711528
 40
0.4510067299
 40
0.7099970255
 40
1.0
 40
1.0
 40
1.0
 40
1.0
 10
14.7893038362
 20
10.5496379181
 30
0.0
 10
14.7894571917
 20
10.5501331466
 30
0.0
 10
14.7898533264
 20
10.5511087435
 30
0.0
 10
14.790994599
 20
10.5529580073
 30
0.0
 10
14.7930968803
 20
10.5550068221
 30
0.0
 10
14.7963987182
 20
10.5568525321
 30
0.0
 10
14.7989296003
 20
10.5576459734
 30
0.0
 10
14.800286413
 20
10.557955628
 30
0.0
  0
SPLINE
  5
293
100
AcDbEntity
  8
0
100
AcDbSpline
 62
7
  6
CONTINUOUS
 70
0
 71
3
 72
9
 73
5
 74
0
 42
0.0000001
 43
0.0000001
 44
0.0000000001
 40
0.0
 40
0.0
 40
0.0
 40
0.0
 40
0.4849451066
 40
1.0
 40
1.0
 40
1.0
 40
1.0
 10
14.800286413
 20
10.557955628
 30
0.0
 10
14.8014105539
 20
10.5582121817
 30
0.0
 10
14.8037649519
 20
10.5585877787
 30
0.0
 10
14.8061443896
 20
10.5587038185
 30
0.0
 10
14.807369026
 20
10.5587038185
 30
0.0
  0
SPLINE
  5
294
100
AcDbEntity
  8
0
100
AcDbSpline
 62
7
  6
CONTINUOUS
 70
0
 71
3
 72
12
 73
8
 74
0
 42
0.0000001
 43
0.0000001
 44
0.0000000001
 40
0.0
 40
0.0
 40
0.0
 40
0.0
 40
0.1080306004
 40
0.2181711528
 40
0.4510067299
 40
0.7099970255
 40
1.0
 40
1.0
 40
1.0
 40
1.0
 10
15.2498343332
 20
10.5496379181
 30
0.0
 10
15.2499876887
 20
10.5501331466
 30
0.0
 10
15.2503838234
 20
10.5511087435
 30
0.0
 10
15.251525096
 20
10.5529580073
 30
0.0
 10
15.2536273773
 20
10.5550068221
 30
0.0
 10
15.2569292152
 20
10.5568525321
 30
0.0
 10
15.2594600973
 20
10.5576459734
 30
0.0
 10
15.26081691
 20
10.557955628
 30
0.0
  0
SPLINE
  5
295
100
AcDbEntity
  8
0
100
AcDbSpline
 62
7
  6
CONTINUOUS
 70
0
 71
3
 72
9
 73
5
 74
0
 42
0.0000001
 43
0.0000001
 44
0.0000000001
 40
0.0
 40
0.0
 40
0.0
 40
0.0
 40
0.4849451066
 40
1.0
 40
1.0
 40
1.0
 40
1.0
 10
15.26081691
 20
10.557955628
 30
0.0
 10
15.2619410509
 20
10.5582121817
 30
0.0
 10
15.2642954489
 20
10.5585877787
 30
0.0
 10
15.2666748866
 20
10.5587038185
 30
0.0
 10
15.267899523
 20
10.5587038185
 30
0.0
  0
SPLINE
  5
296
100
AcDbEntity
  8
0
100
AcDbSpline
 62
7
  6
CONTINUOUS
 70
0
 71
3
 72
12
 73
8
 74
0
 42
0.0000001
 43
0.0000001
 44
0.0000000001
 40
0.0
 40
0.0
 40
0.0
 40
0.0
 40
0.1080306004
 40
0.2181711528
 40
0.4510067299
 40
0.7099970255
 40
1.0
 40
1.0
 40
1.0
 40
1.0
 10
15.7103648302
 20
10.5496379181
 30
0.0
 10
15.7105181857
 20
10.5501331466
 30
0.0
 10
15.7109143204
 20
10.5511087435
 30
0.0
 10
15.712055593
 20
10.5529580073
 30
0.0
 10
15.7141578743
 20
10.5550068221
 30
0.0
 10
15.7174597122
 20
10.5568525321
 30
0.0
 10
15.7199905943
 20
10.5576459734
 30
0.0
 10
15.721347407
 20
10.557955628
 30
0.0
  0
SPLINE
  5
297
100
AcDbEntity
  8
0
100
AcDbSpline
 62
7
  6
CONTINUOUS
 70
0
 71
3
 72
9
 73
5
 74
0
 42
0.0000001
 43
0.0000001
 44
0.0000000001
 40
0.0
 40
0.0
 40
0.0
 40
0.0
 40
0.4849451066
 40
1.0
 40
1.0
 40
1.0
 40
1.0
 10
15.721347407
 20
10.557955628
 30
0.0
 10
15.7224715479
 20
10.5582121817
 30
0.0
 10
15.7248259459
 20
10.5585877787
 30
0.0
 10
15.7272053836
 20
10.5587038185
 30
0.0
 10
15.72843002
 20
10.5587038185
 30
0.0
  0
SPLINE
  5
298
100
AcDbEntity
  8
0
100
AcDbSpline
 62
7
  6
CONTINUOUS
 70
0
 71
3
 72
12
 73
8
 74
0
 42
0.0000001
 43
0.0000001
 44
0.0000000001
 40
0.0
 40
0.0
 40
0.0
 40
0.0
 40
0.1080306004
 40
0.2181711528
 40
0.4510067299
 40
0.7099970255
 40
1.0
 40
1.0
 40
1.0
 40
1.0
 10
16.1708953272
 20
10.5496379181
 30
0.0
 10
16.1710486827
 20
10.5501331466
 30
0.0
 10
16.1714448174
 20
10.5511087435
 30
0.0
 10
16.17258609
 20
10.5529580073
 30
0.0
 10
16.1746883713
 20
10.5550068221
 30
0.0
 10
16.1779902092
 20
10.5568525321
 30
0.0
 10
16.1805210913
 20
10.5576459734
 30
0.0
 10
16.181877904
 20
10.557955628
 30
0.0
  0
SPLINE
  5
299
100
AcDbEntity
  8
0
100
AcDbSpline
 62
7
  6
CONTINUOUS
 70
0
 71
3
 72
9
 73
5
 74
0
 42
0.0000001
 43
0.0000001
 44
0.0000000001
 40
0.0
 40
0.0
 40
0.0
 40
0.0
 40
0.4849451066
 40
1.0
 40
1.0
 40
1.0
 40
1.0
 10
16.181877904
 20
10.557955628
 30
0.0
 10
16.1830020449
 20
10.5582121817
 30
0.0
 10
16.1853564429
 20
10.5585877787
 30
0.0
 10
16.1877358806
 20
10.5587038185
 30
0.0
 10
16.188960517
 20
10.5587038185
 30
0.0
  0
SPLINE
  5
29A
100
AcDbEntity
  8
0
100
AcDbSpline
 62
7
  6
CONTINUOUS
 70
0
 71
3
 72
15
 73
11
 74
0
 42
0.0000001
 43
0.0000001
 44
0.0000000001
 40
0.0
 40
0.0
 40
0.0
 40
0.0
 40
0.155621787
 40
0.3031487567
 40
0.4410996843
 40
0.569030164
 40
0.6872665655
 40
0.796982302
 40
0.9002638135
 40
1.0
 40
1.0
 40
1.0
 40
1.0
 10
13.8366869418
 20
10.5027589214
 30
0.0
 10
13.8383630739
 20
10.5027589214
 30
0.0
 10
13.841630545
 20
10.5029046824
 30
0.0
 10
13.8463412152
 20
10.5035837007
 30
0.0
 10
13.8506588387
 20
10.5047156354
 30
0.0
 10
13.8545039777
 20
10.5062785868
 30
0.0
 10
13.8578103149
 20
10.5082513079
 30
0.0
 10
13.8605191145
 20
10.5106069644
 30
0.0
 10
13.8625691088
 20
10.5133120729
 30
0.0
 10
13.8634669889
 20
10.5153316252
 30
0.0
 10
13.8637847409
 20
10.5163577677
 30
0.0
  0
SPLINE
  5
29B
100
AcDbEntity
  8
0
100
AcDbSpline
 62
7
  6
CONTINUOUS
 70
0
 71
3
 72
15
 73
11
 74
0
 42
0.0000001
 43
0.0000001
 44
0.0000000001
 40
0.0
 40
0.0
 40
0.0
 40
0.0
 40
0.114803586
 40
0.2360636908
 40
0.3619939667
 40
0.4908818724
 40
0.6209753852
 40
0.7504718118
 40
0.8775129764
 40
1.0
 40
1.0
 40
1.0
 40
1.0
 10
13.6255119932
 20
10.5187476769
 30
0.0
 10
13.6268481449
 20
10.5175379241
 30
0.0
 10
13.6297452447
 20
10.5152126692
 30
0.0
 10
13.6345186626
 20
10.5121129705
 30
0.0
 10
13.6397562111
 20
10.509369307
 30
0.0
 10
13.6453389601
 20
10.5070366459
 30
0.0
 10
13.6511518906
 20
10.5051666596
 30
0.0
 10
13.6570728106
 20
10.5037952753
 30
0.0
 10
13.6629717643
 20
10.5029588423
 30
0.0
 10
13.6668912844
 20
10.5027589214
 30
0.0
 10
13.6688143598
 20
10.5027589214
 30
0.0
  0
SPLINE
  5
29C
100
AcDbEntity
  8
0
100
AcDbSpline
 62
7
  6
CONTINUOUS
 70
0
 71
3
 72
15
 73
11
 74
0
 42
0.0000001
 43
0.0000001
 44
0.0000000001
 40
0.0
 40
0.0
 40
0.0
 40
0.0
 40
0.155621787
 40
0.3031487567
 40
0.4410996843
 40
0.569030164
 40
0.6872665655
 40
0.796982302
 40
0.9002638135
 40
1.0
 40
1.0
 40
1.0
 40
1.0
 10
16.1393394268
 20
10.5027589214
 30
0.0
 10
16.1410155589
 20
10.5027589214
 30
0.0
 10
16.14428303
 20
10.5029046824
 30
0.0
 10
16.1489937002
 20
10.5035837007
 30
0.0
 10
16.1533113237
 20
10.5047156354
 30
0.0
 10
16.1571564628
 20
10.5062785868
 30
0.0
 10
16.1604627999
 20
10.5082513079
 30
0.0
 10
16.1631715995
 20
10.5106069644
 30
0.0
 10
16.1652215938
 20
10.5133120729
 30
0.0
 10
16.1661194739
 20
10.5153316252
 30
0.0
 10
16.1664372259
 20
10.5163577677
 30
0.0
  0
SPLINE
  5
29D
100
AcDbEntity
  8
0
100
AcDbSpline
 62
7
  6
CONTINUOUS
 70
0
 71
3
 72
15
 73
11
 74
0
 42
0.0000001
 43
0.0000001
 44
0.0000000001
 40
0.0
 40
0.0
 40
0.0
 40
0.0
 40
0.114803586
 40
0.2360636908
 40
0.3619939667
 40
0.4908818724
 40
0.6209753852
 40
0.7504718118
 40
0.8775129764
 40
1.0
 40
1.0
 40
1.0
 40
1.0
 10
15.9281644782
 20
10.5187476769
 30
0.0
 10
15.9295006299
 20
10.5175379241
 30
0.0
 10
15.9323977297
 20
10.5152126692
 30
0.0
 10
15.9371711477
 20
10.5121129705
 30
0.0
 10
15.9424086961
 20
10.509369307
 30
0.0
 10
15.9479914451
 20
10.5070366459
 30
0.0
 10
15.9538043756
 20
10.5051666596
 30
0.0
 10
15.9597252956
 20
10.5037952753
 30
0.0
 10
15.9656242493
 20
10.5029588423
 30
0.0
 10
15.9695437694
 20
10.5027589214
 30
0.0
 10
15.9714668448
 20
10.5027589214
 30
0.0
  0
SPLINE
  5
29E
100
AcDbEntity
  8
0
100
AcDbSpline
 62
7
  6
CONTINUOUS
 70
0
 71
3
 72
15
 73
11
 74
0
 42
0.0000001
 43
0.0000001
 44
0.0000000001
 40
0.0
 40
0.0
 40
0.0
 40
0.0
 40
0.155621787
 40
0.3031487567
 40
0.4410996843
 40
0.569030164
 40
0.6872665655
 40
0.796982302
 40
0.9002638135
 40
1.0
 40
1.0
 40
1.0
 40
1.0
 10
15.6788089298
 20
10.5027589214
 30
0.0
 10
15.6804850619
 20
10.5027589214
 30
0.0
 10
15.683752533
 20
10.5029046824
 30
0.0
 10
15.6884632032
 20
10.5035837007
 30
0.0
 10
15.6927808267
 20
10.5047156354
 30
0.0
 10
15.6966259658
 20
10.5062785868
 30
0.0
 10
15.6999323029
 20
10.5082513079
 30
0.0
 10
15.7026411025
 20
10.5106069644
 30
0.0
 10
15.7046910968
 20
10.5133120729
 30
0.0
 10
15.7055889769
 20
10.5153316252
 30
0.0
 10
15.7059067289
 20
10.5163577677
 30
0.0
  0
SPLINE
  5
29F
100
AcDbEntity
  8
0
100
AcDbSpline
 62
7
  6
CONTINUOUS
 70
0
 71
3
 72
15
 73
11
 74
0
 42
0.0000001
 43
0.0000001
 44
0.0000000001
 40
0.0
 40
0.0
 40
0.0
 40
0.0
 40
0.114803586
 40
0.2360636908
 40
0.3619939667
 40
0.4908818724
 40
0.6209753852
 40
0.7504718118
 40
0.8775129764
 40
1.0
 40
1.0
 40
1.0
 40
1.0
 10
15.4676339812
 20
10.5187476769
 30
0.0
 10
15.4689701329
 20
10.5175379241
 30
0.0
 10
15.4718672327
 20
10.5152126692
 30
0.0
 10
15.4766406507
 20
10.5121129705
 30
0.0
 10
15.4818781991
 20
10.509369307
 30
0.0
 10
15.4874609481
 20
10.5070366459
 30
0.0
 10
15.4932738786
 20
10.5051666596
 30
0.0
 10
15.4991947986
 20
10.5037952753
 30
0.0
 10
15.5050937523
 20
10.5029588423
 30
0.0
 10
15.5090132724
 20
10.5027589214
 30
0.0
 10
15.5109363478
 20
10.5027589214
 30
0.0
  0
SPLINE
  5
2A0
100
AcDbEntity
  8
0
100
AcDbSpline
 62
7
  6
CONTINUOUS
 70
0
 71
3
 72
15
 73
11
 74
0
 42
0.0000001
 43
0.0000001
 44
0.0000000001
 40
0.0
 40
0.0
 40
0.0
 40
0.0
 40
0.155621787
 40
0.3031487567
 40
0.4410996843
 40
0.569030164
 40
0.6872665655
 40
0.796982302
 40
0.9002638135
 40
1.0
 40
1.0
 40
1.0
 40
1.0
 10
15.2182784328
 20
10.5027589214
 30
0.0
 10
15.2199545649
 20
10.5027589214
 30
0.0
 10
15.223222036
 20
10.5029046824
 30
0.0
 10
15.2279327062
 20
10.5035837007
 30
0.0
 10
15.2322503297
 20
10.5047156354
 30
0.0
 10
15.2360954688
 20
10.5062785868
 30
0.0
 10
15.2394018059
 20
10.5082513079
 30
0.0
 10
15.2421106055
 20
10.5106069644
 30
0.0
 10
15.2441605998
 20
10.5133120729
 30
0.0
 10
15.2450584799
 20
10.5153316252
 30
0.0
 10
15.2453762319
 20
10.5163577677
 30
0.0
  0
SPLINE
  5
2A1
100
AcDbEntity
  8
0
100
AcDbSpline
 62
7
  6
CONTINUOUS
 70
0
 71
3
 72
15
 73
11
 74
0
 42
0.0000001
 43
0.0000001
 44
0.0000000001
 40
0.0
 40
0.0
 40
0.0
 40
0.0
 40
0.114803586
 40
0.2360636908
 40
0.3619939667
 40
0.4908818724
 40
0.6209753852
 40
0.7504718118
 40
0.8775129764
 40
1.0
 40
1.0
 40
1.0
 40
1.0
 10
15.0071034842
 20
10.5187476769
 30
0.0
 10
15.0084396359
 20
10.5175379241
 30
0.0
 10
15.0113367357
 20
10.5152126692
 30
0.0
 10
15.0161101537
 20
10.5121129705
 30
0.0
 10
15.0213477021
 20
10.509369307
 30
0.0
 10
15.0269304511
 20
10.5070366459
 30
0.0
 10
15.0327433816
 20
10.5051666596
 30
0.0
 10
15.0386643016
 20
10.5037952753
 30
0.0
 10
15.0445632553
 20
10.5029588423
 30
0.0
 10
15.0484827754
 20
10.5027589214
 30
0.0
 10
15.0504058508
 20
10.5027589214
 30
0.0
  0
SPLINE
  5
2A2
100
AcDbEntity
  8
0
100
AcDbSpline
 62
7
  6
CONTINUOUS
 70
0
 71
3
 72
15
 73
11
 74
0
 42
0.0000001
 43
0.0000001
 44
0.0000000001
 40
0.0
 40
0.0
 40
0.0
 40
0.0
 40
0.155621787
 40
0.3031487567
 40
0.4410996843
 40
0.569030164
 40
0.6872665655
 40
0.796982302
 40
0.9002638135
 40
1.0
 40
1.0
 40
1.0
 40
1.0
 10
14.7577479358
 20
10.5027589214
 30
0.0
 10
14.7594240679
 20
10.5027589214
 30
0.0
 10
14.762691539
 20
10.5029046824
 30
0.0
 10
14.7674022092
 20
10.5035837007
 30
0.0
 10
14.7717198327
 20
10.5047156354
 30
0.0
 10
14.7755649717
 20
10.5062785868
 30
0.0
 10
14.7788713089
 20
10.5082513079
 30
0.0
 10
14.7815801085
 20
10.5106069644
 30
0.0
 10
14.7836301028
 20
10.5133120729
 30
0.0
 10
14.7845279829
 20
10.5153316252
 30
0.0
 10
14.7848457349
 20
10.5163577677
 30
0.0
  0
SPLINE
  5
2A3
100
AcDbEntity
  8
0
100
AcDbSpline
 62
7
  6
CONTINUOUS
 70
0
 71
3
 72
15
 73
11
 74
0
 42
0.0000001
 43
0.0000001
 44
0.0000000001
 40
0.0
 40
0.0
 40
0.0
 40
0.0
 40
0.114803586
 40
0.2360636908
 40
0.3619939667
 40
0.4908818724
 40
0.6209753852
 40
0.7504718118
 40
0.8775129764
 40
1.0
 40
1.0
 40
1.0
 40
1.0
 10
14.5465729872
 20
10.5187476769
 30
0.0
 10
14.5479091389
 20
10.5175379241
 30
0.0
 10
14.5508062387
 20
10.5152126692
 30
0.0
 10
14.5555796567
 20
10.5121129705
 30
0.0
 10
14.5608172051
 20
10.509369307
 30
0.0
 10
14.5663999541
 20
10.5070366459
 30
0.0
 10
14.5722128846
 20
10.5051666596
 30
0.0
 10
14.5781338046
 20
10.5037952753
 30
0.0
 10
14.5840327583
 20
10.5029588423
 30
0.0
 10
14.5879522784
 20
10.5027589214
 30
0.0
 10
14.5898753538
 20
10.5027589214
 30
0.0
  0
SPLINE
  5
2A4
100
AcDbEntity
  8
0
100
AcDbSpline
 62
7
  6
CONTINUOUS
 70
0
 71
3
 72
15
 73
11
 74
0
 42
0.0000001
 43
0.0000001
 44
0.0000000001
 40
0.0
 40
0.0
 40
0.0
 40
0.0
 40
0.155621787
 40
0.3031487567
 40
0.4410996843
 40
0.569030164
 40
0.6872665655
 40
0.796982302
 40
0.9002638135
 40
1.0
 40
1.0
 40
1.0
 40
1.0
 10
14.2972174388
 20
10.5027589214
 30
0.0
 10
14.2988935709
 20
10.5027589214
 30
0.0
 10
14.302161042
 20
10.5029046824
 30
0.0
 10
14.3068717122
 20
10.5035837007
 30
0.0
 10
14.3111893357
 20
10.5047156354
 30
0.0
 10
14.3150344747
 20
10.5062785868
 30
0.0
 10
14.3183408119
 20
10.5082513079
 30
0.0
 10
14.3210496115
 20
10.5106069644
 30
0.0
 10
14.3230996058
 20
10.5133120729
 30
0.0
 10
14.3239974859
 20
10.5153316252
 30
0.0
 10
14.3243152379
 20
10.5163577677
 30
0.0
  0
SPLINE
  5
2A5
100
AcDbEntity
  8
0
100
AcDbSpline
 62
7
  6
CONTINUOUS
 70
0
 71
3
 72
15
 73
11
 74
0
 42
0.0000001
 43
0.0000001
 44
0.0000000001
 40
0.0
 40
0.0
 40
0.0
 40
0.0
 40
0.114803586
 40
0.2360636908
 40
0.3619939667
 40
0.4908818724
 40
0.6209753852
 40
0.7504718118
 40
0.8775129764
 40
1.0
 40
1.0
 40
1.0
 40
1.0
 10
14.0860424902
 20
10.5187476769
 30
0.0
 10
14.0873786419
 20
10.5175379241
 30
0.0
 10
14.0902757417
 20
10.5152126692
 30
0.0
 10
14.0950491596
 20
10.5121129705
 30
0.0
 10
14.1002867081
 20
10.509369307
 30
0.0
 10
14.1058694571
 20
10.5070366459
 30
0.0
 10
14.1116823876
 20
10.5051666596
 30
0.0
 10
14.1176033076
 20
10.5037952753
 30
0.0
 10
14.1235022613
 20
10.5029588423
 30
0.0
 10
14.1274217814
 20
10.5027589214
 30
0.0
 10
14.1293448568
 20
10.5027589214
 30
0.0
  0
SPLINE
  5
2A6
100
AcDbEntity
  8
0
100
AcDbSpline
 62
7
  6
CONTINUOUS
 70
0
 71
3
 72
13
 73
9
 74
0
 42
0.0000001
 43
0.0000001
 44
0.0000000001
 40
0.0
 40
0.0
 40
0.0
 40
0.0
 40
0.1225470904
 40
0.2496517549
 40
0.5091305348
 40
0.7638160093
 40
0.8851382653
 40
1.0
 40
1.0
 40
1.0
 40
1.0
 10
13.5642857336
 20
10.5587038185
 30
0.0
 10
13.5655678009
 20
10.5587038185
 30
0.0
 10
13.5681810093
 20
10.5585706163
 30
0.0
 10
13.5734601326
 20
10.5578213319
 30
0.0
 10
13.5799571679
 20
10.5560204551
 30
0.0
 10
13.5860186533
 20
10.553201236
 30
0.0
 10
13.5903316725
 20
10.5504015345
 30
0.0
 10
13.592263184
 20
10.5488511737
 30
0.0
 10
13.593153978
 20
10.5480446482
 30
0.0
  0
SPLINE
  5
2A7
100
AcDbEntity
  8
0
100
AcDbSpline
 62
7
  6
CONTINUOUS
 70
0
 71
3
 72
13
 73
9
 74
0
 42
0.0000001
 43
0.0000001
 44
0.0000000001
 40
0.0
 40
0.0
 40
0.0
 40
0.0
 40
0.1225470904
 40
0.2496517549
 40
0.5091305348
 40
0.7638160093
 40
0.8851382653
 40
1.0
 40
1.0
 40
1.0
 40
1.0
 10
14.0248162306
 20
10.5587038185
 30
0.0
 10
14.0260982979
 20
10.5587038185
 30
0.0
 10
14.0287115063
 20
10.5585706163
 30
0.0
 10
14.0339906296
 20
10.5578213319
 30
0.0
 10
14.0404876649
 20
10.5560204551
 30
0.0
 10
14.0465491503
 20
10.553201236
 30
0.0
 10
14.0508621695
 20
10.5504015345
 30
0.0
 10
14.052793681
 20
10.5488511737
 30
0.0
 10
14.053684475
 20
10.5480446482
 30
0.0
  0
SPLINE
  5
2A8
100
AcDbEntity
  8
0
100
AcDbSpline
 62
7
  6
CONTINUOUS
 70
0
 71
3
 72
13
 73
9
 74
0
 42
0.0000001
 43
0.0000001
 44
0.0000000001
 40
0.0
 40
0.0
 40
0.0
 40
0.0
 40
0.1225470904
 40
0.2496517549
 40
0.5091305348
 40
0.7638160093
 40
0.8851382653
 40
1.0
 40
1.0
 40
1.0
 40
1.0
 10
14.4853467276
 20
10.5587038185
 30
0.0
 10
14.4866287949
 20
10.5587038185
 30
0.0
 10
14.4892420033
 20
10.5585706163
 30
0.0
 10
14.4945211266
 20
10.5578213319
 30
0.0
 10
14.5010181619
 20
10.5560204551
 30
0.0
 10
14.5070796473
 20
10.553201236
 30
0.0
 10
14.5113926665
 20
10.5504015345
 30
0.0
 10
14.513324178
 20
10.5488511737
 30
0.0
 10
14.514214972
 20
10.5480446482
 30
0.0
  0
SPLINE
  5
2A9
100
AcDbEntity
  8
0
100
AcDbSpline
 62
7
  6
CONTINUOUS
 70
0
 71
3
 72
13
 73
9
 74
0
 42
0.0000001
 43
0.0000001
 44
0.0000000001
 40
0.0
 40
0.0
 40
0.0
 40
0.0
 40
0.1225470904
 40
0.2496517549
 40
0.5091305348
 40
0.7638160093
 40
0.8851382653
 40
1.0
 40
1.0
 40
1.0
 40
1.0
 10
14.9458772246
 20
10.5587038185
 30
0.0
 10
14.9471592919
 20
10.5587038185
 30
0.0
 10
14.9497725003
 20
10.5585706163
 30
0.0
 10
14.9550516236
 20
10.5578213319
 30
0.0
 10
14.9615486589
 20
10.5560204551
 30
0.0
 10
14.9676101443
 20
10.553201236
 30
0.0
 10
14.9719231635
 20
10.5504015345
 30
0.0
 10
14.973854675
 20
10.5488511737
 30
0.0
 10
14.974745469
 20
10.5480446482
 30
0.0
  0
SPLINE
  5
2AA
100
AcDbEntity
  8
0
100
AcDbSpline
 62
7
  6
CONTINUOUS
 70
0
 71
3
 72
13
 73
9
 74
0
 42
0.0000001
 43
0.0000001
 44
0.0000000001
 40
0.0
 40
0.0
 40
0.0
 40
0.0
 40
0.1225470904
 40
0.2496517549
 40
0.5091305348
 40
0.7638160093
 40
0.8851382653
 40
1.0
 40
1.0
 40
1.0
 40
1.0
 10
15.4064077216
 20
10.5587038185
 30
0.0
 10
15.4076897889
 20
10.5587038185
 30
0.0
 10
15.4103029973
 20
10.5585706163
 30
0.0
 10
15.4155821206
 20
10.5578213319
 30
0.0
 10
15.4220791559
 20
10.5560204551
 30
0.0
 10
15.4281406413
 20
10.553201236
 30
0.0
 10
15.4324536605
 20
10.5504015345
 30
0.0
 10
15.434385172
 20
10.5488511737
 30
0.0
 10
15.435275966
 20
10.5480446482
 30
0.0
  0
SPLINE
  5
2AB
100
AcDbEntity
  8
0
100
AcDbSpline
 62
7
  6
CONTINUOUS
 70
0
 71
3
 72
13
 73
9
 74
0
 42
0.0000001
 43
0.0000001
 44
0.0000000001
 40
0.0
 40
0.0
 40
0.0
 40
0.0
 40
0.1225470904
 40
0.2496517549
 40
0.5091305348
 40
0.7638160093
 40
0.8851382653
 40
1.0
 40
1.0
 40
1.0
 40
1.0
 10
15.8669382186
 20
10.5587038185
 30
0.0
 10
15.8682202859
 20
10.5587038185
 30
0.0
 10
15.8708334943
 20
10.5585706163
 30
0.0
 10
15.8761126176
 20
10.5578213319
 30
0.0
 10
15.8826096529
 20
10.5560204551
 30
0.0
 10
15.8886711383
 20
10.553201236
 30
0.0
 10
15.8929841576
 20
10.5504015345
 30
0.0
 10
15.894915669
 20
10.5488511737
 30
0.0
 10
15.895806463
 20
10.5480446482
 30
0.0
  0
ENDSEC
  0
SECTION
  2
OBJECTS
  0
DICTIONARY
  5
C
100
AcDbDictionary
280
0
281
1
  3
ACAD_GROUP
350
D
  3
ACAD_MLINESTYLE
350
17
  3
ACAD_LAYOUT
350
1A
  3
ACAD_PLOTSETTINGS
350
19
  3
ACAD_PLOTSTYLENAME
350
E
  0
DICTIONARY
  5
D
102
{ACAD_REACTORS
330
C
102
}
100
AcDbDictionary
280
0
281
1
  0
ACDBDICTIONARYWDFLT
  5
E
102
{ACAD_REACTORS
330
C
102
}
100
AcDbDictionary
281
1
  3
Normal
350
F
100
AcDbDictionaryWithDefault
340
F
  0
DICTIONARY
  5
17
102
{ACAD_REACTORS
330
C
102
}
100
AcDbDictionary
280
0
281
1
  3
Standard
350
18
  0
DICTIONARY
  5
19
102
{ACAD_REACTORS
330
C
102
}
100
AcDbDictionary
281
1
  0
DICTIONARY
  5
1A
102
{ACAD_REACTORS
330
C
102
}
100
AcDbDictionary
281
1
  3
Model
350
2AC
  3
Layout1
350
2AD
  0
ACDBPLACEHOLDER
  5
F
102
{ACAD_REACTORS
330
E
102
}
  0
MLINESTYLE
  5
18
102
{ACAD_REACTORS
330
17
102
}
100
AcDbMlineStyle
  2
STANDARD
 70
0
  3

 62
256
 51
90.0
 52
90.0
 71
2
 49
0.5
 62
256
  6
BYLAYER
 49
-0.5
 62
256
  6
BYLAYER
  0
LAYOUT
  5
2AC
102
{ACAD_REACTORS
330
1A
102
}
100
AcDbPlotSettings
  1

  2
none_device
  4
ANSI_C_(22.00_x_17.00_Inches)
  6

 40
0.0
 41
0.0
 42
0.0
 43
0.0
 44
558.8
 45
431.8
 46
0.0
 47
0.0
 48
0.0
 49
0.0
140
0.0
141
0.0
142
1.0
143
1.0
 70
1024
 72
0
 73
0
 74
0
  7

 75
0
147
1.0
148
0.0
149
0.0
100
AcDbLayout
  1
Model
 70
0
 71
0
 10
0.0
 20
0.0
 11
22.0
 21
17.0
 12
0.0
 22
0.0
 32
0.0
 14
0.0
 24
0.0
 34
0.0
 15
0.0
 25
0.0
 35
0.0
146
0.0
 13
0.0
 23
0.0
 33
0.0
 16
1.0
 26
0.0
 36
0.0
 17
0.0
 27
1.0
 37
0.0
 76
0
330
216
345
0
346
0
  0
LAYOUT
  5
2AD
102
{ACAD_REACTORS
330
1A
102
}
100
AcDbPlotSettings
  1

  2
none_device
  4
ANSI_C_(22.00_x_17.00_Inches)
  6

 40
0.0
 41
0.0
 42
0.0
 43
0.0
 44
558.8
 45
431.8
 46
0.0
 47
0.0
 48
0.0
 49
0.0
140
0.0
141
0.0
142
1.0
143
1.0
 70
0
 72
0
 73
0
 74
0
  7

 75
0
147
1.0
148
0.0
149
0.0
100
AcDbLayout
  1
Layout1
 70
0
 71
1
 10
0.0
 20
0.0
 11
22.0
 21
17.0
 12
0.0
 22
0.0
 32
0.0
 14
0.0
 24
0.0
 34
0.0
 15
0.0
 25
0.0
 35
0.0
146
0.0
 13
0.0
 23
0.0
 33
0.0
 16
1.0
 26
0.0
 36
0.0
 17
0.0
 27
1.0
 37
0.0
 76
0
330
217
345
0
346
0
  0
ENDSEC
  0
EOF