999
DXF file: _cgs_temp_output.dxf
999
Pro/ENGINEER 2016360 by Parametric Technology Corporation
  0
SECTION
  2
HEADER
  9
$ACADVER
  1
AC1021
  9
$DWGCODEPAGE
  3
ANSI_1252
  9
$EXTMAX
 10
22.0
 20
17.0
 30
0.0
  9
$EXTMIN
 10
0.0
 20
0.0
 30
0.0
  9
$LIMMIN
 10
0.0
 20
0.0
  9
$LIMMAX
 10
22.0
 20
17.0
  9
$VIEWCTR
 10
11.0
 20
8.5
  9
$VIEWSIZE
 40
17.0
  9
$CLAYER
  8
0
  9
$LTSCALE
 40
1.21
  9
$CELTYPE
  6
BYLAYER
  9
$DIMSCALE
 40
1.0
  9
$DIMASZ
 40
0.1875
  9
$DIMEXO
 40
0.0625
  9
$DIMDLI
 40
0.836
  9
$DIMEXE
 40
0.125
  9
$DIMCEN
 40
0.198
  9
$DIMLFAC
 40
1.0
  9
$DIMBLK
  1
_CLOSED
  9
$DIMALT
 70
0
  9
$DIMALTF
 40
25.4
  9
$DIMTXT
 40
0.15625
  9
$DIMTOL
 70
0
  9
$DIMLIM
 70
0
  9
$DIMTFAC
 40
1.0
  9
$DIMGAP
 40
0.09
  9
$DIMDSEP
 70
46
  9
$AUNITS
 70
0
  9
$PDMODE
 70
3
  9
$PDSIZE
 40
0.3125
  9
$HANDSEED
  5
2AE
  9
$TILEMODE
 70
1
  9
$MEASUREMENT
 70
0
  9
$INSUNITS
 70
1
  0
ENDSEC
  0
SECTION
  2
CLASSES
  0
CLASS
  1
ACDBDICTIONARYWDFLT
  2
AcDbDictionaryWithDefault
  3
AutoCAD 2000
 90
0
 91
1
280
0
281
0
  0
CLASS
  1
ACDBPLACEHOLDER
  2
AcDbPlaceHolder
  3
AutoCAD 2000
 90
0
 91
1
280
0
281
0
  0
CLASS
  1
LAYOUT
  2
AcDbLayout
  3
AutoCAD 2000
 90
0
 91
0
280
0
281
0
  0
ENDSEC
  0
SECTION
  2
TABLES
  0
TABLE
  2
VPORT
  5
8
100
AcDbSymbolTable
 70
2
  0
VPORT
  5
1F4
100
AcDbSymbolTableRecord
100
AcDbViewportTableRecord
  2
*ACTIVE
 70
0
 10
0.0
 20
0.0
 11
1.0
 21
1.0
 12
11.0
 22
8.5
 13
0.0
 23
0.0
 14
1.0
 24
1.0
 15
0.0
 25
0.0
 16
0.0
 26
0.0
 36
1.0
 17
0.0
 27
0.0
 37
0.0
 40
17.0
 41
1.2941176471
 42
50.0
 43
0.0
 44
0.0
 50
0.0
 51
0.0
 71
0
 72
100
 73
1
 74
1
 75
0
 76
0
 77
0
 78
0
  0
ENDTAB
  0
TABLE
  2
LTYPE
  5
5
100
AcDbSymbolTable
 70
6
  0
LTYPE
  5
14
100
AcDbSymbolTableRecord
100
AcDbLinetypeTableRecord
  2
BYBLOCK
 70
0
  3

 72
65
 73
0
 40
0.0
  0
LTYPE
  5
15
100
AcDbSymbolTableRecord
100
AcDbLinetypeTableRecord
  2
BYLAYER
 70
0
  3

 72
65
 73
0
 40
0.0
  0
LTYPE
  5
16
100
AcDbSymbolTableRecord
100
AcDbLinetypeTableRecord
  2
CONTINUOUS
 70
64
  3
Solid line
 72
65
 73
0
 40
0.0
  0
LTYPE
  5
1F5
100
AcDbSymbolTableRecord
100
AcDbLinetypeTableRecord
  2
CENTER
 70
64
  3
____ _ ____ _ ____ _ ____ _ ____ _ ____ _ ____
 72
65
 73
4
 40
0.6
 49
0.375
 74
0
 49
-0.075
 74
0
 49
0.075
 74
0
 49
-0.075
 74
0
  0
LTYPE
  5
1F6
100
AcDbSymbolTableRecord
100
AcDbLinetypeTableRecord
  2
HIDDEN
 70
64
  3
- - - - - - - - - - - - - - - - - - - -
 72
65
 73
2
 40
0.2
 49
0.1
 74
0
 49
-0.1
 74
0
  0
LTYPE
  5
1F7
100
AcDbSymbolTableRecord
100
AcDbLinetypeTableRecord
  2
PHANTOM
 70
64
  3
_____ _ _ _____ _ _ _____ _ _ _____
 72
65
 73
6
 40
0.8
 49
0.45
 74
0
 49
-0.05
 74
0
 49
0.1
 74
0
 49
-0.05
 74
0
 49
0.1
 74
0
 49
-0.05
 74
0
  0
LTYPE
  5
1F8
100
AcDbSymbolTableRecord
100
AcDbLinetypeTableRecord
  2
DOT
 70
64
  3
. . . . . . . . . . . . . . . . . . . .
 72
65
 73
2
 40
0.2
 49
0.1
 74
0
 49
-0.1
 74
0
  0
LTYPE
  5
1F9
100
AcDbSymbolTableRecord
100
AcDbLinetypeTableRecord
  2
DASHED
 70
64
  3
- - - - - - - - - - - - - - - - - - - -
 72
65
 73
2
 40
0.2
 49
0.1
 74
0
 49
-0.1
 74
0
  0
ENDTAB
  0
TABLE
  2
LAYER
  5
2
100
AcDbSymbolTable
 70
36
  0
LAYER
  5
10
100
AcDbSymbolTableRecord
100
AcDbLayerTableRecord
  2
0
 70
0
 62
7
  6
CONTINUOUS
370
-3
390
F
  0
LAYER
  5
1FA
100
AcDbSymbolTableRecord
100
AcDbLayerTableRecord
  2
DEFAULT_1
 70
0
 62
7
  6
CENTER
370
-3
390
F
  0
LAYER
  5
1FB
100
AcDbSymbolTableRecord
100
AcDbLayerTableRecord
  2
DEFAULT_2
 70
0
 62
8
  6
HIDDEN
370
-3
390
F
  0
LAYER
  5
1FC
100
AcDbSymbolTableRecord
100
AcDbLayerTableRecord
  2
DEFAULT_3
 70
0
 62
7
  6
PHANTOM
370
-3
390
F
  0
LAYER
  5
1FD
100
AcDbSymbolTableRecord
100
AcDbLayerTableRecord
  2
01_ALL_DTM_PLN
 70
0
 62
7
  6
CONTINUOUS
370
-3
390
F
  0
LAYER
  5
1FE
100
AcDbSymbolTableRecord
100
AcDbLayerTableRecord
  2
01__ASM_ALL_DTM_PLN
 70
0
 62
7
  6
CONTINUOUS
370
-3
390
F
  0
LAYER
  5
1FF
100
AcDbSymbolTableRecord
100
AcDbLayerTableRecord
  2
01__ASM_DEF_DTM_PLN
 70
0
 62
7
  6
CONTINUOUS
370
-3
390
F
  0
LAYER
  5
200
100
AcDbSymbolTableRecord
100
AcDbLayerTableRecord
  2
01___PRT_ALL_DTM_PLN
 70
0
 62
7
  6
CONTINUOUS
370
-3
390
F
  0
LAYER
  5
201
100
AcDbSymbolTableRecord
100
AcDbLayerTableRecord
  2
01___PRT_DEF_DTM_PLN
 70
0
 62
7
  6
CONTINUOUS
370
-3
390
F
  0
LAYER
  5
202
100
AcDbSymbolTableRecord
100
AcDbLayerTableRecord
  2
02_ALL_AXES
 70
0
 62
7
  6
CONTINUOUS
370
-3
390
F
  0
LAYER
  5
203
100
AcDbSymbolTableRecord
100
AcDbLayerTableRecord
  2
02__ASM_ALL_AXES
 70
0
 62
7
  6
CONTINUOUS
370
-3
390
F
  0
LAYER
  5
204
100
AcDbSymbolTableRecord
100
AcDbLayerTableRecord
  2
02___PRT_ALL_AXES
 70
0
 62
7
  6
CONTINUOUS
370
-3
390
F
  0
LAYER
  5
205
100
AcDbSymbolTableRecord
100
AcDbLayerTableRecord
  2
03_ALL_CURVES
 70
0
 62
7
  6
CONTINUOUS
370
-3
390
F
  0
LAYER
  5
206
100
AcDbSymbolTableRecord
100
AcDbLayerTableRecord
  2
03__ASM_ALL_CURVES
 70
0
 62
7
  6
CONTINUOUS
370
-3
390
F
  0
LAYER
  5
207
100
AcDbSymbolTableRecord
100
AcDbLayerTableRecord
  2
03___PRT_ALL_CURVES
 70
0
 62
7
  6
CONTINUOUS
370
-3
390
F
  0
LAYER
  5
208
100
AcDbSymbolTableRecord
100
AcDbLayerTableRecord
  2
04_ALL_DTM_PNT
 70
0
 62
7
  6
CONTINUOUS
370
-3
390
F
  0
LAYER
  5
209
100
AcDbSymbolTableRecord
100
AcDbLayerTableRecord
  2
04__ASM_ALL_DTM_PNT
 70
0
 62
7
  6
CONTINUOUS
370
-3
390
F
  0
LAYER
  5
20A
100
AcDbSymbolTableRecord
100
AcDbLayerTableRecord
  2
04___PRT_ALL_DTM_PNT
 70
0
 62
7
  6
CONTINUOUS
370
-3
390
F
  0
LAYER
  5
20B
100
AcDbSymbolTableRecord
100
AcDbLayerTableRecord
  2
05_ALL_DTM_CSYS
 70
0
 62
7
  6
CONTINUOUS
370
-3
390
F
  0
LAYER
  5
20C
100
AcDbSymbolTableRecord
100
AcDbLayerTableRecord
  2
05__ASM_ALL_DTM_CSYS
 70
0
 62
7
  6
CONTINUOUS
370
-3
390
F
  0
LAYER
  5
20D
100
AcDbSymbolTableRecord
100
AcDbLayerTableRecord
  2
05__ASM_DEF_DTM_CSYS
 70
0
 62
7
  6
CONTINUOUS
370
-3
390
F
  0
LAYER
  5
20E
100
AcDbSymbolTableRecord
100
AcDbLayerTableRecord
  2
05___PRT_ALL_DTM_CSYS
 70
0
 62
7
  6
CONTINUOUS
370
-3
390
F
  0
LAYER
  5
20F
100
AcDbSymbolTableRecord
100
AcDbLayerTableRecord
  2
05___PRT_DEF_DTM_CSYS
 70
0
 62
7
  6
CONTINUOUS
370
-3
390
F
  0
LAYER
  5
210
100
AcDbSymbolTableRecord
100
AcDbLayerTableRecord
  2
06_ALL_SURFS
 70
0
 62
7
  6
CONTINUOUS
370
-3
390
F
  0
LAYER
  5
211
100
AcDbSymbolTableRecord
100
AcDbLayerTableRecord
  2
06__ASM_ALL_SURFS
 70
0
 62
7
  6
CONTINUOUS
370
-3
390
F
  0
LAYER
  5
212
100
AcDbSymbolTableRecord
100
AcDbLayerTableRecord
  2
06___PRT_ALL_SURFS
 70
0
 62
7
  6
CONTINUOUS
370
-3
390
F
  0
LAYER
  5
213
100
AcDbSymbolTableRecord
100
AcDbLayerTableRecord
  2
07__ASM_ALL_SKELETONS
 70
0
 62
7
  6
CONTINUOUS
370
-3
390
F
  0
ENDTAB
  0
TABLE
  2
STYLE
  5
3
100
AcDbSymbolTable
 70
1
  0
STYLE
  5
11
100
AcDbSymbolTableRecord
100
AcDbTextStyleTableRecord
  2
STANDARD
 70
0
 40
0.0
 41
0.8
 50
0.0
 71
0
 42
0.2
  3
txt
  4

  0
STYLE
  5
214
100
AcDbSymbolTableRecord
100
AcDbTextStyleTableRecord
  2
TEXTSTYLE_1
 70
0
 40
0.0
 41
0.8
 50
0.0
 71
0
 42
0.2
  3
gdt
  4

  0
ENDTAB
  0
TABLE
  2
VIEW
  5
6
100
AcDbSymbolTable
 70
0
  0
ENDTAB
  0
TABLE
  2
UCS
  5
7
100
AcDbSymbolTable
 70
0
  0
ENDTAB
  0
TABLE
  2
APPID
  5
9
100
AcDbSymbolTable
 70
1
  0
APPID
  5
215
100
AcDbSymbolTableRecord
100
AcDbRegAppTableRecord
  2
ACAD
 70
0
  0
ENDTAB
  0
TABLE
  2
BLOCK_RECORD
  5
1
100
AcDbSymbolTable
 70
0
  0
BLOCK_RECORD
  5
216
100
AcDbSymbolTableRecord
100
AcDbBlockTableRecord
  2
*Model_Space
  0
BLOCK_RECORD
  5
217
100
AcDbSymbolTableRecord
100
AcDbBlockTableRecord
  2
*Paper_Space
  0
ENDTAB
  0
TABLE
  2
DIMSTYLE
  5
A
100
AcDbSymbolTable
 70
1
100
AcDbDimStyleTable
 71
0
  0
DIMSTYLE
105
218
100
AcDbSymbolTableRecord
100
AcDbDimStyleTableRecord
  2
STANDARD
 70
0
  3

  4

 40
1.0
 41
0.1875
 42
0.0625
 43
0.38
 44
0.125
 45
0.0
 46
0.0
 47
0.0001
 48
0.0001
140
0.15625
141
0.09
142
0.0
143
25.4
144
1.0
145
0.0
146
1.0
147
0.09
 71
0.0
 72
0.0
 73
1
 74
1
 75
0
 76
0
 77
0
 78
4
 79
1
170
0
171
3
172
0
173
0
174
0
175
0
176
0
177
0
178
0
270
2
179
4
271
4
272
4
273
2
274
2
275
0
280
0
281
0
282
0
283
1
284
4
285
0
286
0
287
3
288
0
340
11
278
46
  0
ENDTAB
  0
ENDSEC
  0
SECTION
  2
BLOCKS
  0
BLOCK
  5
20
100
AcDbEntity
  8
0
100
AcDbBlockBegin
  2
*Model_Space
 70
0
 10
0.0
 20
0.0
 30
0.0
  3
*Model_Space
  1

  0
ENDBLK
  5
21
100
AcDbEntity
  8
0
100
AcDbBlockEnd
  0
BLOCK
  5
1C
100
AcDbEntity
  8
0
100
AcDbBlockBegin
  2
*Paper_Space
 70
0
 10
0.0
 20
0.0
 30
0.0
  3
*Paper_Space
  1

  0
ENDBLK
  5
1D
100
AcDbEntity
  8
0
100
AcDbBlockEnd
  0
ENDSEC
  0
SECTION
  2
ENTITIES
  0
MTEXT
  5
219
100
AcDbEntity
  8
0
100
AcDbMText
 62
7
  6
CONTINUOUS
  7
STANDARD
 71
1
 72
1
 10
15.9560215477
 20
0.9479130325
 30
0.0
 11
1.0
 21
0.0
 31
0.0
 44
0.9
  1
SCALE: 1:1.000
 40
0.3
 41
3.36
  0
LINE
  5
21A
100
AcDbEntity
  8
0
100
AcDbLine
 62
7
  6
CONTINUOUS
 10
0.0
 20
0.0
 11
0.0
 21
17.0
  0
LINE
  5
21B
100
AcDbEntity
  8
0
100
AcDbLine
 62
7
  6
CONTINUOUS
 10
0.0
 20
0.0
 11
22.0
 21
0.0
  0
LINE
  5
21C
100
AcDbEntity
  8
0
100
AcDbLine
 62
7
  6
CONTINUOUS
 10
0.0
 20
17.0
 11
22.0
 21
17.0
  0
LINE
  5
21D
100
AcDbEntity
  8
0
100
AcDbLine
 62
7
  6
CONTINUOUS
 10
22.0
 20
0.0
 11
22.0
 21
17.0
  0
LINE
  5
21E
100
AcDbEntity
  8
0
100
AcDbLine
 62
7
  6
CONTINUOUS
 10
4.6303672762
 20
5.6001198968
 11
4.6303672762
 21
5.5301198968
  0
LINE
  5
21F
100
AcDbEntity
  8
0
100
AcDbLine
 62
7
  6
CONTINUOUS
 10
4.7312200788
 20
5.5129722143
 11
4.7507422928
 21
5.4658414204
  0
LINE
  5
220
100
AcDbEntity
  8
0
100
AcDbLine
 62
7
  6
CONTINUOUS
 10
5.0099922595
 20
5.4658414204
 11
5.0295144735
 21
5.5129722143
  0
LINE
  5
221
100
AcDbEntity
  8
0
100
AcDbLine
 62
7
  6
CONTINUOUS
 10
5.2312200788
 20
5.5129722143
 11
5.2507422928
 21
5.4658414204
  0
LINE
  5
222
100
AcDbEntity
  8
0
100
AcDbLine
 62
7
  6
CONTINUOUS
 10
5.5099922595
 20
5.4658414204
 11
5.5295144735
 21
5.5129722143
  0
LINE
  5
223
100
AcDbEntity
  8
0
100
AcDbLine
 62
7
  6
CONTINUOUS
 10
5.7312200788
 20
5.5129722143
 11
5.7507422928
 21
5.4658414204
  0
LINE
  5
224
100
AcDbEntity
  8
0
100
AcDbLine
 62
7
  6
CONTINUOUS
 10
6.0099922595
 20
5.4658414204
 11
6.0295144735
 21
5.5129722143
  0
LINE
  5
225
100
AcDbEntity
  8
0
100
AcDbLine
 62
7
  6
CONTINUOUS
 10
4.7892372734
 20
5.4401198968
 11
4.971497279
 21
5.4401198968
  0
LINE
  5
226
100
AcDbEntity
  8
0
100
AcDbLine
 62
7
  6
CONTINUOUS
 10
5.2892372734
 20
5.4401198968
 11
5.471497279
 21
5.4401198968
  0
LINE
  5
227
100
AcDbEntity
  8
0
100
AcDbLine
 62
7
  6
CONTINUOUS
 10
5.7892372734
 20
5.4401198968
 11
5.971497279
 21
5.4401198968
  0
LINE
  5
228
100
AcDbEntity
  8
0
100
AcDbLine
 62
7
  6
CONTINUOUS
 10
6.2892372734
 20
5.4401198968
 11
6.471497279
 21
5.4401198968
  0
LINE
  5
229
100
AcDbEntity
  8
0
100
AcDbLine
 62
7
  6
CONTINUOUS
 10
6.7892372734
 20
5.4401198968
 11
6.971497279
 21
5.4401198968
  0
LINE
  5
22A
100
AcDbEntity
  8
0
100
AcDbLine
 62
7
  6
CONTINUOUS
 10
7.2892372734
 20
5.4401198968
 11
7.471497279
 21
5.4401198968
  0
LINE
  5
22B
100
AcDbEntity
  8
0
100
AcDbLine
 62
7
  6
CONTINUOUS
 10
4.6303672762
 20
5.5301198968
 11
4.7055567584
 21
5.5301198968
  0
LINE
  5
22C
100
AcDbEntity
  8
0
100
AcDbLine
 62
7
  6
CONTINUOUS
 10
5.0551777939
 20
5.5301198968
 11
5.2055567584
 21
5.5301198968
  0
LINE
  5
22D
100
AcDbEntity
  8
0
100
AcDbLine
 62
7
  6
CONTINUOUS
 10
5.5551777939
 20
5.5301198968
 11
5.7055567584
 21
5.5301198968
  0
LINE
  5
22E
100
AcDbEntity
  8
0
100
AcDbLine
 62
7
  6
CONTINUOUS
 10
6.0551777939
 20
5.5301198968
 11
6.2055567584
 21
5.5301198968
  0
LINE
  5
22F
100
AcDbEntity
  8
0
100
AcDbLine
 62
7
  6
CONTINUOUS
 10
6.5551777939
 20
5.5301198968
 11
6.7055567584
 21
5.5301198968
  0
LINE
  5
230
100
AcDbEntity
  8
0
100
AcDbLine
 62
7
  6
CONTINUOUS
 10
7.0551777939
 20
5.5301198968
 11
7.2055567584
 21
5.5301198968
  0
LINE
  5
231
100
AcDbEntity
  8
0
100
AcDbLine
 62
7
  6
CONTINUOUS
 10
7.5551777939
 20
5.5301198968
 11
7.6303672762
 21
5.5301198968
  0
LINE
  5
232
100
AcDbEntity
  8
0
100
AcDbLine
 62
7
  6
CONTINUOUS
 10
7.6303672762
 20
5.6001198968
 11
4.6303672762
 21
5.6001198968
  0
LINE
  5
233
100
AcDbEntity
  8
0
100
AcDbLine
 62
7
  6
CONTINUOUS
 10
6.2312200788
 20
5.5129722143
 11
6.2507422928
 21
5.4658414204
  0
LINE
  5
234
100
AcDbEntity
  8
0
100
AcDbLine
 62
7
  6
CONTINUOUS
 10
6.5099922595
 20
5.4658414204
 11
6.5295144735
 21
5.5129722143
  0
LINE
  5
235
100
AcDbEntity
  8
0
100
AcDbLine
 62
7
  6
CONTINUOUS
 10
6.7312200788
 20
5.5129722143
 11
6.7507422928
 21
5.4658414204
  0
LINE
  5
236
100
AcDbEntity
  8
0
100
AcDbLine
 62
7
  6
CONTINUOUS
 10
7.0099922595
 20
5.4658414204
 11
7.0295144735
 21
5.5129722143
  0
LINE
  5
237
100
AcDbEntity
  8
0
100
AcDbLine
 62
7
  6
CONTINUOUS
 10
7.2312200788
 20
5.5129722143
 11
7.2507422928
 21
5.4658414204
  0
LINE
  5
238
100
AcDbEntity
  8
0
100
AcDbLine
 62
7
  6
CONTINUOUS
 10
7.5099922595
 20
5.4658414204
 11
7.5295144735
 21
5.5129722143
  0
LINE
  5
239
100
AcDbEntity
  8
0
100
AcDbLine
 62
7
  6
CONTINUOUS
 10
7.6303672762
 20
5.5301198968
 11
7.6303672762
 21
5.6001198968
  0
LINE
  5
23A
100
AcDbEntity
  8
0
100
AcDbLine
 62
7
  6
CONTINUOUS
 10
7.5708720839
 20
10.6000477814
 11
4.5708720839
 21
10.6000477814
  0
LINE
  5
23B
100
AcDbEntity
  8
0
100
AcDbLine
 62
7
  6
CONTINUOUS
 10
4.5708720839
 20
14.6000477814
 11
4.5708720839
 21
10.6000477814
  0
LINE
  5
23C
100
AcDbEntity
  8
0
100
AcDbLine
 62
7
  6
CONTINUOUS
 10
7.5708720839
 20
14.6000477814
 11
7.5708720839
 21
10.6000477814
  0
LINE
  5
23D
100
AcDbEntity
  8
0
100
AcDbLine
 62
7
  6
CONTINUOUS
 10
4.5708720839
 20
14.6000477814
 11
7.5708720839
 21
14.6000477814
  0
LINE
  5
23E
100
AcDbEntity
  8
0
100
AcDbLine
 62
7
  6
CONTINUOUS
 10
13.5603552569
 20
5.3806247044
 11
13.5603552569
 21
5.5406247044
  0
LINE
  5
23F
100
AcDbEntity
  8
0
100
AcDbLine
 62
7
  6
CONTINUOUS
 10
13.5603552569
 20
5.3806247044
 11
17.5603552569
 21
5.3806247044
  0
LINE
  5
240
100
AcDbEntity
  8
0
100
AcDbLine
 62
7
  6
CONTINUOUS
 10
17.5603552569
 20
5.4706247044
 11
13.5603552569
 21
5.4706247044
  0
LINE
  5
241
100
AcDbEntity
  8
0
100
AcDbLine
 62
7
  6
CONTINUOUS
 10
17.5603552569
 20
5.5406247044
 11
13.5603552569
 21
5.5406247044
  0
LINE
  5
242
100
AcDbEntity
  8
0
100
AcDbLine
 62
7
  6
CONTINUOUS
 10
17.5603552569
 20
5.3806247044
 11
17.5603552569
 21
5.5406247044
  0
LINE
  5
243
100
AcDbEntity
  8
0
100
AcDbLine
 62
7
  6
CONTINUOUS
 10
13.7141871397
 20
10.939708103
 11
13.7465451549
 21
10.9104111317
  0
LINE
  5
244
100
AcDbEntity
  8
0
100
AcDbLine
 62
7
  6
CONTINUOUS
 10
13.5947118653
 20
10.9938799711
 11
13.616064796
 21
10.9503672733
  0
LINE
  5
245
100
AcDbEntity
  8
0
100
AcDbLine
 62
7
  6
CONTINUOUS
 10
14.1747176367
 20
10.939708103
 11
14.2070756519
 21
10.9104111317
  0
LINE
  5
246
100
AcDbEntity
  8
0
100
AcDbLine
 62
7
  6
CONTINUOUS
 10
14.6352481337
 20
10.939708103
 11
14.6676061489
 21
10.9104111317
  0
LINE
  5
247
100
AcDbEntity
  8
0
100
AcDbLine
 62
7
  6
CONTINUOUS
 10
13.7898475215
 20
10.8944223762
 11
13.9577201035
 21
10.8944223762
  0
LINE
  5
248
100
AcDbEntity
  8
0
100
AcDbLine
 62
7
  6
CONTINUOUS
 10
14.2503780185
 20
10.8944223762
 11
14.4182506005
 21
10.8944223762
  0
LINE
  5
249
100
AcDbEntity
  8
0
100
AcDbLine
 62
7
  6
CONTINUOUS
 10
14.7109085155
 20
10.8944223762
 11
14.8787810975
 21
10.8944223762
  0
LINE
  5
24A
100
AcDbEntity
  8
0
100
AcDbLine
 62
7
  6
CONTINUOUS
 10
15.1714390125
 20
10.8944223762
 11
15.3393115945
 21
10.8944223762
  0
LINE
  5
24B
100
AcDbEntity
  8
0
100
AcDbLine
 62
7
  6
CONTINUOUS
 10
15.6319695095
 20
10.8944223762
 11
15.7998420915
 21
10.8944223762
  0
LINE
  5
24C
100
AcDbEntity
  8
0
100
AcDbLine
 62
7
  6
CONTINUOUS
 10
16.0925000065
 20
10.8944223762
 11
16.2603725885
 21
10.8944223762
  0
LINE
  5
24D
100
AcDbEntity
  8
0
100
AcDbLine
 62
7
  6
CONTINUOUS
 10
13.616064796
 20
10.9503672733
 11
13.6853188953
 21
10.9503672733
  0
LINE
  5
24E
100
AcDbEntity
  8
0
100
AcDbLine
 62
7
  6
CONTINUOUS
 10
14.0073411937
 20
10.9503672733
 11
14.1458493923
 21
10.9503672733
  0
LINE
  5
24F
100
AcDbEntity
  8
0
100
AcDbLine
 62
7
  6
CONTINUOUS
 10
14.4678716907
 20
10.9503672733
 11
14.6063798893
 21
10.9503672733
  0
LINE
  5
250
100
AcDbEntity
  8
0
100
AcDbLine
 62
7
  6
CONTINUOUS
 10
14.9284021877
 20
10.9503672733
 11
15.0669103863
 21
10.9503672733
  0
LINE
  5
251
100
AcDbEntity
  8
0
100
AcDbLine
 62
7
  6
CONTINUOUS
 10
15.3889326847
 20
10.9503672733
 11
15.5274408833
 21
10.9503672733
  0
LINE
  5
252
100
AcDbEntity
  8
0
100
AcDbLine
 62
7
  6
CONTINUOUS
 10
15.8494631817
 20
10.9503672733
 11
15.9879713803
 21
10.9503672733
  0
LINE
  5
253
100
AcDbEntity
  8
0
100
AcDbLine
 62
7
  6
CONTINUOUS
 10
16.3099936787
 20
10.9503672733
 11
16.379247778
 21
10.9503672733
  0
LINE
  5
254
100
AcDbEntity
  8
0
100
AcDbLine
 62
7
  6
CONTINUOUS
 10
16.3578948473
 20
10.9938799711
 11
13.5947118653
 21
10.9938799711
  0
LINE
  5
255
100
AcDbEntity
  8
0
100
AcDbLine
 62
7
  6
CONTINUOUS
 10
14.562977159
 20
14.1271876096
 11
13.5947118653
 21
10.9938799711
  0
LINE
  5
256
100
AcDbEntity
  8
0
100
AcDbLine
 62
7
  6
CONTINUOUS
 10
15.0957786307
 20
10.939708103
 11
15.1281366459
 21
10.9104111317
  0
LINE
  5
257
100
AcDbEntity
  8
0
100
AcDbLine
 62
7
  6
CONTINUOUS
 10
13.9853301869
 20
10.9104111317
 11
13.9889344714
 21
10.939708103
  0
LINE
  5
258
100
AcDbEntity
  8
0
100
AcDbLine
 62
7
  6
CONTINUOUS
 10
13.9848121625
 20
10.9080229979
 11
13.9853301869
 21
10.9104111317
  0
LINE
  5
259
100
AcDbEntity
  8
0
100
AcDbLine
 62
7
  6
CONTINUOUS
 10
13.9889344714
 20
10.939708103
 11
13.9892812634
 21
10.9412997465
  0
LINE
  5
25A
100
AcDbEntity
  8
0
100
AcDbLine
 62
7
  6
CONTINUOUS
 10
15.5563091277
 20
10.939708103
 11
15.5886671429
 21
10.9104111317
  0
LINE
  5
25B
100
AcDbEntity
  8
0
100
AcDbLine
 62
7
  6
CONTINUOUS
 10
14.4458606839
 20
10.9104111317
 11
14.4494649684
 21
10.939708103
  0
LINE
  5
25C
100
AcDbEntity
  8
0
100
AcDbLine
 62
7
  6
CONTINUOUS
 10
13.9855380413
 20
10.9103468998
 11
13.9973309715
 21
10.9485088362
  0
LINE
  5
25D
100
AcDbEntity
  8
0
100
AcDbLine
 62
7
  6
CONTINUOUS
 10
14.4453426595
 20
10.9080229979
 11
14.4458606839
 21
10.9104111317
  0
LINE
  5
25E
100
AcDbEntity
  8
0
100
AcDbLine
 62
7
  6
CONTINUOUS
 10
14.4494649684
 20
10.939708103
 11
14.4498117604
 21
10.9412997465
  0
LINE
  5
25F
100
AcDbEntity
  8
0
100
AcDbLine
 62
7
  6
CONTINUOUS
 10
16.0168396247
 20
10.939708103
 11
16.0491976399
 21
10.9104111317
  0
LINE
  5
260
100
AcDbEntity
  8
0
100
AcDbLine
 62
7
  6
CONTINUOUS
 10
14.4460685383
 20
10.9103468998
 11
14.4578614685
 21
10.9485088362
  0
LINE
  5
261
100
AcDbEntity
  8
0
100
AcDbLine
 62
7
  6
CONTINUOUS
 10
14.9063911809
 20
10.9104111317
 11
14.9099954654
 21
10.939708103
  0
LINE
  5
262
100
AcDbEntity
  8
0
100
AcDbLine
 62
7
  6
CONTINUOUS
 10
14.9058731565
 20
10.9080229979
 11
14.9063911809
 21
10.9104111317
  0
LINE
  5
263
100
AcDbEntity
  8
0
100
AcDbLine
 62
7
  6
CONTINUOUS
 10
14.9099954654
 20
10.939708103
 11
14.9103422574
 21
10.9412997465
  0
LINE
  5
264
100
AcDbEntity
  8
0
100
AcDbLine
 62
7
  6
CONTINUOUS
 10
14.9065990353
 20
10.9103468998
 11
14.9183919655
 21
10.9485088362
  0
LINE
  5
265
100
AcDbEntity
  8
0
100
AcDbLine
 62
7
  6
CONTINUOUS
 10
15.3669216779
 20
10.9104111317
 11
15.3705259624
 21
10.939708103
  0
LINE
  5
266
100
AcDbEntity
  8
0
100
AcDbLine
 62
7
  6
CONTINUOUS
 10
16.379247778
 20
10.9503672733
 11
16.3578948473
 21
10.9938799711
  0
LINE
  5
267
100
AcDbEntity
  8
0
100
AcDbLine
 62
7
  6
CONTINUOUS
 10
15.3664036535
 20
10.9080229979
 11
15.3669216779
 21
10.9104111317
  0
LINE
  5
268
100
AcDbEntity
  8
0
100
AcDbLine
 62
7
  6
CONTINUOUS
 10
15.3705259624
 20
10.939708103
 11
15.3708727544
 21
10.9412997465
  0
LINE
  5
269
100
AcDbEntity
  8
0
100
AcDbLine
 62
7
  6
CONTINUOUS
 10
15.3671295323
 20
10.9103468998
 11
15.3789224625
 21
10.9485088362
  0
LINE
  5
26A
100
AcDbEntity
  8
0
100
AcDbLine
 62
7
  6
CONTINUOUS
 10
15.8274521749
 20
10.9104111317
 11
15.8310564594
 21
10.939708103
  0
LINE
  5
26B
100
AcDbEntity
  8
0
100
AcDbLine
 62
7
  6
CONTINUOUS
 10
15.8269341505
 20
10.9080229979
 11
15.8274521749
 21
10.9104111317
  0
LINE
  5
26C
100
AcDbEntity
  8
0
100
AcDbLine
 62
7
  6
CONTINUOUS
 10
15.8310564594
 20
10.939708103
 11
15.8314032514
 21
10.9412997465
  0
LINE
  5
26D
100
AcDbEntity
  8
0
100
AcDbLine
 62
7
  6
CONTINUOUS
 10
15.8276600293
 20
10.9103468998
 11
15.8394529596
 21
10.9485088362
  0
LINE
  5
26E
100
AcDbEntity
  8
0
100
AcDbLine
 62
7
  6
CONTINUOUS
 10
16.2879826719
 20
10.9104111317
 11
16.2915869564
 21
10.939708103
  0
LINE
  5
26F
100
AcDbEntity
  8
0
100
AcDbLine
 62
7
  6
CONTINUOUS
 10
16.2874646475
 20
10.9080229979
 11
16.2879826719
 21
10.9104111317
  0
LINE
  5
270
100
AcDbEntity
  8
0
100
AcDbLine
 62
7
  6
CONTINUOUS
 10
16.2915869564
 20
10.939708103
 11
16.2919337484
 21
10.9412997465
  0
LINE
  5
271
100
AcDbEntity
  8
0
100
AcDbLine
 62
7
  6
CONTINUOUS
 10
16.2881905263
 20
10.9103468998
 11
16.2999834566
 21
10.9485088362
  0
LINE
  5
272
100
AcDbEntity
  8
0
100
AcDbLine
 62
7
  6
CONTINUOUS
 10
17.326160141
 20
14.1271876096
 11
16.3578948473
 21
10.9938799711
  0
LINE
  5
273
100
AcDbEntity
  8
0
100
AcDbLine
 62
7
  6
CONTINUOUS
 10
17.3475130716
 20
14.0836749118
 11
16.379247778
 21
10.9503672733
  0
LINE
  5
274
100
AcDbEntity
  8
0
100
AcDbLine
 62
7
  6
CONTINUOUS
 10
14.562977159
 20
14.1271876096
 11
17.326160141
 21
14.1271876096
  0
LINE
  5
275
100
AcDbEntity
  8
0
100
AcDbLine
 62
7
  6
CONTINUOUS
 10
17.3475130716
 20
14.0836749118
 11
17.326160141
 21
14.1271876096
  0
ARC
  5
276
100
AcDbEntity
  8
0
100
AcDbCircle
 62
7
  6
CONTINUOUS
 10
5.2892372734
 20
5.4817865634
 40
0.0416666667
100
AcDbArc
 50
202.5
 51
270.0
  0
ARC
  5
277
100
AcDbEntity
  8
0
100
AcDbCircle
 62
7
  6
CONTINUOUS
 10
5.471497279
 20
5.4817865634
 40
0.0416666667
100
AcDbArc
 50
270.0
 51
337.5
  0
ARC
  5
278
100
AcDbEntity
  8
0
100
AcDbCircle
 62
7
  6
CONTINUOUS
 10
5.7892372734
 20
5.4817865634
 40
0.0416666667
100
AcDbArc
 50
202.5
 51
270.0
  0
ARC
  5
279
100
AcDbEntity
  8
0
100
AcDbCircle
 62
7
  6
CONTINUOUS
 10
5.971497279
 20
5.4817865634
 40
0.0416666667
100
AcDbArc
 50
270.0
 51
337.5
  0
ARC
  5
27A
100
AcDbEntity
  8
0
100
AcDbCircle
 62
7
  6
CONTINUOUS
 10
6.2892372734
 20
5.4817865634
 40
0.0416666667
100
AcDbArc
 50
202.5
 51
270.0
  0
ARC
  5
27B
100
AcDbEntity
  8
0
100
AcDbCircle
 62
7
  6
CONTINUOUS
 10
6.471497279
 20
5.4817865634
 40
0.0416666667
100
AcDbArc
 50
270.0
 51
337.5
  0
ARC
  5
27C
100
AcDbEntity
  8
0
100
AcDbCircle
 62
7
  6
CONTINUOUS
 10
4.971497279
 20
5.4817865634
 40
0.0416666667
100
AcDbArc
 50
270.0
 51
337.5
  0
ARC
  5
27D
100
AcDbEntity
  8
0
100
AcDbCircle
 62
7
  6
CONTINUOUS
 10
4.7892372734
 20
5.4817865634
 40
0.0416666667
100
AcDbArc
 50
202.5
 51
270.0
  0
ARC
  5
27E
100
AcDbEntity
  8
0
100
AcDbCircle
 62
7
  6
CONTINUOUS
 10
7.471497279
 20
5.4817865634
 40
0.0416666667
100
AcDbArc
 50
270.0
 51
337.5
  0
ARC
  5
27F
100
AcDbEntity
  8
0
100
AcDbCircle
 62
7
  6
CONTINUOUS
 10
7.2892372734
 20
5.4817865634
 40
0.0416666667
100
AcDbArc
 50
202.5
 51
270.0
  0
ARC
  5
280
100
AcDbEntity
  8
0
100
AcDbCircle
 62
7
  6
CONTINUOUS
 10
6.971497279
 20
5.4817865634
 40
0.0416666667
100
AcDbArc
 50
270.0
 51
337.5
  0
ARC
  5
281
100
AcDbEntity
  8
0
100
AcDbCircle
 62
7
  6
CONTINUOUS
 10
6.7892372734
 20
5.4817865634
 40
0.0416666667
100
AcDbArc
 50
202.5
 51
270.0
  0
ARC
  5
282
100
AcDbEntity
  8
0
100
AcDbCircle
 62
7
  6
CONTINUOUS
 10
5.0551777939
 20
5.502342119
 40
0.0277777778
100
AcDbArc
 50
90.0
 51
157.5
  0
ARC
  5
283
100
AcDbEntity
  8
0
100
AcDbCircle
 62
7
  6
CONTINUOUS
 10
4.7055567584
 20
5.502342119
 40
0.0277777778
100
AcDbArc
 50
22.5
 51
90.0
  0
ARC
  5
284
100
AcDbEntity
  8
0
100
AcDbCircle
 62
7
  6
CONTINUOUS
 10
5.5551777939
 20
5.502342119
 40
0.0277777778
100
AcDbArc
 50
90.0
 51
157.5
  0
ARC
  5
285
100
AcDbEntity
  8
0
100
AcDbCircle
 62
7
  6
CONTINUOUS
 10
5.2055567584
 20
5.502342119
 40
0.0277777778
100
AcDbArc
 50
22.5
 51
90.0
  0
ARC
  5
286
100
AcDbEntity
  8
0
100
AcDbCircle
 62
7
  6
CONTINUOUS
 10
6.0551777939
 20
5.502342119
 40
0.0277777778
100
AcDbArc
 50
90.0
 51
157.5
  0
ARC
  5
287
100
AcDbEntity
  8
0
100
AcDbCircle
 62
7
  6
CONTINUOUS
 10
5.7055567584
 20
5.502342119
 40
0.0277777778
100
AcDbArc
 50
22.5
 51
90.0
  0
ARC
  5
288
100
AcDbEntity
  8
0
100
AcDbCircle
 62
7
  6
CONTINUOUS
 10
6.5551777939
 20
5.502342119
 40
0.0277777778
100
AcDbArc
 50
90.0
 51
157.5
  0
ARC
  5
289
100
AcDbEntity
  8
0
100
AcDbCircle
 62
7
  6
CONTINUOUS
 10
6.2055567584
 20
5.502342119
 40
0.0277777778
100
AcDbArc
 50
22.5
 51
90.0
  0
ARC
  5
28A
100
AcDbEntity
  8
0
100
AcDbCircle
 62
7
  6
CONTINUOUS
 10
7.0551777939
 20
5.502342119
 40
0.0277777778
100
AcDbArc
 50
90.0
 51
157.5
  0
ARC
  5
28B
100
AcDbEntity
  8
0
100
AcDbCircle
 62
7
  6
CONTINUOUS
 10
6.7055567584
 20
5.502342119
 40
0.0277777778
100
AcDbArc
 50
22.5
 51
90.0
  0
ARC
  5
28C
100
AcDbEntity
  8
0
100
AcDbCircle
 62
7
  6
CONTINUOUS
 10
7.5551777939
 20
5.502342119
 40
0.0277777778
100
AcDbArc
 50
90.0
 51
157.5
  0
ARC
  5
28D
100
AcDbEntity
  8
0
100
AcDbCircle
 62
7
  6
CONTINUOUS
 10
7.2055567584
 20
5.502342119
 40
0.0277777778
100
AcDbArc
 50
22.5
 51
90.0
  0
SPLINE
  5
28E
100
AcDbEntity
  8
0
100
AcDbSpline
 62
7
  6
CONTINUOUS
 70
0
 71
3
 72
12
 73
8
 74
0
 42
0.0000001
 43
0.0000001
 44
0.0000000001
 40
0.0
 40
0.0
 40
0.0
 40
0.0
 40
0.108014183
 40
0.218140693
 40
0.4509648956
 40
0.7099683255
 40
1.0
 40
1.0
 40
1.0
 40
1.0
 10
13.9892759958
 20
10.9413013754
 30
0.0
 10
13.98942944
 20
10.9417969029
 30
0.0
 10
13.9898258634
 20
10.942773089
 30
0.0
 10
13.9909681995
 20
10.944623397
 30
0.0
 10
13.9930726306
 20
10.9466731447
 30
0.0
 10
13.9963777901
 20
10.9485190895
 30
0.0
 10
13.998911102
 20
10.949312151
 30
0.0
 10
14.0002692
 20
10.9496215063
 30
0.0
  0
SPLINE
  5
28F
100
AcDbEntity
  8
0
100
AcDbSpline
 62
7
  6
CONTINUOUS
 70
0
 71
3
 72
9
 73
5
 74
0
 42
0.0000001
 43
0.0000001
 44
0.0000000001
 40
0.0
 40
0.0
 40
0.0
 40
0.0
 40
0.4849750608
 40
1.0
 40
1.0
 40
1.0
 40
1.0
 10
14.0002692
 20
10.9496215063
 30
0.0
 10
14.001391803
 20
10.9498772193
 30
0.0
 10
14.0037426895
 20
10.9502516008
 30
0.0
 10
14.0061184949
 20
10.9503672733
 30
0.0
 10
14.0073411937
 20
10.9503672733
 30
0.0
  0
SPLINE
  5
290
100
AcDbEntity
  8
0
100
AcDbSpline
 62
7
  6
CONTINUOUS
 70
0
 71
3
 72
12
 73
8
 74
0
 42
0.0000001
 43
0.0000001
 44
0.0000000001
 40
0.0
 40
0.0
 40
0.0
 40
0.0
 40
0.108014183
 40
0.218140693
 40
0.4509648956
 40
0.7099683255
 40
1.0
 40
1.0
 40
1.0
 40
1.0
 10
14.4498064928
 20
10.9413013754
 30
0.0
 10
14.449959937
 20
10.9417969029
 30
0.0
 10
14.4503563604
 20
10.942773089
 30
0.0
 10
14.4514986965
 20
10.944623397
 30
0.0
 10
14.4536031276
 20
10.9466731447
 30
0.0
 10
14.4569082871
 20
10.9485190895
 30
0.0
 10
14.459441599
 20
10.949312151
 30
0.0
 10
14.460799697
 20
10.9496215063
 30
0.0
  0
SPLINE
  5
291
100
AcDbEntity
  8
0
100
AcDbSpline
 62
7
  6
CONTINUOUS
 70
0
 71
3
 72
9
 73
5
 74
0
 42
0.0000001
 43
0.0000001
 44
0.0000000001
 40
0.0
 40
0.0
 40
0.0
 40
0.0
 40
0.4849750609
 40
1.0
 40
1.0
 40
1.0
 40
1.0
 10
14.460799697
 20
10.9496215063
 30
0.0
 10
14.4619223
 20
10.9498772193
 30
0.0
 10
14.4642731865
 20
10.9502516008
 30
0.0
 10
14.4666489919
 20
10.9503672733
 30
0.0
 10
14.4678716907
 20
10.9503672733
 30
0.0
  0
SPLINE
  5
292
100
AcDbEntity
  8
0
100
AcDbSpline
 62
7
  6
CONTINUOUS
 70
0
 71
3
 72
12
 73
8
 74
0
 42
0.0000001
 43
0.0000001
 44
0.0000000001
 40
0.0
 40
0.0
 40
0.0
 40
0.0
 40
0.108014183
 40
0.218140693
 40
0.4509648956
 40
0.7099683255
 40
1.0
 40
1.0
 40
1.0
 40
1.0
 10
14.9103369898
 20
10.9413013754
 30
0.0
 10
14.910490434
 20
10.9417969029
 30
0.0
 10
14.9108868574
 20
10.942773089
 30
0.0
 10
14.9120291935
 20
10.944623397
 30
0.0
 10
14.9141336246
 20
10.9466731447
 30
0.0
 10
14.9174387841
 20
10.9485190895
 30
0.0
 10
14.919972096
 20
10.949312151
 30
0.0
 10
14.921330194
 20
10.9496215063
 30
0.0
  0
SPLINE
  5
293
100
AcDbEntity
  8
0
100
AcDbSpline
 62
7
  6
CONTINUOUS
 70
0
 71
3
 72
9
 73
5
 74
0
 42
0.0000001
 43
0.0000001
 44
0.0000000001
 40
0.0
 40
0.0
 40
0.0
 40
0.0
 40
0.4849750608
 40
1.0
 40
1.0
 40
1.0
 40
1.0
 10
14.921330194
 20
10.9496215063
 30
0.0
 10
14.922452797
 20
10.9498772193
 30
0.0
 10
14.9248036835
 20
10.9502516008
 30
0.0
 10
14.9271794889
 20
10.9503672733
 30
0.0
 10
14.9284021877
 20
10.9503672733
 30
0.0
  0
SPLINE
  5
294
100
AcDbEntity
  8
0
100
AcDbSpline
 62
7
  6
CONTINUOUS
 70
0
 71
3
 72
12
 73
8
 74
0
 42
0.0000001
 43
0.0000001
 44
0.0000000001
 40
0.0
 40
0.0
 40
0.0
 40
0.0
 40
0.108014183
 40
0.218140693
 40
0.4509648956
 40
0.7099683255
 40
1.0
 40
1.0
 40
1.0
 40
1.0
 10
15.3708674868
 20
10.9413013754
 30
0.0
 10
15.371020931
 20
10.9417969029
 30
0.0
 10
15.3714173544
 20
10.942773089
 30
0.0
 10
15.3725596905
 20
10.944623397
 30
0.0
 10
15.3746641216
 20
10.9466731447
 30
0.0
 10
15.3779692811
 20
10.9485190895
 30
0.0
 10
15.380502593
 20
10.949312151
 30
0.0
 10
15.381860691
 20
10.9496215063
 30
0.0
  0
SPLINE
  5
295
100
AcDbEntity
  8
0
100
AcDbSpline
 62
7
  6
CONTINUOUS
 70
0
 71
3
 72
9
 73
5
 74
0
 42
0.0000001
 43
0.0000001
 44
0.0000000001
 40
0.0
 40
0.0
 40
0.0
 40
0.0
 40
0.4849750608
 40
1.0
 40
1.0
 40
1.0
 40
1.0
 10
15.381860691
 20
10.9496215063
 30
0.0
 10
15.382983294
 20
10.9498772193
 30
0.0
 10
15.3853341805
 20
10.9502516008
 30
0.0
 10
15.3877099859
 20
10.9503672733
 30
0.0
 10
15.3889326847
 20
10.9503672733
 30
0.0
  0
SPLINE
  5
296
100
AcDbEntity
  8
0
100
AcDbSpline
 62
7
  6
CONTINUOUS
 70
0
 71
3
 72
12
 73
8
 74
0
 42
0.0000001
 43
0.0000001
 44
0.0000000001
 40
0.0
 40
0.0
 40
0.0
 40
0.0
 40
0.108014183
 40
0.218140693
 40
0.4509648956
 40
0.7099683255
 40
1.0
 40
1.0
 40
1.0
 40
1.0
 10
15.8313979838
 20
10.9413013754
 30
0.0
 10
15.831551428
 20
10.9417969029
 30
0.0
 10
15.8319478514
 20
10.942773089
 30
0.0
 10
15.8330901875
 20
10.944623397
 30
0.0
 10
15.8351946186
 20
10.9466731447
 30
0.0
 10
15.8384997781
 20
10.9485190895
 30
0.0
 10
15.84103309
 20
10.949312151
 30
0.0
 10
15.842391188
 20
10.9496215063
 30
0.0
  0
SPLINE
  5
297
100
AcDbEntity
  8
0
100
AcDbSpline
 62
7
  6
CONTINUOUS
 70
0
 71
3
 72
9
 73
5
 74
0
 42
0.0000001
 43
0.0000001
 44
0.0000000001
 40
0.0
 40
0.0
 40
0.0
 40
0.0
 40
0.4849750608
 40
1.0
 40
1.0
 40
1.0
 40
1.0
 10
15.842391188
 20
10.9496215063
 30
0.0
 10
15.843513791
 20
10.9498772193
 30
0.0
 10
15.8458646775
 20
10.9502516008
 30
0.0
 10
15.8482404829
 20
10.9503672733
 30
0.0
 10
15.8494631817
 20
10.9503672733
 30
0.0
  0
SPLINE
  5
298
100
AcDbEntity
  8
0
100
AcDbSpline
 62
7
  6
CONTINUOUS
 70
0
 71
3
 72
12
 73
8
 74
0
 42
0.0000001
 43
0.0000001
 44
0.0000000001
 40
0.0
 40
0.0
 40
0.0
 40
0.0
 40
0.108014183
 40
0.218140693
 40
0.4509648956
 40
0.7099683255
 40
1.0
 40
1.0
 40
1.0
 40
1.0
 10
16.2919284808
 20
10.9413013754
 30
0.0
 10
16.292081925
 20
10.9417969029
 30
0.0
 10
16.2924783484
 20
10.942773089
 30
0.0
 10
16.2936206845
 20
10.944623397
 30
0.0
 10
16.2957251156
 20
10.9466731447
 30
0.0
 10
16.2990302751
 20
10.9485190895
 30
0.0
 10
16.301563587
 20
10.949312151
 30
0.0
 10
16.302921685
 20
10.9496215063
 30
0.0
  0
SPLINE
  5
299
100
AcDbEntity
  8
0
100
AcDbSpline
 62
7
  6
CONTINUOUS
 70
0
 71
3
 72
9
 73
5
 74
0
 42
0.0000001
 43
0.0000001
 44
0.0000000001
 40
0.0
 40
0.0
 40
0.0
 40
0.0
 40
0.4849750608
 40
1.0
 40
1.0
 40
1.0
 40
1.0
 10
16.302921685
 20
10.9496215063
 30
0.0
 10
16.304044288
 20
10.9498772193
 30
0.0
 10
16.3063951745
 20
10.9502516008
 30
0.0
 10
16.3087709799
 20
10.9503672733
 30
0.0
 10
16.3099936787
 20
10.9503672733
 30
0.0
  0
SPLINE
  5
29A
100
AcDbEntity
  8
0
100
AcDbSpline
 62
7
  6
CONTINUOUS
 70
0
 71
3
 72
15
 73
11
 74
0
 42
0.0000001
 43
0.0000001
 44
0.0000000001
 40
0.0
 40
0.0
 40
0.0
 40
0.0
 40
0.1556212663
 40
0.3031472953
 40
0.4410980867
 40
0.5690295818
 40
0.6872670525
 40
0.7969834586
 40
0.9002646932
 40
1.0
 40
1.0
 40
1.0
 40
1.0
 10
13.9577201035
 20
10.8944223762
 30
0.0
 10
13.9593962301
 20
10.8944223762
 30
0.0
 10
13.9626636857
 20
10.8945681296
 30
0.0
 10
13.9673743403
 20
10.8952471421
 30
0.0
 10
13.9716919605
 20
10.8963790857
 30
0.0
 10
13.9755371247
 20
10.8979420303
 30
0.0
 10
13.9788434873
 20
10.8999147715
 30
0.0
 10
13.9815522851
 20
10.9022704513
 30
0.0
 10
13.9836022974
 20
10.9049755394
 30
0.0
 10
13.984500165
 20
10.9069950858
 30
0.0
 10
13.9848179098
 20
10.9080212207
 30
0.0
  0
SPLINE
  5
29B
100
AcDbEntity
  8
0
100
AcDbSpline
 62
7
  6
CONTINUOUS
 70
0
 71
3
 72
15
 73
11
 74
0
 42
0.0000001
 43
0.0000001
 44
0.0000000001
 40
0.0
 40
0.0
 40
0.0
 40
0.0
 40
0.1148030756
 40
0.2360624533
 40
0.3619929644
 40
0.4908819437
 40
0.6209767199
 40
0.7504734886
 40
0.8775136632
 40
1.0
 40
1.0
 40
1.0
 40
1.0
 10
13.7465451549
 20
10.9104111317
 30
0.0
 10
13.7478813007
 20
10.9092013843
 30
0.0
 10
13.7507783792
 20
10.906876134
 30
0.0
 10
13.7555517865
 20
10.9037764467
 30
0.0
 10
13.7607893435
 20
10.9010327807
 30
0.0
 10
13.7663721259
 20
10.8987000936
 30
0.0
 10
13.7721851017
 20
10.8968301093
 30
0.0
 10
13.7781060294
 20
10.895458718
 30
0.0
 10
13.7840049624
 20
10.8946222834
 30
0.0
 10
13.7879244568
 20
10.8944223762
 30
0.0
 10
13.7898475215
 20
10.8944223762
 30
0.0
  0
SPLINE
  5
29C
100
AcDbEntity
  8
0
100
AcDbSpline
 62
7
  6
CONTINUOUS
 70
0
 71
3
 72
15
 73
11
 74
0
 42
0.0000001
 43
0.0000001
 44
0.0000000001
 40
0.0
 40
0.0
 40
0.0
 40
0.0
 40
0.1556212663
 40
0.3031472953
 40
0.4410980867
 40
0.5690295818
 40
0.6872670525
 40
0.7969834586
 40
0.9002646932
 40
1.0
 40
1.0
 40
1.0
 40
1.0
 10
16.2603725885
 20
10.8944223762
 30
0.0
 10
16.2620487151
 20
10.8944223762
 30
0.0
 10
16.2653161707
 20
10.8945681296
 30
0.0
 10
16.2700268253
 20
10.8952471421
 30
0.0
 10
16.2743444455
 20
10.8963790857
 30
0.0
 10
16.2781896097
 20
10.8979420303
 30
0.0
 10
16.2814959723
 20
10.8999147715
 30
0.0
 10
16.2842047701
 20
10.9022704513
 30
0.0
 10
16.2862547824
 20
10.9049755394
 30
0.0
 10
16.28715265
 20
10.9069950858
 30
0.0
 10
16.2874703948
 20
10.9080212207
 30
0.0
  0
SPLINE
  5
29D
100
AcDbEntity
  8
0
100
AcDbSpline
 62
7
  6
CONTINUOUS
 70
0
 71
3
 72
15
 73
11
 74
0
 42
0.0000001
 43
0.0000001
 44
0.0000000001
 40
0.0
 40
0.0
 40
0.0
 40
0.0
 40
0.1148030756
 40
0.2360624533
 40
0.3619929644
 40
0.4908819437
 40
0.6209767199
 40
0.7504734886
 40
0.8775136632
 40
1.0
 40
1.0
 40
1.0
 40
1.0
 10
16.0491976399
 20
10.9104111317
 30
0.0
 10
16.0505337857
 20
10.9092013843
 30
0.0
 10
16.0534308642
 20
10.906876134
 30
0.0
 10
16.0582042716
 20
10.9037764467
 30
0.0
 10
16.0634418285
 20
10.9010327807
 30
0.0
 10
16.0690246109
 20
10.8987000936
 30
0.0
 10
16.0748375867
 20
10.8968301093
 30
0.0
 10
16.0807585144
 20
10.895458718
 30
0.0
 10
16.0866574474
 20
10.8946222834
 30
0.0
 10
16.0905769419
 20
10.8944223762
 30
0.0
 10
16.0925000065
 20
10.8944223762
 30
0.0
  0
SPLINE
  5
29E
100
AcDbEntity
  8
0
100
AcDbSpline
 62
7
  6
CONTINUOUS
 70
0
 71
3
 72
15
 73
11
 74
0
 42
0.0000001
 43
0.0000001
 44
0.0000000001
 40
0.0
 40
0.0
 40
0.0
 40
0.0
 40
0.1556212663
 40
0.3031472953
 40
0.4410980867
 40
0.5690295818
 40
0.6872670525
 40
0.7969834586
 40
0.9002646932
 40
1.0
 40
1.0
 40
1.0
 40
1.0
 10
15.7998420915
 20
10.8944223762
 30
0.0
 10
15.8015182181
 20
10.8944223762
 30
0.0
 10
15.8047856737
 20
10.8945681296
 30
0.0
 10
15.8094963283
 20
10.8952471421
 30
0.0
 10
15.8138139485
 20
10.8963790857
 30
0.0
 10
15.8176591127
 20
10.8979420303
 30
0.0
 10
15.8209654753
 20
10.8999147715
 30
0.0
 10
15.8236742731
 20
10.9022704513
 30
0.0
 10
15.8257242854
 20
10.9049755394
 30
0.0
 10
15.826622153
 20
10.9069950858
 30
0.0
 10
15.8269398978
 20
10.9080212207
 30
0.0
  0
SPLINE
  5
29F
100
AcDbEntity
  8
0
100
AcDbSpline
 62
7
  6
CONTINUOUS
 70
0
 71
3
 72
15
 73
11
 74
0
 42
0.0000001
 43
0.0000001
 44
0.0000000001
 40
0.0
 40
0.0
 40
0.0
 40
0.0
 40
0.1148030756
 40
0.2360624533
 40
0.3619929644
 40
0.4908819437
 40
0.6209767199
 40
0.7504734886
 40
0.8775136632
 40
1.0
 40
1.0
 40
1.0
 40
1.0
 10
15.5886671429
 20
10.9104111317
 30
0.0
 10
15.5900032887
 20
10.9092013843
 30
0.0
 10
15.5929003672
 20
10.906876134
 30
0.0
 10
15.5976737746
 20
10.9037764467
 30
0.0
 10
15.6029113315
 20
10.9010327807
 30
0.0
 10
15.6084941139
 20
10.8987000936
 30
0.0
 10
15.6143070897
 20
10.8968301093
 30
0.0
 10
15.6202280174
 20
10.895458718
 30
0.0
 10
15.6261269504
 20
10.8946222834
 30
0.0
 10
15.6300464449
 20
10.8944223762
 30
0.0
 10
15.6319695095
 20
10.8944223762
 30
0.0
  0
SPLINE
  5
2A0
100
AcDbEntity
  8
0
100
AcDbSpline
 62
7
  6
CONTINUOUS
 70
0
 71
3
 72
15
 73
11
 74
0
 42
0.0000001
 43
0.0000001
 44
0.0000000001
 40
0.0
 40
0.0
 40
0.0
 40
0.0
 40
0.1556212663
 40
0.3031472953
 40
0.4410980867
 40
0.5690295818
 40
0.6872670525
 40
0.7969834586
 40
0.9002646932
 40
1.0
 40
1.0
 40
1.0
 40
1.0
 10
15.3393115945
 20
10.8944223762
 30
0.0
 10
15.3409877211
 20
10.8944223762
 30
0.0
 10
15.3442551767
 20
10.8945681296
 30
0.0
 10
15.3489658313
 20
10.8952471421
 30
0.0
 10
15.3532834515
 20
10.8963790857
 30
0.0
 10
15.3571286157
 20
10.8979420303
 30
0.0
 10
15.3604349783
 20
10.8999147715
 30
0.0
 10
15.3631437761
 20
10.9022704513
 30
0.0
 10
15.3651937884
 20
10.9049755394
 30
0.0
 10
15.366091656
 20
10.9069950858
 30
0.0
 10
15.3664094008
 20
10.9080212207
 30
0.0
  0
SPLINE
  5
2A1
100
AcDbEntity
  8
0
100
AcDbSpline
 62
7
  6
CONTINUOUS
 70
0
 71
3
 72
15
 73
11
 74
0
 42
0.0000001
 43
0.0000001
 44
0.0000000001
 40
0.0
 40
0.0
 40
0.0
 40
0.0
 40
0.1148030756
 40
0.2360624533
 40
0.3619929644
 40
0.4908819437
 40
0.6209767199
 40
0.7504734886
 40
0.8775136632
 40
1.0
 40
1.0
 40
1.0
 40
1.0
 10
15.1281366459
 20
10.9104111317
 30
0.0
 10
15.1294727917
 20
10.9092013843
 30
0.0
 10
15.1323698702
 20
10.906876134
 30
0.0
 10
15.1371432776
 20
10.9037764467
 30
0.0
 10
15.1423808345
 20
10.9010327807
 30
0.0
 10
15.1479636169
 20
10.8987000936
 30
0.0
 10
15.1537765927
 20
10.8968301093
 30
0.0
 10
15.1596975204
 20
10.895458718
 30
0.0
 10
15.1655964534
 20
10.8946222834
 30
0.0
 10
15.1695159479
 20
10.8944223762
 30
0.0
 10
15.1714390125
 20
10.8944223762
 30
0.0
  0
SPLINE
  5
2A2
100
AcDbEntity
  8
0
100
AcDbSpline
 62
7
  6
CONTINUOUS
 70
0
 71
3
 72
15
 73
11
 74
0
 42
0.0000001
 43
0.0000001
 44
0.0000000001
 40
0.0
 40
0.0
 40
0.0
 40
0.0
 40
0.1556212663
 40
0.3031472953
 40
0.4410980867
 40
0.5690295818
 40
0.6872670525
 40
0.7969834586
 40
0.9002646932
 40
1.0
 40
1.0
 40
1.0
 40
1.0
 10
14.8787810975
 20
10.8944223762
 30
0.0
 10
14.8804572241
 20
10.8944223762
 30
0.0
 10
14.8837246797
 20
10.8945681296
 30
0.0
 10
14.8884353343
 20
10.8952471421
 30
0.0
 10
14.8927529545
 20
10.8963790857
 30
0.0
 10
14.8965981187
 20
10.8979420303
 30
0.0
 10
14.8999044813
 20
10.8999147715
 30
0.0
 10
14.9026132791
 20
10.9022704513
 30
0.0
 10
14.9046632914
 20
10.9049755394
 30
0.0
 10
14.905561159
 20
10.9069950858
 30
0.0
 10
14.9058789038
 20
10.9080212207
 30
0.0
  0
SPLINE
  5
2A3
100
AcDbEntity
  8
0
100
AcDbSpline
 62
7
  6
CONTINUOUS
 70
0
 71
3
 72
15
 73
11
 74
0
 42
0.0000001
 43
0.0000001
 44
0.0000000001
 40
0.0
 40
0.0
 40
0.0
 40
0.0
 40
0.1148030756
 40
0.2360624533
 40
0.3619929644
 40
0.4908819437
 40
0.6209767199
 40
0.7504734886
 40
0.8775136632
 40
1.0
 40
1.0
 40
1.0
 40
1.0
 10
14.6676061489
 20
10.9104111317
 30
0.0
 10
14.6689422947
 20
10.9092013843
 30
0.0
 10
14.6718393732
 20
10.906876134
 30
0.0
 10
14.6766127805
 20
10.9037764467
 30
0.0
 10
14.6818503375
 20
10.9010327807
 30
0.0
 10
14.6874331199
 20
10.8987000936
 30
0.0
 10
14.6932460957
 20
10.8968301093
 30
0.0
 10
14.6991670234
 20
10.895458718
 30
0.0
 10
14.7050659564
 20
10.8946222834
 30
0.0
 10
14.7089854508
 20
10.8944223762
 30
0.0
 10
14.7109085155
 20
10.8944223762
 30
0.0
  0
SPLINE
  5
2A4
100
AcDbEntity
  8
0
100
AcDbSpline
 62
7
  6
CONTINUOUS
 70
0
 71
3
 72
15
 73
11
 74
0
 42
0.0000001
 43
0.0000001
 44
0.0000000001
 40
0.0
 40
0.0
 40
0.0
 40
0.0
 40
0.1556212663
 40
0.3031472953
 40
0.4410980867
 40
0.5690295818
 40
0.6872670525
 40
0.7969834586
 40
0.9002646932
 40
1.0
 40
1.0
 40
1.0
 40
1.0
 10
14.4182506005
 20
10.8944223762
 30
0.0
 10
14.4199267271
 20
10.8944223762
 30
0.0
 10
14.4231941827
 20
10.8945681296
 30
0.0
 10
14.4279048373
 20
10.8952471421
 30
0.0
 10
14.4322224575
 20
10.8963790857
 30
0.0
 10
14.4360676217
 20
10.8979420303
 30
0.0
 10
14.4393739843
 20
10.8999147715
 30
0.0
 10
14.4420827821
 20
10.9022704513
 30
0.0
 10
14.4441327944
 20
10.9049755394
 30
0.0
 10
14.445030662
 20
10.9069950858
 30
0.0
 10
14.4453484068
 20
10.9080212207
 30
0.0
  0
SPLINE
  5
2A5
100
AcDbEntity
  8
0
100
AcDbSpline
 62
7
  6
CONTINUOUS
 70
0
 71
3
 72
15
 73
11
 74
0
 42
0.0000001
 43
0.0000001
 44
0.0000000001
 40
0.0
 40
0.0
 40
0.0
 40
0.0
 40
0.1148030756
 40
0.2360624533
 40
0.3619929644
 40
0.4908819437
 40
0.6209767199
 40
0.7504734886
 40
0.8775136632
 40
1.0
 40
1.0
 40
1.0
 40
1.0
 10
14.2070756519
 20
10.9104111317
 30
0.0
 10
14.2084117977
 20
10.9092013843
 30
0.0
 10
14.2113088762
 20
10.906876134
 30
0.0
 10
14.2160822835
 20
10.9037764467
 30
0.0
 10
14.2213198405
 20
10.9010327807
 30
0.0
 10
14.2269026229
 20
10.8987000936
 30
0.0
 10
14.2327155987
 20
10.8968301093
 30
0.0
 10
14.2386365264
 20
10.895458718
 30
0.0
 10
14.2445354594
 20
10.8946222834
 30
0.0
 10
14.2484549538
 20
10.8944223762
 30
0.0
 10
14.2503780185
 20
10.8944223762
 30
0.0
  0
SPLINE
  5
2A6
100
AcDbEntity
  8
0
100
AcDbSpline
 62
7
  6
CONTINUOUS
 70
0
 71
3
 72
15
 73
11
 74
0
 42
0.0000001
 43
0.0000001
 44
0.0000000001
 40
0.0
 40
0.0
 40
0.0
 40
0.0
 40
0.1224874985
 40
0.2495298757
 40
0.3790272704
 40
0.5091195464
 40
0.6380032656
 40
0.7639311862
 40
0.885194077
 40
1.0
 40
1.0
 40
1.0
 40
1.0
 10
13.6853188953
 20
10.9503672733
 30
0.0
 10
13.6866009505
 20
10.9503672733
 30
0.0
 10
13.6892139813
 20
10.9502339885
 30
0.0
 10
13.6931466447
 20
10.9496763635
 30
0.0
 10
13.6970939312
 20
10.9487620903
 30
0.0
 10
13.7009691712
 20
10.9475154443
 30
0.0
 10
13.7046909444
 20
10.9459604053
 30
0.0
 10
13.7081825974
 20
10.9441312904
 30
0.0
 10
13.7113648914
 20
10.9420647994
 30
0.0
 10
13.7132963538
 20
10.9405146212
 30
0.0
 10
13.7141871397
 20
10.939708103
 30
0.0
  0
SPLINE
  5
2A7
100
AcDbEntity
  8
0
100
AcDbSpline
 62
7
  6
CONTINUOUS
 70
0
 71
3
 72
15
 73
11
 74
0
 42
0.0000001
 43
0.0000001
 44
0.0000000001
 40
0.0
 40
0.0
 40
0.0
 40
0.0
 40
0.1224874985
 40
0.2495298757
 40
0.3790272704
 40
0.5091195464
 40
0.6380032656
 40
0.7639311862
 40
0.885194077
 40
1.0
 40
1.0
 40
1.0
 40
1.0
 10
14.1458493923
 20
10.9503672733
 30
0.0
 10
14.1471314475
 20
10.9503672733
 30
0.0
 10
14.1497444783
 20
10.9502339885
 30
0.0
 10
14.1536771417
 20
10.9496763635
 30
0.0
 10
14.1576244282
 20
10.9487620903
 30
0.0
 10
14.1614996682
 20
10.9475154443
 30
0.0
 10
14.1652214414
 20
10.9459604053
 30
0.0
 10
14.1687130944
 20
10.9441312904
 30
0.0
 10
14.1718953884
 20
10.9420647994
 30
0.0
 10
14.1738268508
 20
10.9405146212
 30
0.0
 10
14.1747176367
 20
10.939708103
 30
0.0
  0
SPLINE
  5
2A8
100
AcDbEntity
  8
0
100
AcDbSpline
 62
7
  6
CONTINUOUS
 70
0
 71
3
 72
15
 73
11
 74
0
 42
0.0000001
 43
0.0000001
 44
0.0000000001
 40
0.0
 40
0.0
 40
0.0
 40
0.0
 40
0.1224874985
 40
0.2495298757
 40
0.3790272704
 40
0.5091195464
 40
0.6380032656
 40
0.7639311862
 40
0.885194077
 40
1.0
 40
1.0
 40
1.0
 40
1.0
 10
14.6063798893
 20
10.9503672733
 30
0.0
 10
14.6076619445
 20
10.9503672733
 30
0.0
 10
14.6102749753
 20
10.9502339885
 30
0.0
 10
14.6142076387
 20
10.9496763635
 30
0.0
 10
14.6181549252
 20
10.9487620903
 30
0.0
 10
14.6220301652
 20
10.9475154443
 30
0.0
 10
14.6257519384
 20
10.9459604053
 30
0.0
 10
14.6292435914
 20
10.9441312904
 30
0.0
 10
14.6324258854
 20
10.9420647994
 30
0.0
 10
14.6343573478
 20
10.9405146212
 30
0.0
 10
14.6352481337
 20
10.939708103
 30
0.0
  0
SPLINE
  5
2A9
100
AcDbEntity
  8
0
100
AcDbSpline
 62
7
  6
CONTINUOUS
 70
0
 71
3
 72
15
 73
11
 74
0
 42
0.0000001
 43
0.0000001
 44
0.0000000001
 40
0.0
 40
0.0
 40
0.0
 40
0.0
 40
0.1224874985
 40
0.2495298757
 40
0.3790272704
 40
0.5091195464
 40
0.6380032656
 40
0.7639311862
 40
0.885194077
 40
1.0
 40
1.0
 40
1.0
 40
1.0
 10
15.0669103863
 20
10.9503672733
 30
0.0
 10
15.0681924415
 20
10.9503672733
 30
0.0
 10
15.0708054723
 20
10.9502339885
 30
0.0
 10
15.0747381357
 20
10.9496763635
 30
0.0
 10
15.0786854222
 20
10.9487620903
 30
0.0
 10
15.0825606622
 20
10.9475154443
 30
0.0
 10
15.0862824354
 20
10.9459604053
 30
0.0
 10
15.0897740884
 20
10.9441312904
 30
0.0
 10
15.0929563824
 20
10.9420647994
 30
0.0
 10
15.0948878448
 20
10.9405146212
 30
0.0
 10
15.0957786307
 20
10.939708103
 30
0.0
  0
SPLINE
  5
2AA
100
AcDbEntity
  8
0
100
AcDbSpline
 62
7
  6
CONTINUOUS
 70
0
 71
3
 72
15
 73
11
 74
0
 42
0.0000001
 43
0.0000001
 44
0.0000000001
 40
0.0
 40
0.0
 40
0.0
 40
0.0
 40
0.1224874985
 40
0.2495298757
 40
0.3790272704
 40
0.5091195464
 40
0.6380032656
 40
0.7639311862
 40
0.885194077
 40
1.0
 40
1.0
 40
1.0
 40
1.0
 10
15.5274408833
 20
10.9503672733
 30
0.0
 10
15.5287229385
 20
10.9503672733
 30
0.0
 10
15.5313359693
 20
10.9502339885
 30
0.0
 10
15.5352686327
 20
10.9496763635
 30
0.0
 10
15.5392159192
 20
10.9487620903
 30
0.0
 10
15.5430911593
 20
10.9475154443
 30
0.0
 10
15.5468129324
 20
10.9459604053
 30
0.0
 10
15.5503045854
 20
10.9441312904
 30
0.0
 10
15.5534868794
 20
10.9420647994
 30
0.0
 10
15.5554183418
 20
10.9405146212
 30
0.0
 10
15.5563091277
 20
10.939708103
 30
0.0
  0
SPLINE
  5
2AB
100
AcDbEntity
  8
0
100
AcDbSpline
 62
7
  6
CONTINUOUS
 70
0
 71
3
 72
15
 73
11
 74
0
 42
0.0000001
 43
0.0000001
 44
0.0000000001
 40
0.0
 40
0.0
 40
0.0
 40
0.0
 40
0.1224874985
 40
0.2495298757
 40
0.3790272704
 40
0.5091195464
 40
0.6380032656
 40
0.7639311862
 40
0.885194077
 40
1.0
 40
1.0
 40
1.0
 40
1.0
 10
15.9879713803
 20
10.9503672733
 30
0.0
 10
15.9892534355
 20
10.9503672733
 30
0.0
 10
15.9918664663
 20
10.9502339885
 30
0.0
 10
15.9957991297
 20
10.9496763635
 30
0.0
 10
15.9997464162
 20
10.9487620903
 30
0.0
 10
16.0036216563
 20
10.9475154443
 30
0.0
 10
16.0073434294
 20
10.9459604053
 30
0.0
 10
16.0108350824
 20
10.9441312904
 30
0.0
 10
16.0140173764
 20
10.9420647994
 30
0.0
 10
16.0159488388
 20
10.9405146212
 30
0.0
 10
16.0168396247
 20
10.939708103
 30
0.0
  0
ENDSEC
  0
SECTION
  2
OBJECTS
  0
DICTIONARY
  5
C
100
AcDbDictionary
280
0
281
1
  3
ACAD_GROUP
350
D
  3
ACAD_MLINESTYLE
350
17
  3
ACAD_LAYOUT
350
1A
  3
ACAD_PLOTSETTINGS
350
19
  3
ACAD_PLOTSTYLENAME
350
E
  0
DICTIONARY
  5
D
102
{ACAD_REACTORS
330
C
102
}
100
AcDbDictionary
280
0
281
1
  0
ACDBDICTIONARYWDFLT
  5
E
102
{ACAD_REACTORS
330
C
102
}
100
AcDbDictionary
281
1
  3
Normal
350
F
100
AcDbDictionaryWithDefault
340
F
  0
DICTIONARY
  5
17
102
{ACAD_REACTORS
330
C
102
}
100
AcDbDictionary
280
0
281
1
  3
Standard
350
18
  0
DICTIONARY
  5
19
102
{ACAD_REACTORS
330
C
102
}
100
AcDbDictionary
281
1
  0
DICTIONARY
  5
1A
102
{ACAD_REACTORS
330
C
102
}
100
AcDbDictionary
281
1
  3
Model
350
2AC
  3
Layout1
350
2AD
  0
ACDBPLACEHOLDER
  5
F
102
{ACAD_REACTORS
330
E
102
}
  0
MLINESTYLE
  5
18
102
{ACAD_REACTORS
330
17
102
}
100
AcDbMlineStyle
  2
STANDARD
 70
0
  3

 62
256
 51
90.0
 52
90.0
 71
2
 49
0.5
 62
256
  6
BYLAYER
 49
-0.5
 62
256
  6
BYLAYER
  0
LAYOUT
  5
2AC
102
{ACAD_REACTORS
330
1A
102
}
100
AcDbPlotSettings
  1

  2
none_device
  4
ANSI_C_(22.00_x_17.00_Inches)
  6

 40
0.0
 41
0.0
 42
0.0
 43
0.0
 44
558.8
 45
431.8
 46
0.0
 47
0.0
 48
0.0
 49
0.0
140
0.0
141
0.0
142
1.0
143
1.0
 70
1024
 72
0
 73
0
 74
0
  7

 75
0
147
1.0
148
0.0
149
0.0
100
AcDbLayout
  1
Model
 70
0
 71
0
 10
0.0
 20
0.0
 11
22.0
 21
17.0
 12
0.0
 22
0.0
 32
0.0
 14
0.0
 24
0.0
 34
0.0
 15
0.0
 25
0.0
 35
0.0
146
0.0
 13
0.0
 23
0.0
 33
0.0
 16
1.0
 26
0.0
 36
0.0
 17
0.0
 27
1.0
 37
0.0
 76
0
330
216
345
0
346
0
  0
LAYOUT
  5
2AD
102
{ACAD_REACTORS
330
1A
102
}
100
AcDbPlotSettings
  1

  2
none_device
  4
ANSI_C_(22.00_x_17.00_Inches)
  6

 40
0.0
 41
0.0
 42
0.0
 43
0.0
 44
558.8
 45
431.8
 46
0.0
 47
0.0
 48
0.0
 49
0.0
140
0.0
141
0.0
142
1.0
143
1.0
 70
0
 72
0
 73
0
 74
0
  7

 75
0
147
1.0
148
0.0
149
0.0
100
AcDbLayout
  1
Layout1
 70
0
 71
1
 10
0.0
 20
0.0
 11
22.0
 21
17.0
 12
0.0
 22
0.0
 32
0.0
 14
0.0
 24
0.0
 34
0.0
 15
0.0
 25
0.0
 35
0.0
146
0.0
 13
0.0
 23
0.0
 33
0.0
 16
1.0
 26
0.0
 36
0.0
 17
0.0
 27
1.0
 37
0.0
 76
0
330
217
345
0
346
0
  0
ENDSEC
  0
EOF