999
DXF file: _cgs_temp_output.dxf
999
Pro/ENGINEER 2016360 by Parametric Technology Corporation
  0
SECTION
  2
HEADER
  9
$ACADVER
  1
AC1021
  9
$DWGCODEPAGE
  3
ANSI_1252
  9
$EXTMAX
 10
22.0
 20
17.0
 30
0.0
  9
$EXTMIN
 10
0.0
 20
0.0
 30
0.0
  9
$LIMMIN
 10
0.0
 20
0.0
  9
$LIMMAX
 10
22.0
 20
17.0
  9
$VIEWCTR
 10
11.0
 20
8.5
  9
$VIEWSIZE
 40
17.0
  9
$CLAYER
  8
0
  9
$LTSCALE
 40
1.21
  9
$CELTYPE
  6
BYLAYER
  9
$DIMSCALE
 40
1.0
  9
$DIMASZ
 40
0.1875
  9
$DIMEXO
 40
0.0625
  9
$DIMDLI
 40
0.836
  9
$DIMEXE
 40
0.125
  9
$DIMCEN
 40
0.198
  9
$DIMLFAC
 40
1.0
  9
$DIMBLK
  1
_CLOSED
  9
$DIMALT
 70
0
  9
$DIMALTF
 40
25.4
  9
$DIMTXT
 40
0.15625
  9
$DIMTOL
 70
0
  9
$DIMLIM
 70
0
  9
$DIMTFAC
 40
1.0
  9
$DIMGAP
 40
0.09
  9
$DIMDSEP
 70
46
  9
$AUNITS
 70
0
  9
$PDMODE
 70
3
  9
$PDSIZE
 40
0.3125
  9
$HANDSEED
  5
2AE
  9
$TILEMODE
 70
1
  9
$MEASUREMENT
 70
0
  9
$INSUNITS
 70
1
  0
ENDSEC
  0
SECTION
  2
CLASSES
  0
CLASS
  1
ACDBDICTIONARYWDFLT
  2
AcDbDictionaryWithDefault
  3
AutoCAD 2000
 90
0
 91
1
280
0
281
0
  0
CLASS
  1
ACDBPLACEHOLDER
  2
AcDbPlaceHolder
  3
AutoCAD 2000
 90
0
 91
1
280
0
281
0
  0
CLASS
  1
LAYOUT
  2
AcDbLayout
  3
AutoCAD 2000
 90
0
 91
0
280
0
281
0
  0
ENDSEC
  0
SECTION
  2
TABLES
  0
TABLE
  2
VPORT
  5
8
100
AcDbSymbolTable
 70
2
  0
VPORT
  5
1F4
100
AcDbSymbolTableRecord
100
AcDbViewportTableRecord
  2
*ACTIVE
 70
0
 10
0.0
 20
0.0
 11
1.0
 21
1.0
 12
11.0
 22
8.5
 13
0.0
 23
0.0
 14
1.0
 24
1.0
 15
0.0
 25
0.0
 16
0.0
 26
0.0
 36
1.0
 17
0.0
 27
0.0
 37
0.0
 40
17.0
 41
1.2941176471
 42
50.0
 43
0.0
 44
0.0
 50
0.0
 51
0.0
 71
0
 72
100
 73
1
 74
1
 75
0
 76
0
 77
0
 78
0
  0
ENDTAB
  0
TABLE
  2
LTYPE
  5
5
100
AcDbSymbolTable
 70
6
  0
LTYPE
  5
14
100
AcDbSymbolTableRecord
100
AcDbLinetypeTableRecord
  2
BYBLOCK
 70
0
  3

 72
65
 73
0
 40
0.0
  0
LTYPE
  5
15
100
AcDbSymbolTableRecord
100
AcDbLinetypeTableRecord
  2
BYLAYER
 70
0
  3

 72
65
 73
0
 40
0.0
  0
LTYPE
  5
16
100
AcDbSymbolTableRecord
100
AcDbLinetypeTableRecord
  2
CONTINUOUS
 70
64
  3
Solid line
 72
65
 73
0
 40
0.0
  0
LTYPE
  5
1F5
100
AcDbSymbolTableRecord
100
AcDbLinetypeTableRecord
  2
CENTER
 70
64
  3
____ _ ____ _ ____ _ ____ _ ____ _ ____ _ ____
 72
65
 73
4
 40
0.6
 49
0.375
 74
0
 49
-0.075
 74
0
 49
0.075
 74
0
 49
-0.075
 74
0
  0
LTYPE
  5
1F6
100
AcDbSymbolTableRecord
100
AcDbLinetypeTableRecord
  2
HIDDEN
 70
64
  3
- - - - - - - - - - - - - - - - - - - -
 72
65
 73
2
 40
0.2
 49
0.1
 74
0
 49
-0.1
 74
0
  0
LTYPE
  5
1F7
100
AcDbSymbolTableRecord
100
AcDbLinetypeTableRecord
  2
PHANTOM
 70
64
  3
_____ _ _ _____ _ _ _____ _ _ _____
 72
65
 73
6
 40
0.8
 49
0.45
 74
0
 49
-0.05
 74
0
 49
0.1
 74
0
 49
-0.05
 74
0
 49
0.1
 74
0
 49
-0.05
 74
0
  0
LTYPE
  5
1F8
100
AcDbSymbolTableRecord
100
AcDbLinetypeTableRecord
  2
DOT
 70
64
  3
. . . . . . . . . . . . . . . . . . . .
 72
65
 73
2
 40
0.2
 49
0.1
 74
0
 49
-0.1
 74
0
  0
LTYPE
  5
1F9
100
AcDbSymbolTableRecord
100
AcDbLinetypeTableRecord
  2
DASHED
 70
64
  3
- - - - - - - - - - - - - - - - - - - -
 72
65
 73
2
 40
0.2
 49
0.1
 74
0
 49
-0.1
 74
0
  0
ENDTAB
  0
TABLE
  2
LAYER
  5
2
100
AcDbSymbolTable
 70
36
  0
LAYER
  5
10
100
AcDbSymbolTableRecord
100
AcDbLayerTableRecord
  2
0
 70
0
 62
7
  6
CONTINUOUS
370
-3
390
F
  0
LAYER
  5
1FA
100
AcDbSymbolTableRecord
100
AcDbLayerTableRecord
  2
DEFAULT_1
 70
0
 62
7
  6
CENTER
370
-3
390
F
  0
LAYER
  5
1FB
100
AcDbSymbolTableRecord
100
AcDbLayerTableRecord
  2
DEFAULT_2
 70
0
 62
8
  6
HIDDEN
370
-3
390
F
  0
LAYER
  5
1FC
100
AcDbSymbolTableRecord
100
AcDbLayerTableRecord
  2
DEFAULT_3
 70
0
 62
7
  6
PHANTOM
370
-3
390
F
  0
LAYER
  5
1FD
100
AcDbSymbolTableRecord
100
AcDbLayerTableRecord
  2
01_ALL_DTM_PLN
 70
0
 62
7
  6
CONTINUOUS
370
-3
390
F
  0
LAYER
  5
1FE
100
AcDbSymbolTableRecord
100
AcDbLayerTableRecord
  2
01__ASM_ALL_DTM_PLN
 70
0
 62
7
  6
CONTINUOUS
370
-3
390
F
  0
LAYER
  5
1FF
100
AcDbSymbolTableRecord
100
AcDbLayerTableRecord
  2
01__ASM_DEF_DTM_PLN
 70
0
 62
7
  6
CONTINUOUS
370
-3
390
F
  0
LAYER
  5
200
100
AcDbSymbolTableRecord
100
AcDbLayerTableRecord
  2
01___PRT_ALL_DTM_PLN
 70
0
 62
7
  6
CONTINUOUS
370
-3
390
F
  0
LAYER
  5
201
100
AcDbSymbolTableRecord
100
AcDbLayerTableRecord
  2
01___PRT_DEF_DTM_PLN
 70
0
 62
7
  6
CONTINUOUS
370
-3
390
F
  0
LAYER
  5
202
100
AcDbSymbolTableRecord
100
AcDbLayerTableRecord
  2
02_ALL_AXES
 70
0
 62
7
  6
CONTINUOUS
370
-3
390
F
  0
LAYER
  5
203
100
AcDbSymbolTableRecord
100
AcDbLayerTableRecord
  2
02__ASM_ALL_AXES
 70
0
 62
7
  6
CONTINUOUS
370
-3
390
F
  0
LAYER
  5
204
100
AcDbSymbolTableRecord
100
AcDbLayerTableRecord
  2
02___PRT_ALL_AXES
 70
0
 62
7
  6
CONTINUOUS
370
-3
390
F
  0
LAYER
  5
205
100
AcDbSymbolTableRecord
100
AcDbLayerTableRecord
  2
03_ALL_CURVES
 70
0
 62
7
  6
CONTINUOUS
370
-3
390
F
  0
LAYER
  5
206
100
AcDbSymbolTableRecord
100
AcDbLayerTableRecord
  2
03__ASM_ALL_CURVES
 70
0
 62
7
  6
CONTINUOUS
370
-3
390
F
  0
LAYER
  5
207
100
AcDbSymbolTableRecord
100
AcDbLayerTableRecord
  2
03___PRT_ALL_CURVES
 70
0
 62
7
  6
CONTINUOUS
370
-3
390
F
  0
LAYER
  5
208
100
AcDbSymbolTableRecord
100
AcDbLayerTableRecord
  2
04_ALL_DTM_PNT
 70
0
 62
7
  6
CONTINUOUS
370
-3
390
F
  0
LAYER
  5
209
100
AcDbSymbolTableRecord
100
AcDbLayerTableRecord
  2
04__ASM_ALL_DTM_PNT
 70
0
 62
7
  6
CONTINUOUS
370
-3
390
F
  0
LAYER
  5
20A
100
AcDbSymbolTableRecord
100
AcDbLayerTableRecord
  2
04___PRT_ALL_DTM_PNT
 70
0
 62
7
  6
CONTINUOUS
370
-3
390
F
  0
LAYER
  5
20B
100
AcDbSymbolTableRecord
100
AcDbLayerTableRecord
  2
05_ALL_DTM_CSYS
 70
0
 62
7
  6
CONTINUOUS
370
-3
390
F
  0
LAYER
  5
20C
100
AcDbSymbolTableRecord
100
AcDbLayerTableRecord
  2
05__ASM_ALL_DTM_CSYS
 70
0
 62
7
  6
CONTINUOUS
370
-3
390
F
  0
LAYER
  5
20D
100
AcDbSymbolTableRecord
100
AcDbLayerTableRecord
  2
05__ASM_DEF_DTM_CSYS
 70
0
 62
7
  6
CONTINUOUS
370
-3
390
F
  0
LAYER
  5
20E
100
AcDbSymbolTableRecord
100
AcDbLayerTableRecord
  2
05___PRT_ALL_DTM_CSYS
 70
0
 62
7
  6
CONTINUOUS
370
-3
390
F
  0
LAYER
  5
20F
100
AcDbSymbolTableRecord
100
AcDbLayerTableRecord
  2
05___PRT_DEF_DTM_CSYS
 70
0
 62
7
  6
CONTINUOUS
370
-3
390
F
  0
LAYER
  5
210
100
AcDbSymbolTableRecord
100
AcDbLayerTableRecord
  2
06_ALL_SURFS
 70
0
 62
7
  6
CONTINUOUS
370
-3
390
F
  0
LAYER
  5
211
100
AcDbSymbolTableRecord
100
AcDbLayerTableRecord
  2
06__ASM_ALL_SURFS
 70
0
 62
7
  6
CONTINUOUS
370
-3
390
F
  0
LAYER
  5
212
100
AcDbSymbolTableRecord
100
AcDbLayerTableRecord
  2
06___PRT_ALL_SURFS
 70
0
 62
7
  6
CONTINUOUS
370
-3
390
F
  0
LAYER
  5
213
100
AcDbSymbolTableRecord
100
AcDbLayerTableRecord
  2
07__ASM_ALL_SKELETONS
 70
0
 62
7
  6
CONTINUOUS
370
-3
390
F
  0
ENDTAB
  0
TABLE
  2
STYLE
  5
3
100
AcDbSymbolTable
 70
1
  0
STYLE
  5
11
100
AcDbSymbolTableRecord
100
AcDbTextStyleTableRecord
  2
STANDARD
 70
0
 40
0.0
 41
0.8
 50
0.0
 71
0
 42
0.2
  3
txt
  4

  0
STYLE
  5
214
100
AcDbSymbolTableRecord
100
AcDbTextStyleTableRecord
  2
TEXTSTYLE_1
 70
0
 40
0.0
 41
0.8
 50
0.0
 71
0
 42
0.2
  3
gdt
  4

  0
ENDTAB
  0
TABLE
  2
VIEW
  5
6
100
AcDbSymbolTable
 70
0
  0
ENDTAB
  0
TABLE
  2
UCS
  5
7
100
AcDbSymbolTable
 70
0
  0
ENDTAB
  0
TABLE
  2
APPID
  5
9
100
AcDbSymbolTable
 70
1
  0
APPID
  5
215
100
AcDbSymbolTableRecord
100
AcDbRegAppTableRecord
  2
ACAD
 70
0
  0
ENDTAB
  0
TABLE
  2
BLOCK_RECORD
  5
1
100
AcDbSymbolTable
 70
0
  0
BLOCK_RECORD
  5
216
100
AcDbSymbolTableRecord
100
AcDbBlockTableRecord
  2
*Model_Space
  0
BLOCK_RECORD
  5
217
100
AcDbSymbolTableRecord
100
AcDbBlockTableRecord
  2
*Paper_Space
  0
ENDTAB
  0
TABLE
  2
DIMSTYLE
  5
A
100
AcDbSymbolTable
 70
1
100
AcDbDimStyleTable
 71
0
  0
DIMSTYLE
105
218
100
AcDbSymbolTableRecord
100
AcDbDimStyleTableRecord
  2
STANDARD
 70
0
  3

  4

 40
1.0
 41
0.1875
 42
0.0625
 43
0.38
 44
0.125
 45
0.0
 46
0.0
 47
0.0001
 48
0.0001
140
0.15625
141
0.09
142
0.0
143
25.4
144
1.0
145
0.0
146
1.0
147
0.09
 71
0.0
 72
0.0
 73
1
 74
1
 75
0
 76
0
 77
0
 78
4
 79
1
170
0
171
3
172
0
173
0
174
0
175
0
176
0
177
0
178
0
270
2
179
4
271
4
272
4
273
2
274
2
275
0
280
0
281
0
282
0
283
1
284
4
285
0
286
0
287
3
288
0
340
11
278
46
  0
ENDTAB
  0
ENDSEC
  0
SECTION
  2
BLOCKS
  0
BLOCK
  5
20
100
AcDbEntity
  8
0
100
AcDbBlockBegin
  2
*Model_Space
 70
0
 10
0.0
 20
0.0
 30
0.0
  3
*Model_Space
  1

  0
ENDBLK
  5
21
100
AcDbEntity
  8
0
100
AcDbBlockEnd
  0
BLOCK
  5
1C
100
AcDbEntity
  8
0
100
AcDbBlockBegin
  2
*Paper_Space
 70
0
 10
0.0
 20
0.0
 30
0.0
  3
*Paper_Space
  1

  0
ENDBLK
  5
1D
100
AcDbEntity
  8
0
100
AcDbBlockEnd
  0
ENDSEC
  0
SECTION
  2
ENTITIES
  0
MTEXT
  5
219
100
AcDbEntity
  8
0
100
AcDbMText
 62
7
  6
CONTINUOUS
  7
STANDARD
 71
1
 72
1
 10
15.9560215477
 20
0.9479130325
 30
0.0
 11
1.0
 21
0.0
 31
0.0
 44
0.9
  1
SCALE: 1:1.000
 40
0.3
 41
3.36
  0
LINE
  5
21A
100
AcDbEntity
  8
0
100
AcDbLine
 62
7
  6
CONTINUOUS
 10
0.0
 20
0.0
 11
0.0
 21
17.0
  0
LINE
  5
21B
100
AcDbEntity
  8
0
100
AcDbLine
 62
7
  6
CONTINUOUS
 10
0.0
 20
0.0
 11
22.0
 21
0.0
  0
LINE
  5
21C
100
AcDbEntity
  8
0
100
AcDbLine
 62
7
  6
CONTINUOUS
 10
0.0
 20
17.0
 11
22.0
 21
17.0
  0
LINE
  5
21D
100
AcDbEntity
  8
0
100
AcDbLine
 62
7
  6
CONTINUOUS
 10
22.0
 20
0.0
 11
22.0
 21
17.0
  0
LINE
  5
21E
100
AcDbEntity
  8
0
100
AcDbLine
 62
7
  6
CONTINUOUS
 10
4.6303672762
 20
5.6001198968
 11
4.6303672762
 21
5.5301198968
  0
LINE
  5
21F
100
AcDbEntity
  8
0
100
AcDbLine
 62
7
  6
CONTINUOUS
 10
4.7312200788
 20
5.5129722143
 11
4.7507422928
 21
5.4658414204
  0
LINE
  5
220
100
AcDbEntity
  8
0
100
AcDbLine
 62
7
  6
CONTINUOUS
 10
5.0099922595
 20
5.4658414204
 11
5.0295144735
 21
5.5129722143
  0
LINE
  5
221
100
AcDbEntity
  8
0
100
AcDbLine
 62
7
  6
CONTINUOUS
 10
5.2312200788
 20
5.5129722143
 11
5.2507422928
 21
5.4658414204
  0
LINE
  5
222
100
AcDbEntity
  8
0
100
AcDbLine
 62
7
  6
CONTINUOUS
 10
5.5099922595
 20
5.4658414204
 11
5.5295144735
 21
5.5129722143
  0
LINE
  5
223
100
AcDbEntity
  8
0
100
AcDbLine
 62
7
  6
CONTINUOUS
 10
5.7312200788
 20
5.5129722143
 11
5.7507422928
 21
5.4658414204
  0
LINE
  5
224
100
AcDbEntity
  8
0
100
AcDbLine
 62
7
  6
CONTINUOUS
 10
6.0099922595
 20
5.4658414204
 11
6.0295144735
 21
5.5129722143
  0
LINE
  5
225
100
AcDbEntity
  8
0
100
AcDbLine
 62
7
  6
CONTINUOUS
 10
4.7892372734
 20
5.4401198968
 11
4.971497279
 21
5.4401198968
  0
LINE
  5
226
100
AcDbEntity
  8
0
100
AcDbLine
 62
7
  6
CONTINUOUS
 10
5.2892372734
 20
5.4401198968
 11
5.471497279
 21
5.4401198968
  0
LINE
  5
227
100
AcDbEntity
  8
0
100
AcDbLine
 62
7
  6
CONTINUOUS
 10
5.7892372734
 20
5.4401198968
 11
5.971497279
 21
5.4401198968
  0
LINE
  5
228
100
AcDbEntity
  8
0
100
AcDbLine
 62
7
  6
CONTINUOUS
 10
6.2892372734
 20
5.4401198968
 11
6.471497279
 21
5.4401198968
  0
LINE
  5
229
100
AcDbEntity
  8
0
100
AcDbLine
 62
7
  6
CONTINUOUS
 10
6.7892372734
 20
5.4401198968
 11
6.971497279
 21
5.4401198968
  0
LINE
  5
22A
100
AcDbEntity
  8
0
100
AcDbLine
 62
7
  6
CONTINUOUS
 10
7.2892372734
 20
5.4401198968
 11
7.471497279
 21
5.4401198968
  0
LINE
  5
22B
100
AcDbEntity
  8
0
100
AcDbLine
 62
7
  6
CONTINUOUS
 10
4.6303672762
 20
5.5301198968
 11
4.7055567584
 21
5.5301198968
  0
LINE
  5
22C
100
AcDbEntity
  8
0
100
AcDbLine
 62
7
  6
CONTINUOUS
 10
5.0551777939
 20
5.5301198968
 11
5.2055567584
 21
5.5301198968
  0
LINE
  5
22D
100
AcDbEntity
  8
0
100
AcDbLine
 62
7
  6
CONTINUOUS
 10
5.5551777939
 20
5.5301198968
 11
5.7055567584
 21
5.5301198968
  0
LINE
  5
22E
100
AcDbEntity
  8
0
100
AcDbLine
 62
7
  6
CONTINUOUS
 10
6.0551777939
 20
5.5301198968
 11
6.2055567584
 21
5.5301198968
  0
LINE
  5
22F
100
AcDbEntity
  8
0
100
AcDbLine
 62
7
  6
CONTINUOUS
 10
6.5551777939
 20
5.5301198968
 11
6.7055567584
 21
5.5301198968
  0
LINE
  5
230
100
AcDbEntity
  8
0
100
AcDbLine
 62
7
  6
CONTINUOUS
 10
7.0551777939
 20
5.5301198968
 11
7.2055567584
 21
5.5301198968
  0
LINE
  5
231
100
AcDbEntity
  8
0
100
AcDbLine
 62
7
  6
CONTINUOUS
 10
7.5551777939
 20
5.5301198968
 11
7.6303672762
 21
5.5301198968
  0
LINE
  5
232
100
AcDbEntity
  8
0
100
AcDbLine
 62
7
  6
CONTINUOUS
 10
7.6303672762
 20
5.6001198968
 11
4.6303672762
 21
5.6001198968
  0
LINE
  5
233
100
AcDbEntity
  8
0
100
AcDbLine
 62
7
  6
CONTINUOUS
 10
6.2312200788
 20
5.5129722143
 11
6.2507422928
 21
5.4658414204
  0
LINE
  5
234
100
AcDbEntity
  8
0
100
AcDbLine
 62
7
  6
CONTINUOUS
 10
6.5099922595
 20
5.4658414204
 11
6.5295144735
 21
5.5129722143
  0
LINE
  5
235
100
AcDbEntity
  8
0
100
AcDbLine
 62
7
  6
CONTINUOUS
 10
6.7312200788
 20
5.5129722143
 11
6.7507422928
 21
5.4658414204
  0
LINE
  5
236
100
AcDbEntity
  8
0
100
AcDbLine
 62
7
  6
CONTINUOUS
 10
7.0099922595
 20
5.4658414204
 11
7.0295144735
 21
5.5129722143
  0
LINE
  5
237
100
AcDbEntity
  8
0
100
AcDbLine
 62
7
  6
CONTINUOUS
 10
7.2312200788
 20
5.5129722143
 11
7.2507422928
 21
5.4658414204
  0
LINE
  5
238
100
AcDbEntity
  8
0
100
AcDbLine
 62
7
  6
CONTINUOUS
 10
7.5099922595
 20
5.4658414204
 11
7.5295144735
 21
5.5129722143
  0
LINE
  5
239
100
AcDbEntity
  8
0
100
AcDbLine
 62
7
  6
CONTINUOUS
 10
7.6303672762
 20
5.5301198968
 11
7.6303672762
 21
5.6001198968
  0
LINE
  5
23A
100
AcDbEntity
  8
0
100
AcDbLine
 62
7
  6
CONTINUOUS
 10
4.5708720839
 20
13.1000477814
 11
4.5708720839
 21
12.1000477814
  0
LINE
  5
23B
100
AcDbEntity
  8
0
100
AcDbLine
 62
7
  6
CONTINUOUS
 10
7.5708720839
 20
12.1000477814
 11
4.5708720839
 21
12.1000477814
  0
LINE
  5
23C
100
AcDbEntity
  8
0
100
AcDbLine
 62
7
  6
CONTINUOUS
 10
4.5708720839
 20
13.1000477814
 11
7.5708720839
 21
13.1000477814
  0
LINE
  5
23D
100
AcDbEntity
  8
0
100
AcDbLine
 62
7
  6
CONTINUOUS
 10
7.5708720839
 20
13.1000477814
 11
7.5708720839
 21
12.1000477814
  0
LINE
  5
23E
100
AcDbEntity
  8
0
100
AcDbLine
 62
7
  6
CONTINUOUS
 10
15.0603552569
 20
5.3806247044
 11
15.0603552569
 21
5.5406247044
  0
LINE
  5
23F
100
AcDbEntity
  8
0
100
AcDbLine
 62
7
  6
CONTINUOUS
 10
15.0603552569
 20
5.3806247044
 11
16.0603552569
 21
5.3806247044
  0
LINE
  5
240
100
AcDbEntity
  8
0
100
AcDbLine
 62
7
  6
CONTINUOUS
 10
16.0603552569
 20
5.4706247044
 11
15.0603552569
 21
5.4706247044
  0
LINE
  5
241
100
AcDbEntity
  8
0
100
AcDbLine
 62
7
  6
CONTINUOUS
 10
16.0603552569
 20
5.5406247044
 11
15.0603552569
 21
5.5406247044
  0
LINE
  5
242
100
AcDbEntity
  8
0
100
AcDbLine
 62
7
  6
CONTINUOUS
 10
16.0603552569
 20
5.3806247044
 11
16.0603552569
 21
5.5406247044
  0
LINE
  5
243
100
AcDbEntity
  8
0
100
AcDbLine
 62
7
  6
CONTINUOUS
 10
13.9578113504
 20
12.1688703356
 11
13.9791642811
 21
12.1253576378
  0
LINE
  5
244
100
AcDbEntity
  8
0
100
AcDbLine
 62
7
  6
CONTINUOUS
 10
14.1998776738
 20
12.9521972452
 11
13.9578113504
 21
12.1688703356
  0
LINE
  5
245
100
AcDbEntity
  8
0
100
AcDbLine
 62
7
  6
CONTINUOUS
 10
14.0772866248
 20
12.1146984674
 11
14.10964464
 21
12.0854014961
  0
LINE
  5
246
100
AcDbEntity
  8
0
100
AcDbLine
 62
7
  6
CONTINUOUS
 10
14.348429672
 20
12.0854014961
 11
14.3520339565
 21
12.1146984674
  0
LINE
  5
247
100
AcDbEntity
  8
0
100
AcDbLine
 62
7
  6
CONTINUOUS
 10
14.3479222904
 20
12.0830100779
 11
14.348429672
 21
12.0854014961
  0
LINE
  5
248
100
AcDbEntity
  8
0
100
AcDbLine
 62
7
  6
CONTINUOUS
 10
14.3520339565
 20
12.1146984674
 11
14.3523781377
 21
12.1162909175
  0
LINE
  5
249
100
AcDbEntity
  8
0
100
AcDbLine
 62
7
  6
CONTINUOUS
 10
14.3486375264
 20
12.0853372643
 11
14.3604298796
 21
12.1234973331
  0
LINE
  5
24A
100
AcDbEntity
  8
0
100
AcDbLine
 62
7
  6
CONTINUOUS
 10
14.5378171218
 20
12.1146984674
 11
14.570175137
 21
12.0854014961
  0
LINE
  5
24B
100
AcDbEntity
  8
0
100
AcDbLine
 62
7
  6
CONTINUOUS
 10
14.808960169
 20
12.0854014961
 11
14.8125644535
 21
12.1146984674
  0
LINE
  5
24C
100
AcDbEntity
  8
0
100
AcDbLine
 62
7
  6
CONTINUOUS
 10
14.8084527874
 20
12.0830100779
 11
14.808960169
 21
12.0854014961
  0
LINE
  5
24D
100
AcDbEntity
  8
0
100
AcDbLine
 62
7
  6
CONTINUOUS
 10
14.8125644535
 20
12.1146984674
 11
14.8129086347
 21
12.1162909175
  0
LINE
  5
24E
100
AcDbEntity
  8
0
100
AcDbLine
 62
7
  6
CONTINUOUS
 10
14.9983476188
 20
12.1146984674
 11
15.030705634
 21
12.0854014961
  0
LINE
  5
24F
100
AcDbEntity
  8
0
100
AcDbLine
 62
7
  6
CONTINUOUS
 10
14.8091680234
 20
12.0853372643
 11
14.8209603766
 21
12.1234973331
  0
LINE
  5
250
100
AcDbEntity
  8
0
100
AcDbLine
 62
7
  6
CONTINUOUS
 10
14.1529470066
 20
12.0694127406
 11
14.3208195886
 21
12.0694127406
  0
LINE
  5
251
100
AcDbEntity
  8
0
100
AcDbLine
 62
7
  6
CONTINUOUS
 10
14.6134775036
 20
12.0694127406
 11
14.7813500856
 21
12.0694127406
  0
LINE
  5
252
100
AcDbEntity
  8
0
100
AcDbLine
 62
7
  6
CONTINUOUS
 10
15.0740080006
 20
12.0694127406
 11
15.2418805826
 21
12.0694127406
  0
LINE
  5
253
100
AcDbEntity
  8
0
100
AcDbLine
 62
7
  6
CONTINUOUS
 10
15.5345384976
 20
12.0694127406
 11
15.7024110796
 21
12.0694127406
  0
LINE
  5
254
100
AcDbEntity
  8
0
100
AcDbLine
 62
7
  6
CONTINUOUS
 10
15.9950689946
 20
12.0694127406
 11
16.1629415766
 21
12.0694127406
  0
LINE
  5
255
100
AcDbEntity
  8
0
100
AcDbLine
 62
7
  6
CONTINUOUS
 10
16.4555994916
 20
12.0694127406
 11
16.6234720736
 21
12.0694127406
  0
LINE
  5
256
100
AcDbEntity
  8
0
100
AcDbLine
 62
7
  6
CONTINUOUS
 10
13.9791642811
 20
12.1253576378
 11
14.0484183804
 21
12.1253576378
  0
LINE
  5
257
100
AcDbEntity
  8
0
100
AcDbLine
 62
7
  6
CONTINUOUS
 10
14.3704406788
 20
12.1253576378
 11
14.5089488774
 21
12.1253576378
  0
LINE
  5
258
100
AcDbEntity
  8
0
100
AcDbLine
 62
7
  6
CONTINUOUS
 10
14.8309711758
 20
12.1253576378
 11
14.9694793744
 21
12.1253576378
  0
LINE
  5
259
100
AcDbEntity
  8
0
100
AcDbLine
 62
7
  6
CONTINUOUS
 10
15.2915016728
 20
12.1253576378
 11
15.4300098714
 21
12.1253576378
  0
LINE
  5
25A
100
AcDbEntity
  8
0
100
AcDbLine
 62
7
  6
CONTINUOUS
 10
15.7520321698
 20
12.1253576378
 11
15.8905403684
 21
12.1253576378
  0
LINE
  5
25B
100
AcDbEntity
  8
0
100
AcDbLine
 62
7
  6
CONTINUOUS
 10
16.2125626668
 20
12.1253576378
 11
16.3510708654
 21
12.1253576378
  0
LINE
  5
25C
100
AcDbEntity
  8
0
100
AcDbLine
 62
7
  6
CONTINUOUS
 10
16.6730931638
 20
12.1253576378
 11
16.7423472631
 21
12.1253576378
  0
LINE
  5
25D
100
AcDbEntity
  8
0
100
AcDbLine
 62
7
  6
CONTINUOUS
 10
16.7209943324
 20
12.1688703356
 11
13.9578113504
 21
12.1688703356
  0
LINE
  5
25E
100
AcDbEntity
  8
0
100
AcDbLine
 62
7
  6
CONTINUOUS
 10
15.4588781158
 20
12.1146984674
 11
15.491236131
 21
12.0854014961
  0
LINE
  5
25F
100
AcDbEntity
  8
0
100
AcDbLine
 62
7
  6
CONTINUOUS
 10
15.269490666
 20
12.0854014961
 11
15.2730949505
 21
12.1146984674
  0
LINE
  5
260
100
AcDbEntity
  8
0
100
AcDbLine
 62
7
  6
CONTINUOUS
 10
15.2689832844
 20
12.0830100779
 11
15.269490666
 21
12.0854014961
  0
LINE
  5
261
100
AcDbEntity
  8
0
100
AcDbLine
 62
7
  6
CONTINUOUS
 10
15.2730949505
 20
12.1146984674
 11
15.2734391317
 21
12.1162909175
  0
LINE
  5
262
100
AcDbEntity
  8
0
100
AcDbLine
 62
7
  6
CONTINUOUS
 10
15.2696985204
 20
12.0853372643
 11
15.2814908736
 21
12.1234973331
  0
LINE
  5
263
100
AcDbEntity
  8
0
100
AcDbLine
 62
7
  6
CONTINUOUS
 10
15.9194086128
 20
12.1146984674
 11
15.951766628
 21
12.0854014961
  0
LINE
  5
264
100
AcDbEntity
  8
0
100
AcDbLine
 62
7
  6
CONTINUOUS
 10
15.730021163
 20
12.0854014961
 11
15.7336254475
 21
12.1146984674
  0
LINE
  5
265
100
AcDbEntity
  8
0
100
AcDbLine
 62
7
  6
CONTINUOUS
 10
16.3799391098
 20
12.1146984674
 11
16.412297125
 21
12.0854014961
  0
LINE
  5
266
100
AcDbEntity
  8
0
100
AcDbLine
 62
7
  6
CONTINUOUS
 10
15.7295137814
 20
12.0830100779
 11
15.730021163
 21
12.0854014961
  0
LINE
  5
267
100
AcDbEntity
  8
0
100
AcDbLine
 62
7
  6
CONTINUOUS
 10
15.7336254475
 20
12.1146984674
 11
15.7339696287
 21
12.1162909175
  0
LINE
  5
268
100
AcDbEntity
  8
0
100
AcDbLine
 62
7
  6
CONTINUOUS
 10
15.7302290174
 20
12.0853372643
 11
15.7420213706
 21
12.1234973331
  0
LINE
  5
269
100
AcDbEntity
  8
0
100
AcDbLine
 62
7
  6
CONTINUOUS
 10
14.1998776738
 20
12.9521972452
 11
16.9630606558
 21
12.9521972452
  0
LINE
  5
26A
100
AcDbEntity
  8
0
100
AcDbLine
 62
7
  6
CONTINUOUS
 10
16.19055166
 20
12.0854014961
 11
16.1941559445
 21
12.1146984674
  0
LINE
  5
26B
100
AcDbEntity
  8
0
100
AcDbLine
 62
7
  6
CONTINUOUS
 10
16.1900442784
 20
12.0830100779
 11
16.19055166
 21
12.0854014961
  0
LINE
  5
26C
100
AcDbEntity
  8
0
100
AcDbLine
 62
7
  6
CONTINUOUS
 10
16.1941559445
 20
12.1146984674
 11
16.1945001257
 21
12.1162909175
  0
LINE
  5
26D
100
AcDbEntity
  8
0
100
AcDbLine
 62
7
  6
CONTINUOUS
 10
16.1907595144
 20
12.0853372643
 11
16.2025518676
 21
12.1234973331
  0
LINE
  5
26E
100
AcDbEntity
  8
0
100
AcDbLine
 62
7
  6
CONTINUOUS
 10
16.7423472631
 20
12.1253576378
 11
16.7209943324
 21
12.1688703356
  0
LINE
  5
26F
100
AcDbEntity
  8
0
100
AcDbLine
 62
7
  6
CONTINUOUS
 10
16.651082157
 20
12.0854014961
 11
16.6546864415
 21
12.1146984674
  0
LINE
  5
270
100
AcDbEntity
  8
0
100
AcDbLine
 62
7
  6
CONTINUOUS
 10
16.6505747754
 20
12.0830100779
 11
16.651082157
 21
12.0854014961
  0
LINE
  5
271
100
AcDbEntity
  8
0
100
AcDbLine
 62
7
  6
CONTINUOUS
 10
16.6546864415
 20
12.1146984674
 11
16.6550306227
 21
12.1162909175
  0
LINE
  5
272
100
AcDbEntity
  8
0
100
AcDbLine
 62
7
  6
CONTINUOUS
 10
16.6512900114
 20
12.0853372643
 11
16.6630823646
 21
12.1234973331
  0
LINE
  5
273
100
AcDbEntity
  8
0
100
AcDbLine
 62
7
  6
CONTINUOUS
 10
16.9630606558
 20
12.9521972452
 11
16.7209943324
 21
12.1688703356
  0
LINE
  5
274
100
AcDbEntity
  8
0
100
AcDbLine
 62
7
  6
CONTINUOUS
 10
16.9844135865
 20
12.9086845474
 11
16.7423472631
 21
12.1253576378
  0
LINE
  5
275
100
AcDbEntity
  8
0
100
AcDbLine
 62
7
  6
CONTINUOUS
 10
16.9844135865
 20
12.9086845474
 11
16.9630606558
 21
12.9521972452
  0
ARC
  5
276
100
AcDbEntity
  8
0
100
AcDbCircle
 62
7
  6
CONTINUOUS
 10
5.2892372734
 20
5.4817865634
 40
0.0416666667
100
AcDbArc
 50
202.5
 51
270.0
  0
ARC
  5
277
100
AcDbEntity
  8
0
100
AcDbCircle
 62
7
  6
CONTINUOUS
 10
5.471497279
 20
5.4817865634
 40
0.0416666667
100
AcDbArc
 50
270.0
 51
337.5
  0
ARC
  5
278
100
AcDbEntity
  8
0
100
AcDbCircle
 62
7
  6
CONTINUOUS
 10
5.7892372734
 20
5.4817865634
 40
0.0416666667
100
AcDbArc
 50
202.5
 51
270.0
  0
ARC
  5
279
100
AcDbEntity
  8
0
100
AcDbCircle
 62
7
  6
CONTINUOUS
 10
5.971497279
 20
5.4817865634
 40
0.0416666667
100
AcDbArc
 50
270.0
 51
337.5
  0
ARC
  5
27A
100
AcDbEntity
  8
0
100
AcDbCircle
 62
7
  6
CONTINUOUS
 10
6.2892372734
 20
5.4817865634
 40
0.0416666667
100
AcDbArc
 50
202.5
 51
270.0
  0
ARC
  5
27B
100
AcDbEntity
  8
0
100
AcDbCircle
 62
7
  6
CONTINUOUS
 10
6.471497279
 20
5.4817865634
 40
0.0416666667
100
AcDbArc
 50
270.0
 51
337.5
  0
ARC
  5
27C
100
AcDbEntity
  8
0
100
AcDbCircle
 62
7
  6
CONTINUOUS
 10
4.971497279
 20
5.4817865634
 40
0.0416666667
100
AcDbArc
 50
270.0
 51
337.5
  0
ARC
  5
27D
100
AcDbEntity
  8
0
100
AcDbCircle
 62
7
  6
CONTINUOUS
 10
4.7892372734
 20
5.4817865634
 40
0.0416666667
100
AcDbArc
 50
202.5
 51
270.0
  0
ARC
  5
27E
100
AcDbEntity
  8
0
100
AcDbCircle
 62
7
  6
CONTINUOUS
 10
7.471497279
 20
5.4817865634
 40
0.0416666667
100
AcDbArc
 50
270.0
 51
337.5
  0
ARC
  5
27F
100
AcDbEntity
  8
0
100
AcDbCircle
 62
7
  6
CONTINUOUS
 10
7.2892372734
 20
5.4817865634
 40
0.0416666667
100
AcDbArc
 50
202.5
 51
270.0
  0
ARC
  5
280
100
AcDbEntity
  8
0
100
AcDbCircle
 62
7
  6
CONTINUOUS
 10
6.971497279
 20
5.4817865634
 40
0.0416666667
100
AcDbArc
 50
270.0
 51
337.5
  0
ARC
  5
281
100
AcDbEntity
  8
0
100
AcDbCircle
 62
7
  6
CONTINUOUS
 10
6.7892372734
 20
5.4817865634
 40
0.0416666667
100
AcDbArc
 50
202.5
 51
270.0
  0
ARC
  5
282
100
AcDbEntity
  8
0
100
AcDbCircle
 62
7
  6
CONTINUOUS
 10
5.0551777939
 20
5.502342119
 40
0.0277777778
100
AcDbArc
 50
90.0
 51
157.5
  0
ARC
  5
283
100
AcDbEntity
  8
0
100
AcDbCircle
 62
7
  6
CONTINUOUS
 10
4.7055567584
 20
5.502342119
 40
0.0277777778
100
AcDbArc
 50
22.5
 51
90.0
  0
ARC
  5
284
100
AcDbEntity
  8
0
100
AcDbCircle
 62
7
  6
CONTINUOUS
 10
5.5551777939
 20
5.502342119
 40
0.0277777778
100
AcDbArc
 50
90.0
 51
157.5
  0
ARC
  5
285
100
AcDbEntity
  8
0
100
AcDbCircle
 62
7
  6
CONTINUOUS
 10
5.2055567584
 20
5.502342119
 40
0.0277777778
100
AcDbArc
 50
22.5
 51
90.0
  0
ARC
  5
286
100
AcDbEntity
  8
0
100
AcDbCircle
 62
7
  6
CONTINUOUS
 10
6.0551777939
 20
5.502342119
 40
0.0277777778
100
AcDbArc
 50
90.0
 51
157.5
  0
ARC
  5
287
100
AcDbEntity
  8
0
100
AcDbCircle
 62
7
  6
CONTINUOUS
 10
5.7055567584
 20
5.502342119
 40
0.0277777778
100
AcDbArc
 50
22.5
 51
90.0
  0
ARC
  5
288
100
AcDbEntity
  8
0
100
AcDbCircle
 62
7
  6
CONTINUOUS
 10
6.5551777939
 20
5.502342119
 40
0.0277777778
100
AcDbArc
 50
90.0
 51
157.5
  0
ARC
  5
289
100
AcDbEntity
  8
0
100
AcDbCircle
 62
7
  6
CONTINUOUS
 10
6.2055567584
 20
5.502342119
 40
0.0277777778
100
AcDbArc
 50
22.5
 51
90.0
  0
ARC
  5
28A
100
AcDbEntity
  8
0
100
AcDbCircle
 62
7
  6
CONTINUOUS
 10
7.0551777939
 20
5.502342119
 40
0.0277777778
100
AcDbArc
 50
90.0
 51
157.5
  0
ARC
  5
28B
100
AcDbEntity
  8
0
100
AcDbCircle
 62
7
  6
CONTINUOUS
 10
6.7055567584
 20
5.502342119
 40
0.0277777778
100
AcDbArc
 50
22.5
 51
90.0
  0
ARC
  5
28C
100
AcDbEntity
  8
0
100
AcDbCircle
 62
7
  6
CONTINUOUS
 10
7.5551777939
 20
5.502342119
 40
0.0277777778
100
AcDbArc
 50
90.0
 51
157.5
  0
ARC
  5
28D
100
AcDbEntity
  8
0
100
AcDbCircle
 62
7
  6
CONTINUOUS
 10
7.2055567584
 20
5.502342119
 40
0.0277777778
100
AcDbArc
 50
22.5
 51
90.0
  0
SPLINE
  5
28E
100
AcDbEntity
  8
0
100
AcDbSpline
 62
7
  6
CONTINUOUS
 70
0
 71
3
 72
9
 73
5
 74
0
 42
0.0000001
 43
0.0000001
 44
0.0000000001
 40
0.0
 40
0.0
 40
0.0
 40
0.0
 40
0.4953319806
 40
1.0
 40
1.0
 40
1.0
 40
1.0
 10
14.3523754673
 20
12.1162917432
 30
0.0
 10
14.3525258478
 20
12.1167773976
 30
0.0
 10
14.3529122681
 20
12.117734023
 30
0.0
 10
14.3534498939
 20
12.118614153
 30
0.0
 10
14.3537533178
 20
12.1190339669
 30
0.0
  0
SPLINE
  5
28F
100
AcDbEntity
  8
0
100
AcDbSpline
 62
7
  6
CONTINUOUS
 70
0
 71
3
 72
14
 73
10
 74
0
 42
0.0000001
 43
0.0000001
 44
0.0000000001
 40
0.0
 40
0.0
 40
0.0
 40
0.0
 40
0.1008724288
 40
0.2072988125
 40
0.3205387493
 40
0.4413702018
 40
0.7063114266
 40
0.8500860074
 40
1.0
 40
1.0
 40
1.0
 40
1.0
 10
14.3537533178
 20
12.1190339669
 30
0.0
 10
14.3541169946
 20
12.119537146
 30
0.0
 10
14.354962059
 20
12.120503157
 30
0.0
 10
14.356491024
 20
12.1217613048
 30
0.0
 10
14.3582902166
 20
12.1228489592
 30
0.0
 10
14.3611053951
 20
12.1240930826
 30
0.0
 10
14.3642927961
 20
12.124890111
 30
0.0
 10
14.3677091133
 20
12.1252908697
 30
0.0
 10
14.3695179932
 20
12.1253576378
 30
0.0
 10
14.3704406788
 20
12.1253576378
 30
0.0
  0
SPLINE
  5
290
100
AcDbEntity
  8
0
100
AcDbSpline
 62
7
  6
CONTINUOUS
 70
0
 71
3
 72
9
 73
5
 74
0
 42
0.0000001
 43
0.0000001
 44
0.0000000001
 40
0.0
 40
0.0
 40
0.0
 40
0.0
 40
0.4953319806
 40
1.0
 40
1.0
 40
1.0
 40
1.0
 10
14.8129059643
 20
12.1162917432
 30
0.0
 10
14.8130563448
 20
12.1167773976
 30
0.0
 10
14.8134427651
 20
12.117734023
 30
0.0
 10
14.8139803909
 20
12.118614153
 30
0.0
 10
14.8142838148
 20
12.1190339669
 30
0.0
  0
SPLINE
  5
291
100
AcDbEntity
  8
0
100
AcDbSpline
 62
7
  6
CONTINUOUS
 70
0
 71
3
 72
14
 73
10
 74
0
 42
0.0000001
 43
0.0000001
 44
0.0000000001
 40
0.0
 40
0.0
 40
0.0
 40
0.0
 40
0.1008724288
 40
0.2072988125
 40
0.3205387493
 40
0.4413702018
 40
0.7063114266
 40
0.8500860074
 40
1.0
 40
1.0
 40
1.0
 40
1.0
 10
14.8142838148
 20
12.1190339669
 30
0.0
 10
14.8146474916
 20
12.119537146
 30
0.0
 10
14.815492556
 20
12.120503157
 30
0.0
 10
14.817021521
 20
12.1217613048
 30
0.0
 10
14.8188207136
 20
12.1228489592
 30
0.0
 10
14.8216358921
 20
12.1240930826
 30
0.0
 10
14.8248232931
 20
12.124890111
 30
0.0
 10
14.8282396103
 20
12.1252908697
 30
0.0
 10
14.8300484903
 20
12.1253576378
 30
0.0
 10
14.8309711758
 20
12.1253576378
 30
0.0
  0
SPLINE
  5
292
100
AcDbEntity
  8
0
100
AcDbSpline
 62
7
  6
CONTINUOUS
 70
0
 71
3
 72
9
 73
5
 74
0
 42
0.0000001
 43
0.0000001
 44
0.0000000001
 40
0.0
 40
0.0
 40
0.0
 40
0.0
 40
0.4953319806
 40
1.0
 40
1.0
 40
1.0
 40
1.0
 10
15.2734364613
 20
12.1162917432
 30
0.0
 10
15.2735868418
 20
12.1167773976
 30
0.0
 10
15.2739732621
 20
12.117734023
 30
0.0
 10
15.2745108879
 20
12.118614153
 30
0.0
 10
15.2748143118
 20
12.1190339669
 30
0.0
  0
SPLINE
  5
293
100
AcDbEntity
  8
0
100
AcDbSpline
 62
7
  6
CONTINUOUS
 70
0
 71
3
 72
14
 73
10
 74
0
 42
0.0000001
 43
0.0000001
 44
0.0000000001
 40
0.0
 40
0.0
 40
0.0
 40
0.0
 40
0.1008724288
 40
0.2072988125
 40
0.3205387493
 40
0.4413702018
 40
0.7063114266
 40
0.8500860074
 40
1.0
 40
1.0
 40
1.0
 40
1.0
 10
15.2748143118
 20
12.1190339669
 30
0.0
 10
15.2751779886
 20
12.119537146
 30
0.0
 10
15.276023053
 20
12.120503157
 30
0.0
 10
15.277552018
 20
12.1217613048
 30
0.0
 10
15.2793512106
 20
12.1228489592
 30
0.0
 10
15.2821663891
 20
12.1240930826
 30
0.0
 10
15.2853537901
 20
12.124890111
 30
0.0
 10
15.2887701073
 20
12.1252908697
 30
0.0
 10
15.2905789873
 20
12.1253576378
 30
0.0
 10
15.2915016728
 20
12.1253576378
 30
0.0
  0
SPLINE
  5
294
100
AcDbEntity
  8
0
100
AcDbSpline
 62
7
  6
CONTINUOUS
 70
0
 71
3
 72
9
 73
5
 74
0
 42
0.0000001
 43
0.0000001
 44
0.0000000001
 40
0.0
 40
0.0
 40
0.0
 40
0.0
 40
0.4953319806
 40
1.0
 40
1.0
 40
1.0
 40
1.0
 10
15.7339669583
 20
12.1162917432
 30
0.0
 10
15.7341173388
 20
12.1167773976
 30
0.0
 10
15.7345037591
 20
12.117734023
 30
0.0
 10
15.7350413849
 20
12.118614153
 30
0.0
 10
15.7353448088
 20
12.1190339669
 30
0.0
  0
SPLINE
  5
295
100
AcDbEntity
  8
0
100
AcDbSpline
 62
7
  6
CONTINUOUS
 70
0
 71
3
 72
14
 73
10
 74
0
 42
0.0000001
 43
0.0000001
 44
0.0000000001
 40
0.0
 40
0.0
 40
0.0
 40
0.0
 40
0.1008724288
 40
0.2072988125
 40
0.3205387493
 40
0.4413702018
 40
0.7063114266
 40
0.8500860074
 40
1.0
 40
1.0
 40
1.0
 40
1.0
 10
15.7353448088
 20
12.1190339669
 30
0.0
 10
15.7357084856
 20
12.119537146
 30
0.0
 10
15.73655355
 20
12.120503157
 30
0.0
 10
15.738082515
 20
12.1217613048
 30
0.0
 10
15.7398817076
 20
12.1228489592
 30
0.0
 10
15.7426968861
 20
12.1240930826
 30
0.0
 10
15.7458842872
 20
12.124890111
 30
0.0
 10
15.7493006043
 20
12.1252908697
 30
0.0
 10
15.7511094843
 20
12.1253576378
 30
0.0
 10
15.7520321698
 20
12.1253576378
 30
0.0
  0
SPLINE
  5
296
100
AcDbEntity
  8
0
100
AcDbSpline
 62
7
  6
CONTINUOUS
 70
0
 71
3
 72
9
 73
5
 74
0
 42
0.0000001
 43
0.0000001
 44
0.0000000001
 40
0.0
 40
0.0
 40
0.0
 40
0.0
 40
0.4953319806
 40
1.0
 40
1.0
 40
1.0
 40
1.0
 10
16.1944974553
 20
12.1162917432
 30
0.0
 10
16.1946478358
 20
12.1167773976
 30
0.0
 10
16.1950342561
 20
12.117734023
 30
0.0
 10
16.1955718819
 20
12.118614153
 30
0.0
 10
16.1958753058
 20
12.1190339669
 30
0.0
  0
SPLINE
  5
297
100
AcDbEntity
  8
0
100
AcDbSpline
 62
7
  6
CONTINUOUS
 70
0
 71
3
 72
14
 73
10
 74
0
 42
0.0000001
 43
0.0000001
 44
0.0000000001
 40
0.0
 40
0.0
 40
0.0
 40
0.0
 40
0.1008724288
 40
0.2072988125
 40
0.3205387493
 40
0.4413702018
 40
0.7063114266
 40
0.8500860074
 40
1.0
 40
1.0
 40
1.0
 40
1.0
 10
16.1958753058
 20
12.1190339669
 30
0.0
 10
16.1962389826
 20
12.119537146
 30
0.0
 10
16.197084047
 20
12.120503157
 30
0.0
 10
16.198613012
 20
12.1217613048
 30
0.0
 10
16.2004122046
 20
12.1228489592
 30
0.0
 10
16.2032273831
 20
12.1240930826
 30
0.0
 10
16.2064147842
 20
12.124890111
 30
0.0
 10
16.2098311013
 20
12.1252908697
 30
0.0
 10
16.2116399813
 20
12.1253576378
 30
0.0
 10
16.2125626668
 20
12.1253576378
 30
0.0
  0
SPLINE
  5
298
100
AcDbEntity
  8
0
100
AcDbSpline
 62
7
  6
CONTINUOUS
 70
0
 71
3
 72
9
 73
5
 74
0
 42
0.0000001
 43
0.0000001
 44
0.0000000001
 40
0.0
 40
0.0
 40
0.0
 40
0.0
 40
0.4953319806
 40
1.0
 40
1.0
 40
1.0
 40
1.0
 10
16.6550279523
 20
12.1162917432
 30
0.0
 10
16.6551783328
 20
12.1167773976
 30
0.0
 10
16.6555647531
 20
12.117734023
 30
0.0
 10
16.6561023789
 20
12.118614153
 30
0.0
 10
16.6564058028
 20
12.1190339669
 30
0.0
  0
SPLINE
  5
299
100
AcDbEntity
  8
0
100
AcDbSpline
 62
7
  6
CONTINUOUS
 70
0
 71
3
 72
14
 73
10
 74
0
 42
0.0000001
 43
0.0000001
 44
0.0000000001
 40
0.0
 40
0.0
 40
0.0
 40
0.0
 40
0.1008724288
 40
0.2072988125
 40
0.3205387493
 40
0.4413702018
 40
0.7063114266
 40
0.8500860074
 40
1.0
 40
1.0
 40
1.0
 40
1.0
 10
16.6564058028
 20
12.1190339669
 30
0.0
 10
16.6567694796
 20
12.119537146
 30
0.0
 10
16.657614544
 20
12.120503157
 30
0.0
 10
16.659143509
 20
12.1217613048
 30
0.0
 10
16.6609427016
 20
12.1228489592
 30
0.0
 10
16.6637578801
 20
12.1240930826
 30
0.0
 10
16.6669452812
 20
12.124890111
 30
0.0
 10
16.6703615983
 20
12.1252908697
 30
0.0
 10
16.6721704783
 20
12.1253576378
 30
0.0
 10
16.6730931638
 20
12.1253576378
 30
0.0
  0
SPLINE
  5
29A
100
AcDbEntity
  8
0
100
AcDbSpline
 62
7
  6
CONTINUOUS
 70
0
 71
3
 72
15
 73
11
 74
0
 42
0.0000001
 43
0.0000001
 44
0.0000000001
 40
0.0
 40
0.0
 40
0.0
 40
0.0
 40
0.1557507032
 40
0.3032142055
 40
0.4410979805
 40
0.5690411893
 40
0.6873379169
 40
0.7970482554
 40
0.9002754474
 40
1.0
 40
1.0
 40
1.0
 40
1.0
 10
14.3208195886
 20
12.0694127406
 30
0.0
 10
14.3224971304
 20
12.0694127406
 30
0.0
 10
14.3257654236
 20
12.0695575884
 30
0.0
 10
14.330475956
 20
12.0702379229
 30
0.0
 10
14.3347924385
 20
12.0713694175
 30
0.0
 10
14.3386373293
 20
12.0729331856
 30
0.0
 10
14.3419446778
 20
12.074905843
 30
0.0
 10
14.3446526982
 20
12.0772624224
 30
0.0
 10
14.346703144
 20
12.0799661376
 30
0.0
 10
14.347600761
 20
12.0819852197
 30
0.0
 10
14.3479180602
 20
12.0830113853
 30
0.0
  0
SPLINE
  5
29B
100
AcDbEntity
  8
0
100
AcDbSpline
 62
7
  6
CONTINUOUS
 70
0
 71
3
 72
15
 73
11
 74
0
 42
0.0000001
 43
0.0000001
 44
0.0000000001
 40
0.0
 40
0.0
 40
0.0
 40
0.0
 40
0.1148729555
 40
0.236078021
 40
0.3619573599
 40
0.4908828354
 40
0.6210130764
 40
0.7504589688
 40
0.8774378042
 40
1.0
 40
1.0
 40
1.0
 40
1.0
 10
14.10964464
 20
12.0854014961
 30
0.0
 10
14.1109816033
 20
12.0841910086
 30
0.0
 10
14.1138782016
 20
12.0818646861
 30
0.0
 10
14.1186521982
 20
12.0787668891
 30
0.0
 10
14.1238882281
 20
12.0760226535
 30
0.0
 10
14.1294719032
 20
12.0736911892
 30
0.0
 10
14.1352847694
 20
12.0718197346
 30
0.0
 10
14.1412047876
 20
12.0704497311
 30
0.0
 10
14.1471029178
 20
12.0696115704
 30
0.0
 10
14.1510227449
 20
12.0694127406
 30
0.0
 10
14.1529470066
 20
12.0694127406
 30
0.0
  0
SPLINE
  5
29C
100
AcDbEntity
  8
0
100
AcDbSpline
 62
7
  6
CONTINUOUS
 70
0
 71
3
 72
15
 73
11
 74
0
 42
0.0000001
 43
0.0000001
 44
0.0000000001
 40
0.0
 40
0.0
 40
0.0
 40
0.0
 40
0.1557507032
 40
0.3032142055
 40
0.4410979805
 40
0.5690411893
 40
0.6873379169
 40
0.7970482554
 40
0.9002754474
 40
1.0
 40
1.0
 40
1.0
 40
1.0
 10
16.6234720736
 20
12.0694127406
 30
0.0
 10
16.6251496155
 20
12.0694127406
 30
0.0
 10
16.6284179086
 20
12.0695575884
 30
0.0
 10
16.633128441
 20
12.0702379229
 30
0.0
 10
16.6374449235
 20
12.0713694175
 30
0.0
 10
16.6412898143
 20
12.0729331856
 30
0.0
 10
16.6445971629
 20
12.074905843
 30
0.0
 10
16.6473051833
 20
12.0772624224
 30
0.0
 10
16.649355629
 20
12.0799661376
 30
0.0
 10
16.650253246
 20
12.0819852197
 30
0.0
 10
16.6505705452
 20
12.0830113853
 30
0.0
  0
SPLINE
  5
29D
100
AcDbEntity
  8
0
100
AcDbSpline
 62
7
  6
CONTINUOUS
 70
0
 71
3
 72
15
 73
11
 74
0
 42
0.0000001
 43
0.0000001
 44
0.0000000001
 40
0.0
 40
0.0
 40
0.0
 40
0.0
 40
0.1148729555
 40
0.236078021
 40
0.3619573599
 40
0.4908828354
 40
0.6210130764
 40
0.7504589688
 40
0.8774378042
 40
1.0
 40
1.0
 40
1.0
 40
1.0
 10
16.412297125
 20
12.0854014961
 30
0.0
 10
16.4136340883
 20
12.0841910086
 30
0.0
 10
16.4165306867
 20
12.0818646861
 30
0.0
 10
16.4213046832
 20
12.0787668891
 30
0.0
 10
16.4265407131
 20
12.0760226535
 30
0.0
 10
16.4321243882
 20
12.0736911892
 30
0.0
 10
16.4379372544
 20
12.0718197346
 30
0.0
 10
16.4438572726
 20
12.0704497311
 30
0.0
 10
16.4497554028
 20
12.0696115704
 30
0.0
 10
16.45367523
 20
12.0694127406
 30
0.0
 10
16.4555994916
 20
12.0694127406
 30
0.0
  0
SPLINE
  5
29E
100
AcDbEntity
  8
0
100
AcDbSpline
 62
7
  6
CONTINUOUS
 70
0
 71
3
 72
15
 73
11
 74
0
 42
0.0000001
 43
0.0000001
 44
0.0000000001
 40
0.0
 40
0.0
 40
0.0
 40
0.0
 40
0.1557507032
 40
0.3032142055
 40
0.4410979805
 40
0.5690411893
 40
0.6873379169
 40
0.7970482554
 40
0.9002754474
 40
1.0
 40
1.0
 40
1.0
 40
1.0
 10
16.1629415766
 20
12.0694127406
 30
0.0
 10
16.1646191185
 20
12.0694127406
 30
0.0
 10
16.1678874116
 20
12.0695575884
 30
0.0
 10
16.172597944
 20
12.0702379229
 30
0.0
 10
16.1769144265
 20
12.0713694175
 30
0.0
 10
16.1807593173
 20
12.0729331856
 30
0.0
 10
16.1840666659
 20
12.074905843
 30
0.0
 10
16.1867746863
 20
12.0772624224
 30
0.0
 10
16.188825132
 20
12.0799661376
 30
0.0
 10
16.189722749
 20
12.0819852197
 30
0.0
 10
16.1900400482
 20
12.0830113853
 30
0.0
  0
SPLINE
  5
29F
100
AcDbEntity
  8
0
100
AcDbSpline
 62
7
  6
CONTINUOUS
 70
0
 71
3
 72
15
 73
11
 74
0
 42
0.0000001
 43
0.0000001
 44
0.0000000001
 40
0.0
 40
0.0
 40
0.0
 40
0.0
 40
0.1148729555
 40
0.236078021
 40
0.3619573599
 40
0.4908828354
 40
0.6210130764
 40
0.7504589688
 40
0.8774378042
 40
1.0
 40
1.0
 40
1.0
 40
1.0
 10
15.951766628
 20
12.0854014961
 30
0.0
 10
15.9531035913
 20
12.0841910086
 30
0.0
 10
15.9560001897
 20
12.0818646861
 30
0.0
 10
15.9607741862
 20
12.0787668891
 30
0.0
 10
15.9660102161
 20
12.0760226535
 30
0.0
 10
15.9715938912
 20
12.0736911892
 30
0.0
 10
15.9774067574
 20
12.0718197346
 30
0.0
 10
15.9833267756
 20
12.0704497311
 30
0.0
 10
15.9892249058
 20
12.0696115704
 30
0.0
 10
15.993144733
 20
12.0694127406
 30
0.0
 10
15.9950689946
 20
12.0694127406
 30
0.0
  0
SPLINE
  5
2A0
100
AcDbEntity
  8
0
100
AcDbSpline
 62
7
  6
CONTINUOUS
 70
0
 71
3
 72
15
 73
11
 74
0
 42
0.0000001
 43
0.0000001
 44
0.0000000001
 40
0.0
 40
0.0
 40
0.0
 40
0.0
 40
0.1557507032
 40
0.3032142055
 40
0.4410979805
 40
0.5690411893
 40
0.6873379169
 40
0.7970482554
 40
0.9002754474
 40
1.0
 40
1.0
 40
1.0
 40
1.0
 10
15.7024110796
 20
12.0694127406
 30
0.0
 10
15.7040886215
 20
12.0694127406
 30
0.0
 10
15.7073569146
 20
12.0695575884
 30
0.0
 10
15.712067447
 20
12.0702379229
 30
0.0
 10
15.7163839295
 20
12.0713694175
 30
0.0
 10
15.7202288203
 20
12.0729331856
 30
0.0
 10
15.7235361689
 20
12.074905843
 30
0.0
 10
15.7262441893
 20
12.0772624224
 30
0.0
 10
15.728294635
 20
12.0799661376
 30
0.0
 10
15.729192252
 20
12.0819852197
 30
0.0
 10
15.7295095512
 20
12.0830113853
 30
0.0
  0
SPLINE
  5
2A1
100
AcDbEntity
  8
0
100
AcDbSpline
 62
7
  6
CONTINUOUS
 70
0
 71
3
 72
15
 73
11
 74
0
 42
0.0000001
 43
0.0000001
 44
0.0000000001
 40
0.0
 40
0.0
 40
0.0
 40
0.0
 40
0.1148729555
 40
0.236078021
 40
0.3619573599
 40
0.4908828354
 40
0.6210130764
 40
0.7504589688
 40
0.8774378042
 40
1.0
 40
1.0
 40
1.0
 40
1.0
 10
15.491236131
 20
12.0854014961
 30
0.0
 10
15.4925730943
 20
12.0841910086
 30
0.0
 10
15.4954696927
 20
12.0818646861
 30
0.0
 10
15.5002436892
 20
12.0787668891
 30
0.0
 10
15.5054797191
 20
12.0760226535
 30
0.0
 10
15.5110633942
 20
12.0736911892
 30
0.0
 10
15.5168762604
 20
12.0718197346
 30
0.0
 10
15.5227962786
 20
12.0704497311
 30
0.0
 10
15.5286944088
 20
12.0696115704
 30
0.0
 10
15.532614236
 20
12.0694127406
 30
0.0
 10
15.5345384976
 20
12.0694127406
 30
0.0
  0
SPLINE
  5
2A2
100
AcDbEntity
  8
0
100
AcDbSpline
 62
7
  6
CONTINUOUS
 70
0
 71
3
 72
15
 73
11
 74
0
 42
0.0000001
 43
0.0000001
 44
0.0000000001
 40
0.0
 40
0.0
 40
0.0
 40
0.0
 40
0.1557507032
 40
0.3032142055
 40
0.4410979805
 40
0.5690411893
 40
0.6873379169
 40
0.7970482554
 40
0.9002754474
 40
1.0
 40
1.0
 40
1.0
 40
1.0
 10
15.2418805826
 20
12.0694127406
 30
0.0
 10
15.2435581245
 20
12.0694127406
 30
0.0
 10
15.2468264176
 20
12.0695575884
 30
0.0
 10
15.25153695
 20
12.0702379229
 30
0.0
 10
15.2558534325
 20
12.0713694175
 30
0.0
 10
15.2596983233
 20
12.0729331856
 30
0.0
 10
15.2630056719
 20
12.074905843
 30
0.0
 10
15.2657136923
 20
12.0772624224
 30
0.0
 10
15.267764138
 20
12.0799661376
 30
0.0
 10
15.268661755
 20
12.0819852197
 30
0.0
 10
15.2689790542
 20
12.0830113853
 30
0.0
  0
SPLINE
  5
2A3
100
AcDbEntity
  8
0
100
AcDbSpline
 62
7
  6
CONTINUOUS
 70
0
 71
3
 72
15
 73
11
 74
0
 42
0.0000001
 43
0.0000001
 44
0.0000000001
 40
0.0
 40
0.0
 40
0.0
 40
0.0
 40
0.1148729555
 40
0.236078021
 40
0.3619573599
 40
0.4908828354
 40
0.6210130764
 40
0.7504589688
 40
0.8774378042
 40
1.0
 40
1.0
 40
1.0
 40
1.0
 10
15.030705634
 20
12.0854014961
 30
0.0
 10
15.0320425973
 20
12.0841910086
 30
0.0
 10
15.0349391956
 20
12.0818646861
 30
0.0
 10
15.0397131922
 20
12.0787668891
 30
0.0
 10
15.0449492221
 20
12.0760226535
 30
0.0
 10
15.0505328972
 20
12.0736911892
 30
0.0
 10
15.0563457634
 20
12.0718197346
 30
0.0
 10
15.0622657816
 20
12.0704497311
 30
0.0
 10
15.0681639118
 20
12.0696115704
 30
0.0
 10
15.0720837389
 20
12.0694127406
 30
0.0
 10
15.0740080006
 20
12.0694127406
 30
0.0
  0
SPLINE
  5
2A4
100
AcDbEntity
  8
0
100
AcDbSpline
 62
7
  6
CONTINUOUS
 70
0
 71
3
 72
15
 73
11
 74
0
 42
0.0000001
 43
0.0000001
 44
0.0000000001
 40
0.0
 40
0.0
 40
0.0
 40
0.0
 40
0.1557507032
 40
0.3032142055
 40
0.4410979805
 40
0.5690411893
 40
0.6873379169
 40
0.7970482554
 40
0.9002754474
 40
1.0
 40
1.0
 40
1.0
 40
1.0
 10
14.7813500856
 20
12.0694127406
 30
0.0
 10
14.7830276275
 20
12.0694127406
 30
0.0
 10
14.7862959206
 20
12.0695575884
 30
0.0
 10
14.791006453
 20
12.0702379229
 30
0.0
 10
14.7953229355
 20
12.0713694175
 30
0.0
 10
14.7991678263
 20
12.0729331856
 30
0.0
 10
14.8024751748
 20
12.074905843
 30
0.0
 10
14.8051831952
 20
12.0772624224
 30
0.0
 10
14.807233641
 20
12.0799661376
 30
0.0
 10
14.808131258
 20
12.0819852197
 30
0.0
 10
14.8084485572
 20
12.0830113853
 30
0.0
  0
SPLINE
  5
2A5
100
AcDbEntity
  8
0
100
AcDbSpline
 62
7
  6
CONTINUOUS
 70
0
 71
3
 72
15
 73
11
 74
0
 42
0.0000001
 43
0.0000001
 44
0.0000000001
 40
0.0
 40
0.0
 40
0.0
 40
0.0
 40
0.1148729555
 40
0.236078021
 40
0.3619573599
 40
0.4908828354
 40
0.6210130764
 40
0.7504589688
 40
0.8774378042
 40
1.0
 40
1.0
 40
1.0
 40
1.0
 10
14.570175137
 20
12.0854014961
 30
0.0
 10
14.5715121003
 20
12.0841910086
 30
0.0
 10
14.5744086986
 20
12.0818646861
 30
0.0
 10
14.5791826952
 20
12.0787668891
 30
0.0
 10
14.5844187251
 20
12.0760226535
 30
0.0
 10
14.5900024002
 20
12.0736911892
 30
0.0
 10
14.5958152664
 20
12.0718197346
 30
0.0
 10
14.6017352846
 20
12.0704497311
 30
0.0
 10
14.6076334148
 20
12.0696115704
 30
0.0
 10
14.6115532419
 20
12.0694127406
 30
0.0
 10
14.6134775036
 20
12.0694127406
 30
0.0
  0
SPLINE
  5
2A6
100
AcDbEntity
  8
0
100
AcDbSpline
 62
7
  6
CONTINUOUS
 70
0
 71
3
 72
15
 73
11
 74
0
 42
0.0000001
 43
0.0000001
 44
0.0000000001
 40
0.0
 40
0.0
 40
0.0
 40
0.0
 40
0.1224855008
 40
0.2495249668
 40
0.379023342
 40
0.5091197655
 40
0.6380077864
 40
0.7639368227
 40
0.8851964135
 40
1.0
 40
1.0
 40
1.0
 40
1.0
 10
14.0484183804
 20
12.1253576378
 30
0.0
 10
14.0497004148
 20
12.1253576378
 30
0.0
 10
14.0523133953
 20
12.1252243789
 30
0.0
 10
14.0562460182
 20
12.1246667509
 30
0.0
 10
14.0601933248
 20
12.1237524664
 30
0.0
 10
14.064068669
 20
12.1225058178
 30
0.0
 10
14.0677905215
 20
12.1209507063
 30
0.0
 10
14.0712821977
 20
12.119121591
 30
0.0
 10
14.0744644598
 20
12.1170551342
 30
0.0
 10
14.076395857
 20
12.1155049693
 30
0.0
 10
14.0772866248
 20
12.1146984674
 30
0.0
  0
SPLINE
  5
2A7
100
AcDbEntity
  8
0
100
AcDbSpline
 62
7
  6
CONTINUOUS
 70
0
 71
3
 72
15
 73
11
 74
0
 42
0.0000001
 43
0.0000001
 44
0.0000000001
 40
0.0
 40
0.0
 40
0.0
 40
0.0
 40
0.1224855008
 40
0.2495249668
 40
0.379023342
 40
0.5091197655
 40
0.6380077864
 40
0.7639368227
 40
0.8851964135
 40
1.0
 40
1.0
 40
1.0
 40
1.0
 10
14.5089488774
 20
12.1253576378
 30
0.0
 10
14.5102309118
 20
12.1253576378
 30
0.0
 10
14.5128438923
 20
12.1252243789
 30
0.0
 10
14.5167765152
 20
12.1246667509
 30
0.0
 10
14.5207238218
 20
12.1237524664
 30
0.0
 10
14.524599166
 20
12.1225058178
 30
0.0
 10
14.5283210185
 20
12.1209507063
 30
0.0
 10
14.5318126947
 20
12.119121591
 30
0.0
 10
14.5349949568
 20
12.1170551342
 30
0.0
 10
14.536926354
 20
12.1155049693
 30
0.0
 10
14.5378171218
 20
12.1146984674
 30
0.0
  0
SPLINE
  5
2A8
100
AcDbEntity
  8
0
100
AcDbSpline
 62
7
  6
CONTINUOUS
 70
0
 71
3
 72
15
 73
11
 74
0
 42
0.0000001
 43
0.0000001
 44
0.0000000001
 40
0.0
 40
0.0
 40
0.0
 40
0.0
 40
0.1224855008
 40
0.2495249668
 40
0.379023342
 40
0.5091197655
 40
0.6380077864
 40
0.7639368227
 40
0.8851964135
 40
1.0
 40
1.0
 40
1.0
 40
1.0
 10
14.9694793744
 20
12.1253576378
 30
0.0
 10
14.9707614088
 20
12.1253576378
 30
0.0
 10
14.9733743893
 20
12.1252243789
 30
0.0
 10
14.9773070122
 20
12.1246667509
 30
0.0
 10
14.9812543188
 20
12.1237524664
 30
0.0
 10
14.985129663
 20
12.1225058178
 30
0.0
 10
14.9888515155
 20
12.1209507063
 30
0.0
 10
14.9923431917
 20
12.119121591
 30
0.0
 10
14.9955254538
 20
12.1170551342
 30
0.0
 10
14.997456851
 20
12.1155049693
 30
0.0
 10
14.9983476188
 20
12.1146984674
 30
0.0
  0
SPLINE
  5
2A9
100
AcDbEntity
  8
0
100
AcDbSpline
 62
7
  6
CONTINUOUS
 70
0
 71
3
 72
15
 73
11
 74
0
 42
0.0000001
 43
0.0000001
 44
0.0000000001
 40
0.0
 40
0.0
 40
0.0
 40
0.0
 40
0.1224855008
 40
0.2495249668
 40
0.379023342
 40
0.5091197655
 40
0.6380077864
 40
0.7639368227
 40
0.8851964135
 40
1.0
 40
1.0
 40
1.0
 40
1.0
 10
15.4300098714
 20
12.1253576378
 30
0.0
 10
15.4312919058
 20
12.1253576378
 30
0.0
 10
15.4339048863
 20
12.1252243789
 30
0.0
 10
15.4378375092
 20
12.1246667509
 30
0.0
 10
15.4417848158
 20
12.1237524664
 30
0.0
 10
15.44566016
 20
12.1225058178
 30
0.0
 10
15.4493820125
 20
12.1209507063
 30
0.0
 10
15.4528736887
 20
12.119121591
 30
0.0
 10
15.4560559508
 20
12.1170551342
 30
0.0
 10
15.457987348
 20
12.1155049693
 30
0.0
 10
15.4588781158
 20
12.1146984674
 30
0.0
  0
SPLINE
  5
2AA
100
AcDbEntity
  8
0
100
AcDbSpline
 62
7
  6
CONTINUOUS
 70
0
 71
3
 72
15
 73
11
 74
0
 42
0.0000001
 43
0.0000001
 44
0.0000000001
 40
0.0
 40
0.0
 40
0.0
 40
0.0
 40
0.1224855008
 40
0.2495249668
 40
0.379023342
 40
0.5091197655
 40
0.6380077864
 40
0.7639368227
 40
0.8851964135
 40
1.0
 40
1.0
 40
1.0
 40
1.0
 10
15.8905403684
 20
12.1253576378
 30
0.0
 10
15.8918224028
 20
12.1253576378
 30
0.0
 10
15.8944353833
 20
12.1252243789
 30
0.0
 10
15.8983680062
 20
12.1246667509
 30
0.0
 10
15.9023153128
 20
12.1237524664
 30
0.0
 10
15.906190657
 20
12.1225058178
 30
0.0
 10
15.9099125095
 20
12.1209507063
 30
0.0
 10
15.9134041857
 20
12.119121591
 30
0.0
 10
15.9165864478
 20
12.1170551342
 30
0.0
 10
15.918517845
 20
12.1155049693
 30
0.0
 10
15.9194086128
 20
12.1146984674
 30
0.0
  0
SPLINE
  5
2AB
100
AcDbEntity
  8
0
100
AcDbSpline
 62
7
  6
CONTINUOUS
 70
0
 71
3
 72
15
 73
11
 74
0
 42
0.0000001
 43
0.0000001
 44
0.0000000001
 40
0.0
 40
0.0
 40
0.0
 40
0.0
 40
0.1224855008
 40
0.2495249668
 40
0.379023342
 40
0.5091197655
 40
0.6380077864
 40
0.7639368227
 40
0.8851964135
 40
1.0
 40
1.0
 40
1.0
 40
1.0
 10
16.3510708654
 20
12.1253576378
 30
0.0
 10
16.3523528998
 20
12.1253576378
 30
0.0
 10
16.3549658803
 20
12.1252243789
 30
0.0
 10
16.3588985032
 20
12.1246667509
 30
0.0
 10
16.3628458098
 20
12.1237524664
 30
0.0
 10
16.366721154
 20
12.1225058178
 30
0.0
 10
16.3704430065
 20
12.1209507063
 30
0.0
 10
16.3739346827
 20
12.119121591
 30
0.0
 10
16.3771169448
 20
12.1170551342
 30
0.0
 10
16.379048342
 20
12.1155049693
 30
0.0
 10
16.3799391098
 20
12.1146984674
 30
0.0
  0
ENDSEC
  0
SECTION
  2
OBJECTS
  0
DICTIONARY
  5
C
100
AcDbDictionary
280
0
281
1
  3
ACAD_GROUP
350
D
  3
ACAD_MLINESTYLE
350
17
  3
ACAD_LAYOUT
350
1A
  3
ACAD_PLOTSETTINGS
350
19
  3
ACAD_PLOTSTYLENAME
350
E
  0
DICTIONARY
  5
D
102
{ACAD_REACTORS
330
C
102
}
100
AcDbDictionary
280
0
281
1
  0
ACDBDICTIONARYWDFLT
  5
E
102
{ACAD_REACTORS
330
C
102
}
100
AcDbDictionary
281
1
  3
Normal
350
F
100
AcDbDictionaryWithDefault
340
F
  0
DICTIONARY
  5
17
102
{ACAD_REACTORS
330
C
102
}
100
AcDbDictionary
280
0
281
1
  3
Standard
350
18
  0
DICTIONARY
  5
19
102
{ACAD_REACTORS
330
C
102
}
100
AcDbDictionary
281
1
  0
DICTIONARY
  5
1A
102
{ACAD_REACTORS
330
C
102
}
100
AcDbDictionary
281
1
  3
Model
350
2AC
  3
Layout1
350
2AD
  0
ACDBPLACEHOLDER
  5
F
102
{ACAD_REACTORS
330
E
102
}
  0
MLINESTYLE
  5
18
102
{ACAD_REACTORS
330
17
102
}
100
AcDbMlineStyle
  2
STANDARD
 70
0
  3

 62
256
 51
90.0
 52
90.0
 71
2
 49
0.5
 62
256
  6
BYLAYER
 49
-0.5
 62
256
  6
BYLAYER
  0
LAYOUT
  5
2AC
102
{ACAD_REACTORS
330
1A
102
}
100
AcDbPlotSettings
  1

  2
none_device
  4
ANSI_C_(22.00_x_17.00_Inches)
  6

 40
0.0
 41
0.0
 42
0.0
 43
0.0
 44
558.8
 45
431.8
 46
0.0
 47
0.0
 48
0.0
 49
0.0
140
0.0
141
0.0
142
1.0
143
1.0
 70
1024
 72
0
 73
0
 74
0
  7

 75
0
147
1.0
148
0.0
149
0.0
100
AcDbLayout
  1
Model
 70
0
 71
0
 10
0.0
 20
0.0
 11
22.0
 21
17.0
 12
0.0
 22
0.0
 32
0.0
 14
0.0
 24
0.0
 34
0.0
 15
0.0
 25
0.0
 35
0.0
146
0.0
 13
0.0
 23
0.0
 33
0.0
 16
1.0
 26
0.0
 36
0.0
 17
0.0
 27
1.0
 37
0.0
 76
0
330
216
345
0
346
0
  0
LAYOUT
  5
2AD
102
{ACAD_REACTORS
330
1A
102
}
100
AcDbPlotSettings
  1

  2
none_device
  4
ANSI_C_(22.00_x_17.00_Inches)
  6

 40
0.0
 41
0.0
 42
0.0
 43
0.0
 44
558.8
 45
431.8
 46
0.0
 47
0.0
 48
0.0
 49
0.0
140
0.0
141
0.0
142
1.0
143
1.0
 70
0
 72
0
 73
0
 74
0
  7

 75
0
147
1.0
148
0.0
149
0.0
100
AcDbLayout
  1
Layout1
 70
0
 71
1
 10
0.0
 20
0.0
 11
22.0
 21
17.0
 12
0.0
 22
0.0
 32
0.0
 14
0.0
 24
0.0
 34
0.0
 15
0.0
 25
0.0
 35
0.0
146
0.0
 13
0.0
 23
0.0
 33
0.0
 16
1.0
 26
0.0
 36
0.0
 17
0.0
 27
1.0
 37
0.0
 76
0
330
217
345
0
346
0
  0
ENDSEC
  0
EOF