999
DXF file: _cgs_temp_output.dxf
999
Pro/ENGINEER 2016360 by Parametric Technology Corporation
  0
SECTION
  2
HEADER
  9
$ACADVER
  1
AC1021
  9
$DWGCODEPAGE
  3
ANSI_1252
  9
$EXTMAX
 10
22.0
 20
17.0
 30
0.0
  9
$EXTMIN
 10
0.0
 20
0.0
 30
0.0
  9
$LIMMIN
 10
0.0
 20
0.0
  9
$LIMMAX
 10
22.0
 20
17.0
  9
$VIEWCTR
 10
11.0
 20
8.5
  9
$VIEWSIZE
 40
17.0
  9
$CLAYER
  8
0
  9
$LTSCALE
 40
1.21
  9
$CELTYPE
  6
BYLAYER
  9
$DIMSCALE
 40
1.0
  9
$DIMASZ
 40
0.1875
  9
$DIMEXO
 40
0.0625
  9
$DIMDLI
 40
0.836
  9
$DIMEXE
 40
0.125
  9
$DIMCEN
 40
0.198
  9
$DIMLFAC
 40
1.0
  9
$DIMBLK
  1
_CLOSED
  9
$DIMALT
 70
0
  9
$DIMALTF
 40
25.4
  9
$DIMTXT
 40
0.15625
  9
$DIMTOL
 70
0
  9
$DIMLIM
 70
0
  9
$DIMTFAC
 40
1.0
  9
$DIMGAP
 40
0.09
  9
$DIMDSEP
 70
46
  9
$AUNITS
 70
0
  9
$PDMODE
 70
3
  9
$PDSIZE
 40
0.3125
  9
$HANDSEED
  5
2AE
  9
$TILEMODE
 70
1
  9
$MEASUREMENT
 70
0
  9
$INSUNITS
 70
1
  0
ENDSEC
  0
SECTION
  2
CLASSES
  0
CLASS
  1
ACDBDICTIONARYWDFLT
  2
AcDbDictionaryWithDefault
  3
AutoCAD 2000
 90
0
 91
1
280
0
281
0
  0
CLASS
  1
ACDBPLACEHOLDER
  2
AcDbPlaceHolder
  3
AutoCAD 2000
 90
0
 91
1
280
0
281
0
  0
CLASS
  1
LAYOUT
  2
AcDbLayout
  3
AutoCAD 2000
 90
0
 91
0
280
0
281
0
  0
ENDSEC
  0
SECTION
  2
TABLES
  0
TABLE
  2
VPORT
  5
8
100
AcDbSymbolTable
 70
2
  0
VPORT
  5
1F4
100
AcDbSymbolTableRecord
100
AcDbViewportTableRecord
  2
*ACTIVE
 70
0
 10
0.0
 20
0.0
 11
1.0
 21
1.0
 12
11.0
 22
8.5
 13
0.0
 23
0.0
 14
1.0
 24
1.0
 15
0.0
 25
0.0
 16
0.0
 26
0.0
 36
1.0
 17
0.0
 27
0.0
 37
0.0
 40
17.0
 41
1.2941176471
 42
50.0
 43
0.0
 44
0.0
 50
0.0
 51
0.0
 71
0
 72
100
 73
1
 74
1
 75
0
 76
0
 77
0
 78
0
  0
ENDTAB
  0
TABLE
  2
LTYPE
  5
5
100
AcDbSymbolTable
 70
6
  0
LTYPE
  5
14
100
AcDbSymbolTableRecord
100
AcDbLinetypeTableRecord
  2
BYBLOCK
 70
0
  3

 72
65
 73
0
 40
0.0
  0
LTYPE
  5
15
100
AcDbSymbolTableRecord
100
AcDbLinetypeTableRecord
  2
BYLAYER
 70
0
  3

 72
65
 73
0
 40
0.0
  0
LTYPE
  5
16
100
AcDbSymbolTableRecord
100
AcDbLinetypeTableRecord
  2
CONTINUOUS
 70
64
  3
Solid line
 72
65
 73
0
 40
0.0
  0
LTYPE
  5
1F5
100
AcDbSymbolTableRecord
100
AcDbLinetypeTableRecord
  2
CENTER
 70
64
  3
____ _ ____ _ ____ _ ____ _ ____ _ ____ _ ____
 72
65
 73
4
 40
0.6
 49
0.375
 74
0
 49
-0.075
 74
0
 49
0.075
 74
0
 49
-0.075
 74
0
  0
LTYPE
  5
1F6
100
AcDbSymbolTableRecord
100
AcDbLinetypeTableRecord
  2
HIDDEN
 70
64
  3
- - - - - - - - - - - - - - - - - - - -
 72
65
 73
2
 40
0.2
 49
0.1
 74
0
 49
-0.1
 74
0
  0
LTYPE
  5
1F7
100
AcDbSymbolTableRecord
100
AcDbLinetypeTableRecord
  2
PHANTOM
 70
64
  3
_____ _ _ _____ _ _ _____ _ _ _____
 72
65
 73
6
 40
0.8
 49
0.45
 74
0
 49
-0.05
 74
0
 49
0.1
 74
0
 49
-0.05
 74
0
 49
0.1
 74
0
 49
-0.05
 74
0
  0
LTYPE
  5
1F8
100
AcDbSymbolTableRecord
100
AcDbLinetypeTableRecord
  2
DOT
 70
64
  3
. . . . . . . . . . . . . . . . . . . .
 72
65
 73
2
 40
0.2
 49
0.1
 74
0
 49
-0.1
 74
0
  0
LTYPE
  5
1F9
100
AcDbSymbolTableRecord
100
AcDbLinetypeTableRecord
  2
DASHED
 70
64
  3
- - - - - - - - - - - - - - - - - - - -
 72
65
 73
2
 40
0.2
 49
0.1
 74
0
 49
-0.1
 74
0
  0
ENDTAB
  0
TABLE
  2
LAYER
  5
2
100
AcDbSymbolTable
 70
36
  0
LAYER
  5
10
100
AcDbSymbolTableRecord
100
AcDbLayerTableRecord
  2
0
 70
0
 62
7
  6
CONTINUOUS
370
-3
390
F
  0
LAYER
  5
1FA
100
AcDbSymbolTableRecord
100
AcDbLayerTableRecord
  2
DEFAULT_1
 70
0
 62
7
  6
CENTER
370
-3
390
F
  0
LAYER
  5
1FB
100
AcDbSymbolTableRecord
100
AcDbLayerTableRecord
  2
DEFAULT_2
 70
0
 62
8
  6
HIDDEN
370
-3
390
F
  0
LAYER
  5
1FC
100
AcDbSymbolTableRecord
100
AcDbLayerTableRecord
  2
DEFAULT_3
 70
0
 62
7
  6
PHANTOM
370
-3
390
F
  0
LAYER
  5
1FD
100
AcDbSymbolTableRecord
100
AcDbLayerTableRecord
  2
01_ALL_DTM_PLN
 70
0
 62
7
  6
CONTINUOUS
370
-3
390
F
  0
LAYER
  5
1FE
100
AcDbSymbolTableRecord
100
AcDbLayerTableRecord
  2
01__ASM_ALL_DTM_PLN
 70
0
 62
7
  6
CONTINUOUS
370
-3
390
F
  0
LAYER
  5
1FF
100
AcDbSymbolTableRecord
100
AcDbLayerTableRecord
  2
01__ASM_DEF_DTM_PLN
 70
0
 62
7
  6
CONTINUOUS
370
-3
390
F
  0
LAYER
  5
200
100
AcDbSymbolTableRecord
100
AcDbLayerTableRecord
  2
01___PRT_ALL_DTM_PLN
 70
0
 62
7
  6
CONTINUOUS
370
-3
390
F
  0
LAYER
  5
201
100
AcDbSymbolTableRecord
100
AcDbLayerTableRecord
  2
01___PRT_DEF_DTM_PLN
 70
0
 62
7
  6
CONTINUOUS
370
-3
390
F
  0
LAYER
  5
202
100
AcDbSymbolTableRecord
100
AcDbLayerTableRecord
  2
02_ALL_AXES
 70
0
 62
7
  6
CONTINUOUS
370
-3
390
F
  0
LAYER
  5
203
100
AcDbSymbolTableRecord
100
AcDbLayerTableRecord
  2
02__ASM_ALL_AXES
 70
0
 62
7
  6
CONTINUOUS
370
-3
390
F
  0
LAYER
  5
204
100
AcDbSymbolTableRecord
100
AcDbLayerTableRecord
  2
02___PRT_ALL_AXES
 70
0
 62
7
  6
CONTINUOUS
370
-3
390
F
  0
LAYER
  5
205
100
AcDbSymbolTableRecord
100
AcDbLayerTableRecord
  2
03_ALL_CURVES
 70
0
 62
7
  6
CONTINUOUS
370
-3
390
F
  0
LAYER
  5
206
100
AcDbSymbolTableRecord
100
AcDbLayerTableRecord
  2
03__ASM_ALL_CURVES
 70
0
 62
7
  6
CONTINUOUS
370
-3
390
F
  0
LAYER
  5
207
100
AcDbSymbolTableRecord
100
AcDbLayerTableRecord
  2
03___PRT_ALL_CURVES
 70
0
 62
7
  6
CONTINUOUS
370
-3
390
F
  0
LAYER
  5
208
100
AcDbSymbolTableRecord
100
AcDbLayerTableRecord
  2
04_ALL_DTM_PNT
 70
0
 62
7
  6
CONTINUOUS
370
-3
390
F
  0
LAYER
  5
209
100
AcDbSymbolTableRecord
100
AcDbLayerTableRecord
  2
04__ASM_ALL_DTM_PNT
 70
0
 62
7
  6
CONTINUOUS
370
-3
390
F
  0
LAYER
  5
20A
100
AcDbSymbolTableRecord
100
AcDbLayerTableRecord
  2
04___PRT_ALL_DTM_PNT
 70
0
 62
7
  6
CONTINUOUS
370
-3
390
F
  0
LAYER
  5
20B
100
AcDbSymbolTableRecord
100
AcDbLayerTableRecord
  2
05_ALL_DTM_CSYS
 70
0
 62
7
  6
CONTINUOUS
370
-3
390
F
  0
LAYER
  5
20C
100
AcDbSymbolTableRecord
100
AcDbLayerTableRecord
  2
05__ASM_ALL_DTM_CSYS
 70
0
 62
7
  6
CONTINUOUS
370
-3
390
F
  0
LAYER
  5
20D
100
AcDbSymbolTableRecord
100
AcDbLayerTableRecord
  2
05__ASM_DEF_DTM_CSYS
 70
0
 62
7
  6
CONTINUOUS
370
-3
390
F
  0
LAYER
  5
20E
100
AcDbSymbolTableRecord
100
AcDbLayerTableRecord
  2
05___PRT_ALL_DTM_CSYS
 70
0
 62
7
  6
CONTINUOUS
370
-3
390
F
  0
LAYER
  5
20F
100
AcDbSymbolTableRecord
100
AcDbLayerTableRecord
  2
05___PRT_DEF_DTM_CSYS
 70
0
 62
7
  6
CONTINUOUS
370
-3
390
F
  0
LAYER
  5
210
100
AcDbSymbolTableRecord
100
AcDbLayerTableRecord
  2
06_ALL_SURFS
 70
0
 62
7
  6
CONTINUOUS
370
-3
390
F
  0
LAYER
  5
211
100
AcDbSymbolTableRecord
100
AcDbLayerTableRecord
  2
06__ASM_ALL_SURFS
 70
0
 62
7
  6
CONTINUOUS
370
-3
390
F
  0
LAYER
  5
212
100
AcDbSymbolTableRecord
100
AcDbLayerTableRecord
  2
06___PRT_ALL_SURFS
 70
0
 62
7
  6
CONTINUOUS
370
-3
390
F
  0
LAYER
  5
213
100
AcDbSymbolTableRecord
100
AcDbLayerTableRecord
  2
07__ASM_ALL_SKELETONS
 70
0
 62
7
  6
CONTINUOUS
370
-3
390
F
  0
ENDTAB
  0
TABLE
  2
STYLE
  5
3
100
AcDbSymbolTable
 70
1
  0
STYLE
  5
11
100
AcDbSymbolTableRecord
100
AcDbTextStyleTableRecord
  2
STANDARD
 70
0
 40
0.0
 41
0.8
 50
0.0
 71
0
 42
0.2
  3
txt
  4

  0
STYLE
  5
214
100
AcDbSymbolTableRecord
100
AcDbTextStyleTableRecord
  2
TEXTSTYLE_1
 70
0
 40
0.0
 41
0.8
 50
0.0
 71
0
 42
0.2
  3
gdt
  4

  0
ENDTAB
  0
TABLE
  2
VIEW
  5
6
100
AcDbSymbolTable
 70
0
  0
ENDTAB
  0
TABLE
  2
UCS
  5
7
100
AcDbSymbolTable
 70
0
  0
ENDTAB
  0
TABLE
  2
APPID
  5
9
100
AcDbSymbolTable
 70
1
  0
APPID
  5
215
100
AcDbSymbolTableRecord
100
AcDbRegAppTableRecord
  2
ACAD
 70
0
  0
ENDTAB
  0
TABLE
  2
BLOCK_RECORD
  5
1
100
AcDbSymbolTable
 70
0
  0
BLOCK_RECORD
  5
216
100
AcDbSymbolTableRecord
100
AcDbBlockTableRecord
  2
*Model_Space
  0
BLOCK_RECORD
  5
217
100
AcDbSymbolTableRecord
100
AcDbBlockTableRecord
  2
*Paper_Space
  0
ENDTAB
  0
TABLE
  2
DIMSTYLE
  5
A
100
AcDbSymbolTable
 70
1
100
AcDbDimStyleTable
 71
0
  0
DIMSTYLE
105
218
100
AcDbSymbolTableRecord
100
AcDbDimStyleTableRecord
  2
STANDARD
 70
0
  3

  4

 40
1.0
 41
0.1875
 42
0.0625
 43
0.38
 44
0.125
 45
0.0
 46
0.0
 47
0.0001
 48
0.0001
140
0.15625
141
0.09
142
0.0
143
25.4
144
1.0
145
0.0
146
1.0
147
0.09
 71
0.0
 72
0.0
 73
1
 74
1
 75
0
 76
0
 77
0
 78
4
 79
1
170
0
171
3
172
0
173
0
174
0
175
0
176
0
177
0
178
0
270
2
179
4
271
4
272
4
273
2
274
2
275
0
280
0
281
0
282
0
283
1
284
4
285
0
286
0
287
3
288
0
340
11
278
46
  0
ENDTAB
  0
ENDSEC
  0
SECTION
  2
BLOCKS
  0
BLOCK
  5
20
100
AcDbEntity
  8
0
100
AcDbBlockBegin
  2
*Model_Space
 70
0
 10
0.0
 20
0.0
 30
0.0
  3
*Model_Space
  1

  0
ENDBLK
  5
21
100
AcDbEntity
  8
0
100
AcDbBlockEnd
  0
BLOCK
  5
1C
100
AcDbEntity
  8
0
100
AcDbBlockBegin
  2
*Paper_Space
 70
0
 10
0.0
 20
0.0
 30
0.0
  3
*Paper_Space
  1

  0
ENDBLK
  5
1D
100
AcDbEntity
  8
0
100
AcDbBlockEnd
  0
ENDSEC
  0
SECTION
  2
ENTITIES
  0
MTEXT
  5
219
100
AcDbEntity
  8
0
100
AcDbMText
 62
7
  6
CONTINUOUS
  7
STANDARD
 71
1
 72
1
 10
15.9560215477
 20
0.9479130325
 30
0.0
 11
1.0
 21
0.0
 31
0.0
 44
0.9
  1
SCALE: 1:1.000
 40
0.3
 41
3.36
  0
LINE
  5
21A
100
AcDbEntity
  8
0
100
AcDbLine
 62
7
  6
CONTINUOUS
 10
0.0
 20
0.0
 11
0.0
 21
17.0
  0
LINE
  5
21B
100
AcDbEntity
  8
0
100
AcDbLine
 62
7
  6
CONTINUOUS
 10
0.0
 20
0.0
 11
22.0
 21
0.0
  0
LINE
  5
21C
100
AcDbEntity
  8
0
100
AcDbLine
 62
7
  6
CONTINUOUS
 10
0.0
 20
17.0
 11
22.0
 21
17.0
  0
LINE
  5
21D
100
AcDbEntity
  8
0
100
AcDbLine
 62
7
  6
CONTINUOUS
 10
22.0
 20
0.0
 11
22.0
 21
17.0
  0
LINE
  5
21E
100
AcDbEntity
  8
0
100
AcDbLine
 62
7
  6
CONTINUOUS
 10
4.6303672762
 20
5.6001198968
 11
4.6303672762
 21
5.5301198968
  0
LINE
  5
21F
100
AcDbEntity
  8
0
100
AcDbLine
 62
7
  6
CONTINUOUS
 10
4.7312200788
 20
5.5129722143
 11
4.7507422928
 21
5.4658414204
  0
LINE
  5
220
100
AcDbEntity
  8
0
100
AcDbLine
 62
7
  6
CONTINUOUS
 10
5.0099922595
 20
5.4658414204
 11
5.0295144735
 21
5.5129722143
  0
LINE
  5
221
100
AcDbEntity
  8
0
100
AcDbLine
 62
7
  6
CONTINUOUS
 10
5.2312200788
 20
5.5129722143
 11
5.2507422928
 21
5.4658414204
  0
LINE
  5
222
100
AcDbEntity
  8
0
100
AcDbLine
 62
7
  6
CONTINUOUS
 10
5.5099922595
 20
5.4658414204
 11
5.5295144735
 21
5.5129722143
  0
LINE
  5
223
100
AcDbEntity
  8
0
100
AcDbLine
 62
7
  6
CONTINUOUS
 10
5.7312200788
 20
5.5129722143
 11
5.7507422928
 21
5.4658414204
  0
LINE
  5
224
100
AcDbEntity
  8
0
100
AcDbLine
 62
7
  6
CONTINUOUS
 10
6.0099922595
 20
5.4658414204
 11
6.0295144735
 21
5.5129722143
  0
LINE
  5
225
100
AcDbEntity
  8
0
100
AcDbLine
 62
7
  6
CONTINUOUS
 10
4.7892372734
 20
5.4401198968
 11
4.971497279
 21
5.4401198968
  0
LINE
  5
226
100
AcDbEntity
  8
0
100
AcDbLine
 62
7
  6
CONTINUOUS
 10
5.2892372734
 20
5.4401198968
 11
5.471497279
 21
5.4401198968
  0
LINE
  5
227
100
AcDbEntity
  8
0
100
AcDbLine
 62
7
  6
CONTINUOUS
 10
5.7892372734
 20
5.4401198968
 11
5.971497279
 21
5.4401198968
  0
LINE
  5
228
100
AcDbEntity
  8
0
100
AcDbLine
 62
7
  6
CONTINUOUS
 10
6.2892372734
 20
5.4401198968
 11
6.471497279
 21
5.4401198968
  0
LINE
  5
229
100
AcDbEntity
  8
0
100
AcDbLine
 62
7
  6
CONTINUOUS
 10
6.7892372734
 20
5.4401198968
 11
6.971497279
 21
5.4401198968
  0
LINE
  5
22A
100
AcDbEntity
  8
0
100
AcDbLine
 62
7
  6
CONTINUOUS
 10
7.2892372734
 20
5.4401198968
 11
7.471497279
 21
5.4401198968
  0
LINE
  5
22B
100
AcDbEntity
  8
0
100
AcDbLine
 62
7
  6
CONTINUOUS
 10
4.6303672762
 20
5.5301198968
 11
4.7055567584
 21
5.5301198968
  0
LINE
  5
22C
100
AcDbEntity
  8
0
100
AcDbLine
 62
7
  6
CONTINUOUS
 10
5.0551777939
 20
5.5301198968
 11
5.2055567584
 21
5.5301198968
  0
LINE
  5
22D
100
AcDbEntity
  8
0
100
AcDbLine
 62
7
  6
CONTINUOUS
 10
5.5551777939
 20
5.5301198968
 11
5.7055567584
 21
5.5301198968
  0
LINE
  5
22E
100
AcDbEntity
  8
0
100
AcDbLine
 62
7
  6
CONTINUOUS
 10
6.0551777939
 20
5.5301198968
 11
6.2055567584
 21
5.5301198968
  0
LINE
  5
22F
100
AcDbEntity
  8
0
100
AcDbLine
 62
7
  6
CONTINUOUS
 10
6.5551777939
 20
5.5301198968
 11
6.7055567584
 21
5.5301198968
  0
LINE
  5
230
100
AcDbEntity
  8
0
100
AcDbLine
 62
7
  6
CONTINUOUS
 10
7.0551777939
 20
5.5301198968
 11
7.2055567584
 21
5.5301198968
  0
LINE
  5
231
100
AcDbEntity
  8
0
100
AcDbLine
 62
7
  6
CONTINUOUS
 10
7.5551777939
 20
5.5301198968
 11
7.6303672762
 21
5.5301198968
  0
LINE
  5
232
100
AcDbEntity
  8
0
100
AcDbLine
 62
7
  6
CONTINUOUS
 10
7.6303672762
 20
5.6001198968
 11
4.6303672762
 21
5.6001198968
  0
LINE
  5
233
100
AcDbEntity
  8
0
100
AcDbLine
 62
7
  6
CONTINUOUS
 10
6.2312200788
 20
5.5129722143
 11
6.2507422928
 21
5.4658414204
  0
LINE
  5
234
100
AcDbEntity
  8
0
100
AcDbLine
 62
7
  6
CONTINUOUS
 10
6.5099922595
 20
5.4658414204
 11
6.5295144735
 21
5.5129722143
  0
LINE
  5
235
100
AcDbEntity
  8
0
100
AcDbLine
 62
7
  6
CONTINUOUS
 10
6.7312200788
 20
5.5129722143
 11
6.7507422928
 21
5.4658414204
  0
LINE
  5
236
100
AcDbEntity
  8
0
100
AcDbLine
 62
7
  6
CONTINUOUS
 10
7.0099922595
 20
5.4658414204
 11
7.0295144735
 21
5.5129722143
  0
LINE
  5
237
100
AcDbEntity
  8
0
100
AcDbLine
 62
7
  6
CONTINUOUS
 10
7.2312200788
 20
5.5129722143
 11
7.2507422928
 21
5.4658414204
  0
LINE
  5
238
100
AcDbEntity
  8
0
100
AcDbLine
 62
7
  6
CONTINUOUS
 10
7.5099922595
 20
5.4658414204
 11
7.5295144735
 21
5.5129722143
  0
LINE
  5
239
100
AcDbEntity
  8
0
100
AcDbLine
 62
7
  6
CONTINUOUS
 10
7.6303672762
 20
5.5301198968
 11
7.6303672762
 21
5.6001198968
  0
LINE
  5
23A
100
AcDbEntity
  8
0
100
AcDbLine
 62
7
  6
CONTINUOUS
 10
4.5708720839
 20
12.8500477814
 11
4.5708720839
 21
12.3500477814
  0
LINE
  5
23B
100
AcDbEntity
  8
0
100
AcDbLine
 62
7
  6
CONTINUOUS
 10
7.5708720839
 20
12.3500477814
 11
4.5708720839
 21
12.3500477814
  0
LINE
  5
23C
100
AcDbEntity
  8
0
100
AcDbLine
 62
7
  6
CONTINUOUS
 10
4.5708720839
 20
12.8500477814
 11
7.5708720839
 21
12.8500477814
  0
LINE
  5
23D
100
AcDbEntity
  8
0
100
AcDbLine
 62
7
  6
CONTINUOUS
 10
7.5708720839
 20
12.8500477814
 11
7.5708720839
 21
12.3500477814
  0
LINE
  5
23E
100
AcDbEntity
  8
0
100
AcDbLine
 62
7
  6
CONTINUOUS
 10
15.3103552569
 20
5.3806247044
 11
15.3103552569
 21
5.5406247044
  0
LINE
  5
23F
100
AcDbEntity
  8
0
100
AcDbLine
 62
7
  6
CONTINUOUS
 10
15.3103552569
 20
5.3806247044
 11
15.8103552569
 21
5.3806247044
  0
LINE
  5
240
100
AcDbEntity
  8
0
100
AcDbLine
 62
7
  6
CONTINUOUS
 10
15.8103552569
 20
5.4706247044
 11
15.3103552569
 21
5.4706247044
  0
LINE
  5
241
100
AcDbEntity
  8
0
100
AcDbLine
 62
7
  6
CONTINUOUS
 10
15.8103552569
 20
5.5406247044
 11
15.3103552569
 21
5.5406247044
  0
LINE
  5
242
100
AcDbEntity
  8
0
100
AcDbLine
 62
7
  6
CONTINUOUS
 10
15.8103552569
 20
5.3806247044
 11
15.8103552569
 21
5.5406247044
  0
LINE
  5
243
100
AcDbEntity
  8
0
100
AcDbLine
 62
7
  6
CONTINUOUS
 10
14.0183279313
 20
12.364702063
 11
14.039680862
 21
12.3211893652
  0
LINE
  5
244
100
AcDbEntity
  8
0
100
AcDbLine
 62
7
  6
CONTINUOUS
 10
14.139361093
 20
12.7563655178
 11
14.0183279313
 21
12.364702063
  0
LINE
  5
245
100
AcDbEntity
  8
0
100
AcDbLine
 62
7
  6
CONTINUOUS
 10
14.4089462529
 20
12.2812332235
 11
14.4125505374
 21
12.3105301948
  0
LINE
  5
246
100
AcDbEntity
  8
0
100
AcDbLine
 62
7
  6
CONTINUOUS
 10
14.4084388918
 20
12.2788417989
 11
14.4089462529
 21
12.2812332235
  0
LINE
  5
247
100
AcDbEntity
  8
0
100
AcDbLine
 62
7
  6
CONTINUOUS
 10
14.4125505374
 20
12.3105301948
 11
14.4128946038
 21
12.3121226803
  0
LINE
  5
248
100
AcDbEntity
  8
0
100
AcDbLine
 62
7
  6
CONTINUOUS
 10
14.1378032056
 20
12.3105301948
 11
14.1701612209
 21
12.2812332235
  0
LINE
  5
249
100
AcDbEntity
  8
0
100
AcDbLine
 62
7
  6
CONTINUOUS
 10
14.4091541072
 20
12.2811689917
 11
14.4209464293
 21
12.3193289599
  0
LINE
  5
24A
100
AcDbEntity
  8
0
100
AcDbLine
 62
7
  6
CONTINUOUS
 10
14.5983337026
 20
12.3105301948
 11
14.6306917179
 21
12.2812332235
  0
LINE
  5
24B
100
AcDbEntity
  8
0
100
AcDbLine
 62
7
  6
CONTINUOUS
 10
14.8694767499
 20
12.2812332235
 11
14.8730810344
 21
12.3105301948
  0
LINE
  5
24C
100
AcDbEntity
  8
0
100
AcDbLine
 62
7
  6
CONTINUOUS
 10
14.8689693888
 20
12.2788417989
 11
14.8694767499
 21
12.2812332235
  0
LINE
  5
24D
100
AcDbEntity
  8
0
100
AcDbLine
 62
7
  6
CONTINUOUS
 10
14.8730810344
 20
12.3105301948
 11
14.8734251008
 21
12.3121226803
  0
LINE
  5
24E
100
AcDbEntity
  8
0
100
AcDbLine
 62
7
  6
CONTINUOUS
 10
14.8696846042
 20
12.2811689917
 11
14.8814769263
 21
12.3193289599
  0
LINE
  5
24F
100
AcDbEntity
  8
0
100
AcDbLine
 62
7
  6
CONTINUOUS
 10
15.0588641996
 20
12.3105301948
 11
15.0912222149
 21
12.2812332235
  0
LINE
  5
250
100
AcDbEntity
  8
0
100
AcDbLine
 62
7
  6
CONTINUOUS
 10
14.2134635875
 20
12.265244468
 11
14.3813361694
 21
12.265244468
  0
LINE
  5
251
100
AcDbEntity
  8
0
100
AcDbLine
 62
7
  6
CONTINUOUS
 10
14.6739940845
 20
12.265244468
 11
14.8418666664
 21
12.265244468
  0
LINE
  5
252
100
AcDbEntity
  8
0
100
AcDbLine
 62
7
  6
CONTINUOUS
 10
15.1345245815
 20
12.265244468
 11
15.3023971634
 21
12.265244468
  0
LINE
  5
253
100
AcDbEntity
  8
0
100
AcDbLine
 62
7
  6
CONTINUOUS
 10
15.5950550785
 20
12.265244468
 11
15.7629276604
 21
12.265244468
  0
LINE
  5
254
100
AcDbEntity
  8
0
100
AcDbLine
 62
7
  6
CONTINUOUS
 10
16.0555855755
 20
12.265244468
 11
16.2234581574
 21
12.265244468
  0
LINE
  5
255
100
AcDbEntity
  8
0
100
AcDbLine
 62
7
  6
CONTINUOUS
 10
16.5161160725
 20
12.265244468
 11
16.6839886544
 21
12.265244468
  0
LINE
  5
256
100
AcDbEntity
  8
0
100
AcDbLine
 62
7
  6
CONTINUOUS
 10
14.039680862
 20
12.3211893652
 11
14.1089349612
 21
12.3211893652
  0
LINE
  5
257
100
AcDbEntity
  8
0
100
AcDbLine
 62
7
  6
CONTINUOUS
 10
14.4309572597
 20
12.3211893652
 11
14.5694654582
 21
12.3211893652
  0
LINE
  5
258
100
AcDbEntity
  8
0
100
AcDbLine
 62
7
  6
CONTINUOUS
 10
14.8914877567
 20
12.3211893652
 11
15.0299959552
 21
12.3211893652
  0
LINE
  5
259
100
AcDbEntity
  8
0
100
AcDbLine
 62
7
  6
CONTINUOUS
 10
15.3520182537
 20
12.3211893652
 11
15.4905264522
 21
12.3211893652
  0
LINE
  5
25A
100
AcDbEntity
  8
0
100
AcDbLine
 62
7
  6
CONTINUOUS
 10
15.8125487507
 20
12.3211893652
 11
15.9510569492
 21
12.3211893652
  0
LINE
  5
25B
100
AcDbEntity
  8
0
100
AcDbLine
 62
7
  6
CONTINUOUS
 10
16.2730792477
 20
12.3211893652
 11
16.4115874462
 21
12.3211893652
  0
LINE
  5
25C
100
AcDbEntity
  8
0
100
AcDbLine
 62
7
  6
CONTINUOUS
 10
16.7336097447
 20
12.3211893652
 11
16.802863844
 21
12.3211893652
  0
LINE
  5
25D
100
AcDbEntity
  8
0
100
AcDbLine
 62
7
  6
CONTINUOUS
 10
15.3300072469
 20
12.2812332235
 11
15.3336115314
 21
12.3105301948
  0
LINE
  5
25E
100
AcDbEntity
  8
0
100
AcDbLine
 62
7
  6
CONTINUOUS
 10
15.3294998858
 20
12.2788417989
 11
15.3300072469
 21
12.2812332235
  0
LINE
  5
25F
100
AcDbEntity
  8
0
100
AcDbLine
 62
7
  6
CONTINUOUS
 10
15.3336115314
 20
12.3105301948
 11
15.3339555978
 21
12.3121226803
  0
LINE
  5
260
100
AcDbEntity
  8
0
100
AcDbLine
 62
7
  6
CONTINUOUS
 10
16.7815109133
 20
12.364702063
 11
14.0183279313
 21
12.364702063
  0
LINE
  5
261
100
AcDbEntity
  8
0
100
AcDbLine
 62
7
  6
CONTINUOUS
 10
15.5193946966
 20
12.3105301948
 11
15.5517527119
 21
12.2812332235
  0
LINE
  5
262
100
AcDbEntity
  8
0
100
AcDbLine
 62
7
  6
CONTINUOUS
 10
15.3302151012
 20
12.2811689917
 11
15.3420074233
 21
12.3193289599
  0
LINE
  5
263
100
AcDbEntity
  8
0
100
AcDbLine
 62
7
  6
CONTINUOUS
 10
15.9799251937
 20
12.3105301948
 11
16.0122832089
 21
12.2812332235
  0
LINE
  5
264
100
AcDbEntity
  8
0
100
AcDbLine
 62
7
  6
CONTINUOUS
 10
14.139361093
 20
12.7563655178
 11
16.902544075
 21
12.7563655178
  0
LINE
  5
265
100
AcDbEntity
  8
0
100
AcDbLine
 62
7
  6
CONTINUOUS
 10
15.7905377439
 20
12.2812332235
 11
15.7941420284
 21
12.3105301948
  0
LINE
  5
266
100
AcDbEntity
  8
0
100
AcDbLine
 62
7
  6
CONTINUOUS
 10
15.7900303828
 20
12.2788417989
 11
15.7905377439
 21
12.2812332235
  0
LINE
  5
267
100
AcDbEntity
  8
0
100
AcDbLine
 62
7
  6
CONTINUOUS
 10
15.7941420284
 20
12.3105301948
 11
15.7944860948
 21
12.3121226803
  0
LINE
  5
268
100
AcDbEntity
  8
0
100
AcDbLine
 62
7
  6
CONTINUOUS
 10
15.7907455982
 20
12.2811689917
 11
15.8025379203
 21
12.3193289599
  0
LINE
  5
269
100
AcDbEntity
  8
0
100
AcDbLine
 62
7
  6
CONTINUOUS
 10
16.4404556907
 20
12.3105301948
 11
16.4728137059
 21
12.2812332235
  0
LINE
  5
26A
100
AcDbEntity
  8
0
100
AcDbLine
 62
7
  6
CONTINUOUS
 10
16.2510682409
 20
12.2812332235
 11
16.2546725254
 21
12.3105301948
  0
LINE
  5
26B
100
AcDbEntity
  8
0
100
AcDbLine
 62
7
  6
CONTINUOUS
 10
16.2505608798
 20
12.2788417989
 11
16.2510682409
 21
12.2812332235
  0
LINE
  5
26C
100
AcDbEntity
  8
0
100
AcDbLine
 62
7
  6
CONTINUOUS
 10
16.2546725254
 20
12.3105301948
 11
16.2550165918
 21
12.3121226803
  0
LINE
  5
26D
100
AcDbEntity
  8
0
100
AcDbLine
 62
7
  6
CONTINUOUS
 10
16.2512760952
 20
12.2811689917
 11
16.2630684173
 21
12.3193289599
  0
LINE
  5
26E
100
AcDbEntity
  8
0
100
AcDbLine
 62
7
  6
CONTINUOUS
 10
16.802863844
 20
12.3211893652
 11
16.7815109133
 21
12.364702063
  0
LINE
  5
26F
100
AcDbEntity
  8
0
100
AcDbLine
 62
7
  6
CONTINUOUS
 10
16.7115987379
 20
12.2812332235
 11
16.7152030224
 21
12.3105301948
  0
LINE
  5
270
100
AcDbEntity
  8
0
100
AcDbLine
 62
7
  6
CONTINUOUS
 10
16.7110913768
 20
12.2788417989
 11
16.7115987379
 21
12.2812332235
  0
LINE
  5
271
100
AcDbEntity
  8
0
100
AcDbLine
 62
7
  6
CONTINUOUS
 10
16.7152030224
 20
12.3105301948
 11
16.7155470888
 21
12.3121226803
  0
LINE
  5
272
100
AcDbEntity
  8
0
100
AcDbLine
 62
7
  6
CONTINUOUS
 10
16.7118065922
 20
12.2811689917
 11
16.7235989143
 21
12.3193289599
  0
LINE
  5
273
100
AcDbEntity
  8
0
100
AcDbLine
 62
7
  6
CONTINUOUS
 10
16.902544075
 20
12.7563655178
 11
16.7815109133
 21
12.364702063
  0
LINE
  5
274
100
AcDbEntity
  8
0
100
AcDbLine
 62
7
  6
CONTINUOUS
 10
16.9238970057
 20
12.71285282
 11
16.802863844
 21
12.3211893652
  0
LINE
  5
275
100
AcDbEntity
  8
0
100
AcDbLine
 62
7
  6
CONTINUOUS
 10
16.9238970057
 20
12.71285282
 11
16.902544075
 21
12.7563655178
  0
ARC
  5
276
100
AcDbEntity
  8
0
100
AcDbCircle
 62
7
  6
CONTINUOUS
 10
5.2892372734
 20
5.4817865634
 40
0.0416666667
100
AcDbArc
 50
202.5
 51
270.0
  0
ARC
  5
277
100
AcDbEntity
  8
0
100
AcDbCircle
 62
7
  6
CONTINUOUS
 10
5.471497279
 20
5.4817865634
 40
0.0416666667
100
AcDbArc
 50
270.0
 51
337.5
  0
ARC
  5
278
100
AcDbEntity
  8
0
100
AcDbCircle
 62
7
  6
CONTINUOUS
 10
5.7892372734
 20
5.4817865634
 40
0.0416666667
100
AcDbArc
 50
202.5
 51
270.0
  0
ARC
  5
279
100
AcDbEntity
  8
0
100
AcDbCircle
 62
7
  6
CONTINUOUS
 10
5.971497279
 20
5.4817865634
 40
0.0416666667
100
AcDbArc
 50
270.0
 51
337.5
  0
ARC
  5
27A
100
AcDbEntity
  8
0
100
AcDbCircle
 62
7
  6
CONTINUOUS
 10
6.2892372734
 20
5.4817865634
 40
0.0416666667
100
AcDbArc
 50
202.5
 51
270.0
  0
ARC
  5
27B
100
AcDbEntity
  8
0
100
AcDbCircle
 62
7
  6
CONTINUOUS
 10
6.471497279
 20
5.4817865634
 40
0.0416666667
100
AcDbArc
 50
270.0
 51
337.5
  0
ARC
  5
27C
100
AcDbEntity
  8
0
100
AcDbCircle
 62
7
  6
CONTINUOUS
 10
4.971497279
 20
5.4817865634
 40
0.0416666667
100
AcDbArc
 50
270.0
 51
337.5
  0
ARC
  5
27D
100
AcDbEntity
  8
0
100
AcDbCircle
 62
7
  6
CONTINUOUS
 10
4.7892372734
 20
5.4817865634
 40
0.0416666667
100
AcDbArc
 50
202.5
 51
270.0
  0
ARC
  5
27E
100
AcDbEntity
  8
0
100
AcDbCircle
 62
7
  6
CONTINUOUS
 10
7.471497279
 20
5.4817865634
 40
0.0416666667
100
AcDbArc
 50
270.0
 51
337.5
  0
ARC
  5
27F
100
AcDbEntity
  8
0
100
AcDbCircle
 62
7
  6
CONTINUOUS
 10
7.2892372734
 20
5.4817865634
 40
0.0416666667
100
AcDbArc
 50
202.5
 51
270.0
  0
ARC
  5
280
100
AcDbEntity
  8
0
100
AcDbCircle
 62
7
  6
CONTINUOUS
 10
6.971497279
 20
5.4817865634
 40
0.0416666667
100
AcDbArc
 50
270.0
 51
337.5
  0
ARC
  5
281
100
AcDbEntity
  8
0
100
AcDbCircle
 62
7
  6
CONTINUOUS
 10
6.7892372734
 20
5.4817865634
 40
0.0416666667
100
AcDbArc
 50
202.5
 51
270.0
  0
ARC
  5
282
100
AcDbEntity
  8
0
100
AcDbCircle
 62
7
  6
CONTINUOUS
 10
5.0551777939
 20
5.502342119
 40
0.0277777778
100
AcDbArc
 50
90.0
 51
157.5
  0
ARC
  5
283
100
AcDbEntity
  8
0
100
AcDbCircle
 62
7
  6
CONTINUOUS
 10
4.7055567584
 20
5.502342119
 40
0.0277777778
100
AcDbArc
 50
22.5
 51
90.0
  0
ARC
  5
284
100
AcDbEntity
  8
0
100
AcDbCircle
 62
7
  6
CONTINUOUS
 10
5.5551777939
 20
5.502342119
 40
0.0277777778
100
AcDbArc
 50
90.0
 51
157.5
  0
ARC
  5
285
100
AcDbEntity
  8
0
100
AcDbCircle
 62
7
  6
CONTINUOUS
 10
5.2055567584
 20
5.502342119
 40
0.0277777778
100
AcDbArc
 50
22.5
 51
90.0
  0
ARC
  5
286
100
AcDbEntity
  8
0
100
AcDbCircle
 62
7
  6
CONTINUOUS
 10
6.0551777939
 20
5.502342119
 40
0.0277777778
100
AcDbArc
 50
90.0
 51
157.5
  0
ARC
  5
287
100
AcDbEntity
  8
0
100
AcDbCircle
 62
7
  6
CONTINUOUS
 10
5.7055567584
 20
5.502342119
 40
0.0277777778
100
AcDbArc
 50
22.5
 51
90.0
  0
ARC
  5
288
100
AcDbEntity
  8
0
100
AcDbCircle
 62
7
  6
CONTINUOUS
 10
6.5551777939
 20
5.502342119
 40
0.0277777778
100
AcDbArc
 50
90.0
 51
157.5
  0
ARC
  5
289
100
AcDbEntity
  8
0
100
AcDbCircle
 62
7
  6
CONTINUOUS
 10
6.2055567584
 20
5.502342119
 40
0.0277777778
100
AcDbArc
 50
22.5
 51
90.0
  0
ARC
  5
28A
100
AcDbEntity
  8
0
100
AcDbCircle
 62
7
  6
CONTINUOUS
 10
7.0551777939
 20
5.502342119
 40
0.0277777778
100
AcDbArc
 50
90.0
 51
157.5
  0
ARC
  5
28B
100
AcDbEntity
  8
0
100
AcDbCircle
 62
7
  6
CONTINUOUS
 10
6.7055567584
 20
5.502342119
 40
0.0277777778
100
AcDbArc
 50
22.5
 51
90.0
  0
ARC
  5
28C
100
AcDbEntity
  8
0
100
AcDbCircle
 62
7
  6
CONTINUOUS
 10
7.5551777939
 20
5.502342119
 40
0.0277777778
100
AcDbArc
 50
90.0
 51
157.5
  0
ARC
  5
28D
100
AcDbEntity
  8
0
100
AcDbCircle
 62
7
  6
CONTINUOUS
 10
7.2055567584
 20
5.502342119
 40
0.0277777778
100
AcDbArc
 50
22.5
 51
90.0
  0
SPLINE
  5
28E
100
AcDbEntity
  8
0
100
AcDbSpline
 62
7
  6
CONTINUOUS
 70
0
 71
3
 72
9
 73
5
 74
0
 42
0.0000001
 43
0.0000001
 44
0.0000000001
 40
0.0
 40
0.0
 40
0.0
 40
0.0
 40
0.4953336763
 40
1.0
 40
1.0
 40
1.0
 40
1.0
 10
14.4128920476
 20
12.3121234708
 30
0.0
 10
14.4130423971
 20
12.3126090261
 30
0.0
 10
14.4134287196
 20
12.3135654577
 30
0.0
 10
14.4139661893
 20
12.3144454302
 30
0.0
 10
14.4142695228
 20
12.3148651746
 30
0.0
  0
SPLINE
  5
28F
100
AcDbEntity
  8
0
100
AcDbSpline
 62
7
  6
CONTINUOUS
 70
0
 71
3
 72
14
 73
10
 74
0
 42
0.0000001
 43
0.0000001
 44
0.0000000001
 40
0.0
 40
0.0
 40
0.0
 40
0.0
 40
0.1008717902
 40
0.2072974626
 40
0.3205368684
 40
0.441368133
 40
0.7063096284
 40
0.8500848663
 40
1.0
 40
1.0
 40
1.0
 40
1.0
 10
14.4142695228
 20
12.3148651746
 30
0.0
 10
14.4146331782
 20
12.3153683908
 30
0.0
 10
14.4154782125
 20
12.3163344774
 30
0.0
 10
14.4170071671
 20
12.3175927291
 30
0.0
 10
14.4188063801
 20
12.3186804754
 30
0.0
 10
14.4216216268
 20
12.3199247033
 30
0.0
 10
14.4248091352
 20
12.3207218016
 30
0.0
 10
14.4282255814
 20
12.3211225923
 30
0.0
 10
14.4300345352
 20
12.3211893652
 30
0.0
 10
14.4309572597
 20
12.3211893652
 30
0.0
  0
SPLINE
  5
290
100
AcDbEntity
  8
0
100
AcDbSpline
 62
7
  6
CONTINUOUS
 70
0
 71
3
 72
9
 73
5
 74
0
 42
0.0000001
 43
0.0000001
 44
0.0000000001
 40
0.0
 40
0.0
 40
0.0
 40
0.0
 40
0.4953336763
 40
1.0
 40
1.0
 40
1.0
 40
1.0
 10
14.8734225446
 20
12.3121234708
 30
0.0
 10
14.8735728941
 20
12.3126090261
 30
0.0
 10
14.8739592166
 20
12.3135654577
 30
0.0
 10
14.8744966863
 20
12.3144454302
 30
0.0
 10
14.8748000198
 20
12.3148651746
 30
0.0
  0
SPLINE
  5
291
100
AcDbEntity
  8
0
100
AcDbSpline
 62
7
  6
CONTINUOUS
 70
0
 71
3
 72
14
 73
10
 74
0
 42
0.0000001
 43
0.0000001
 44
0.0000000001
 40
0.0
 40
0.0
 40
0.0
 40
0.0
 40
0.1008717902
 40
0.2072974626
 40
0.3205368684
 40
0.441368133
 40
0.7063096284
 40
0.8500848663
 40
1.0
 40
1.0
 40
1.0
 40
1.0
 10
14.8748000198
 20
12.3148651746
 30
0.0
 10
14.8751636752
 20
12.3153683908
 30
0.0
 10
14.8760087095
 20
12.3163344774
 30
0.0
 10
14.8775376641
 20
12.3175927291
 30
0.0
 10
14.8793368771
 20
12.3186804754
 30
0.0
 10
14.8821521238
 20
12.3199247033
 30
0.0
 10
14.8853396322
 20
12.3207218016
 30
0.0
 10
14.8887560784
 20
12.3211225923
 30
0.0
 10
14.8905650322
 20
12.3211893652
 30
0.0
 10
14.8914877567
 20
12.3211893652
 30
0.0
  0
SPLINE
  5
292
100
AcDbEntity
  8
0
100
AcDbSpline
 62
7
  6
CONTINUOUS
 70
0
 71
3
 72
9
 73
5
 74
0
 42
0.0000001
 43
0.0000001
 44
0.0000000001
 40
0.0
 40
0.0
 40
0.0
 40
0.0
 40
0.4953336763
 40
1.0
 40
1.0
 40
1.0
 40
1.0
 10
15.3339530416
 20
12.3121234708
 30
0.0
 10
15.3341033911
 20
12.3126090261
 30
0.0
 10
15.3344897136
 20
12.3135654577
 30
0.0
 10
15.3350271833
 20
12.3144454302
 30
0.0
 10
15.3353305168
 20
12.3148651746
 30
0.0
  0
SPLINE
  5
293
100
AcDbEntity
  8
0
100
AcDbSpline
 62
7
  6
CONTINUOUS
 70
0
 71
3
 72
14
 73
10
 74
0
 42
0.0000001
 43
0.0000001
 44
0.0000000001
 40
0.0
 40
0.0
 40
0.0
 40
0.0
 40
0.1008717902
 40
0.2072974626
 40
0.3205368684
 40
0.441368133
 40
0.7063096284
 40
0.8500848663
 40
1.0
 40
1.0
 40
1.0
 40
1.0
 10
15.3353305168
 20
12.3148651746
 30
0.0
 10
15.3356941722
 20
12.3153683908
 30
0.0
 10
15.3365392065
 20
12.3163344774
 30
0.0
 10
15.3380681611
 20
12.3175927291
 30
0.0
 10
15.3398673741
 20
12.3186804754
 30
0.0
 10
15.3426826208
 20
12.3199247033
 30
0.0
 10
15.3458701292
 20
12.3207218016
 30
0.0
 10
15.3492865754
 20
12.3211225923
 30
0.0
 10
15.3510955292
 20
12.3211893652
 30
0.0
 10
15.3520182537
 20
12.3211893652
 30
0.0
  0
SPLINE
  5
294
100
AcDbEntity
  8
0
100
AcDbSpline
 62
7
  6
CONTINUOUS
 70
0
 71
3
 72
9
 73
5
 74
0
 42
0.0000001
 43
0.0000001
 44
0.0000000001
 40
0.0
 40
0.0
 40
0.0
 40
0.0
 40
0.4953336763
 40
1.0
 40
1.0
 40
1.0
 40
1.0
 10
15.7944835386
 20
12.3121234708
 30
0.0
 10
15.7946338881
 20
12.3126090261
 30
0.0
 10
15.7950202106
 20
12.3135654577
 30
0.0
 10
15.7955576803
 20
12.3144454302
 30
0.0
 10
15.7958610138
 20
12.3148651746
 30
0.0
  0
SPLINE
  5
295
100
AcDbEntity
  8
0
100
AcDbSpline
 62
7
  6
CONTINUOUS
 70
0
 71
3
 72
14
 73
10
 74
0
 42
0.0000001
 43
0.0000001
 44
0.0000000001
 40
0.0
 40
0.0
 40
0.0
 40
0.0
 40
0.1008717902
 40
0.2072974626
 40
0.3205368684
 40
0.441368133
 40
0.7063096284
 40
0.8500848663
 40
1.0
 40
1.0
 40
1.0
 40
1.0
 10
15.7958610138
 20
12.3148651746
 30
0.0
 10
15.7962246692
 20
12.3153683908
 30
0.0
 10
15.7970697035
 20
12.3163344774
 30
0.0
 10
15.7985986581
 20
12.3175927291
 30
0.0
 10
15.8003978711
 20
12.3186804754
 30
0.0
 10
15.8032131178
 20
12.3199247033
 30
0.0
 10
15.8064006262
 20
12.3207218016
 30
0.0
 10
15.8098170724
 20
12.3211225923
 30
0.0
 10
15.8116260262
 20
12.3211893652
 30
0.0
 10
15.8125487507
 20
12.3211893652
 30
0.0
  0
SPLINE
  5
296
100
AcDbEntity
  8
0
100
AcDbSpline
 62
7
  6
CONTINUOUS
 70
0
 71
3
 72
9
 73
5
 74
0
 42
0.0000001
 43
0.0000001
 44
0.0000000001
 40
0.0
 40
0.0
 40
0.0
 40
0.0
 40
0.4953336763
 40
1.0
 40
1.0
 40
1.0
 40
1.0
 10
16.2550140356
 20
12.3121234708
 30
0.0
 10
16.2551643851
 20
12.3126090261
 30
0.0
 10
16.2555507076
 20
12.3135654577
 30
0.0
 10
16.2560881773
 20
12.3144454302
 30
0.0
 10
16.2563915108
 20
12.3148651746
 30
0.0
  0
SPLINE
  5
297
100
AcDbEntity
  8
0
100
AcDbSpline
 62
7
  6
CONTINUOUS
 70
0
 71
3
 72
14
 73
10
 74
0
 42
0.0000001
 43
0.0000001
 44
0.0000000001
 40
0.0
 40
0.0
 40
0.0
 40
0.0
 40
0.1008717902
 40
0.2072974626
 40
0.3205368684
 40
0.441368133
 40
0.7063096284
 40
0.8500848663
 40
1.0
 40
1.0
 40
1.0
 40
1.0
 10
16.2563915108
 20
12.3148651746
 30
0.0
 10
16.2567551662
 20
12.3153683908
 30
0.0
 10
16.2576002005
 20
12.3163344774
 30
0.0
 10
16.2591291551
 20
12.3175927291
 30
0.0
 10
16.2609283681
 20
12.3186804754
 30
0.0
 10
16.2637436148
 20
12.3199247033
 30
0.0
 10
16.2669311232
 20
12.3207218016
 30
0.0
 10
16.2703475694
 20
12.3211225923
 30
0.0
 10
16.2721565232
 20
12.3211893652
 30
0.0
 10
16.2730792477
 20
12.3211893652
 30
0.0
  0
SPLINE
  5
298
100
AcDbEntity
  8
0
100
AcDbSpline
 62
7
  6
CONTINUOUS
 70
0
 71
3
 72
9
 73
5
 74
0
 42
0.0000001
 43
0.0000001
 44
0.0000000001
 40
0.0
 40
0.0
 40
0.0
 40
0.0
 40
0.4953336763
 40
1.0
 40
1.0
 40
1.0
 40
1.0
 10
16.7155445326
 20
12.3121234708
 30
0.0
 10
16.7156948821
 20
12.3126090261
 30
0.0
 10
16.7160812046
 20
12.3135654577
 30
0.0
 10
16.7166186743
 20
12.3144454302
 30
0.0
 10
16.7169220078
 20
12.3148651746
 30
0.0
  0
SPLINE
  5
299
100
AcDbEntity
  8
0
100
AcDbSpline
 62
7
  6
CONTINUOUS
 70
0
 71
3
 72
14
 73
10
 74
0
 42
0.0000001
 43
0.0000001
 44
0.0000000001
 40
0.0
 40
0.0
 40
0.0
 40
0.0
 40
0.1008717902
 40
0.2072974626
 40
0.3205368684
 40
0.441368133
 40
0.7063096284
 40
0.8500848663
 40
1.0
 40
1.0
 40
1.0
 40
1.0
 10
16.7169220078
 20
12.3148651746
 30
0.0
 10
16.7172856632
 20
12.3153683908
 30
0.0
 10
16.7181306975
 20
12.3163344774
 30
0.0
 10
16.7196596521
 20
12.3175927291
 30
0.0
 10
16.7214588651
 20
12.3186804754
 30
0.0
 10
16.7242741118
 20
12.3199247033
 30
0.0
 10
16.7274616202
 20
12.3207218016
 30
0.0
 10
16.7308780664
 20
12.3211225923
 30
0.0
 10
16.7326870202
 20
12.3211893652
 30
0.0
 10
16.7336097447
 20
12.3211893652
 30
0.0
  0
SPLINE
  5
29A
100
AcDbEntity
  8
0
100
AcDbSpline
 62
7
  6
CONTINUOUS
 70
0
 71
3
 72
15
 73
11
 74
0
 42
0.0000001
 43
0.0000001
 44
0.0000000001
 40
0.0
 40
0.0
 40
0.0
 40
0.0
 40
0.1557507299
 40
0.3032142887
 40
0.4410980619
 40
0.5690412092
 40
0.687337857
 40
0.7970481933
 40
0.9002754348
 40
1.0
 40
1.0
 40
1.0
 40
1.0
 10
14.3813361694
 20
12.265244468
 30
0.0
 10
14.3830137116
 20
12.265244468
 30
0.0
 10
14.3862820056
 20
12.2653893162
 30
0.0
 10
14.3909925389
 20
12.2660696505
 30
0.0
 10
14.3953090212
 20
12.2672011459
 30
0.0
 10
14.3991539107
 20
12.2687649128
 30
0.0
 10
14.4024612581
 20
12.2707375694
 30
0.0
 10
14.4051692775
 20
12.2730941492
 30
0.0
 10
14.4072197245
 20
12.2757978642
 30
0.0
 10
14.4081173419
 20
12.277816947
 30
0.0
 10
14.4084346412
 20
12.2788431127
 30
0.0
  0
SPLINE
  5
29B
100
AcDbEntity
  8
0
100
AcDbSpline
 62
7
  6
CONTINUOUS
 70
0
 71
3
 72
15
 73
11
 74
0
 42
0.0000001
 43
0.0000001
 44
0.0000000001
 40
0.0
 40
0.0
 40
0.0
 40
0.0
 40
0.1148729821
 40
0.2360780929
 40
0.3619574248
 40
0.4908828145
 40
0.6210129968
 40
0.7504589347
 40
0.8774378065
 40
1.0
 40
1.0
 40
1.0
 40
1.0
 10
14.1701612209
 20
12.2812332235
 30
0.0
 10
14.1714981844
 20
12.2800227357
 30
0.0
 10
14.1743947839
 20
12.2776964128
 30
0.0
 10
14.1791687812
 20
12.2745986151
 30
0.0
 10
14.1844048108
 20
12.2718543805
 30
0.0
 10
14.1899884834
 20
12.2695229163
 30
0.0
 10
14.1958013483
 20
12.2676514628
 30
0.0
 10
14.2017213667
 20
12.266281459
 30
0.0
 10
14.2076194982
 20
12.2654432976
 30
0.0
 10
14.2115393258
 20
12.265244468
 30
0.0
 10
14.2134635875
 20
12.265244468
 30
0.0
  0
SPLINE
  5
29C
100
AcDbEntity
  8
0
100
AcDbSpline
 62
7
  6
CONTINUOUS
 70
0
 71
3
 72
15
 73
11
 74
0
 42
0.0000001
 43
0.0000001
 44
0.0000000001
 40
0.0
 40
0.0
 40
0.0
 40
0.0
 40
0.1557507299
 40
0.3032142887
 40
0.4410980619
 40
0.5690412092
 40
0.687337857
 40
0.7970481933
 40
0.9002754348
 40
1.0
 40
1.0
 40
1.0
 40
1.0
 10
16.6839886544
 20
12.265244468
 30
0.0
 10
16.6856661966
 20
12.265244468
 30
0.0
 10
16.6889344906
 20
12.2653893162
 30
0.0
 10
16.6936450239
 20
12.2660696505
 30
0.0
 10
16.6979615062
 20
12.2672011459
 30
0.0
 10
16.7018063957
 20
12.2687649128
 30
0.0
 10
16.7051137431
 20
12.2707375694
 30
0.0
 10
16.7078217625
 20
12.2730941492
 30
0.0
 10
16.7098722096
 20
12.2757978642
 30
0.0
 10
16.7107698269
 20
12.277816947
 30
0.0
 10
16.7110871262
 20
12.2788431127
 30
0.0
  0
SPLINE
  5
29D
100
AcDbEntity
  8
0
100
AcDbSpline
 62
7
  6
CONTINUOUS
 70
0
 71
3
 72
15
 73
11
 74
0
 42
0.0000001
 43
0.0000001
 44
0.0000000001
 40
0.0
 40
0.0
 40
0.0
 40
0.0
 40
0.1148729821
 40
0.2360780929
 40
0.3619574248
 40
0.4908828145
 40
0.6210129968
 40
0.7504589347
 40
0.8774378065
 40
1.0
 40
1.0
 40
1.0
 40
1.0
 10
16.4728137059
 20
12.2812332235
 30
0.0
 10
16.4741506694
 20
12.2800227357
 30
0.0
 10
16.4770472689
 20
12.2776964128
 30
0.0
 10
16.4818212662
 20
12.2745986151
 30
0.0
 10
16.4870572958
 20
12.2718543805
 30
0.0
 10
16.4926409684
 20
12.2695229163
 30
0.0
 10
16.4984538333
 20
12.2676514628
 30
0.0
 10
16.5043738517
 20
12.266281459
 30
0.0
 10
16.5102719832
 20
12.2654432976
 30
0.0
 10
16.5141918108
 20
12.265244468
 30
0.0
 10
16.5161160725
 20
12.265244468
 30
0.0
  0
SPLINE
  5
29E
100
AcDbEntity
  8
0
100
AcDbSpline
 62
7
  6
CONTINUOUS
 70
0
 71
3
 72
15
 73
11
 74
0
 42
0.0000001
 43
0.0000001
 44
0.0000000001
 40
0.0
 40
0.0
 40
0.0
 40
0.0
 40
0.1557507299
 40
0.3032142887
 40
0.4410980619
 40
0.5690412092
 40
0.687337857
 40
0.7970481933
 40
0.9002754348
 40
1.0
 40
1.0
 40
1.0
 40
1.0
 10
16.2234581574
 20
12.265244468
 30
0.0
 10
16.2251356996
 20
12.265244468
 30
0.0
 10
16.2284039936
 20
12.2653893162
 30
0.0
 10
16.2331145269
 20
12.2660696505
 30
0.0
 10
16.2374310092
 20
12.2672011459
 30
0.0
 10
16.2412758987
 20
12.2687649128
 30
0.0
 10
16.2445832461
 20
12.2707375694
 30
0.0
 10
16.2472912655
 20
12.2730941492
 30
0.0
 10
16.2493417126
 20
12.2757978642
 30
0.0
 10
16.2502393299
 20
12.277816947
 30
0.0
 10
16.2505566292
 20
12.2788431127
 30
0.0
  0
SPLINE
  5
29F
100
AcDbEntity
  8
0
100
AcDbSpline
 62
7
  6
CONTINUOUS
 70
0
 71
3
 72
15
 73
11
 74
0
 42
0.0000001
 43
0.0000001
 44
0.0000000001
 40
0.0
 40
0.0
 40
0.0
 40
0.0
 40
0.1148729821
 40
0.2360780929
 40
0.3619574248
 40
0.4908828145
 40
0.6210129968
 40
0.7504589347
 40
0.8774378065
 40
1.0
 40
1.0
 40
1.0
 40
1.0
 10
16.0122832089
 20
12.2812332235
 30
0.0
 10
16.0136201724
 20
12.2800227357
 30
0.0
 10
16.0165167719
 20
12.2776964128
 30
0.0
 10
16.0212907692
 20
12.2745986151
 30
0.0
 10
16.0265267988
 20
12.2718543805
 30
0.0
 10
16.0321104714
 20
12.2695229163
 30
0.0
 10
16.0379233363
 20
12.2676514628
 30
0.0
 10
16.0438433547
 20
12.266281459
 30
0.0
 10
16.0497414862
 20
12.2654432976
 30
0.0
 10
16.0536613138
 20
12.265244468
 30
0.0
 10
16.0555855755
 20
12.265244468
 30
0.0
  0
SPLINE
  5
2A0
100
AcDbEntity
  8
0
100
AcDbSpline
 62
7
  6
CONTINUOUS
 70
0
 71
3
 72
15
 73
11
 74
0
 42
0.0000001
 43
0.0000001
 44
0.0000000001
 40
0.0
 40
0.0
 40
0.0
 40
0.0
 40
0.1557507299
 40
0.3032142887
 40
0.4410980619
 40
0.5690412092
 40
0.687337857
 40
0.7970481933
 40
0.9002754348
 40
1.0
 40
1.0
 40
1.0
 40
1.0
 10
15.7629276604
 20
12.265244468
 30
0.0
 10
15.7646052026
 20
12.265244468
 30
0.0
 10
15.7678734966
 20
12.2653893162
 30
0.0
 10
15.7725840299
 20
12.2660696505
 30
0.0
 10
15.7769005122
 20
12.2672011459
 30
0.0
 10
15.7807454017
 20
12.2687649128
 30
0.0
 10
15.7840527491
 20
12.2707375694
 30
0.0
 10
15.7867607685
 20
12.2730941492
 30
0.0
 10
15.7888112156
 20
12.2757978642
 30
0.0
 10
15.7897088329
 20
12.277816947
 30
0.0
 10
15.7900261322
 20
12.2788431127
 30
0.0
  0
SPLINE
  5
2A1
100
AcDbEntity
  8
0
100
AcDbSpline
 62
7
  6
CONTINUOUS
 70
0
 71
3
 72
15
 73
11
 74
0
 42
0.0000001
 43
0.0000001
 44
0.0000000001
 40
0.0
 40
0.0
 40
0.0
 40
0.0
 40
0.1148729821
 40
0.2360780929
 40
0.3619574248
 40
0.4908828145
 40
0.6210129968
 40
0.7504589347
 40
0.8774378065
 40
1.0
 40
1.0
 40
1.0
 40
1.0
 10
15.5517527119
 20
12.2812332235
 30
0.0
 10
15.5530896754
 20
12.2800227357
 30
0.0
 10
15.5559862749
 20
12.2776964128
 30
0.0
 10
15.5607602722
 20
12.2745986151
 30
0.0
 10
15.5659963018
 20
12.2718543805
 30
0.0
 10
15.5715799744
 20
12.2695229163
 30
0.0
 10
15.5773928393
 20
12.2676514628
 30
0.0
 10
15.5833128577
 20
12.266281459
 30
0.0
 10
15.5892109892
 20
12.2654432976
 30
0.0
 10
15.5931308168
 20
12.265244468
 30
0.0
 10
15.5950550785
 20
12.265244468
 30
0.0
  0
SPLINE
  5
2A2
100
AcDbEntity
  8
0
100
AcDbSpline
 62
7
  6
CONTINUOUS
 70
0
 71
3
 72
15
 73
11
 74
0
 42
0.0000001
 43
0.0000001
 44
0.0000000001
 40
0.0
 40
0.0
 40
0.0
 40
0.0
 40
0.1557507299
 40
0.3032142887
 40
0.4410980619
 40
0.5690412092
 40
0.687337857
 40
0.7970481933
 40
0.9002754348
 40
1.0
 40
1.0
 40
1.0
 40
1.0
 10
15.3023971634
 20
12.265244468
 30
0.0
 10
15.3040747056
 20
12.265244468
 30
0.0
 10
15.3073429996
 20
12.2653893162
 30
0.0
 10
15.3120535329
 20
12.2660696505
 30
0.0
 10
15.3163700152
 20
12.2672011459
 30
0.0
 10
15.3202149047
 20
12.2687649128
 30
0.0
 10
15.3235222521
 20
12.2707375694
 30
0.0
 10
15.3262302715
 20
12.2730941492
 30
0.0
 10
15.3282807186
 20
12.2757978642
 30
0.0
 10
15.3291783359
 20
12.277816947
 30
0.0
 10
15.3294956352
 20
12.2788431127
 30
0.0
  0
SPLINE
  5
2A3
100
AcDbEntity
  8
0
100
AcDbSpline
 62
7
  6
CONTINUOUS
 70
0
 71
3
 72
15
 73
11
 74
0
 42
0.0000001
 43
0.0000001
 44
0.0000000001
 40
0.0
 40
0.0
 40
0.0
 40
0.0
 40
0.1148729821
 40
0.2360780929
 40
0.3619574248
 40
0.4908828145
 40
0.6210129968
 40
0.7504589347
 40
0.8774378065
 40
1.0
 40
1.0
 40
1.0
 40
1.0
 10
15.0912222149
 20
12.2812332235
 30
0.0
 10
15.0925591784
 20
12.2800227357
 30
0.0
 10
15.0954557779
 20
12.2776964128
 30
0.0
 10
15.1002297752
 20
12.2745986151
 30
0.0
 10
15.1054658048
 20
12.2718543805
 30
0.0
 10
15.1110494774
 20
12.2695229163
 30
0.0
 10
15.1168623423
 20
12.2676514628
 30
0.0
 10
15.1227823607
 20
12.266281459
 30
0.0
 10
15.1286804922
 20
12.2654432976
 30
0.0
 10
15.1326003198
 20
12.265244468
 30
0.0
 10
15.1345245815
 20
12.265244468
 30
0.0
  0
SPLINE
  5
2A4
100
AcDbEntity
  8
0
100
AcDbSpline
 62
7
  6
CONTINUOUS
 70
0
 71
3
 72
15
 73
11
 74
0
 42
0.0000001
 43
0.0000001
 44
0.0000000001
 40
0.0
 40
0.0
 40
0.0
 40
0.0
 40
0.1557507299
 40
0.3032142887
 40
0.4410980619
 40
0.5690412092
 40
0.687337857
 40
0.7970481933
 40
0.9002754348
 40
1.0
 40
1.0
 40
1.0
 40
1.0
 10
14.8418666664
 20
12.265244468
 30
0.0
 10
14.8435442086
 20
12.265244468
 30
0.0
 10
14.8468125026
 20
12.2653893162
 30
0.0
 10
14.8515230359
 20
12.2660696505
 30
0.0
 10
14.8558395182
 20
12.2672011459
 30
0.0
 10
14.8596844077
 20
12.2687649128
 30
0.0
 10
14.8629917551
 20
12.2707375694
 30
0.0
 10
14.8656997745
 20
12.2730941492
 30
0.0
 10
14.8677502215
 20
12.2757978642
 30
0.0
 10
14.8686478389
 20
12.277816947
 30
0.0
 10
14.8689651382
 20
12.2788431127
 30
0.0
  0
SPLINE
  5
2A5
100
AcDbEntity
  8
0
100
AcDbSpline
 62
7
  6
CONTINUOUS
 70
0
 71
3
 72
15
 73
11
 74
0
 42
0.0000001
 43
0.0000001
 44
0.0000000001
 40
0.0
 40
0.0
 40
0.0
 40
0.0
 40
0.1148729821
 40
0.2360780929
 40
0.3619574248
 40
0.4908828145
 40
0.6210129968
 40
0.7504589347
 40
0.8774378065
 40
1.0
 40
1.0
 40
1.0
 40
1.0
 10
14.6306917179
 20
12.2812332235
 30
0.0
 10
14.6320286814
 20
12.2800227357
 30
0.0
 10
14.6349252809
 20
12.2776964128
 30
0.0
 10
14.6396992782
 20
12.2745986151
 30
0.0
 10
14.6449353078
 20
12.2718543805
 30
0.0
 10
14.6505189804
 20
12.2695229163
 30
0.0
 10
14.6563318453
 20
12.2676514628
 30
0.0
 10
14.6622518637
 20
12.266281459
 30
0.0
 10
14.6681499952
 20
12.2654432976
 30
0.0
 10
14.6720698228
 20
12.265244468
 30
0.0
 10
14.6739940845
 20
12.265244468
 30
0.0
  0
SPLINE
  5
2A6
100
AcDbEntity
  8
0
100
AcDbSpline
 62
7
  6
CONTINUOUS
 70
0
 71
3
 72
15
 73
11
 74
0
 42
0.0000001
 43
0.0000001
 44
0.0000000001
 40
0.0
 40
0.0
 40
0.0
 40
0.0
 40
0.122485414
 40
0.2495247513
 40
0.3790231636
 40
0.5091197773
 40
0.6380080234
 40
0.7639371275
 40
0.8851965415
 40
1.0
 40
1.0
 40
1.0
 40
1.0
 10
14.1089349612
 20
12.3211893652
 30
0.0
 10
14.1102169947
 20
12.3211893652
 30
0.0
 10
14.1128299731
 20
12.3210561074
 30
0.0
 10
14.1167625941
 20
12.3204984793
 30
0.0
 10
14.1207099017
 20
12.3195841945
 30
0.0
 10
14.1245852508
 20
12.3183375456
 30
0.0
 10
14.1283071072
 20
12.3167824302
 30
0.0
 10
14.1317987848
 20
12.314953315
 30
0.0
 10
14.1349810452
 20
12.3128868601
 30
0.0
 10
14.1369124388
 20
12.3113366958
 30
0.0
 10
14.1378032056
 20
12.3105301948
 30
0.0
  0
SPLINE
  5
2A7
100
AcDbEntity
  8
0
100
AcDbSpline
 62
7
  6
CONTINUOUS
 70
0
 71
3
 72
15
 73
11
 74
0
 42
0.0000001
 43
0.0000001
 44
0.0000000001
 40
0.0
 40
0.0
 40
0.0
 40
0.0
 40
0.122485414
 40
0.2495247513
 40
0.3790231636
 40
0.5091197773
 40
0.6380080234
 40
0.7639371275
 40
0.8851965415
 40
1.0
 40
1.0
 40
1.0
 40
1.0
 10
14.5694654582
 20
12.3211893652
 30
0.0
 10
14.5707474917
 20
12.3211893652
 30
0.0
 10
14.5733604701
 20
12.3210561074
 30
0.0
 10
14.5772930911
 20
12.3204984793
 30
0.0
 10
14.5812403987
 20
12.3195841945
 30
0.0
 10
14.5851157478
 20
12.3183375456
 30
0.0
 10
14.5888376042
 20
12.3167824302
 30
0.0
 10
14.5923292818
 20
12.314953315
 30
0.0
 10
14.5955115422
 20
12.3128868601
 30
0.0
 10
14.5974429358
 20
12.3113366958
 30
0.0
 10
14.5983337026
 20
12.3105301948
 30
0.0
  0
SPLINE
  5
2A8
100
AcDbEntity
  8
0
100
AcDbSpline
 62
7
  6
CONTINUOUS
 70
0
 71
3
 72
15
 73
11
 74
0
 42
0.0000001
 43
0.0000001
 44
0.0000000001
 40
0.0
 40
0.0
 40
0.0
 40
0.0
 40
0.122485414
 40
0.2495247513
 40
0.3790231636
 40
0.5091197773
 40
0.6380080234
 40
0.7639371275
 40
0.8851965415
 40
1.0
 40
1.0
 40
1.0
 40
1.0
 10
15.0299959552
 20
12.3211893652
 30
0.0
 10
15.0312779887
 20
12.3211893652
 30
0.0
 10
15.0338909671
 20
12.3210561074
 30
0.0
 10
15.0378235881
 20
12.3204984793
 30
0.0
 10
15.0417708957
 20
12.3195841945
 30
0.0
 10
15.0456462448
 20
12.3183375456
 30
0.0
 10
15.0493681012
 20
12.3167824302
 30
0.0
 10
15.0528597788
 20
12.314953315
 30
0.0
 10
15.0560420392
 20
12.3128868601
 30
0.0
 10
15.0579734328
 20
12.3113366958
 30
0.0
 10
15.0588641996
 20
12.3105301948
 30
0.0
  0
SPLINE
  5
2A9
100
AcDbEntity
  8
0
100
AcDbSpline
 62
7
  6
CONTINUOUS
 70
0
 71
3
 72
15
 73
11
 74
0
 42
0.0000001
 43
0.0000001
 44
0.0000000001
 40
0.0
 40
0.0
 40
0.0
 40
0.0
 40
0.122485414
 40
0.2495247513
 40
0.3790231636
 40
0.5091197773
 40
0.6380080234
 40
0.7639371275
 40
0.8851965415
 40
1.0
 40
1.0
 40
1.0
 40
1.0
 10
15.4905264522
 20
12.3211893652
 30
0.0
 10
15.4918084857
 20
12.3211893652
 30
0.0
 10
15.4944214641
 20
12.3210561074
 30
0.0
 10
15.4983540851
 20
12.3204984793
 30
0.0
 10
15.5023013927
 20
12.3195841945
 30
0.0
 10
15.5061767418
 20
12.3183375456
 30
0.0
 10
15.5098985982
 20
12.3167824302
 30
0.0
 10
15.5133902758
 20
12.314953315
 30
0.0
 10
15.5165725362
 20
12.3128868601
 30
0.0
 10
15.5185039298
 20
12.3113366958
 30
0.0
 10
15.5193946966
 20
12.3105301948
 30
0.0
  0
SPLINE
  5
2AA
100
AcDbEntity
  8
0
100
AcDbSpline
 62
7
  6
CONTINUOUS
 70
0
 71
3
 72
15
 73
11
 74
0
 42
0.0000001
 43
0.0000001
 44
0.0000000001
 40
0.0
 40
0.0
 40
0.0
 40
0.0
 40
0.122485414
 40
0.2495247513
 40
0.3790231636
 40
0.5091197773
 40
0.6380080234
 40
0.7639371275
 40
0.8851965415
 40
1.0
 40
1.0
 40
1.0
 40
1.0
 10
15.9510569492
 20
12.3211893652
 30
0.0
 10
15.9523389827
 20
12.3211893652
 30
0.0
 10
15.9549519611
 20
12.3210561074
 30
0.0
 10
15.9588845821
 20
12.3204984793
 30
0.0
 10
15.9628318897
 20
12.3195841945
 30
0.0
 10
15.9667072388
 20
12.3183375456
 30
0.0
 10
15.9704290952
 20
12.3167824302
 30
0.0
 10
15.9739207728
 20
12.314953315
 30
0.0
 10
15.9771030332
 20
12.3128868601
 30
0.0
 10
15.9790344268
 20
12.3113366958
 30
0.0
 10
15.9799251937
 20
12.3105301948
 30
0.0
  0
SPLINE
  5
2AB
100
AcDbEntity
  8
0
100
AcDbSpline
 62
7
  6
CONTINUOUS
 70
0
 71
3
 72
15
 73
11
 74
0
 42
0.0000001
 43
0.0000001
 44
0.0000000001
 40
0.0
 40
0.0
 40
0.0
 40
0.0
 40
0.122485414
 40
0.2495247513
 40
0.3790231636
 40
0.5091197773
 40
0.6380080234
 40
0.7639371275
 40
0.8851965415
 40
1.0
 40
1.0
 40
1.0
 40
1.0
 10
16.4115874462
 20
12.3211893652
 30
0.0
 10
16.4128694797
 20
12.3211893652
 30
0.0
 10
16.4154824581
 20
12.3210561074
 30
0.0
 10
16.4194150791
 20
12.3204984793
 30
0.0
 10
16.4233623867
 20
12.3195841945
 30
0.0
 10
16.4272377358
 20
12.3183375456
 30
0.0
 10
16.4309595922
 20
12.3167824302
 30
0.0
 10
16.4344512698
 20
12.314953315
 30
0.0
 10
16.4376335302
 20
12.3128868601
 30
0.0
 10
16.4395649238
 20
12.3113366958
 30
0.0
 10
16.4404556907
 20
12.3105301948
 30
0.0
  0
ENDSEC
  0
SECTION
  2
OBJECTS
  0
DICTIONARY
  5
C
100
AcDbDictionary
280
0
281
1
  3
ACAD_GROUP
350
D
  3
ACAD_MLINESTYLE
350
17
  3
ACAD_LAYOUT
350
1A
  3
ACAD_PLOTSETTINGS
350
19
  3
ACAD_PLOTSTYLENAME
350
E
  0
DICTIONARY
  5
D
102
{ACAD_REACTORS
330
C
102
}
100
AcDbDictionary
280
0
281
1
  0
ACDBDICTIONARYWDFLT
  5
E
102
{ACAD_REACTORS
330
C
102
}
100
AcDbDictionary
281
1
  3
Normal
350
F
100
AcDbDictionaryWithDefault
340
F
  0
DICTIONARY
  5
17
102
{ACAD_REACTORS
330
C
102
}
100
AcDbDictionary
280
0
281
1
  3
Standard
350
18
  0
DICTIONARY
  5
19
102
{ACAD_REACTORS
330
C
102
}
100
AcDbDictionary
281
1
  0
DICTIONARY
  5
1A
102
{ACAD_REACTORS
330
C
102
}
100
AcDbDictionary
281
1
  3
Model
350
2AC
  3
Layout1
350
2AD
  0
ACDBPLACEHOLDER
  5
F
102
{ACAD_REACTORS
330
E
102
}
  0
MLINESTYLE
  5
18
102
{ACAD_REACTORS
330
17
102
}
100
AcDbMlineStyle
  2
STANDARD
 70
0
  3

 62
256
 51
90.0
 52
90.0
 71
2
 49
0.5
 62
256
  6
BYLAYER
 49
-0.5
 62
256
  6
BYLAYER
  0
LAYOUT
  5
2AC
102
{ACAD_REACTORS
330
1A
102
}
100
AcDbPlotSettings
  1

  2
none_device
  4
ANSI_C_(22.00_x_17.00_Inches)
  6

 40
0.0
 41
0.0
 42
0.0
 43
0.0
 44
558.8
 45
431.8
 46
0.0
 47
0.0
 48
0.0
 49
0.0
140
0.0
141
0.0
142
1.0
143
1.0
 70
1024
 72
0
 73
0
 74
0
  7

 75
0
147
1.0
148
0.0
149
0.0
100
AcDbLayout
  1
Model
 70
0
 71
0
 10
0.0
 20
0.0
 11
22.0
 21
17.0
 12
0.0
 22
0.0
 32
0.0
 14
0.0
 24
0.0
 34
0.0
 15
0.0
 25
0.0
 35
0.0
146
0.0
 13
0.0
 23
0.0
 33
0.0
 16
1.0
 26
0.0
 36
0.0
 17
0.0
 27
1.0
 37
0.0
 76
0
330
216
345
0
346
0
  0
LAYOUT
  5
2AD
102
{ACAD_REACTORS
330
1A
102
}
100
AcDbPlotSettings
  1

  2
none_device
  4
ANSI_C_(22.00_x_17.00_Inches)
  6

 40
0.0
 41
0.0
 42
0.0
 43
0.0
 44
558.8
 45
431.8
 46
0.0
 47
0.0
 48
0.0
 49
0.0
140
0.0
141
0.0
142
1.0
143
1.0
 70
0
 72
0
 73
0
 74
0
  7

 75
0
147
1.0
148
0.0
149
0.0
100
AcDbLayout
  1
Layout1
 70
0
 71
1
 10
0.0
 20
0.0
 11
22.0
 21
17.0
 12
0.0
 22
0.0
 32
0.0
 14
0.0
 24
0.0
 34
0.0
 15
0.0
 25
0.0
 35
0.0
146
0.0
 13
0.0
 23
0.0
 33
0.0
 16
1.0
 26
0.0
 36
0.0
 17
0.0
 27
1.0
 37
0.0
 76
0
330
217
345
0
346
0
  0
ENDSEC
  0
EOF