999
DXF file: _cgs_temp_output.dxf
999
Pro/ENGINEER 2016360 by Parametric Technology Corporation
  0
SECTION
  2
HEADER
  9
$ACADVER
  1
AC1021
  9
$DWGCODEPAGE
  3
ANSI_1252
  9
$EXTMAX
 10
22.0
 20
17.0
 30
0.0
  9
$EXTMIN
 10
0.0
 20
0.0
 30
0.0
  9
$LIMMIN
 10
0.0
 20
0.0
  9
$LIMMAX
 10
22.0
 20
17.0
  9
$VIEWCTR
 10
11.0
 20
8.5
  9
$VIEWSIZE
 40
17.0
  9
$CLAYER
  8
0
  9
$LTSCALE
 40
1.21
  9
$CELTYPE
  6
BYLAYER
  9
$DIMSCALE
 40
1.0
  9
$DIMASZ
 40
0.1875
  9
$DIMEXO
 40
0.0625
  9
$DIMDLI
 40
0.836
  9
$DIMEXE
 40
0.125
  9
$DIMCEN
 40
0.198
  9
$DIMLFAC
 40
1.0
  9
$DIMBLK
  1
_CLOSED
  9
$DIMALT
 70
0
  9
$DIMALTF
 40
25.4
  9
$DIMTXT
 40
0.15625
  9
$DIMTOL
 70
0
  9
$DIMLIM
 70
0
  9
$DIMTFAC
 40
1.0
  9
$DIMGAP
 40
0.09
  9
$DIMDSEP
 70
46
  9
$AUNITS
 70
0
  9
$PDMODE
 70
3
  9
$PDSIZE
 40
0.3125
  9
$HANDSEED
  5
310
  9
$TILEMODE
 70
1
  9
$MEASUREMENT
 70
0
  9
$INSUNITS
 70
1
  0
ENDSEC
  0
SECTION
  2
CLASSES
  0
CLASS
  1
ACDBDICTIONARYWDFLT
  2
AcDbDictionaryWithDefault
  3
AutoCAD 2000
 90
0
 91
1
280
0
281
0
  0
CLASS
  1
ACDBPLACEHOLDER
  2
AcDbPlaceHolder
  3
AutoCAD 2000
 90
0
 91
1
280
0
281
0
  0
CLASS
  1
LAYOUT
  2
AcDbLayout
  3
AutoCAD 2000
 90
0
 91
0
280
0
281
0
  0
ENDSEC
  0
SECTION
  2
TABLES
  0
TABLE
  2
VPORT
  5
8
100
AcDbSymbolTable
 70
2
  0
VPORT
  5
1F4
100
AcDbSymbolTableRecord
100
AcDbViewportTableRecord
  2
*ACTIVE
 70
0
 10
0.0
 20
0.0
 11
1.0
 21
1.0
 12
11.0
 22
8.5
 13
0.0
 23
0.0
 14
1.0
 24
1.0
 15
0.0
 25
0.0
 16
0.0
 26
0.0
 36
1.0
 17
0.0
 27
0.0
 37
0.0
 40
17.0
 41
1.2941176471
 42
50.0
 43
0.0
 44
0.0
 50
0.0
 51
0.0
 71
0
 72
100
 73
1
 74
1
 75
0
 76
0
 77
0
 78
0
  0
ENDTAB
  0
TABLE
  2
LTYPE
  5
5
100
AcDbSymbolTable
 70
6
  0
LTYPE
  5
14
100
AcDbSymbolTableRecord
100
AcDbLinetypeTableRecord
  2
BYBLOCK
 70
0
  3

 72
65
 73
0
 40
0.0
  0
LTYPE
  5
15
100
AcDbSymbolTableRecord
100
AcDbLinetypeTableRecord
  2
BYLAYER
 70
0
  3

 72
65
 73
0
 40
0.0
  0
LTYPE
  5
16
100
AcDbSymbolTableRecord
100
AcDbLinetypeTableRecord
  2
CONTINUOUS
 70
64
  3
Solid line
 72
65
 73
0
 40
0.0
  0
LTYPE
  5
1F5
100
AcDbSymbolTableRecord
100
AcDbLinetypeTableRecord
  2
CENTER
 70
64
  3
____ _ ____ _ ____ _ ____ _ ____ _ ____ _ ____
 72
65
 73
4
 40
0.6
 49
0.375
 74
0
 49
-0.075
 74
0
 49
0.075
 74
0
 49
-0.075
 74
0
  0
LTYPE
  5
1F6
100
AcDbSymbolTableRecord
100
AcDbLinetypeTableRecord
  2
HIDDEN
 70
64
  3
- - - - - - - - - - - - - - - - - - - -
 72
65
 73
2
 40
0.2
 49
0.1
 74
0
 49
-0.1
 74
0
  0
LTYPE
  5
1F7
100
AcDbSymbolTableRecord
100
AcDbLinetypeTableRecord
  2
PHANTOM
 70
64
  3
_____ _ _ _____ _ _ _____ _ _ _____
 72
65
 73
6
 40
0.8
 49
0.45
 74
0
 49
-0.05
 74
0
 49
0.1
 74
0
 49
-0.05
 74
0
 49
0.1
 74
0
 49
-0.05
 74
0
  0
LTYPE
  5
1F8
100
AcDbSymbolTableRecord
100
AcDbLinetypeTableRecord
  2
DOT
 70
64
  3
. . . . . . . . . . . . . . . . . . . .
 72
65
 73
2
 40
0.2
 49
0.1
 74
0
 49
-0.1
 74
0
  0
LTYPE
  5
1F9
100
AcDbSymbolTableRecord
100
AcDbLinetypeTableRecord
  2
DASHED
 70
64
  3
- - - - - - - - - - - - - - - - - - - -
 72
65
 73
2
 40
0.2
 49
0.1
 74
0
 49
-0.1
 74
0
  0
ENDTAB
  0
TABLE
  2
LAYER
  5
2
100
AcDbSymbolTable
 70
36
  0
LAYER
  5
10
100
AcDbSymbolTableRecord
100
AcDbLayerTableRecord
  2
0
 70
0
 62
7
  6
CONTINUOUS
370
-3
390
F
  0
LAYER
  5
1FA
100
AcDbSymbolTableRecord
100
AcDbLayerTableRecord
  2
DEFAULT_1
 70
0
 62
7
  6
CENTER
370
-3
390
F
  0
LAYER
  5
1FB
100
AcDbSymbolTableRecord
100
AcDbLayerTableRecord
  2
DEFAULT_2
 70
0
 62
8
  6
HIDDEN
370
-3
390
F
  0
LAYER
  5
1FC
100
AcDbSymbolTableRecord
100
AcDbLayerTableRecord
  2
DEFAULT_3
 70
0
 62
7
  6
PHANTOM
370
-3
390
F
  0
LAYER
  5
1FD
100
AcDbSymbolTableRecord
100
AcDbLayerTableRecord
  2
01_ALL_DTM_PLN
 70
0
 62
7
  6
CONTINUOUS
370
-3
390
F
  0
LAYER
  5
1FE
100
AcDbSymbolTableRecord
100
AcDbLayerTableRecord
  2
01__ASM_ALL_DTM_PLN
 70
0
 62
7
  6
CONTINUOUS
370
-3
390
F
  0
LAYER
  5
1FF
100
AcDbSymbolTableRecord
100
AcDbLayerTableRecord
  2
01__ASM_DEF_DTM_PLN
 70
0
 62
7
  6
CONTINUOUS
370
-3
390
F
  0
LAYER
  5
200
100
AcDbSymbolTableRecord
100
AcDbLayerTableRecord
  2
01___PRT_ALL_DTM_PLN
 70
0
 62
7
  6
CONTINUOUS
370
-3
390
F
  0
LAYER
  5
201
100
AcDbSymbolTableRecord
100
AcDbLayerTableRecord
  2
01___PRT_DEF_DTM_PLN
 70
0
 62
7
  6
CONTINUOUS
370
-3
390
F
  0
LAYER
  5
202
100
AcDbSymbolTableRecord
100
AcDbLayerTableRecord
  2
02_ALL_AXES
 70
0
 62
7
  6
CONTINUOUS
370
-3
390
F
  0
LAYER
  5
203
100
AcDbSymbolTableRecord
100
AcDbLayerTableRecord
  2
02__ASM_ALL_AXES
 70
0
 62
7
  6
CONTINUOUS
370
-3
390
F
  0
LAYER
  5
204
100
AcDbSymbolTableRecord
100
AcDbLayerTableRecord
  2
02___PRT_ALL_AXES
 70
0
 62
7
  6
CONTINUOUS
370
-3
390
F
  0
LAYER
  5
205
100
AcDbSymbolTableRecord
100
AcDbLayerTableRecord
  2
03_ALL_CURVES
 70
0
 62
7
  6
CONTINUOUS
370
-3
390
F
  0
LAYER
  5
206
100
AcDbSymbolTableRecord
100
AcDbLayerTableRecord
  2
03__ASM_ALL_CURVES
 70
0
 62
7
  6
CONTINUOUS
370
-3
390
F
  0
LAYER
  5
207
100
AcDbSymbolTableRecord
100
AcDbLayerTableRecord
  2
03___PRT_ALL_CURVES
 70
0
 62
7
  6
CONTINUOUS
370
-3
390
F
  0
LAYER
  5
208
100
AcDbSymbolTableRecord
100
AcDbLayerTableRecord
  2
04_ALL_DTM_PNT
 70
0
 62
7
  6
CONTINUOUS
370
-3
390
F
  0
LAYER
  5
209
100
AcDbSymbolTableRecord
100
AcDbLayerTableRecord
  2
04__ASM_ALL_DTM_PNT
 70
0
 62
7
  6
CONTINUOUS
370
-3
390
F
  0
LAYER
  5
20A
100
AcDbSymbolTableRecord
100
AcDbLayerTableRecord
  2
04___PRT_ALL_DTM_PNT
 70
0
 62
7
  6
CONTINUOUS
370
-3
390
F
  0
LAYER
  5
20B
100
AcDbSymbolTableRecord
100
AcDbLayerTableRecord
  2
05_ALL_DTM_CSYS
 70
0
 62
7
  6
CONTINUOUS
370
-3
390
F
  0
LAYER
  5
20C
100
AcDbSymbolTableRecord
100
AcDbLayerTableRecord
  2
05__ASM_ALL_DTM_CSYS
 70
0
 62
7
  6
CONTINUOUS
370
-3
390
F
  0
LAYER
  5
20D
100
AcDbSymbolTableRecord
100
AcDbLayerTableRecord
  2
05__ASM_DEF_DTM_CSYS
 70
0
 62
7
  6
CONTINUOUS
370
-3
390
F
  0
LAYER
  5
20E
100
AcDbSymbolTableRecord
100
AcDbLayerTableRecord
  2
05___PRT_ALL_DTM_CSYS
 70
0
 62
7
  6
CONTINUOUS
370
-3
390
F
  0
LAYER
  5
20F
100
AcDbSymbolTableRecord
100
AcDbLayerTableRecord
  2
05___PRT_DEF_DTM_CSYS
 70
0
 62
7
  6
CONTINUOUS
370
-3
390
F
  0
LAYER
  5
210
100
AcDbSymbolTableRecord
100
AcDbLayerTableRecord
  2
06_ALL_SURFS
 70
0
 62
7
  6
CONTINUOUS
370
-3
390
F
  0
LAYER
  5
211
100
AcDbSymbolTableRecord
100
AcDbLayerTableRecord
  2
06__ASM_ALL_SURFS
 70
0
 62
7
  6
CONTINUOUS
370
-3
390
F
  0
LAYER
  5
212
100
AcDbSymbolTableRecord
100
AcDbLayerTableRecord
  2
06___PRT_ALL_SURFS
 70
0
 62
7
  6
CONTINUOUS
370
-3
390
F
  0
LAYER
  5
213
100
AcDbSymbolTableRecord
100
AcDbLayerTableRecord
  2
07__ASM_ALL_SKELETONS
 70
0
 62
7
  6
CONTINUOUS
370
-3
390
F
  0
LAYER
  5
214
100
AcDbSymbolTableRecord
100
AcDbLayerTableRecord
  2
ASM0001
 70
0
 62
7
  6
CONTINUOUS
370
-3
390
F
  0
LAYER
  5
215
100
AcDbSymbolTableRecord
100
AcDbLayerTableRecord
  2
COLOR2
 70
0
 62
7
  6
CONTINUOUS
370
-3
390
F
  0
LAYER
  5
216
100
AcDbSymbolTableRecord
100
AcDbLayerTableRecord
  2
NONE
 70
0
 62
7
  6
CONTINUOUS
370
-3
390
F
  0
LAYER
  5
217
100
AcDbSymbolTableRecord
100
AcDbLayerTableRecord
  2
NONE_1
 70
0
 62
7
  6
CONTINUOUS
370
-3
390
F
  0
LAYER
  5
218
100
AcDbSymbolTableRecord
100
AcDbLayerTableRecord
  2
NONE_2
 70
0
 62
7
  6
CONTINUOUS
370
-3
390
F
  0
LAYER
  5
219
100
AcDbSymbolTableRecord
100
AcDbLayerTableRecord
  2
NONE_3
 70
0
 62
7
  6
CONTINUOUS
370
-3
390
F
  0
LAYER
  5
21A
100
AcDbSymbolTableRecord
100
AcDbLayerTableRecord
  2
NONE_4
 70
0
 62
7
  6
CONTINUOUS
370
-3
390
F
  0
LAYER
  5
21B
100
AcDbSymbolTableRecord
100
AcDbLayerTableRecord
  2
_5507
 70
0
 62
7
  6
CONTINUOUS
370
-3
390
F
  0
LAYER
  5
21C
100
AcDbSymbolTableRecord
100
AcDbLayerTableRecord
  2
_5507_1
 70
0
 62
7
  6
CONTINUOUS
370
-3
390
F
  0
LAYER
  5
21D
100
AcDbSymbolTableRecord
100
AcDbLayerTableRecord
  2
_5511
 70
0
 62
7
  6
CONTINUOUS
370
-3
390
F
  0
LAYER
  5
21E
100
AcDbSymbolTableRecord
100
AcDbLayerTableRecord
  2
_5511_1
 70
0
 62
7
  6
CONTINUOUS
370
-3
390
F
  0
LAYER
  5
21F
100
AcDbSymbolTableRecord
100
AcDbLayerTableRecord
  2
_5515
 70
0
 62
7
  6
CONTINUOUS
370
-3
390
F
  0
LAYER
  5
220
100
AcDbSymbolTableRecord
100
AcDbLayerTableRecord
  2
_5515_1
 70
0
 62
7
  6
CONTINUOUS
370
-3
390
F
  0
LAYER
  5
221
100
AcDbSymbolTableRecord
100
AcDbLayerTableRecord
  2
_5519
 70
0
 62
7
  6
CONTINUOUS
370
-3
390
F
  0
LAYER
  5
222
100
AcDbSymbolTableRecord
100
AcDbLayerTableRecord
  2
_5522
 70
0
 62
7
  6
CONTINUOUS
370
-3
390
F
  0
LAYER
  5
223
100
AcDbSymbolTableRecord
100
AcDbLayerTableRecord
  2
_5522_1
 70
0
 62
7
  6
CONTINUOUS
370
-3
390
F
  0
LAYER
  5
224
100
AcDbSymbolTableRecord
100
AcDbLayerTableRecord
  2
_5526
 70
0
 62
7
  6
CONTINUOUS
370
-3
390
F
  0
LAYER
  5
225
100
AcDbSymbolTableRecord
100
AcDbLayerTableRecord
  2
_5526_1
 70
0
 62
7
  6
CONTINUOUS
370
-3
390
F
  0
LAYER
  5
226
100
AcDbSymbolTableRecord
100
AcDbLayerTableRecord
  2
___SHELL
 70
0
 62
7
  6
CONTINUOUS
370
-3
390
F
  0
ENDTAB
  0
TABLE
  2
STYLE
  5
3
100
AcDbSymbolTable
 70
1
  0
STYLE
  5
11
100
AcDbSymbolTableRecord
100
AcDbTextStyleTableRecord
  2
STANDARD
 70
0
 40
0.0
 41
0.8
 50
0.0
 71
0
 42
0.2
  3
txt
  4

  0
STYLE
  5
227
100
AcDbSymbolTableRecord
100
AcDbTextStyleTableRecord
  2
TEXTSTYLE_1
 70
0
 40
0.0
 41
0.8
 50
0.0
 71
0
 42
0.2
  3
gdt
  4

  0
ENDTAB
  0
TABLE
  2
VIEW
  5
6
100
AcDbSymbolTable
 70
0
  0
ENDTAB
  0
TABLE
  2
UCS
  5
7
100
AcDbSymbolTable
 70
0
  0
ENDTAB
  0
TABLE
  2
APPID
  5
9
100
AcDbSymbolTable
 70
1
  0
APPID
  5
228
100
AcDbSymbolTableRecord
100
AcDbRegAppTableRecord
  2
ACAD
 70
0
  0
ENDTAB
  0
TABLE
  2
BLOCK_RECORD
  5
1
100
AcDbSymbolTable
 70
0
  0
BLOCK_RECORD
  5
229
100
AcDbSymbolTableRecord
100
AcDbBlockTableRecord
  2
*Model_Space
  0
BLOCK_RECORD
  5
22A
100
AcDbSymbolTableRecord
100
AcDbBlockTableRecord
  2
*Paper_Space
  0
ENDTAB
  0
TABLE
  2
DIMSTYLE
  5
A
100
AcDbSymbolTable
 70
1
100
AcDbDimStyleTable
 71
0
  0
DIMSTYLE
105
22B
100
AcDbSymbolTableRecord
100
AcDbDimStyleTableRecord
  2
STANDARD
 70
0
  3

  4

 40
1.0
 41
0.1875
 42
0.0625
 43
0.38
 44
0.125
 45
0.0
 46
0.0
 47
0.0001
 48
0.0001
140
0.15625
141
0.09
142
0.0
143
25.4
144
1.0
145
0.0
146
1.0
147
0.09
 71
0.0
 72
0.0
 73
1
 74
1
 75
0
 76
0
 77
0
 78
4
 79
1
170
0
171
3
172
0
173
0
174
0
175
0
176
0
177
0
178
0
270
2
179
4
271
4
272
4
273
2
274
2
275
0
280
0
281
0
282
0
283
1
284
4
285
0
286
0
287
3
288
0
340
11
278
46
  0
ENDTAB
  0
ENDSEC
  0
SECTION
  2
BLOCKS
  0
BLOCK
  5
20
100
AcDbEntity
  8
0
100
AcDbBlockBegin
  2
*Model_Space
 70
0
 10
0.0
 20
0.0
 30
0.0
  3
*Model_Space
  1

  0
ENDBLK
  5
21
100
AcDbEntity
  8
0
100
AcDbBlockEnd
  0
BLOCK
  5
1C
100
AcDbEntity
  8
0
100
AcDbBlockBegin
  2
*Paper_Space
 70
0
 10
0.0
 20
0.0
 30
0.0
  3
*Paper_Space
  1

  0
ENDBLK
  5
1D
100
AcDbEntity
  8
0
100
AcDbBlockEnd
  0
ENDSEC
  0
SECTION
  2
ENTITIES
  0
MTEXT
  5
22C
100
AcDbEntity
  8
0
100
AcDbMText
 62
7
  6
CONTINUOUS
  7
STANDARD
 71
1
 72
1
 10
15.9560215477
 20
0.9479130325
 30
0.0
 11
1.0
 21
0.0
 31
0.0
 44
0.9
  1
SCALE: 1:1.000
 40
0.3
 41
3.36
  0
LINE
  5
22D
100
AcDbEntity
  8
0
100
AcDbLine
 62
7
  6
CONTINUOUS
 10
0.0
 20
0.0
 11
0.0
 21
17.0
  0
LINE
  5
22E
100
AcDbEntity
  8
0
100
AcDbLine
 62
7
  6
CONTINUOUS
 10
0.0
 20
0.0
 11
22.0
 21
0.0
  0
LINE
  5
22F
100
AcDbEntity
  8
0
100
AcDbLine
 62
7
  6
CONTINUOUS
 10
0.0
 20
17.0
 11
22.0
 21
17.0
  0
LINE
  5
230
100
AcDbEntity
  8
0
100
AcDbLine
 62
7
  6
CONTINUOUS
 10
22.0
 20
0.0
 11
22.0
 21
17.0
  0
LINE
  5
231
100
AcDbEntity
  8
0
100
AcDbLine
 62
7
  6
CONTINUOUS
 10
4.3067603132
 20
6.6110289877
 11
5.5940122871
 21
8.7628505117
  0
LINE
  5
232
100
AcDbEntity
  8
0
100
AcDbLine
 62
7
  6
CONTINUOUS
 10
5.5940122871
 20
2.2773892818
 11
4.3067603132
 21
4.4292108058
  0
LINE
  5
233
100
AcDbEntity
  8
0
100
AcDbLine
 62
7
  6
CONTINUOUS
 10
7.4057877619
 20
7.2198044512
 11
7.4485520694
 21
7.2625687587
  0
LINE
  5
234
100
AcDbEntity
  8
0
100
AcDbLine
 62
7
  6
CONTINUOUS
 10
7.4847640774
 20
7.2263567508
 11
7.5289582512
 21
7.2705509246
  0
LINE
  5
235
100
AcDbEntity
  8
0
100
AcDbLine
 62
7
  6
CONTINUOUS
 10
7.6606841038
 20
7.0504367244
 11
7.7048782776
 21
7.0946308982
  0
LINE
  5
236
100
AcDbEntity
  8
0
100
AcDbLine
 62
7
  6
CONTINUOUS
 10
7.8807983041
 20
6.9187108718
 11
7.8366041302
 21
6.874516698
  0
LINE
  5
237
100
AcDbEntity
  8
0
100
AcDbLine
 62
7
  6
CONTINUOUS
 10
7.8728161382
 20
6.83830469
 11
7.8300518306
 21
6.7955403825
  0
LINE
  5
238
100
AcDbEntity
  8
0
100
AcDbLine
 62
7
  6
CONTINUOUS
 10
7.9539742391
 20
4.4292108058
 11
6.6667222653
 21
2.2773892818
  0
LINE
  5
239
100
AcDbEntity
  8
0
100
AcDbLine
 62
7
  6
CONTINUOUS
 10
7.8728161382
 20
6.83830469
 11
7.4485520694
 21
7.2625687587
  0
LINE
  5
23A
100
AcDbEntity
  8
0
100
AcDbLine
 62
7
  6
CONTINUOUS
 10
7.8807983041
 20
6.9187108718
 11
7.5289582512
 21
7.2705509246
  0
LINE
  5
23B
100
AcDbEntity
  8
0
100
AcDbLine
 62
7
  6
CONTINUOUS
 10
6.6667222653
 20
8.7628505117
 11
7.5764016973
 21
7.2421942443
  0
LINE
  5
23C
100
AcDbEntity
  8
0
100
AcDbLine
 62
7
  6
CONTINUOUS
 10
7.8385268599
 20
6.8040154118
 11
7.9539742391
 21
6.6110289877
  0
LINE
  5
23D
100
AcDbEntity
  8
0
100
AcDbLine
 62
7
  6
CONTINUOUS
 10
7.9497140006
 20
7.2687559431
 11
7.8790033225
 21
7.3394666212
  0
LINE
  5
23E
100
AcDbEntity
  8
0
100
AcDbLine
 62
7
  6
CONTINUOUS
 10
3.9458720839
 20
13.8794227814
 11
3.9458720839
 21
12.3695390314
  0
LINE
  5
23F
100
AcDbEntity
  8
0
100
AcDbLine
 62
7
  6
CONTINUOUS
 10
4.4558720839
 20
12.2856727814
 11
4.4558720839
 21
11.4206727814
  0
LINE
  5
240
100
AcDbEntity
  8
0
100
AcDbLine
 62
7
  6
CONTINUOUS
 10
7.5858720839
 20
11.3206727814
 11
4.5558720839
 21
11.3206727814
  0
LINE
  5
241
100
AcDbEntity
  8
0
100
AcDbLine
 62
7
  6
CONTINUOUS
 10
4.0297383339
 20
12.2856727814
 11
8.1120058339
 21
12.2856727814
  0
LINE
  5
242
100
AcDbEntity
  8
0
100
AcDbLine
 62
7
  6
CONTINUOUS
 10
7.6011889115
 20
12.4700477814
 11
7.5734739939
 21
12.4700477814
  0
LINE
  5
243
100
AcDbEntity
  8
0
100
AcDbLine
 62
7
  6
CONTINUOUS
 10
7.6011889115
 20
12.4827715812
 11
7.6453830853
 21
12.4827715812
  0
LINE
  5
244
100
AcDbEntity
  8
0
100
AcDbLine
 62
7
  6
CONTINUOUS
 10
7.4252688851
 20
12.6264096813
 11
7.4694630589
 21
12.6264096813
  0
LINE
  5
245
100
AcDbEntity
  8
0
100
AcDbLine
 62
7
  6
CONTINUOUS
 10
7.4694630589
 20
12.9136858815
 11
7.4252688851
 21
12.9136858815
  0
LINE
  5
246
100
AcDbEntity
  8
0
100
AcDbLine
 62
7
  6
CONTINUOUS
 10
7.6453830853
 20
13.0573239816
 11
7.6011889115
 21
13.0573239816
  0
LINE
  5
247
100
AcDbEntity
  8
0
100
AcDbLine
 62
7
  6
CONTINUOUS
 10
7.6011889115
 20
13.0700477814
 11
7.5734739939
 21
13.0700477814
  0
LINE
  5
248
100
AcDbEntity
  8
0
100
AcDbLine
 62
7
  6
CONTINUOUS
 10
7.4252688851
 20
12.9136858815
 11
7.6011889115
 21
13.0573239816
  0
LINE
  5
249
100
AcDbEntity
  8
0
100
AcDbLine
 62
7
  6
CONTINUOUS
 10
7.4694630589
 20
12.9136858815
 11
7.6453830853
 21
13.0573239816
  0
LINE
  5
24A
100
AcDbEntity
  8
0
100
AcDbLine
 62
7
  6
CONTINUOUS
 10
4.5567653614
 20
13.2544227814
 11
7.5849788064
 21
13.2544227814
  0
LINE
  5
24B
100
AcDbEntity
  8
0
100
AcDbLine
 62
7
  6
CONTINUOUS
 10
7.4252688851
 20
12.6264096813
 11
7.6011889115
 21
12.4827715812
  0
LINE
  5
24C
100
AcDbEntity
  8
0
100
AcDbLine
 62
7
  6
CONTINUOUS
 10
7.6453830853
 20
12.4827715812
 11
7.4694630589
 21
12.6264096813
  0
LINE
  5
24D
100
AcDbEntity
  8
0
100
AcDbLine
 62
7
  6
CONTINUOUS
 10
7.6453830853
 20
12.4827715812
 11
7.8213031118
 21
12.6264096813
  0
LINE
  5
24E
100
AcDbEntity
  8
0
100
AcDbLine
 62
7
  6
CONTINUOUS
 10
8.1958720839
 20
13.8794227814
 11
3.9458720839
 21
13.8794227814
  0
LINE
  5
24F
100
AcDbEntity
  8
0
100
AcDbLine
 62
7
  6
CONTINUOUS
 10
7.4252688851
 20
12.6264096813
 11
7.4252688851
 21
12.9136858815
  0
LINE
  5
250
100
AcDbEntity
  8
0
100
AcDbLine
 62
7
  6
CONTINUOUS
 10
7.4694630589
 20
12.6264096813
 11
7.4694630589
 21
12.9136858815
  0
LINE
  5
251
100
AcDbEntity
  8
0
100
AcDbLine
 62
7
  6
CONTINUOUS
 10
7.6453830853
 20
13.0573239816
 11
7.8213031118
 21
12.9136858815
  0
LINE
  5
252
100
AcDbEntity
  8
0
100
AcDbLine
 62
7
  6
CONTINUOUS
 10
7.6858720839
 20
12.2856727814
 11
7.6858720839
 21
11.4206727814
  0
LINE
  5
253
100
AcDbEntity
  8
0
100
AcDbLine
 62
7
  6
CONTINUOUS
 10
7.8213031118
 20
12.9136858815
 11
7.8213031118
 21
12.9047230714
  0
LINE
  5
254
100
AcDbEntity
  8
0
100
AcDbLine
 62
7
  6
CONTINUOUS
 10
7.8213031118
 20
12.6344235215
 11
7.8213031118
 21
12.6264096813
  0
LINE
  5
255
100
AcDbEntity
  8
0
100
AcDbLine
 62
7
  6
CONTINUOUS
 10
8.1958720839
 20
12.3695390314
 11
8.1958720839
 21
13.8794227814
  0
LINE
  5
256
100
AcDbEntity
  8
0
100
AcDbLine
 62
7
  6
CONTINUOUS
 10
16.2147302569
 20
1.9137497044
 11
16.8397302569
 21
1.9137497044
  0
LINE
  5
257
100
AcDbEntity
  8
0
100
AcDbLine
 62
7
  6
CONTINUOUS
 10
16.1308640069
 20
3.3356247044
 11
15.3298465069
 21
3.3356247044
  0
LINE
  5
258
100
AcDbEntity
  8
0
100
AcDbLine
 62
7
  6
CONTINUOUS
 10
14.3809802569
 20
3.8456247044
 11
15.2459802569
 21
3.8456247044
  0
LINE
  5
259
100
AcDbEntity
  8
0
100
AcDbLine
 62
7
  6
CONTINUOUS
 10
14.2809802569
 20
3.9456377703
 11
14.2809802569
 21
6.9756247044
  0
LINE
  5
25A
100
AcDbEntity
  8
0
100
AcDbLine
 62
7
  6
CONTINUOUS
 10
15.4430790567
 20
7.0351357059
 11
15.5867171568
 21
7.2110557323
  0
LINE
  5
25B
100
AcDbEntity
  8
0
100
AcDbLine
 62
7
  6
CONTINUOUS
 10
16.0176314571
 20
7.0351357059
 11
15.873993357
 21
6.8592156795
  0
LINE
  5
25C
100
AcDbEntity
  8
0
100
AcDbLine
 62
7
  6
CONTINUOUS
 10
16.0176314571
 20
6.9909415321
 11
15.873993357
 21
6.8150215056
  0
LINE
  5
25D
100
AcDbEntity
  8
0
100
AcDbLine
 62
7
  6
CONTINUOUS
 10
15.2459802569
 20
7.5017321598
 11
15.2459802569
 21
3.419517249
  0
LINE
  5
25E
100
AcDbEntity
  8
0
100
AcDbLine
 62
7
  6
CONTINUOUS
 10
15.4303552569
 20
6.9909415321
 11
15.4303552569
 21
6.9632266145
  0
LINE
  5
25F
100
AcDbEntity
  8
0
100
AcDbLine
 62
7
  6
CONTINUOUS
 10
15.4430790567
 20
6.9909415321
 11
15.4430790567
 21
7.0351357059
  0
LINE
  5
260
100
AcDbEntity
  8
0
100
AcDbLine
 62
7
  6
CONTINUOUS
 10
15.5867171568
 20
6.8592156795
 11
15.5867171568
 21
6.8150215056
  0
LINE
  5
261
100
AcDbEntity
  8
0
100
AcDbLine
 62
7
  6
CONTINUOUS
 10
15.873993357
 20
6.8150215056
 11
15.873993357
 21
6.8592156795
  0
LINE
  5
262
100
AcDbEntity
  8
0
100
AcDbLine
 62
7
  6
CONTINUOUS
 10
16.0176314571
 20
7.0351357059
 11
16.0176314571
 21
6.9909415321
  0
LINE
  5
263
100
AcDbEntity
  8
0
100
AcDbLine
 62
7
  6
CONTINUOUS
 10
16.0303552569
 20
6.9909415321
 11
16.0303552569
 21
6.9632266145
  0
LINE
  5
264
100
AcDbEntity
  8
0
100
AcDbLine
 62
7
  6
CONTINUOUS
 10
16.2147302569
 20
9.0074813365
 11
16.2147302569
 21
7.0689066894
  0
LINE
  5
265
100
AcDbEntity
  8
0
100
AcDbLine
 62
7
  6
CONTINUOUS
 10
16.2147302569
 20
3.8523427194
 11
16.2147302569
 21
1.9137680724
  0
LINE
  5
266
100
AcDbEntity
  8
0
100
AcDbLine
 62
7
  6
CONTINUOUS
 10
15.4430790567
 20
6.9909415321
 11
15.5867171568
 21
6.8150215056
  0
LINE
  5
267
100
AcDbEntity
  8
0
100
AcDbLine
 62
7
  6
CONTINUOUS
 10
15.4430790567
 20
7.0351357059
 11
15.5867171568
 21
6.8592156795
  0
LINE
  5
268
100
AcDbEntity
  8
0
100
AcDbLine
 62
7
  6
CONTINUOUS
 10
16.8397302569
 20
1.9137680724
 11
16.8397302569
 21
9.0074813365
  0
LINE
  5
269
100
AcDbEntity
  8
0
100
AcDbLine
 62
7
  6
CONTINUOUS
 10
15.5867171568
 20
6.8150215056
 11
15.873993357
 21
6.8150215056
  0
LINE
  5
26A
100
AcDbEntity
  8
0
100
AcDbLine
 62
7
  6
CONTINUOUS
 10
15.873993357
 20
6.8592156795
 11
15.5867171568
 21
6.8592156795
  0
LINE
  5
26B
100
AcDbEntity
  8
0
100
AcDbLine
 62
7
  6
CONTINUOUS
 10
15.873993357
 20
7.2110557323
 11
16.0176314571
 21
7.0351357059
  0
LINE
  5
26C
100
AcDbEntity
  8
0
100
AcDbLine
 62
7
  6
CONTINUOUS
 10
14.3809802569
 20
7.0756247044
 11
15.2459802569
 21
7.0756247044
  0
LINE
  5
26D
100
AcDbEntity
  8
0
100
AcDbLine
 62
7
  6
CONTINUOUS
 10
15.873993357
 20
7.2110557323
 11
15.8659795168
 21
7.2110557323
  0
LINE
  5
26E
100
AcDbEntity
  8
0
100
AcDbLine
 62
7
  6
CONTINUOUS
 10
15.5867171568
 20
7.2110557323
 11
15.5956799669
 21
7.2110557323
  0
LINE
  5
26F
100
AcDbEntity
  8
0
100
AcDbLine
 62
7
  6
CONTINUOUS
 10
16.1308640069
 20
7.5856247044
 11
15.3298465069
 21
7.5856247044
  0
LINE
  5
270
100
AcDbEntity
  8
0
100
AcDbLine
 62
7
  6
CONTINUOUS
 10
16.2147302569
 20
9.0074997044
 11
16.8397302569
 21
9.0074997044
  0
LINE
  5
271
100
AcDbEntity
  8
0
100
AcDbLine
 62
7
  6
CONTINUOUS
 10
13.6261382308
 20
13.520542603
 11
13.2606462226
 21
12.3378100312
  0
LINE
  5
272
100
AcDbEntity
  8
0
100
AcDbLine
 62
7
  6
CONTINUOUS
 10
13.6439813374
 20
13.571261904
 11
13.6261587051
 21
13.5205362755
  0
LINE
  5
273
100
AcDbEntity
  8
0
100
AcDbLine
 62
7
  6
CONTINUOUS
 10
14.1732232656
 20
14.9088556133
 11
13.6439813374
 21
13.571261904
  0
LINE
  5
274
100
AcDbEntity
  8
0
100
AcDbLine
 62
7
  6
CONTINUOUS
 10
13.6199380911
 20
13.4032867337
 11
14.0219318135
 21
14.4192762948
  0
LINE
  5
275
100
AcDbEntity
  8
0
100
AcDbLine
 62
7
  6
CONTINUOUS
 10
13.5182222887
 20
11.4439614045
 11
13.751211125
 21
12.197913555
  0
LINE
  5
276
100
AcDbEntity
  8
0
100
AcDbLine
 62
7
  6
CONTINUOUS
 10
16.1174814929
 20
13.1865704416
 11
16.0924784499
 21
13.161340477
  0
LINE
  5
277
100
AcDbEntity
  8
0
100
AcDbLine
 62
7
  6
CONTINUOUS
 10
16.1768679896
 20
13.224739613
 11
16.1496435332
 21
13.197268074
  0
LINE
  5
278
100
AcDbEntity
  8
0
100
AcDbLine
 62
7
  6
CONTINUOUS
 10
16.0801036396
 20
12.9722368959
 11
16.107328096
 21
12.9997084349
  0
LINE
  5
279
100
AcDbEntity
  8
0
100
AcDbLine
 62
7
  6
CONTINUOUS
 10
16.2610297405
 20
12.7503676648
 11
16.5114957349
 21
12.7535296118
  0
LINE
  5
27A
100
AcDbEntity
  8
0
100
AcDbLine
 62
7
  6
CONTINUOUS
 10
16.2882541969
 20
12.7778392038
 11
16.5387201913
 21
12.7810011508
  0
LINE
  5
27B
100
AcDbEntity
  8
0
100
AcDbLine
 62
7
  6
CONTINUOUS
 10
16.0801036396
 20
12.9722368959
 11
16.1496435332
 21
13.197268074
  0
LINE
  5
27C
100
AcDbEntity
  8
0
100
AcDbLine
 62
7
  6
CONTINUOUS
 10
16.107328096
 20
12.9997084349
 11
16.1768679896
 21
13.224739613
  0
LINE
  5
27D
100
AcDbEntity
  8
0
100
AcDbLine
 62
7
  6
CONTINUOUS
 10
16.2610297405
 20
12.7503676648
 11
16.2882541969
 21
12.7778392038
  0
LINE
  5
27E
100
AcDbEntity
  8
0
100
AcDbLine
 62
7
  6
CONTINUOUS
 10
16.5387201913
 20
12.7810011508
 11
16.5114957349
 21
12.7535296118
  0
LINE
  5
27F
100
AcDbEntity
  8
0
100
AcDbLine
 62
7
  6
CONTINUOUS
 10
16.5436577752
 20
12.7642272442
 11
16.5186547322
 21
12.7389972796
  0
LINE
  5
280
100
AcDbEntity
  8
0
100
AcDbLine
 62
7
  6
CONTINUOUS
 10
16.1768679896
 20
13.224739613
 11
16.427333984
 21
13.22790156
  0
LINE
  5
281
100
AcDbEntity
  8
0
100
AcDbLine
 62
7
  6
CONTINUOUS
 10
16.6082600849
 20
13.0060323289
 11
16.5387201913
 21
12.7810011508
  0
LINE
  5
282
100
AcDbEntity
  8
0
100
AcDbLine
 62
7
  6
CONTINUOUS
 10
16.0801036396
 20
12.9722368959
 11
16.2610297405
 21
12.7503676648
  0
LINE
  5
283
100
AcDbEntity
  8
0
100
AcDbLine
 62
7
  6
CONTINUOUS
 10
16.2882541969
 20
12.7778392038
 11
16.107328096
 21
12.9997084349
  0
LINE
  5
284
100
AcDbEntity
  8
0
100
AcDbLine
 62
7
  6
CONTINUOUS
 10
15.0099631323
 20
14.4192762948
 11
16.4091073768
 21
13.4032867337
  0
LINE
  5
285
100
AcDbEntity
  8
0
100
AcDbLine
 62
7
  6
CONTINUOUS
 10
16.576689806
 20
13.044746884
 11
16.6082600849
 21
13.0060323289
  0
LINE
  5
286
100
AcDbEntity
  8
0
100
AcDbLine
 62
7
  6
CONTINUOUS
 10
16.6042316156
 20
10.4903123946
 11
16.8372204519
 21
11.2442645451
  0
LINE
  5
287
100
AcDbEntity
  8
0
100
AcDbLine
 62
7
  6
CONTINUOUS
 10
17.0032878214
 20
13.571261904
 11
15.1612545844
 21
14.9088556133
  0
LINE
  5
288
100
AcDbEntity
  8
0
100
AcDbLine
 62
7
  6
CONTINUOUS
 10
17.6866768189
 20
12.2657412742
 11
17.3211848107
 21
11.0830087024
  0
LINE
  5
289
100
AcDbEntity
  8
0
100
AcDbLine
 62
7
  6
CONTINUOUS
 10
17.1449163068
 20
10.7836765086
 11
16.9883003319
 21
10.3878489454
  0
ARC
  5
28A
100
AcDbEntity
  8
0
100
AcDbCircle
 62
7
  6
CONTINUOUS
 10
6.1303672762
 20
2.5982448968
 40
0.625
100
AcDbArc
 50
210.8884977905
 51
329.1115022095
  0
CIRCLE
  5
28B
100
AcDbEntity
  8
0
100
AcDbCircle
 62
7
  6
CONTINUOUS
 10
6.1303672762
 20
2.5982448968
 40
0.25
  0
CIRCLE
  5
28C
100
AcDbEntity
  8
0
100
AcDbCircle
 62
7
  6
CONTINUOUS
 10
6.1303672762
 20
5.5201198968
 40
2.125
  0
CIRCLE
  5
28D
100
AcDbEntity
  8
0
100
AcDbCircle
 62
7
  6
CONTINUOUS
 10
6.1303672762
 20
5.5201198968
 40
1.615
  0
ARC
  5
28E
100
AcDbEntity
  8
0
100
AcDbCircle
 62
7
  6
CONTINUOUS
 10
6.1303672762
 20
8.4419948968
 40
0.625
100
AcDbArc
 50
30.8884977905
 51
149.1115022095
  0
CIRCLE
  5
28F
100
AcDbEntity
  8
03__ASM_ALL_CURVES
100
AcDbCircle
 62
4
  6
CONTINUOUS
 10
6.1303672762
 20
8.4419948968
 40
0.25
  0
CIRCLE
  5
290
100
AcDbEntity
  8
0
100
AcDbCircle
 62
7
  6
CONTINUOUS
 10
6.1303672762
 20
8.4419948968
 40
0.25
  0
ARC
  5
291
100
AcDbEntity
  8
0
100
AcDbCircle
 62
7
  6
CONTINUOUS
 10
7.6171570588
 20
7.3591284068
 40
0.125
100
AcDbArc
 50
225.1227337533
 51
337.204178649
  0
ARC
  5
292
100
AcDbEntity
  8
0
100
AcDbCircle
 62
7
  6
CONTINUOUS
 10
7.9693757862
 20
7.0069096794
 40
0.125
100
AcDbArc
 50
112.7958213512
 51
224.8772662468
  0
ARC
  5
293
100
AcDbEntity
  8
0
100
AcDbCircle
 62
7
  6
CONTINUOUS
 10
7.8153637122
 20
7.2758270109
 40
0.09
100
AcDbArc
 50
45.0000000003
 51
157.2041786484
  0
ARC
  5
294
100
AcDbEntity
  8
0
100
AcDbCircle
 62
7
  6
CONTINUOUS
 10
7.8860743903
 20
7.2051163328
 40
0.09
100
AcDbArc
 50
292.7958213512
 51
44.9999999997
  0
ARC
  5
295
100
AcDbEntity
  8
0
100
AcDbCircle
 62
7
  6
CONTINUOUS
 10
7.6575600833
 20
12.7949033397
 40
0.3056923067
100
AcDbArc
 50
145.3886289402
 51
147.0644571572
  0
ARC
  5
296
100
AcDbEntity
  8
0
100
AcDbCircle
 62
7
  6
CONTINUOUS
 10
7.5858720839
 20
11.4206727814
 40
0.1
100
AcDbArc
 50
270.0
 51
360.0
  0
ARC
  5
297
100
AcDbEntity
  8
0
100
AcDbCircle
 62
7
  6
CONTINUOUS
 10
4.5558720839
 20
11.4206727814
 40
0.1
100
AcDbArc
 50
180.0
 51
270.0
  0
ARC
  5
298
100
AcDbEntity
  8
0
100
AcDbCircle
 62
7
  6
CONTINUOUS
 10
4.0297383339
 20
12.3695390314
 40
0.08386625
100
AcDbArc
 50
180.0
 51
270.0
  0
ARC
  5
299
100
AcDbEntity
  8
0
100
AcDbCircle
 62
7
  6
CONTINUOUS
 10
8.1120058339
 20
12.3695390314
 40
0.08386625
100
AcDbArc
 50
270.0
 51
360.0
  0
ARC
  5
29A
100
AcDbEntity
  8
0
100
AcDbCircle
 62
7
  6
CONTINUOUS
 10
15.7055573697
 20
7.0473962757
 40
0.3057941271
100
AcDbArc
 50
235.4768950125
 51
237.0665850313
  0
ARC
  5
29B
100
AcDbEntity
  8
0
100
AcDbCircle
 62
7
  6
CONTINUOUS
 10
14.3809802569
 20
3.9456247044
 40
0.1
100
AcDbArc
 50
180.0
 51
270.0
  0
ARC
  5
29C
100
AcDbEntity
  8
0
100
AcDbCircle
 62
7
  6
CONTINUOUS
 10
14.3809802569
 20
6.9756247044
 40
0.1
100
AcDbArc
 50
90.0
 51
180.0
  0
ARC
  5
29D
100
AcDbEntity
  8
0
100
AcDbCircle
 62
7
  6
CONTINUOUS
 10
16.1308640069
 20
3.2517584544
 40
0.08386625
100
AcDbArc
 50
0.0
 51
90.0
  0
ARC
  5
29E
100
AcDbEntity
  8
0
100
AcDbCircle
 62
7
  6
CONTINUOUS
 10
15.3298465069
 20
7.5017584544
 40
0.08386625
100
AcDbArc
 50
90.0
 51
180.0
  0
ARC
  5
29F
100
AcDbEntity
  8
0
100
AcDbCircle
 62
7
  6
CONTINUOUS
 10
15.3298465069
 20
3.4194909544
 40
0.08386625
100
AcDbArc
 50
180.0
 51
270.0
  0
ARC
  5
2A0
100
AcDbEntity
  8
0
100
AcDbCircle
 62
7
  6
CONTINUOUS
 10
16.1308640069
 20
7.6694909544
 40
0.08386625
100
AcDbArc
 50
270.0
 51
360.0
  0
ARC
  5
2A1
100
AcDbEntity
  8
0
100
AcDbCircle
 62
7
  6
CONTINUOUS
 10
16.3537299265
 20
13.0432888717
 40
0.2934813297
100
AcDbArc
 50
191.4732344769
 51
192.0551825872
  0
ARC
  5
2A2
100
AcDbEntity
  8
0
100
AcDbCircle
 62
7
  6
CONTINUOUS
 10
16.3971598934
 20
12.9932003658
 40
0.2874107689
100
AcDbArc
 50
258.8566277474
 51
261.6529037825
  0
ARC
  5
2A3
100
AcDbEntity
  8
0
100
AcDbCircle
 62
7
  6
CONTINUOUS
 10
16.257175514
 20
13.042370598
 40
0.2013153525
100
AcDbArc
 50
111.2764427409
 51
113.8380502666
  0
ARC
  5
2A4
100
AcDbEntity
  8
0
100
AcDbCircle
 62
7
  6
CONTINUOUS
 10
16.2320125705
 20
13.0228941535
 40
0.1965634391
100
AcDbArc
 50
135.2243261206
 51
162.9041160531
  0
ARC
  5
2A5
100
AcDbEntity
  8
0
100
AcDbCircle
 62
7
  6
CONTINUOUS
 10
16.2540815499
 20
13.0489253014
 40
0.1940694713
100
AcDbArc
 50
113.7846364541
 51
124.8550219462
  0
ARC
  5
2A6
100
AcDbEntity
  8
0
100
AcDbCircle
 62
7
  6
CONTINUOUS
 10
16.4109521603
 20
12.8960152198
 40
0.187037458
100
AcDbArc
 50
304.9014615525
 51
308.3527961142
  0
ARC
  5
2A7
100
AcDbEntity
  8
0
100
AcDbCircle
 62
7
  6
CONTINUOUS
 10
16.2494464377
 20
13.0557622511
 40
0.1858101187
100
AcDbArc
 50
124.8870148158
 51
135.2522170811
  0
ARC
  5
2A8
100
AcDbEntity
  8
0
100
AcDbCircle
 62
7
  6
CONTINUOUS
 10
16.4119854224
 20
12.8947157151
 40
0.1853772389
100
AcDbArc
 50
308.3515770668
 51
318.2892043525
  0
ARC
  5
2A9
100
AcDbEntity
  8
0
100
AcDbCircle
 62
7
  6
CONTINUOUS
 10
16.4398281309
 20
13.1046065327
 40
0.1271755412
100
AcDbArc
 50
162.8647929611
 51
172.9114001574
  0
SPLINE
  5
2AA
100
AcDbEntity
  8
0
100
AcDbSpline
 62
7
  6
CONTINUOUS
 70
0
 71
3
 72
24
 73
20
 74
0
 42
0.0000001
 43
0.0000001
 44
0.0000000001
 40
0.0
 40
0.0
 40
0.0
 40
0.0
 40
0.0621640502
 40
0.1242819141
 40
0.1864171169
 40
0.2175166074
 40
0.2486164373
 40
0.3107729033
 40
0.3729360157
 40
0.4350773848
 40
0.4972373399
 40
0.5594256616
 40
0.6216901877
 40
0.6841274701
 40
0.7467645808
 40
0.8096994111
 40
0.8729798537
 40
0.9364996756
 40
1.0
 40
1.0
 40
1.0
 40
1.0
 10
7.7286927291
 20
12.8917613136
 30
0.0
 10
7.7335042973
 20
12.8948037835
 30
0.0
 10
7.7435706439
 20
12.9002113854
 30
0.0
 10
7.7596617216
 20
12.9060799253
 30
0.0
 10
7.7736558261
 20
12.9089433945
 30
0.0
 10
7.7850033122
 20
12.9099813037
 30
0.0
 10
7.7963989432
 20
12.9101806781
 30
0.0
 10
7.810624143
 20
12.9088229829
 30
0.0
 10
7.8272592561
 20
12.9047119877
 30
0.0
 10
7.8431152911
 20
12.8982118278
 30
0.0
 10
7.8578778566
 20
12.8895133356
 30
0.0
 10
7.8712992318
 20
12.8788469503
 30
0.0
 10
7.8831655426
 20
12.8664443263
 30
0.0
 10
7.893361722
 20
12.8525901494
 30
0.0
 10
7.9017818305
 20
12.837523036
 30
0.0
 10
7.9083749612
 20
12.8214919156
 30
0.0
 10
7.9131011516
 20
12.8047325167
 30
0.0
 10
7.9159420249
 20
12.7875047397
 30
0.0
 10
7.916579198
 20
12.7758629391
 30
0.0
 10
7.916579198
 20
12.7700477814
 30
0.0
  0
SPLINE
  5
2AB
100
AcDbEntity
  8
0
100
AcDbSpline
 62
7
  6
CONTINUOUS
 70
0
 71
3
 72
23
 73
19
 74
0
 42
0.0000001
 43
0.0000001
 44
0.0000000001
 40
0.0
 40
0.0
 40
0.0
 40
0.0
 40
0.0635454213
 40
0.1270729374
 40
0.1903263852
 40
0.2532439894
 40
0.3158855311
 40
0.3782965106
 40
0.4405530779
 40
0.5027181427
 40
0.5648546566
 40
0.6269932215
 40
0.6891490402
 40
0.751320822
 40
0.8134999453
 40
0.875669839
 40
0.9378140472
 40
1.0
 40
1.0
 40
1.0
 40
1.0
 10
7.916579198
 20
12.7700477814
 30
0.0
 10
7.916579198
 20
12.7642287094
 30
0.0
 10
7.9159423926
 20
12.7525825001
 30
0.0
 10
7.9131012437
 20
12.7353528517
 30
0.0
 10
7.9083721085
 20
12.7185985105
 30
0.0
 10
7.9017802281
 20
12.702571402
 30
0.0
 10
7.8933598245
 20
12.6875098754
 30
0.0
 10
7.8831750792
 20
12.6736509586
 30
0.0
 10
7.8713046055
 20
12.6612606313
 30
0.0
 10
7.8578962727
 20
12.6505874596
 30
0.0
 10
7.8431354059
 20
12.6418953166
 30
0.0
 10
7.827286222
 20
12.6353904295
 30
0.0
 10
7.8106505377
 20
12.6312753928
 30
0.0
 10
7.7935860856
 20
12.6296445626
 30
0.0
 10
7.7764682753
 20
12.6305773835
 30
0.0
 10
7.7596752255
 20
12.6340119752
 30
0.0
 10
7.7435746934
 20
12.6398800086
 30
0.0
 10
7.7335058143
 20
12.64529082
 30
0.0
 10
7.7286927291
 20
12.6483342492
 30
0.0
  0
SPLINE
  5
2AC
100
AcDbEntity
  8
0
100
AcDbSpline
 62
7
  6
CONTINUOUS
 70
0
 71
3
 72
9
 73
5
 74
0
 42
0.0000001
 43
0.0000001
 44
0.0000000001
 40
0.0
 40
0.0
 40
0.0
 40
0.0
 40
0.4971147582
 40
1.0
 40
1.0
 40
1.0
 40
1.0
 10
7.6011889114
 20
13.0700438377
 30
0.0
 10
7.6088817988
 20
13.0700439111
 30
0.0
 10
7.6243801501
 20
13.0688507599
 30
0.0
 10
7.6395105242
 20
13.0653047946
 30
0.0
 10
7.6469386316
 20
13.0629840965
 30
0.0
  0
SPLINE
  5
2AD
100
AcDbEntity
  8
0
100
AcDbSpline
 62
7
  6
CONTINUOUS
 70
0
 71
3
 72
11
 73
7
 74
0
 42
0.0000001
 43
0.0000001
 44
0.0000000001
 40
0.0
 40
0.0
 40
0.0
 40
0.0
 40
0.2351871566
 40
0.4791013958
 40
0.7336753219
 40
1.0
 40
1.0
 40
1.0
 40
1.0
 10
7.6469386316
 20
13.0629840965
 30
0.0
 10
7.6558982859
 20
13.0601849108
 30
0.0
 10
7.6736810441
 20
13.052867619
 30
0.0
 10
7.6986816373
 20
13.0374050451
 30
0.0
 10
7.7220441589
 20
13.0176004317
 30
0.0
 10
7.7359574354
 20
13.0020591962
 30
0.0
 10
7.7425527076
 20
12.9937232213
 30
0.0
  0
SPLINE
  5
2AE
100
AcDbEntity
  8
0
100
AcDbSpline
 62
7
  6
CONTINUOUS
 70
0
 71
3
 72
9
 73
5
 74
0
 42
0.0000001
 43
0.0000001
 44
0.0000000001
 40
0.0
 40
0.0
 40
0.0
 40
0.0
 40
0.245413057
 40
1.0
 40
1.0
 40
1.0
 40
1.0
 10
7.7425527076
 20
12.9937232213
 30
0.0
 10
7.7445478579
 20
12.9912014874
 30
0.0
 10
7.7524873976
 20
12.980776404
 30
0.0
 10
7.7596670787
 20
12.9697769576
 30
0.0
 10
7.7646571152
 20
12.9612415366
 30
0.0
  0
SPLINE
  5
2AF
100
AcDbEntity
  8
0
100
AcDbSpline
 62
7
  6
CONTINUOUS
 70
0
 71
3
 72
9
 73
5
 74
0
 42
0.0000001
 43
0.0000001
 44
0.0000000001
 40
0.0
 40
0.0
 40
0.0
 40
0.0
 40
0.2547230228
 40
1.0
 40
1.0
 40
1.0
 40
1.0
 10
7.764793558
 20
12.5790870259
 30
0.0
 10
7.7631028419
 20
12.5761891606
 30
0.0
 10
7.7562764139
 20
12.5649244246
 30
0.0
 10
7.7486809484
 20
12.5541218122
 30
0.0
 10
7.7425922632
 20
12.5464220648
 30
0.0
  0
SPLINE
  5
2B0
100
AcDbEntity
  8
0
100
AcDbSpline
 62
7
  6
CONTINUOUS
 70
0
 71
3
 72
11
 73
7
 74
0
 42
0.0000001
 43
0.0000001
 44
0.0000000001
 40
0.0
 40
0.0
 40
0.0
 40
0.0
 40
0.2663234405
 40
0.5209000292
 40
0.7648146157
 40
1.0
 40
1.0
 40
1.0
 40
1.0
 10
7.7425922632
 20
12.5464220648
 30
0.0
 10
7.7359977699
 20
12.5380826729
 30
0.0
 10
7.7220851225
 20
12.5225348857
 30
0.0
 10
7.698722785
 20
12.5027199578
 30
0.0
 10
7.6737205886
 20
12.4872480303
 30
0.0
 10
7.6559359629
 20
12.4799248007
 30
0.0
 10
7.6469751974
 20
12.4771227582
 30
0.0
  0
SPLINE
  5
2B1
100
AcDbEntity
  8
0
100
AcDbSpline
 62
7
  6
CONTINUOUS
 70
0
 71
3
 72
9
 73
5
 74
0
 42
0.0000001
 43
0.0000001
 44
0.0000000001
 40
0.0
 40
0.0
 40
0.0
 40
0.0
 40
0.5028899526
 40
1.0
 40
1.0
 40
1.0
 40
1.0
 10
7.6469751974
 20
12.4771227582
 30
0.0
 10
7.6395415069
 20
12.4747982339
 30
0.0
 10
7.6243991326
 20
12.4712469301
 30
0.0
 10
7.60888805
 20
12.4700517985
 30
0.0
 10
7.6011889116
 20
12.470051725
 30
0.0
  0
SPLINE
  5
2B2
100
AcDbEntity
  8
0
100
AcDbSpline
 62
7
  6
CONTINUOUS
 70
0
 71
3
 72
15
 73
11
 74
0
 42
0.0000001
 43
0.0000001
 44
0.0000000001
 40
0.0
 40
0.0
 40
0.0
 40
0.0
 40
0.1110264035
 40
0.224949415
 40
0.3426605421
 40
0.4647742409
 40
0.5915997995
 40
0.7231956269
 40
0.8594286703
 40
1.0
 40
1.0
 40
1.0
 40
1.0
 10
7.573471967
 20
12.4700507732
 30
0.0
 10
7.5656138028
 20
12.4700506911
 30
0.0
 10
7.549667431
 20
12.4713048448
 30
0.0
 10
7.5259692025
 20
12.4768301852
 30
0.0
 10
7.5025485126
 20
12.4859008284
 30
0.0
 10
7.4797312576
 20
12.4984075051
 30
0.0
 10
7.4578152369
 20
12.5141699258
 30
0.0
 10
7.4371050747
 20
12.5329994455
 30
0.0
 10
7.4178936475
 20
12.554664229
 30
0.0
 10
7.4064327143
 20
12.5706010863
 30
0.0
 10
7.4010219189
 20
12.5789504234
 30
0.0
  0
SPLINE
  5
2B3
100
AcDbEntity
  8
0
100
AcDbSpline
 62
7
  6
CONTINUOUS
 70
0
 71
3
 72
13
 73
9
 74
0
 42
0.0000001
 43
0.0000001
 44
0.0000000001
 40
0.0
 40
0.0
 40
0.0
 40
0.0
 40
0.2404769178
 40
0.4889117505
 40
0.6154773781
 40
0.7431587427
 40
0.8715095802
 40
1.0
 40
1.0
 40
1.0
 40
1.0
 10
7.4010219189
 20
12.5789504234
 30
0.0
 10
7.3922423904
 20
12.5924980143
 30
0.0
 10
7.3765201482
 20
12.62147112
 30
0.0
 10
7.3622643966
 20
12.6604075122
 30
0.0
 10
7.3540596908
 20
12.6931650971
 30
0.0
 10
7.3495975914
 20
12.7184819188
 30
0.0
 10
7.346900023
 20
12.7441738152
 30
0.0
 10
7.3462925696
 20
12.7614219889
 30
0.0
 10
7.3462925696
 20
12.7700477814
 30
0.0
  0
SPLINE
  5
2B4
100
AcDbEntity
  8
0
100
AcDbSpline
 62
7
  6
CONTINUOUS
 70
0
 71
3
 72
20
 73
16
 74
0
 42
0.0000001
 43
0.0000001
 44
0.0000000001
 40
0.0
 40
0.0
 40
0.0
 40
0.0
 40
0.0514744267
 40
0.1034376071
 40
0.1563467057
 40
0.2105978646
 40
0.2665149593
 40
0.3243224496
 40
0.3841663584
 40
0.4460966723
 40
0.5759163844
 40
0.7128404975
 40
0.8550398564
 40
0.9274066996
 40
1.0
 40
1.0
 40
1.0
 40
1.0
 10
7.6011889116
 20
12.470051725
 30
0.0
 10
7.5942416315
 20
12.4700516587
 30
0.0
 10
7.5802616558
 20
12.4710229272
 30
0.0
 10
7.5595538441
 20
12.4753929907
 30
0.0
 10
7.5392612948
 20
12.4826125279
 30
0.0
 10
7.5195880452
 20
12.4926085676
 30
0.0
 10
7.50072709
 20
12.5052813562
 30
0.0
 10
7.4828462841
 20
12.5204877809
 30
0.0
 10
7.4661256111
 20
12.5380939768
 30
0.0
 10
7.4452500707
 20
12.564933992
 30
0.0
 10
7.4230655243
 20
12.6036364746
 30
0.0
 10
7.4036591664
 20
12.6555254745
 30
0.0
 10
7.3937692325
 20
12.7021081899
 30
0.0
 10
7.3897405307
 20
12.7406777123
 30
0.0
 10
7.3890568771
 20
12.7602501785
 30
0.0
 10
7.3890568771
 20
12.7700477814
 30
0.0
  0
SPLINE
  5
2B5
100
AcDbEntity
  8
0
100
AcDbSpline
 62
7
  6
CONTINUOUS
 70
0
 71
3
 72
17
 73
13
 74
0
 42
0.0000001
 43
0.0000001
 44
0.0000000001
 40
0.0
 40
0.0
 40
0.0
 40
0.0
 40
0.1311771877
 40
0.1948889235
 40
0.2574361543
 40
0.3797191136
 40
0.5
 40
0.6202808864
 40
0.7425638457
 40
0.8051110765
 40
0.8688228123
 40
1.0
 40
1.0
 40
1.0
 40
1.0
 10
7.7333430985
 20
12.9855049315
 30
0.0
 10
7.7268363359
 20
12.9907903442
 30
0.0
 10
7.7165911723
 20
12.9979822277
 30
0.0
 10
7.7020724812
 20
13.0057518143
 30
0.0
 10
7.6874692292
 20
13.0120403609
 30
0.0
 10
7.6686014031
 20
13.0173873361
 30
0.0
 10
7.6453830853
 20
13.0195471276
 30
0.0
 10
7.6221647676
 20
13.0173873361
 30
0.0
 10
7.6032969414
 20
13.0120403609
 30
0.0
 10
7.5886936894
 20
13.0057518143
 30
0.0
 10
7.5741749984
 20
12.9979822277
 30
0.0
 10
7.5639298347
 20
12.9907903442
 30
0.0
 10
7.5574230721
 20
12.9855049315
 30
0.0
  0
SPLINE
  5
2B6
100
AcDbEntity
  8
0
100
AcDbSpline
 62
7
  6
CONTINUOUS
 70
0
 71
3
 72
11
 73
7
 74
0
 42
0.0000001
 43
0.0000001
 44
0.0000000001
 40
0.0
 40
0.0
 40
0.0
 40
0.0
 40
0.2640712057
 40
0.5189797796
 40
0.7643199566
 40
1.0
 40
1.0
 40
1.0
 40
1.0
 10
7.791015286
 20
12.9096076445
 30
0.0
 10
7.7873640272
 20
12.9172319946
 30
0.0
 10
7.7794849107
 20
12.931893296
 30
0.0
 10
7.7657627747
 20
12.9522049993
 30
0.0
 10
7.7504734107
 20
12.9701918882
 30
0.0
 10
7.7391751261
 20
12.9807185357
 30
0.0
 10
7.7333430985
 20
12.9855049315
 30
0.0
  0
SPLINE
  5
2B7
100
AcDbEntity
  8
0
100
AcDbSpline
 62
7
  6
CONTINUOUS
 70
0
 71
3
 72
10
 73
6
 74
0
 42
0.0000001
 43
0.0000001
 44
0.0000000001
 40
0.0
 40
0.0
 40
0.0
 40
0.0
 40
0.4806968083
 40
0.7357829431
 40
1.0
 40
1.0
 40
1.0
 40
1.0
 10
7.7333430985
 20
12.5545906312
 30
0.0
 10
7.7451540248
 20
12.5642839612
 30
0.0
 10
7.7614023688
 20
12.581486366
 30
0.0
 10
7.779248585
 20
12.6078230111
 30
0.0
 10
7.7871098431
 20
12.6223774273
 30
0.0
 10
7.7907540425
 20
12.6299439517
 30
0.0
  0
SPLINE
  5
2B8
100
AcDbEntity
  8
0
100
AcDbSpline
 62
7
  6
CONTINUOUS
 70
0
 71
3
 72
17
 73
13
 74
0
 42
0.0000001
 43
0.0000001
 44
0.0000000001
 40
0.0
 40
0.0
 40
0.0
 40
0.0
 40
0.1311771877
 40
0.1948889235
 40
0.2574361543
 40
0.3797191136
 40
0.5
 40
0.6202808864
 40
0.7425638457
 40
0.8051110765
 40
0.8688228123
 40
1.0
 40
1.0
 40
1.0
 40
1.0
 10
7.5574230721
 20
12.5545906312
 30
0.0
 10
7.5639298347
 20
12.5493052186
 30
0.0
 10
7.5741749984
 20
12.542113335
 30
0.0
 10
7.5886936894
 20
12.5343437485
 30
0.0
 10
7.6032969414
 20
12.5280552018
 30
0.0
 10
7.6221647676
 20
12.5227082267
 30
0.0
 10
7.6453830853
 20
12.5205484351
 30
0.0
 10
7.6686014031
 20
12.5227082267
 30
0.0
 10
7.6874692292
 20
12.5280552018
 30
0.0
 10
7.7020724812
 20
12.5343437485
 30
0.0
 10
7.7165911723
 20
12.542113335
 30
0.0
 10
7.7268363359
 20
12.5493052186
 30
0.0
 10
7.7333430985
 20
12.5545906312
 30
0.0
  0
SPLINE
  5
2B9
100
AcDbEntity
  8
0
100
AcDbSpline
 62
7
  6
CONTINUOUS
 70
0
 71
3
 72
15
 73
11
 74
0
 42
0.0000001
 43
0.0000001
 44
0.0000000001
 40
0.0
 40
0.0
 40
0.0
 40
0.0
 40
0.2695953306
 40
0.4016948705
 40
0.530540487
 40
0.6552967508
 40
0.7753083552
 40
0.8334421136
 40
0.8902821391
 40
1.0
 40
1.0
 40
1.0
 40
1.0
 10
7.4694630589
 20
12.7700477814
 30
0.0
 10
7.4694970663
 20
12.7484901672
 30
0.0
 10
7.4723972776
 20
12.7162543788
 30
0.0
 10
7.4822812837
 20
12.6749471695
 30
0.0
 10
7.4924179804
 20
12.6457581751
 30
0.0
 10
7.5051451372
 20
12.61866759
 30
0.0
 10
7.5178869045
 20
12.5979955873
 30
0.0
 10
7.5292114903
 20
12.5829857618
 30
0.0
 10
7.5409502115
 20
12.5693730071
 30
0.0
 10
7.5506412687
 20
12.5601565163
 30
0.0
 10
7.5574230721
 20
12.5545906312
 30
0.0
  0
SPLINE
  5
2BA
100
AcDbEntity
  8
0
100
AcDbSpline
 62
7
  6
CONTINUOUS
 70
0
 71
3
 72
15
 73
11
 74
0
 42
0.0000001
 43
0.0000001
 44
0.0000000001
 40
0.0
 40
0.0
 40
0.0
 40
0.0
 40
0.1097178609
 40
0.1665578864
 40
0.2246916448
 40
0.3447032492
 40
0.469459513
 40
0.5983051295
 40
0.7304046694
 40
1.0
 40
1.0
 40
1.0
 40
1.0
 10
7.5574230721
 20
12.9855049315
 30
0.0
 10
7.5506412687
 20
12.9799390464
 30
0.0
 10
7.5409502115
 20
12.9707225557
 30
0.0
 10
7.5292114903
 20
12.957109801
 30
0.0
 10
7.5178869045
 20
12.9420999754
 30
0.0
 10
7.5051451372
 20
12.9214279727
 30
0.0
 10
7.4924179804
 20
12.8943373877
 30
0.0
 10
7.4822812837
 20
12.8651483932
 30
0.0
 10
7.4723972776
 20
12.8238411839
 30
0.0
 10
7.4694970663
 20
12.7916053956
 30
0.0
 10
7.4694630589
 20
12.7700477814
 30
0.0
  0
SPLINE
  5
2BB
100
AcDbEntity
  8
0
100
AcDbSpline
 62
7
  6
CONTINUOUS
 70
0
 71
3
 72
15
 73
11
 74
0
 42
0.0000001
 43
0.0000001
 44
0.0000000001
 40
0.0
 40
0.0
 40
0.0
 40
0.0
 40
0.1214899397
 40
0.2440002345
 40
0.3057194129
 40
0.3677157619
 40
0.4925507864
 40
0.6184387614
 40
0.7451490962
 40
1.0
 40
1.0
 40
1.0
 40
1.0
 10
7.5849788064
 20
13.2544227814
 30
0.0
 10
7.5980327561
 20
13.2544227814
 30
0.0
 10
7.6242645515
 20
13.2527697619
 30
0.0
 10
7.6567253898
 20
13.2475167742
 30
0.0
 10
7.6825928632
 20
13.2419503824
 30
0.0
 10
7.7085329136
 20
13.2355842418
 30
0.0
 10
7.7408442913
 20
13.2263167521
 30
0.0
 10
7.7793744454
 20
13.2136432762
 30
0.0
 10
7.8307091289
 20
13.1952535747
 30
0.0
 10
7.868941102
 20
13.1804391142
 30
0.0
 10
7.8944790468
 20
13.1705565314
 30
0.0
  0
SPLINE
  5
2BC
100
AcDbEntity
  8
0
100
AcDbSpline
 62
7
  6
CONTINUOUS
 70
0
 71
3
 72
20
 73
16
 74
0
 42
0.0000001
 43
0.0000001
 44
0.0000000001
 40
0.0
 40
0.0
 40
0.0
 40
0.0
 40
0.072594345
 40
0.144961142
 40
0.2871570006
 40
0.4240784631
 40
0.5538955582
 40
0.6158255989
 40
0.6756694775
 40
0.7334781583
 40
0.7893967163
 40
0.843649239
 40
0.8965600233
 40
0.9485244025
 40
1.0
 40
1.0
 40
1.0
 40
1.0
 10
7.3890568771
 20
12.7700477814
 30
0.0
 10
7.3890568771
 20
12.7798455284
 30
0.0
 10
7.3897405136
 20
12.7994181357
 30
0.0
 10
7.3937691651
 20
12.8379873419
 30
0.0
 10
7.4036589396
 20
12.8845692175
 30
0.0
 10
7.4230644377
 20
12.9364573362
 30
0.0
 10
7.4452487486
 20
12.9751590198
 30
0.0
 10
7.4661231381
 20
13.0019994542
 30
0.0
 10
7.4828440816
 20
13.019605598
 30
0.0
 10
7.5007248686
 20
13.034812528
 30
0.0
 10
7.5195858379
 20
13.0474863811
 30
0.0
 10
7.5392599667
 20
13.0574820041
 30
0.0
 10
7.5595526917
 20
13.0647027661
 30
0.0
 10
7.5802612224
 20
13.0690723261
 30
0.0
 10
7.594241471
 20
13.0700437714
 30
0.0
 10
7.6011889114
 20
13.0700438377
 30
0.0
  0
SPLINE
  5
2BD
100
AcDbEntity
  8
0
100
AcDbSpline
 62
7
  6
CONTINUOUS
 70
0
 71
3
 72
13
 73
9
 74
0
 42
0.0000001
 43
0.0000001
 44
0.0000000001
 40
0.0
 40
0.0
 40
0.0
 40
0.0
 40
0.128492563
 40
0.2568442293
 40
0.3845244
 40
0.5110881649
 40
0.7595216636
 40
1.0
 40
1.0
 40
1.0
 40
1.0
 10
7.3462925696
 20
12.7700477814
 30
0.0
 10
7.3462925696
 20
12.7786717899
 30
0.0
 10
7.3468994123
 20
12.7959163028
 30
0.0
 10
7.34959491
 20
12.8216027287
 30
0.0
 10
7.354054697
 20
12.8469139754
 30
0.0
 10
7.3622561538
 20
12.8796643155
 30
0.0
 10
7.3765074119
 20
12.9185922276
 30
0.0
 10
7.3922221058
 20
12.9475608905
 30
0.0
 10
7.4009978033
 20
12.9611067779
 30
0.0
  0
SPLINE
  5
2BE
100
AcDbEntity
  8
0
100
AcDbSpline
 62
7
  6
CONTINUOUS
 70
0
 71
3
 72
15
 73
11
 74
0
 42
0.0000001
 43
0.0000001
 44
0.0000000001
 40
0.0
 40
0.0
 40
0.0
 40
0.0
 40
0.140129969
 40
0.2759792498
 40
0.4072952592
 40
0.5339942857
 40
0.6561535528
 40
0.7741029132
 40
0.8884347662
 40
1.0
 40
1.0
 40
1.0
 40
1.0
 10
7.4059680832
 20
12.9685387389
 30
0.0
 10
7.4113666139
 20
12.9763595685
 30
0.0
 10
7.4227348102
 20
12.9912711039
 30
0.0
 10
7.4416067253
 20
13.0115029616
 30
0.0
 10
7.4618146403
 20
13.0290500609
 30
0.0
 10
7.4830849535
 20
13.0437203074
 30
0.0
 10
7.5051511208
 20
13.0553401708
 30
0.0
 10
7.5277403544
 20
13.063760633
 30
0.0
 10
7.5505639716
 20
13.0688835156
 30
0.0
 10
7.565905977
 20
13.0700446409
 30
0.0
 10
7.5734719467
 20
13.0700446972
 30
0.0
  0
SPLINE
  5
2BF
100
AcDbEntity
  8
0
100
AcDbSpline
 62
7
  6
CONTINUOUS
 70
0
 71
3
 72
15
 73
11
 74
0
 42
0.0000001
 43
0.0000001
 44
0.0000000001
 40
0.0
 40
0.0
 40
0.0
 40
0.0
 40
0.2548510631
 40
0.3815616498
 40
0.5074505514
 40
0.6322858564
 40
0.694281477
 40
0.7559995689
 40
0.87850968
 40
1.0
 40
1.0
 40
1.0
 40
1.0
 10
4.2472651209
 20
13.1705565314
 30
0.0
 10
4.2728030749
 20
13.1804391177
 30
0.0
 10
4.3110351343
 20
13.1952534555
 30
0.0
 10
4.3623700539
 20
13.2136428722
 30
0.0
 10
4.4009001642
 20
13.2263169167
 30
0.0
 10
4.4332114448
 20
13.2355849451
 30
0.0
 10
4.4591514606
 20
13.2419505454
 30
0.0
 10
4.4850189765
 20
13.2475156709
 30
0.0
 10
4.5174795706
 20
13.2527691498
 30
0.0
 10
4.5437113742
 20
13.2544227814
 30
0.0
 10
4.5567653614
 20
13.2544227814
 30
0.0
  0
SPLINE
  5
2C0
100
AcDbEntity
  8
0
100
AcDbSpline
 62
7
  6
CONTINUOUS
 70
0
 71
3
 72
23
 73
19
 74
0
 42
0.0000001
 43
0.0000001
 44
0.0000000001
 40
0.0
 40
0.0
 40
0.0
 40
0.0
 40
0.0635454213
 40
0.1270729374
 40
0.1903263852
 40
0.2532439894
 40
0.3158855311
 40
0.3782965106
 40
0.4405530779
 40
0.5027181427
 40
0.5648546566
 40
0.6269932215
 40
0.6891490402
 40
0.751320822
 40
0.8134999453
 40
0.875669839
 40
0.9378140472
 40
1.0
 40
1.0
 40
1.0
 40
1.0
 10
15.7303552569
 20
7.3063318186
 30
0.0
 10
15.7361743289
 20
7.3063318186
 30
0.0
 10
15.7478205382
 20
7.3056950132
 30
0.0
 10
15.7650501866
 20
7.3028538643
 30
0.0
 10
15.7818045278
 20
7.2981247291
 30
0.0
 10
15.7978316363
 20
7.2915328487
 30
0.0
 10
15.8128931629
 20
7.2831124451
 30
0.0
 10
15.8267520797
 20
7.2729276998
 30
0.0
 10
15.839142407
 20
7.2610572261
 30
0.0
 10
15.8498155787
 20
7.2476488932
 30
0.0
 10
15.8585077217
 20
7.2328880265
 30
0.0
 10
15.8650126088
 20
7.2170388426
 30
0.0
 10
15.8691276455
 20
7.2004031583
 30
0.0
 10
15.8707584757
 20
7.1833387062
 30
0.0
 10
15.8698256548
 20
7.1662208959
 30
0.0
 10
15.8663910631
 20
7.1494278461
 30
0.0
 10
15.8605230297
 20
7.133327314
 30
0.0
 10
15.8551122183
 20
7.1232584349
 30
0.0
 10
15.8520687891
 20
7.1184453497
 30
0.0
  0
SPLINE
  5
2C1
100
AcDbEntity
  8
0
100
AcDbSpline
 62
7
  6
CONTINUOUS
 70
0
 71
3
 72
24
 73
20
 74
0
 42
0.0000001
 43
0.0000001
 44
0.0000000001
 40
0.0
 40
0.0
 40
0.0
 40
0.0
 40
0.0621640502
 40
0.1242819141
 40
0.1864171169
 40
0.2175166074
 40
0.2486164373
 40
0.3107729033
 40
0.3729360157
 40
0.4350773848
 40
0.4972373399
 40
0.5594256616
 40
0.6216901877
 40
0.6841274701
 40
0.7467645808
 40
0.8096994111
 40
0.8729798537
 40
0.9364996756
 40
1.0
 40
1.0
 40
1.0
 40
1.0
 10
15.6086417247
 20
7.1184453497
 30
0.0
 10
15.6055992548
 20
7.1232569179
 30
0.0
 10
15.6001916529
 20
7.1333232645
 30
0.0
 10
15.594323113
 20
7.1494143421
 30
0.0
 10
15.5914596438
 20
7.1634084467
 30
0.0
 10
15.5904217346
 20
7.1747559328
 30
0.0
 10
15.5902223602
 20
7.1861515638
 30
0.0
 10
15.5915800554
 20
7.2003767636
 30
0.0
 10
15.5956910506
 20
7.2170118766
 30
0.0
 10
15.6021912105
 20
7.2328679117
 30
0.0
 10
15.6108897027
 20
7.2476304772
 30
0.0
 10
15.621556088
 20
7.2610518524
 30
0.0
 10
15.633958712
 20
7.2729181632
 30
0.0
 10
15.6478128889
 20
7.2831143426
 30
0.0
 10
15.6628800023
 20
7.2915344511
 30
0.0
 10
15.6789111227
 20
7.2981275817
 30
0.0
 10
15.6956705216
 20
7.3028537722
 30
0.0
 10
15.7128982986
 20
7.3056946454
 30
0.0
 10
15.7245400992
 20
7.3063318186
 30
0.0
 10
15.7303552569
 20
7.3063318186
 30
0.0
  0
SPLINE
  5
2C2
100
AcDbEntity
  8
0
100
AcDbSpline
 62
7
  6
CONTINUOUS
 70
0
 71
3
 72
9
 73
5
 74
0
 42
0.0000001
 43
0.0000001
 44
0.0000000001
 40
0.0
 40
0.0
 40
0.0
 40
0.0
 40
0.4971147582
 40
1.0
 40
1.0
 40
1.0
 40
1.0
 10
15.4303592006
 20
6.990941532
 30
0.0
 10
15.4303591272
 20
6.9986344194
 30
0.0
 10
15.4315522784
 20
7.0141327707
 30
0.0
 10
15.4350982437
 20
7.0292631448
 30
0.0
 10
15.4374189418
 20
7.0366912522
 30
0.0
  0
SPLINE
  5
2C3
100
AcDbEntity
  8
0
100
AcDbSpline
 62
7
  6
CONTINUOUS
 70
0
 71
3
 72
11
 73
7
 74
0
 42
0.0000001
 43
0.0000001
 44
0.0000000001
 40
0.0
 40
0.0
 40
0.0
 40
0.0
 40
0.2351871566
 40
0.4791013958
 40
0.7336753219
 40
1.0
 40
1.0
 40
1.0
 40
1.0
 10
15.4374189418
 20
7.0366912522
 30
0.0
 10
15.4402181275
 20
7.0456509065
 30
0.0
 10
15.4475354193
 20
7.0634336647
 30
0.0
 10
15.4629979932
 20
7.0884342579
 30
0.0
 10
15.4828026066
 20
7.1117967794
 30
0.0
 10
15.4983438421
 20
7.125710056
 30
0.0
 10
15.506679817
 20
7.1323053282
 30
0.0
  0
SPLINE
  5
2C4
100
AcDbEntity
  8
0
100
AcDbSpline
 62
7
  6
CONTINUOUS
 70
0
 71
3
 72
9
 73
5
 74
0
 42
0.0000001
 43
0.0000001
 44
0.0000000001
 40
0.0
 40
0.0
 40
0.0
 40
0.0
 40
0.245413057
 40
1.0
 40
1.0
 40
1.0
 40
1.0
 10
15.506679817
 20
7.1323053282
 30
0.0
 10
15.5092015509
 20
7.1343004785
 30
0.0
 10
15.5196266343
 20
7.1422400181
 30
0.0
 10
15.5306260807
 20
7.1494196993
 30
0.0
 10
15.5391615017
 20
7.1544097358
 30
0.0
  0
SPLINE
  5
2C5
100
AcDbEntity
  8
0
100
AcDbSpline
 62
7
  6
CONTINUOUS
 70
0
 71
3
 72
9
 73
5
 74
0
 42
0.0000001
 43
0.0000001
 44
0.0000000001
 40
0.0
 40
0.0
 40
0.0
 40
0.0
 40
0.2547230228
 40
1.0
 40
1.0
 40
1.0
 40
1.0
 10
15.9213160124
 20
7.1545461786
 30
0.0
 10
15.9242138777
 20
7.1528554625
 30
0.0
 10
15.9354786137
 20
7.1460290345
 30
0.0
 10
15.9462812261
 20
7.138433569
 30
0.0
 10
15.9539809735
 20
7.1323448838
 30
0.0
  0
SPLINE
  5
2C6
100
AcDbEntity
  8
0
100
AcDbSpline
 62
7
  6
CONTINUOUS
 70
0
 71
3
 72
11
 73
7
 74
0
 42
0.0000001
 43
0.0000001
 44
0.0000000001
 40
0.0
 40
0.0
 40
0.0
 40
0.0
 40
0.2663234405
 40
0.5209000292
 40
0.7648146157
 40
1.0
 40
1.0
 40
1.0
 40
1.0
 10
15.9539809735
 20
7.1323448838
 30
0.0
 10
15.9623203655
 20
7.1257503905
 30
0.0
 10
15.9778681526
 20
7.1118377431
 30
0.0
 10
15.9976830805
 20
7.0884754056
 30
0.0
 10
16.013155008
 20
7.0634732092
 30
0.0
 10
16.0204782376
 20
7.0456885835
 30
0.0
 10
16.0232802801
 20
7.036727818
 30
0.0
  0
SPLINE
  5
2C7
100
AcDbEntity
  8
0
100
AcDbSpline
 62
7
  6
CONTINUOUS
 70
0
 71
3
 72
9
 73
5
 74
0
 42
0.0000001
 43
0.0000001
 44
0.0000000001
 40
0.0
 40
0.0
 40
0.0
 40
0.0
 40
0.5028899526
 40
1.0
 40
1.0
 40
1.0
 40
1.0
 10
16.0232802801
 20
7.036727818
 30
0.0
 10
16.0256048044
 20
7.0292941274
 30
0.0
 10
16.0291561082
 20
7.0141517531
 30
0.0
 10
16.0303512398
 20
6.9986406706
 30
0.0
 10
16.0303513133
 20
6.9909415321
 30
0.0
  0
SPLINE
  5
2C8
100
AcDbEntity
  8
0
100
AcDbSpline
 62
7
  6
CONTINUOUS
 70
0
 71
3
 72
15
 73
11
 74
0
 42
0.0000001
 43
0.0000001
 44
0.0000000001
 40
0.0
 40
0.0
 40
0.0
 40
0.0
 40
0.1110296529
 40
0.2249538987
 40
0.3426658741
 40
0.4647809244
 40
0.5916069857
 40
0.7231998754
 40
0.8594288475
 40
1.0
 40
1.0
 40
1.0
 40
1.0
 10
16.0303521727
 20
6.9632245673
 30
0.0
 10
16.0303522311
 20
6.955366398
 30
0.0
 10
16.0290982167
 20
6.939420166
 30
0.0
 10
16.0235731329
 20
6.9157221886
 30
0.0
 10
16.0145025907
 20
6.8923019755
 30
0.0
 10
16.001996552
 20
6.8694850198
 30
0.0
 10
15.986234909
 20
6.8475694648
 30
0.0
 10
15.9674060625
 20
6.8268603624
 30
0.0
 10
15.9457418028
 20
6.8076503638
 30
0.0
 10
15.9298057842
 20
6.7961898223
 30
0.0
 10
15.9214569506
 20
6.7907787965
 30
0.0
  0
SPLINE
  5
2C9
100
AcDbEntity
  8
0
100
AcDbSpline
 62
7
  6
CONTINUOUS
 70
0
 71
3
 72
13
 73
9
 74
0
 42
0.0000001
 43
0.0000001
 44
0.0000000001
 40
0.0
 40
0.0
 40
0.0
 40
0.0
 40
0.2404773819
 40
0.4889134864
 40
0.6154797918
 40
0.7431610386
 40
0.8715108413
 40
1.0
 40
1.0
 40
1.0
 40
1.0
 10
15.9214569506
 20
6.7907787965
 30
0.0
 10
15.9079093332
 20
6.7819983475
 30
0.0
 10
15.8789366467
 20
6.7662729213
 30
0.0
 10
15.8399987184
 20
6.7520167002
 30
0.0
 10
15.8072398838
 20
6.7438123157
 30
0.0
 10
15.7819222858
 20
6.739350316
 30
0.0
 10
15.7562297725
 20
6.7366526801
 30
0.0
 10
15.7389812275
 20
6.7360451902
 30
0.0
 10
15.7303552569
 20
6.7360451902
 30
0.0
  0
SPLINE
  5
2CA
100
AcDbEntity
  8
0
100
AcDbSpline
 62
7
  6
CONTINUOUS
 70
0
 71
3
 72
15
 73
11
 74
0
 42
0.0000001
 43
0.0000001
 44
0.0000000001
 40
0.0
 40
0.0
 40
0.0
 40
0.0
 40
0.124513223
 40
0.2492365646
 40
0.311662359
 40
0.3741045239
 40
0.4990696923
 40
0.6241691775
 40
0.7493787142
 40
1.0
 40
1.0
 40
1.0
 40
1.0
 10
16.2147302569
 20
7.0689066894
 30
0.0
 10
16.2147302569
 20
7.0471088596
 30
0.0
 10
16.2130913128
 20
7.0034675369
 30
0.0
 10
16.2078446963
 20
6.9491383561
 30
0.0
 10
16.2022672318
 20
6.9057993304
 30
0.0
 10
16.1959155734
 20
6.8625240097
 30
0.0
 10
16.1866686941
 20
6.8085939404
 30
0.0
 10
16.1739882837
 20
6.7441279547
 30
0.0
 10
16.1556149059
 20
6.6583762495
 30
0.0
 10
16.1407591427
 20
6.5942782637
 30
0.0
 10
16.1308640069
 20
6.5515337954
 30
0.0
  0
SPLINE
  5
2CB
100
AcDbEntity
  8
0
100
AcDbSpline
 62
7
  6
CONTINUOUS
 70
0
 71
3
 72
15
 73
11
 74
0
 42
0.0000001
 43
0.0000001
 44
0.0000000001
 40
0.0
 40
0.0
 40
0.0
 40
0.0
 40
0.2506215752
 40
0.3758314141
 40
0.5009315278
 40
0.625896783
 40
0.688338397
 40
0.7507633813
 40
0.8754864743
 40
1.0
 40
1.0
 40
1.0
 40
1.0
 10
16.1308640069
 20
4.3697156135
 30
0.0
 10
16.1407591531
 20
4.3269711001
 30
0.0
 10
16.1556147884
 20
4.2628729831
 30
0.0
 10
16.1739878581
 20
4.1771210047
 30
0.0
 10
16.1866688669
 20
4.1126549683
 30
0.0
 10
16.195916295
 20
4.0587249612
 30
0.0
 10
16.2022673972
 20
4.0154497825
 30
0.0
 10
16.2078435705
 20
3.9721108813
 30
0.0
 10
16.2130907097
 20
3.9177819253
 30
0.0
 10
16.2147302569
 20
3.8741406001
 30
0.0
 10
16.2147302569
 20
3.8523427194
 30
0.0
  0
SPLINE
  5
2CC
100
AcDbEntity
  8
0
100
AcDbSpline
 62
7
  6
CONTINUOUS
 70
0
 71
3
 72
13
 73
9
 74
0
 42
0.0000001
 43
0.0000001
 44
0.0000000001
 40
0.0
 40
0.0
 40
0.0
 40
0.0
 40
0.1284934609
 40
0.2568451533
 40
0.3845236352
 40
0.5110845353
 40
0.7595152951
 40
1.0
 40
1.0
 40
1.0
 40
1.0
 10
15.7303552569
 20
6.7360451902
 30
0.0
 10
15.7217318112
 20
6.7360451902
 30
0.0
 10
15.7044884825
 20
6.7366522932
 30
0.0
 10
15.6788040305
 20
6.7393482116
 30
0.0
 10
15.6534949672
 20
6.7438077826
 30
0.0
 10
15.6207471065
 20
6.7520069729
 30
0.0
 10
15.5818211832
 20
6.7662551379
 30
0.0
 10
15.552853722
 20
6.7819676106
 30
0.0
 10
15.5393081038
 20
6.7907423652
 30
0.0
  0
SPLINE
  5
2CD
100
AcDbEntity
  8
0
100
AcDbSpline
 62
7
  6
CONTINUOUS
 70
0
 71
3
 72
15
 73
11
 74
0
 42
0.0000001
 43
0.0000001
 44
0.0000000001
 40
0.0
 40
0.0
 40
0.0
 40
0.0
 40
0.140154272
 40
0.2760240518
 40
0.4073539146
 40
0.5340585302
 40
0.6562146419
 40
0.7741523931
 40
0.8884632818
 40
1.0
 40
1.0
 40
1.0
 40
1.0
 10
15.5322520567
 20
6.7954531935
 30
0.0
 10
15.5244034069
 20
6.8008529924
 30
0.0
 10
15.5094380037
 20
6.8122272021
 30
0.0
 10
15.4891307765
 20
6.8311181058
 30
0.0
 10
15.4715166084
 20
6.8513535007
 30
0.0
 10
15.4567889728
 20
6.8726583518
 30
0.0
 10
15.4451230162
 20
6.8947649241
 30
0.0
 10
15.4366683442
 20
6.9173985398
 30
0.0
 10
15.4315243454
 20
6.940268866
 30
0.0
 10
15.430358328
 20
6.9556430606
 30
0.0
 10
15.4303582488
 20
6.9632245876
 30
0.0
  0
SPLINE
  5
2CE
100
AcDbEntity
  8
0
100
AcDbSpline
 62
7
  6
CONTINUOUS
 70
0
 71
3
 72
20
 73
16
 74
0
 42
0.0000001
 43
0.0000001
 44
0.0000000001
 40
0.0
 40
0.0
 40
0.0
 40
0.0
 40
0.072594345
 40
0.144961142
 40
0.2871570006
 40
0.4240784631
 40
0.5538955582
 40
0.6158255989
 40
0.6756694775
 40
0.7334781583
 40
0.7893967163
 40
0.843649239
 40
0.8965600233
 40
0.9485244025
 40
1.0
 40
1.0
 40
1.0
 40
1.0
 10
15.7303552569
 20
6.7788094977
 30
0.0
 10
15.7205575099
 20
6.7788094977
 30
0.0
 10
15.7009849026
 20
6.7794931342
 30
0.0
 10
15.6624156964
 20
6.7835217857
 30
0.0
 10
15.6158338208
 20
6.7934115602
 30
0.0
 10
15.5639457021
 20
6.8128170583
 30
0.0
 10
15.5252440185
 20
6.8350013692
 30
0.0
 10
15.4984035841
 20
6.8558757587
 30
0.0
 10
15.4807974403
 20
6.8725967022
 30
0.0
 10
15.4655905103
 20
6.8904774892
 30
0.0
 10
15.4529166572
 20
6.9093384585
 30
0.0
 10
15.4429210342
 20
6.9290125872
 30
0.0
 10
15.4357002722
 20
6.9493053123
 30
0.0
 10
15.4313307122
 20
6.970013843
 30
0.0
 10
15.4303592669
 20
6.9839940916
 30
0.0
 10
15.4303592006
 20
6.990941532
 30
0.0
  0
SPLINE
  5
2CF
100
AcDbEntity
  8
0
100
AcDbSpline
 62
7
  6
CONTINUOUS
 70
0
 71
3
 72
20
 73
16
 74
0
 42
0.0000001
 43
0.0000001
 44
0.0000000001
 40
0.0
 40
0.0
 40
0.0
 40
0.0
 40
0.0514744267
 40
0.1034376071
 40
0.1563467057
 40
0.2105978646
 40
0.2665149593
 40
0.3243224496
 40
0.3841663584
 40
0.4460966723
 40
0.5759163844
 40
0.7128404975
 40
0.8550398564
 40
0.9274066996
 40
1.0
 40
1.0
 40
1.0
 40
1.0
 10
16.0303513133
 20
6.9909415321
 30
0.0
 10
16.0303513796
 20
6.9839942521
 30
0.0
 10
16.0293801112
 20
6.9700142764
 30
0.0
 10
16.0250100476
 20
6.9493064647
 30
0.0
 10
16.0177905104
 20
6.9290139154
 30
0.0
 10
16.0077944707
 20
6.9093406657
 30
0.0
 10
15.9951216821
 20
6.8904797106
 30
0.0
 10
15.9799152575
 20
6.8725989047
 30
0.0
 10
15.9623090615
 20
6.8558782316
 30
0.0
 10
15.9354690463
 20
6.8350026912
 30
0.0
 10
15.8967665637
 20
6.8128181449
 30
0.0
 10
15.8448775639
 20
6.793411787
 30
0.0
 10
15.7982948484
 20
6.7835218531
 30
0.0
 10
15.759725326
 20
6.7794931513
 30
0.0
 10
15.7401528598
 20
6.7788094977
 30
0.0
 10
15.7303552569
 20
6.7788094977
 30
0.0
  0
SPLINE
  5
2D0
100
AcDbEntity
  8
0
100
AcDbSpline
 62
7
  6
CONTINUOUS
 70
0
 71
3
 72
10
 73
6
 74
0
 42
0.0000001
 43
0.0000001
 44
0.0000000001
 40
0.0
 40
0.0
 40
0.0
 40
0.0
 40
0.4806968083
 40
0.7357829431
 40
1.0
 40
1.0
 40
1.0
 40
1.0
 10
15.9458124071
 20
7.1230957191
 30
0.0
 10
15.9361190771
 20
7.1349066454
 30
0.0
 10
15.9189166723
 20
7.1511549893
 30
0.0
 10
15.8925800272
 20
7.1690012056
 30
0.0
 10
15.878025611
 20
7.1768624637
 30
0.0
 10
15.8704590867
 20
7.1805066631
 30
0.0
  0
SPLINE
  5
2D1
100
AcDbEntity
  8
0
100
AcDbSpline
 62
7
  6
CONTINUOUS
 70
0
 71
3
 72
11
 73
7
 74
0
 42
0.0000001
 43
0.0000001
 44
0.0000000001
 40
0.0
 40
0.0
 40
0.0
 40
0.0
 40
0.2640712057
 40
0.5189797796
 40
0.7643199566
 40
1.0
 40
1.0
 40
1.0
 40
1.0
 10
15.5907953938
 20
7.1807679066
 30
0.0
 10
15.5831710437
 20
7.1771166478
 30
0.0
 10
15.5685097423
 20
7.1692375313
 30
0.0
 10
15.548198039
 20
7.1555153953
 30
0.0
 10
15.5302111501
 20
7.1402260313
 30
0.0
 10
15.5196845026
 20
7.1289277467
 30
0.0
 10
15.5148981068
 20
7.1230957191
 30
0.0
  0
SPLINE
  5
2D2
100
AcDbEntity
  8
0
100
AcDbSpline
 62
7
  6
CONTINUOUS
 70
0
 71
3
 72
17
 73
13
 74
0
 42
0.0000001
 43
0.0000001
 44
0.0000000001
 40
0.0
 40
0.0
 40
0.0
 40
0.0
 40
0.1311771877
 40
0.1948889235
 40
0.2574361543
 40
0.3797191136
 40
0.5
 40
0.6202808864
 40
0.7425638457
 40
0.8051110765
 40
0.8688228123
 40
1.0
 40
1.0
 40
1.0
 40
1.0
 10
15.5148981068
 20
7.1230957191
 30
0.0
 10
15.5096126941
 20
7.1165889565
 30
0.0
 10
15.5024208106
 20
7.1063437929
 30
0.0
 10
15.494651224
 20
7.0918251018
 30
0.0
 10
15.4883626774
 20
7.0772218498
 30
0.0
 10
15.4830157022
 20
7.0583540237
 30
0.0
 10
15.4808559107
 20
7.0351357059
 30
0.0
 10
15.4830157022
 20
7.0119173881
 30
0.0
 10
15.4883626774
 20
6.993049562
 30
0.0
 10
15.494651224
 20
6.97844631
 30
0.0
 10
15.5024208106
 20
6.963927619
 30
0.0
 10
15.5096126941
 20
6.9536824553
 30
0.0
 10
15.5148981068
 20
6.9471756927
 30
0.0
  0
SPLINE
  5
2D3
100
AcDbEntity
  8
0
100
AcDbSpline
 62
7
  6
CONTINUOUS
 70
0
 71
3
 72
15
 73
11
 74
0
 42
0.0000001
 43
0.0000001
 44
0.0000000001
 40
0.0
 40
0.0
 40
0.0
 40
0.0
 40
0.1097178609
 40
0.1665578864
 40
0.2246916448
 40
0.3447032492
 40
0.469459513
 40
0.5983051295
 40
0.7304046694
 40
1.0
 40
1.0
 40
1.0
 40
1.0
 10
15.5148981068
 20
6.9471756927
 30
0.0
 10
15.5204639919
 20
6.9403938893
 30
0.0
 10
15.5296804826
 20
6.9307028321
 30
0.0
 10
15.5432932373
 20
6.9189641108
 30
0.0
 10
15.5583030629
 20
6.9076395251
 30
0.0
 10
15.5789750656
 20
6.8948977578
 30
0.0
 10
15.6060656506
 20
6.8821706009
 30
0.0
 10
15.6352546451
 20
6.8720339043
 30
0.0
 10
15.6765618544
 20
6.8621498982
 30
0.0
 10
15.7087976427
 20
6.8592496869
 30
0.0
 10
15.7303552569
 20
6.8592156795
 30
0.0
  0
SPLINE
  5
2D4
100
AcDbEntity
  8
0
100
AcDbSpline
 62
7
  6
CONTINUOUS
 70
0
 71
3
 72
15
 73
11
 74
0
 42
0.0000001
 43
0.0000001
 44
0.0000000001
 40
0.0
 40
0.0
 40
0.0
 40
0.0
 40
0.2695953306
 40
0.4016948705
 40
0.530540487
 40
0.6552967508
 40
0.7753083552
 40
0.8334421136
 40
0.8902821391
 40
1.0
 40
1.0
 40
1.0
 40
1.0
 10
15.7303552569
 20
6.8592156795
 30
0.0
 10
15.7519128711
 20
6.8592496869
 30
0.0
 10
15.7841486595
 20
6.8621498982
 30
0.0
 10
15.8254558688
 20
6.8720339043
 30
0.0
 10
15.8546448632
 20
6.8821706009
 30
0.0
 10
15.8817354483
 20
6.8948977578
 30
0.0
 10
15.902407451
 20
6.9076395251
 30
0.0
 10
15.9174172765
 20
6.9189641108
 30
0.0
 10
15.9310300313
 20
6.9307028321
 30
0.0
 10
15.940246522
 20
6.9403938893
 30
0.0
 10
15.9458124071
 20
6.9471756927
 30
0.0
  0
SPLINE
  5
2D5
100
AcDbEntity
  8
0
100
AcDbSpline
 62
7
  6
CONTINUOUS
 70
0
 71
3
 72
17
 73
13
 74
0
 42
0.0000001
 43
0.0000001
 44
0.0000000001
 40
0.0
 40
0.0
 40
0.0
 40
0.0
 40
0.1311771877
 40
0.1948889235
 40
0.2574361543
 40
0.3797191136
 40
0.5
 40
0.6202808864
 40
0.7425638457
 40
0.8051110765
 40
0.8688228123
 40
1.0
 40
1.0
 40
1.0
 40
1.0
 10
15.9458124071
 20
6.9471756927
 30
0.0
 10
15.9510978197
 20
6.9536824553
 30
0.0
 10
15.9582897033
 20
6.963927619
 30
0.0
 10
15.9660592898
 20
6.97844631
 30
0.0
 10
15.9723478365
 20
6.993049562
 30
0.0
 10
15.9776948116
 20
7.0119173881
 30
0.0
 10
15.9798546032
 20
7.0351357059
 30
0.0
 10
15.9776948116
 20
7.0583540237
 30
0.0
 10
15.9723478365
 20
7.0772218498
 30
0.0
 10
15.9660592898
 20
7.0918251018
 30
0.0
 10
15.9582897033
 20
7.1063437929
 30
0.0
 10
15.9510978197
 20
7.1165889565
 30
0.0
 10
15.9458124071
 20
7.1230957191
 30
0.0
  0
SPLINE
  5
2D6
100
AcDbEntity
  8
03__ASM_ALL_CURVES
100
AcDbSpline
 62
4
  6
CONTINUOUS
 70
0
 71
3
 72
19
 73
15
 74
0
 42
0.0000001
 43
0.0000001
 44
0.0000000001
 40
0.0
 40
0.0
 40
0.0
 40
0.0
 40
0.125
 40
0.1875
 40
0.25
 40
0.375
 40
0.4375
 40
0.5
 40
0.5625
 40
0.625
 40
0.75
 40
0.8125
 40
0.875
 40
1.0
 40
1.0
 40
1.0
 40
1.0
 10
14.8440871171
 20
14.2198292461
 30
0.0
 10
14.8433128179
 20
14.2213206364
 30
0.0
 10
14.842176149
 20
14.2235385178
 30
0.0
 10
14.8405614706
 20
14.2265725092
 30
0.0
 10
14.8386138658
 20
14.2298824371
 30
0.0
 10
14.8367729624
 20
14.2330559007
 30
0.0
 10
14.8348383257
 20
14.2360115103
 30
0.0
 10
14.8335151991
 20
14.238177655
 30
0.0
 10
14.8317275353
 20
14.2406549768
 30
0.0
 10
14.8295098782
 20
14.2438913907
 30
0.0
 10
14.8272259283
 20
14.2469055412
 30
0.0
 10
14.8250820239
 20
14.2497737609
 30
0.0
 10
14.8225100531
 20
14.2529469001
 30
0.0
 10
14.820485729
 20
14.2553908235
 30
0.0
 10
14.8191573675
 20
14.2570058682
 30
0.0
  0
SPLINE
  5
2D7
100
AcDbEntity
  8
03__ASM_ALL_CURVES
100
AcDbSpline
 62
4
  6
CONTINUOUS
 70
0
 71
3
 72
19
 73
15
 74
0
 42
0.0000001
 43
0.0000001
 44
0.0000000001
 40
0.0
 40
0.0
 40
0.0
 40
0.0
 40
0.125
 40
0.1875
 40
0.25
 40
0.375
 40
0.4375
 40
0.5
 40
0.5625
 40
0.625
 40
0.75
 40
0.8125
 40
0.875
 40
1.0
 40
1.0
 40
1.0
 40
1.0
 10
14.8191573672
 20
14.2570058686
 30
0.0
 10
14.8178802561
 20
14.2584471034
 30
0.0
 10
14.8159942406
 20
14.2605927886
 30
0.0
 10
14.8133609487
 20
14.2635183708
 30
0.0
 10
14.8103222348
 20
14.2666799878
 30
0.0
 10
14.8074323476
 20
14.2697155191
 30
0.0
 10
14.8045445717
 20
14.272507126
 30
0.0
 10
14.8025126292
 20
14.2745683792
 30
0.0
 10
14.7999440735
 20
14.2768814022
 30
0.0
 10
14.7966933322
 20
14.2799223171
 30
0.0
 10
14.7934718193
 20
14.2827183871
 30
0.0
 10
14.7904299663
 20
14.2853858831
 30
0.0
 10
14.7868957327
 20
14.288297171
 30
0.0
 10
14.7841369341
 20
14.2905308704
 30
0.0
 10
14.7823217624
 20
14.2920088404
 30
0.0
  0
SPLINE
  5
2D8
100
AcDbEntity
  8
03__ASM_ALL_CURVES
100
AcDbSpline
 62
4
  6
CONTINUOUS
 70
0
 71
3
 72
17
 73
13
 74
0
 42
0.0000001
 43
0.0000001
 44
0.0000000001
 40
0.0
 40
0.0
 40
0.0
 40
0.0
 40
0.125
 40
0.1875
 40
0.25
 40
0.375
 40
0.5
 40
0.625
 40
0.75
 40
0.8125
 40
0.875
 40
1.0
 40
1.0
 40
1.0
 40
1.0
 10
14.7823217614
 20
14.2920088412
 30
0.0
 10
14.7806161734
 20
14.2933163002
 30
0.0
 10
14.7780914632
 20
14.295265215
 30
0.0
 10
14.7745904958
 20
14.2979128632
 30
0.0
 10
14.7706468035
 20
14.3007418915
 30
0.0
 10
14.7658621748
 20
14.3041503216
 30
0.0
 10
14.7606965992
 20
14.3076937303
 30
0.0
 10
14.7542107843
 20
14.3118518519
 30
0.0
 10
14.7493119114
 20
14.3148665791
 30
0.0
 10
14.7455454668
 20
14.3171757248
 30
0.0
 10
14.741234875
 20
14.3196715959
 30
0.0
 10
14.7378786154
 20
14.3215816276
 30
0.0
 10
14.7356685125
 20
14.3228465091
 30
0.0
  0
SPLINE
  5
2D9
100
AcDbEntity
  8
03__ASM_ALL_CURVES
100
AcDbSpline
 62
4
  6
CONTINUOUS
 70
0
 71
3
 72
17
 73
13
 74
0
 42
0.0000001
 43
0.0000001
 44
0.0000000001
 40
0.0
 40
0.0
 40
0.0
 40
0.0
 40
0.125
 40
0.25
 40
0.3125
 40
0.375
 40
0.5
 40
0.625
 40
0.6875
 40
0.75
 40
0.875
 40
1.0
 40
1.0
 40
1.0
 40
1.0
 10
14.7356685117
 20
14.3228465095
 30
0.0
 10
14.733633188
 20
14.3239441341
 30
0.0
 10
14.7295960328
 20
14.3261581425
 30
0.0
 10
14.724382127
 20
14.3288318571
 30
0.0
 10
14.7203112412
 20
14.3309302946
 30
0.0
 10
14.7158057489
 20
14.3331075685
 30
0.0
 10
14.7098126551
 20
14.3360266858
 30
0.0
 10
14.7046425739
 20
14.338303201
 30
0.0
 10
14.7002186299
 20
14.3402761376
 30
0.0
 10
14.6953574688
 20
14.3423072353
 30
0.0
 10
14.689431283
 20
14.3447864087
 30
0.0
 10
14.6846416558
 20
14.3466350336
 30
0.0
 10
14.682252927
 20
14.3475761853
 30
0.0
  0
SPLINE
  5
2DA
100
AcDbEntity
  8
03__ASM_ALL_CURVES
100
AcDbSpline
 62
4
  6
CONTINUOUS
 70
0
 71
3
 72
15
 73
11
 74
0
 42
0.0000001
 43
0.0000001
 44
0.0000000001
 40
0.0
 40
0.0
 40
0.0
 40
0.0
 40
0.125
 40
0.25
 40
0.375
 40
0.5
 40
0.625
 40
0.75
 40
0.875
 40
1.0
 40
1.0
 40
1.0
 40
1.0
 10
14.6822529281
 20
14.3475761849
 30
0.0
 10
14.6800069911
 20
14.3484018886
 30
0.0
 10
14.6755221774
 20
14.3500775826
 30
0.0
 10
14.6687525948
 20
14.352445404
 30
0.0
 10
14.6618683735
 20
14.3547436763
 30
0.0
 10
14.653990263
 20
14.357261555
 30
0.0
 10
14.6474756418
 20
14.3591415058
 30
0.0
 10
14.6399614775
 20
14.361214287
 30
0.0
 10
14.6324139534
 20
14.3631810301
 30
0.0
 10
14.6275757986
 20
14.3643215424
 30
0.0
 10
14.6251325301
 20
14.3649131298
 30
0.0
  0
SPLINE
  5
2DB
100
AcDbEntity
  8
03__ASM_ALL_CURVES
100
AcDbSpline
 62
4
  6
CONTINUOUS
 70
0
 71
3
 72
15
 73
11
 74
0
 42
0.0000001
 43
0.0000001
 44
0.0000000001
 40
0.0
 40
0.0
 40
0.0
 40
0.0
 40
0.125
 40
0.25
 40
0.375
 40
0.5
 40
0.625
 40
0.75
 40
0.875
 40
1.0
 40
1.0
 40
1.0
 40
1.0
 10
14.6251325294
 20
14.36491313
 30
0.0
 10
14.6228050933
 20
14.3654207827
 30
0.0
 10
14.6181470453
 20
14.3664627201
 30
0.0
 10
14.6111790278
 20
14.3678658351
 30
0.0
 10
14.6041354708
 20
14.3691776045
 30
0.0
 10
14.5961198309
 20
14.3705608576
 30
0.0
 10
14.5895665385
 20
14.3714927555
 30
0.0
 10
14.5820600142
 20
14.3724660088
 30
0.0
 10
14.5745109053
 20
14.3733270421
 30
0.0
 10
14.5695619917
 20
14.3737656531
 30
0.0
 10
14.5670770567
 20
14.374001885
 30
0.0
  0
SPLINE
  5
2DC
100
AcDbEntity
  8
03__ASM_ALL_CURVES
100
AcDbSpline
 62
4
  6
CONTINUOUS
 70
0
 71
3
 72
19
 73
15
 74
0
 42
0.0000001
 43
0.0000001
 44
0.0000000001
 40
0.0
 40
0.0
 40
0.0
 40
0.0
 40
0.125
 40
0.1875
 40
0.25
 40
0.3125
 40
0.375
 40
0.5
 40
0.625
 40
0.6875
 40
0.75
 40
0.8125
 40
0.875
 40
1.0
 40
1.0
 40
1.0
 40
1.0
 10
14.567077055
 20
14.3740018851
 30
0.0
 10
14.5648014194
 20
14.3741607347
 30
0.0
 10
14.5614172564
 20
14.3744056619
 30
0.0
 10
14.556787877
 20
14.3747056203
 30
0.0
 10
14.5530588869
 20
14.3748452151
 30
0.0
 10
14.5493165779
 20
14.375035808
 30
0.0
 10
14.5447404738
 20
14.3751317735
 30
0.0
 10
14.5394030192
 20
14.3752780121
 30
0.0
 10
14.5331683736
 20
14.3751726851
 30
0.0
 10
14.5284874123
 20
14.3751155302
 30
0.0
 10
14.5252917466
 20
14.3749683465
 30
0.0
 10
14.522076495
 20
14.3748770056
 30
0.0
 10
14.5174738771
 20
14.3745964793
 30
0.0
 10
14.5139397454
 20
14.3743557071
 30
0.0
 10
14.5116019172
 20
14.3742019429
 30
0.0
  0
SPLINE
  5
2DD
100
AcDbEntity
  8
03__ASM_ALL_CURVES
100
AcDbSpline
 62
4
  6
CONTINUOUS
 70
0
 71
3
 72
18
 73
14
 74
0
 42
0.0000001
 43
0.0000001
 44
0.0000000001
 40
0.0
 40
0.0
 40
0.0
 40
0.0
 40
0.125
 40
0.25
 40
0.3125
 40
0.375
 40
0.5
 40
0.625
 40
0.6875
 40
0.75
 40
0.8125
 40
0.875
 40
1.0
 40
1.0
 40
1.0
 40
1.0
 10
14.5116019167
 20
14.3742019428
 30
0.0
 10
14.5095096671
 20
14.374002088
 30
0.0
 10
14.505388817
 20
14.373647972
 30
0.0
 10
14.4999195092
 20
14.3729773593
 30
0.0
 10
14.4953506776
 20
14.3724233639
 30
0.0
 10
14.4912355166
 20
14.3717909387
 30
0.0
 10
14.486414999
 20
14.3710824919
 30
0.0
 10
14.4808950688
 20
14.3699677362
 30
0.0
 10
14.4767430687
 20
14.3691537174
 30
0.0
 10
14.473946903
 20
14.3684832793
 30
0.0
 10
14.4711274649
 20
14.3678729398
 30
0.0
 10
14.4670685543
 20
14.3668185269
 30
0.0
 10
14.4639455776
 20
14.3659775769
 30
0.0
 10
14.4618811029
 20
14.3654280859
 30
0.0
  0
SPLINE
  5
2DE
100
AcDbEntity
  8
03__ASM_ALL_CURVES
100
AcDbSpline
 62
4
  6
CONTINUOUS
 70
0
 71
3
 72
15
 73
11
 74
0
 42
0.0000001
 43
0.0000001
 44
0.0000000001
 40
0.0
 40
0.0
 40
0.0
 40
0.0
 40
0.125
 40
0.25
 40
0.375
 40
0.5
 40
0.625
 40
0.75
 40
0.875
 40
1.0
 40
1.0
 40
1.0
 40
1.0
 10
14.4618811028
 20
14.3654280858
 30
0.0
 10
14.4600944966
 20
14.3648799277
 30
0.0
 10
14.4564906149
 20
14.3638079945
 30
0.0
 10
14.4512688082
 20
14.362053796
 30
0.0
 10
14.4461065097
 20
14.3601774285
 30
0.0
 10
14.4403505627
 20
14.357935705
 30
0.0
 10
14.4358629382
 20
14.355911127
 30
0.0
 10
14.4308187039
 20
14.3534970215
 30
0.0
 10
14.4258971878
 20
14.3509688846
 30
0.0
 10
14.4228744907
 20
14.3492291141
 30
0.0
 10
14.421330853
 20
14.3483660221
 30
0.0
  0
SPLINE
  5
2DF
100
AcDbEntity
  8
03__ASM_ALL_CURVES
100
AcDbSpline
 62
4
  6
CONTINUOUS
 70
0
 71
3
 72
15
 73
11
 74
0
 42
0.0000001
 43
0.0000001
 44
0.0000000001
 40
0.0
 40
0.0
 40
0.0
 40
0.0
 40
0.125
 40
0.25
 40
0.375
 40
0.5
 40
0.625
 40
0.75
 40
0.875
 40
1.0
 40
1.0
 40
1.0
 40
1.0
 10
14.4213308523
 20
14.3483660217
 30
0.0
 10
14.4199498389
 20
14.3475041407
 30
0.0
 10
14.4171509089
 20
14.3458010635
 30
0.0
 10
14.4131739332
 20
14.3431223391
 30
0.0
 10
14.4092977118
 20
14.340324787
 30
0.0
 10
14.4050343963
 20
14.3370487704
 30
0.0
 10
14.4018176657
 20
14.3342028785
 30
0.0
 10
14.3982596492
 20
14.3308629839
 30
0.0
 10
14.3948424236
 20
14.3274073054
 30
0.0
 10
14.3927779321
 20
14.3250427095
 30
0.0
 10
14.391718979
 20
14.3238680128
 30
0.0
  0
SPLINE
  5
2E0
100
AcDbEntity
  8
03__ASM_ALL_CURVES
100
AcDbSpline
 62
4
  6
CONTINUOUS
 70
0
 71
3
 72
9
 73
5
 74
0
 42
0.0000001
 43
0.0000001
 44
0.0000000001
 40
0.0
 40
0.0
 40
0.0
 40
0.0
 40
0.5
 40
1.0
 40
1.0
 40
1.0
 40
1.0
 10
14.3917189788
 20
14.3238680125
 30
0.0
 10
14.3900510354
 20
14.3218375007
 30
0.0
 10
14.3867819019
 20
14.3177434974
 30
0.0
 10
14.384065658
 20
14.3134110524
 30
0.0
 10
14.3827085917
 20
14.311172539
 30
0.0
  0
SPLINE
  5
2E1
100
AcDbEntity
  8
03__ASM_ALL_CURVES
100
AcDbSpline
 62
4
  6
CONTINUOUS
 70
0
 71
3
 72
14
 73
10
 74
0
 42
0.0000001
 43
0.0000001
 44
0.0000000001
 40
0.0
 40
0.0
 40
0.0
 40
0.0
 40
0.25
 40
0.375
 40
0.5
 40
0.625
 40
0.75
 40
0.875
 40
1.0
 40
1.0
 40
1.0
 40
1.0
 10
14.3827085917
 20
14.3111725391
 30
0.0
 10
14.3819627253
 20
14.309846048
 30
0.0
 10
14.3808548892
 20
14.3078732536
 30
0.0
 10
14.3794869628
 20
14.3051167377
 30
0.0
 10
14.3785715673
 20
14.3032205463
 30
0.0
 10
14.3774672937
 20
14.3005894694
 30
0.0
 10
14.3766298138
 20
14.2984721831
 30
0.0
 10
14.3758389247
 20
14.2963048519
 30
0.0
 10
14.3752827029
 20
14.2945964244
 30
0.0
 10
14.3750082123
 20
14.2937751531
 30
0.0
  0
SPLINE
  5
2E2
100
AcDbEntity
  8
03__ASM_ALL_CURVES
100
AcDbSpline
 62
4
  6
CONTINUOUS
 70
0
 71
3
 72
14
 73
10
 74
0
 42
0.0000001
 43
0.0000001
 44
0.0000000001
 40
0.0
 40
0.0
 40
0.0
 40
0.0
 40
0.125
 40
0.25
 40
0.375
 40
0.5
 40
0.625
 40
0.75
 40
1.0
 40
1.0
 40
1.0
 40
1.0
 10
14.3750082124
 20
14.2937751534
 30
0.0
 10
14.3748318978
 20
14.2931759808
 30
0.0
 10
14.3744871214
 20
14.2920478512
 30
0.0
 10
14.3739228394
 20
14.2899343642
 30
0.0
 10
14.3733892864
 20
14.2877712746
 30
0.0
 10
14.3728709285
 20
14.2854206604
 30
0.0
 10
14.3725772309
 20
14.2837794178
 30
0.0
 10
14.3720960507
 20
14.2808602208
 30
0.0
 10
14.3718272722
 20
14.2785605715
 30
0.0
 10
14.3716533048
 20
14.2770367185
 30
0.0
  0
SPLINE
  5
2E3
100
AcDbEntity
  8
03__ASM_ALL_CURVES
100
AcDbSpline
 62
4
  6
CONTINUOUS
 70
0
 71
3
 72
21
 73
17
 74
0
 42
0.0000001
 43
0.0000001
 44
0.0000000001
 40
0.0
 40
0.0
 40
0.0
 40
0.0
 40
0.125
 40
0.1875
 40
0.25
 40
0.3125
 40
0.375
 40
0.4375
 40
0.5
 40
0.5625
 40
0.625
 40
0.6875
 40
0.75
 40
0.8125
 40
0.875
 40
1.0
 40
1.0
 40
1.0
 40
1.0
 10
14.3716533049
 20
14.277036719
 30
0.0
 10
14.3715551845
 20
14.2747403535
 30
0.0
 10
14.3713752341
 20
14.2713023831
 30
0.0
 10
14.3712663795
 20
14.2666921115
 30
0.0
 10
14.3715749989
 20
14.2631580446
 30
0.0
 10
14.3716929535
 20
14.2596583047
 30
0.0
 10
14.3721833068
 20
14.2560976199
 30
0.0
 10
14.3728073034
 20
14.2525176042
 30
0.0
 10
14.3732406143
 20
14.2489614658
 30
0.0
 10
14.3743030249
 20
14.245329149
 30
0.0
 10
14.3751750858
 20
14.2417190949
 30
0.0
 10
14.3761794461
 20
14.2380961686
 30
0.0
 10
14.3775494384
 20
14.2344448182
 30
0.0
 10
14.3787335639
 20
14.2308047354
 30
0.0
 10
14.380816178
 20
14.2259290965
 30
0.0
 10
14.3824731058
 20
14.2222686964
 30
0.0
 10
14.3835566205
 20
14.2198292454
 30
0.0
  0
SPLINE
  5
2E4
100
AcDbEntity
  8
03__ASM_ALL_CURVES
100
AcDbSpline
 62
4
  6
CONTINUOUS
 70
0
 71
3
 72
97
 73
93
 74
0
 42
0.0000001
 43
0.0000001
 44
0.0000000001
 40
0.0
 40
0.0
 40
0.0
 40
0.0
 40
0.03125
 40
0.046875
 40
0.0625
 40
0.0703125
 40
0.078125
 40
0.08203125
 40
0.0859375
 40
0.09375
 40
0.109375
 40
0.125
 40
0.140625
 40
0.15625
 40
0.1640625
 40
0.171875
 40
0.1875
 40
0.203125
 40
0.21875
 40
0.2265625
 40
0.23046875
 40
0.234375
 40
0.2421875
 40
0.25
 40
0.265625
 40
0.28125
 40
0.296875
 40
0.3046875
 40
0.30859375
 40
0.3125
 40
0.3203125
 40
0.328125
 40
0.34375
 40
0.359375
 40
0.375
 40
0.3828125
 40
0.390625
 40
0.3984375
 40
0.40625
 40
0.421875
 40
0.4375
 40
0.453125
 40
0.45703125
 40
0.4609375
 40
0.46875
 40
0.484375
 40
0.5
 40
0.515625
 40
0.53125
 40
0.5390625
 40
0.54296875
 40
0.546875
 40
0.5625
 40
0.578125
 40
0.59375
 40
0.6015625
 40
0.609375
 40
0.6171875
 40
0.625
 40
0.640625
 40
0.65625
 40
0.671875
 40
0.6796875
 40
0.6875
 40
0.69140625
 40
0.6953125
 40
0.703125
 40
0.71875
 40
0.734375
 40
0.75
 40
0.7578125
 40
0.765625
 40
0.76953125
 40
0.7734375
 40
0.78125
 40
0.796875
 40
0.8125
 40
0.828125
 40
0.8359375
 40
0.84375
 40
0.859375
 40
0.875
 40
0.890625
 40
0.90625
 40
0.9140625
 40
0.91796875
 40
0.921875
 40
0.9296875
 40
0.9375
 40
0.953125
 40
0.96875
 40
1.0
 40
1.0
 40
1.0
 40
1.0
 10
14.3835566201
 20
14.2198292461
 30
0.0
 10
14.3862700189
 20
14.2155977448
 30
0.0
 10
14.3903360247
 20
14.2092498845
 30
0.0
 10
14.3957737352
 20
14.2007885038
 30
0.0
 10
14.3991382013
 20
14.195495072
 30
0.0
 10
14.4019075289
 20
14.1912718835
 30
0.0
 10
14.4034610234
 20
14.1886060328
 30
0.0
 10
14.4055125334
 20
14.1865935563
 30
0.0
 10
14.4074230767
 20
14.1845601352
 30
0.0
 10
14.4108314279
 20
14.181011209
 30
0.0
 10
14.4156728365
 20
14.1759379071
 30
0.0
 10
14.421466973
 20
14.1698444468
 30
0.0
 10
14.4273675881
 20
14.1637784303
 30
0.0
 10
14.4319428001
 20
14.1586365191
 30
0.0
 10
14.4371295063
 20
14.154910562
 30
0.0
 10
14.4420500402
 20
14.1511172606
 30
0.0
 10
14.44828883
 20
14.146396251
 30
0.0
 10
14.4557516481
 20
14.1407330938
 30
0.0
 10
14.4619322655
 20
14.135979459
 30
0.0
 10
14.4663497145
 20
14.1327231237
 30
0.0
 10
14.4687294616
 20
14.1307505893
 30
0.0
 10
14.4716525735
 20
14.1291980131
 30
0.0
 10
14.4751777301
 20
14.1271577978
 30
0.0
 10
14.4808898875
 20
14.1239490144
 30
0.0
 10
14.4880057166
 20
14.1199193081
 30
0.0
 10
14.4965538158
 20
14.1150902085
 30
0.0
 10
14.5036793744
 20
14.1110691017
 30
0.0
 10
14.5086587829
 20
14.1082448623
 30
0.0
 10
14.5115180579
 20
14.1066462934
 30
0.0
 10
14.5147186696
 20
14.1054226119
 30
0.0
 10
14.5186026623
 20
14.1037648169
 30
0.0
 10
14.5248817178
 20
14.1011830066
 30
0.0
 10
14.5327126208
 20
14.0979385539
 30
0.0
 10
14.5420987025
 20
14.0940217295
 30
0.0
 10
14.5499809987
 20
14.0908588992
 30
0.0
 10
14.5561469891
 20
14.0880975194
 30
0.0
 10
14.5611546846
 20
14.0866591173
 30
0.0
 10
14.5661785767
 20
14.0852473649
 30
0.0
 10
14.5728714146
 20
14.0833560353
 30
0.0
 10
14.5812396067
 20
14.0809926969
 30
0.0
 10
14.5912796696
 20
14.0781662274
 30
0.0
 10
14.5988124462
 20
14.076016777
 30
0.0
 10
14.6038303006
 20
14.0746301604
 30
0.0
 10
14.6071849816
 20
14.0735953031
 30
0.0
 10
14.6129593009
 20
14.0729115432
 30
0.0
 10
14.6212480826
 20
14.0714763716
 30
0.0
 10
14.6311740221
 20
14.0699637683
 30
0.0
 10
14.6411187489
 20
14.068346149
 30
0.0
 10
14.6493605625
 20
14.0671735176
 30
0.0
 10
14.6552170758
 20
14.0660303124
 30
0.0
 10
14.6583877077
 20
14.0660242473
 30
0.0
 10
14.663188907
 20
14.065848695
 30
0.0
 10
14.6703717361
 20
14.0656552045
 30
0.0
 10
14.6799595105
 20
14.0653576571
 30
0.0
 10
14.6879474838
 20
14.0651174117
 30
0.0
 10
14.6943369409
 20
14.0649264896
 30
0.0
 10
14.6991329014
 20
14.0647748489
 30
0.0
 10
14.703913852
 20
14.0646563677
 30
0.0
 10
14.7098145155
 20
14.0655473761
 30
0.0
 10
14.7173521901
 20
14.0663019169
 30
0.0
 10
14.7263314482
 20
14.0673581451
 30
0.0
 10
14.7338182078
 20
14.0682146976
 30
0.0
 10
14.7398308844
 20
14.0688812804
 30
0.0
 10
14.7435286128
 20
14.0693563615
 30
0.0
 10
14.746625445
 20
14.0696007708
 30
0.0
 10
14.7492158347
 20
14.0703410288
 30
0.0
 10
14.7537129192
 20
14.0716718492
 30
0.0
 10
14.7601554168
 20
14.0735551625
 30
0.0
 10
14.7678820847
 20
14.0758200172
 30
0.0
 10
14.774311284
 20
14.0777149453
 30
0.0
 10
14.7794800655
 20
14.0792103304
 30
0.0
 10
14.7826518441
 20
14.080192565
 30
0.0
 10
14.785323815
 20
14.0808692066
 30
0.0
 10
14.7872858998
 20
14.0821217184
 30
0.0
 10
14.7910500317
 20
14.0840454851
 30
0.0
 10
14.7962567202
 20
14.0869324583
 30
0.0
 10
14.802568441
 20
14.0903437641
 30
0.0
 10
14.8078434168
 20
14.0931784122
 30
0.0
 10
14.8119950497
 20
14.095492118
 30
0.0
 10
14.8164079069
 20
14.09762836
 30
0.0
 10
14.8200502311
 20
14.1015721564
 30
0.0
 10
14.8248238272
 20
14.1060306473
 30
0.0
 10
14.8294934013
 20
14.1105609906
 30
0.0
 10
14.8333957802
 20
14.1143251562
 30
0.0
 10
14.8361497141
 20
14.1169519895
 30
0.0
 10
14.8376818957
 20
14.1184702293
 30
0.0
 10
14.8393715736
 20
14.1199227797
 30
0.0
 10
14.8403543174
 20
14.1222096473
 30
0.0
 10
14.8422436944
 20
14.125736387
 30
0.0
 10
14.8444968323
 20
14.130190113
 30
0.0
 10
14.848162812
 20
14.1372906423
 30
0.0
 10
14.850898581
 20
14.1426217615
 30
0.0
 10
14.852725475
 20
14.1461745694
 30
0.0
  0
SPLINE
  5
2E5
100
AcDbEntity
  8
03__ASM_ALL_CURVES
100
AcDbSpline
 62
4
  6
CONTINUOUS
 70
0
 71
3
 72
16
 73
12
 74
0
 42
0.0000001
 43
0.0000001
 44
0.0000000001
 40
0.0
 40
0.0
 40
0.0
 40
0.0
 40
0.125
 40
0.25
 40
0.375
 40
0.5
 40
0.625
 40
0.75
 40
0.8125
 40
0.875
 40
1.0
 40
1.0
 40
1.0
 40
1.0
 10
14.8527254794
 20
14.1461745837
 30
0.0
 10
14.8528995712
 20
14.1467744308
 30
0.0
 10
14.8532402073
 20
14.1479041373
 30
0.0
 10
14.8537964466
 20
14.1500186241
 30
0.0
 10
14.8543229382
 20
14.1521887568
 30
0.0
 10
14.8546819139
 20
14.1537865445
 30
0.0
 10
14.8551295067
 20
14.1562330067
 30
0.0
 10
14.855385128
 20
14.1578535083
 30
0.0
 10
14.8555692366
 20
14.1590205518
 30
0.0
 10
14.8557569473
 20
14.160567106
 30
0.0
 10
14.8558969319
 20
14.1618111195
 30
0.0
 10
14.8559904324
 20
14.1626217734
 30
0.0
  0
SPLINE
  5
2E6
100
AcDbEntity
  8
03__ASM_ALL_CURVES
100
AcDbSpline
 62
4
  6
CONTINUOUS
 70
0
 71
3
 72
14
 73
10
 74
0
 42
0.0000001
 43
0.0000001
 44
0.0000000001
 40
0.0
 40
0.0
 40
0.0
 40
0.0
 40
0.25
 40
0.375
 40
0.5
 40
0.625
 40
0.75
 40
0.875
 40
1.0
 40
1.0
 40
1.0
 40
1.0
 10
14.8559904324
 20
14.1626217732
 30
0.0
 10
14.8561090191
 20
14.1641410273
 30
0.0
 10
14.8562841107
 20
14.1664002658
 30
0.0
 10
14.8563692295
 20
14.1695267943
 30
0.0
 10
14.8564050972
 20
14.171673251
 30
0.0
 10
14.8563078652
 20
14.1746236123
 30
0.0
 10
14.8561842346
 20
14.1769896807
 30
0.0
 10
14.8559990539
 20
14.1793988413
 30
0.0
 10
14.8557940872
 20
14.1812819415
 30
0.0
 10
14.855701793
 20
14.1821888674
 30
0.0
  0
SPLINE
  5
2E7
100
AcDbEntity
  8
03__ASM_ALL_CURVES
100
AcDbSpline
 62
4
  6
CONTINUOUS
 70
0
 71
3
 72
14
 73
10
 74
0
 42
0.0000001
 43
0.0000001
 44
0.0000000001
 40
0.0
 40
0.0
 40
0.0
 40
0.0
 40
0.125
 40
0.25
 40
0.375
 40
0.5
 40
0.625
 40
0.75
 40
1.0
 40
1.0
 40
1.0
 40
1.0
 10
14.8557017931
 20
14.1821888665
 30
0.0
 10
14.8554823976
 20
14.1836427841
 30
0.0
 10
14.8551039126
 20
14.1864704382
 30
0.0
 10
14.8541743484
 20
14.1911930068
 30
0.0
 10
14.8530564697
 20
14.1959774851
 30
0.0
 10
14.8516957001
 20
14.2009730068
 30
0.0
 10
14.8502335795
 20
14.2051962689
 30
0.0
 10
14.8478399718
 20
14.2116207321
 30
0.0
 10
14.8455928057
 20
14.2165522276
 30
0.0
 10
14.8440871172
 20
14.2198292459
 30
0.0
  0
SPLINE
  5
2E8
100
AcDbEntity
  8
0
100
AcDbSpline
 62
7
  6
CONTINUOUS
 70
0
 71
3
 72
44
 73
40
 74
0
 42
0.0000001
 43
0.0000001
 44
0.0000000001
 40
0.0
 40
0.0
 40
0.0
 40
0.0
 40
0.0271923515
 40
0.0554467282
 40
0.0847757797
 40
0.1151980705
 40
0.1466940079
 40
0.1792097902
 40
0.2126681795
 40
0.2469728245
 40
0.2820074424
 40
0.317641941
 40
0.353734496
 40
0.3901347564
 40
0.4266870861
 40
0.4632327858
 40
0.4996136292
 40
0.5356739431
 40
0.571264393
 40
0.6062435136
 40
0.6404826256
 40
0.673867137
 40
0.7063009006
 40
0.7377098376
 40
0.7680442024
 40
0.7972841558
 40
0.8254401864
 40
0.8391283811
 40
0.8525658717
 40
0.8787249206
 40
0.9040389902
 40
0.9164277181
 40
0.9286618881
 40
0.9407626103
 40
0.9527476269
 40
0.9646369677
 40
0.9764550243
 40
0.988231976
 40
1.0
 40
1.0
 40
1.0
 40
1.0
 10
13.5760463809
 20
10.9230826287
 30
0.0
 10
13.5903745501
 20
10.8938848896
 30
0.0
 10
13.6225783968
 20
10.8357787785
 30
0.0
 10
13.6794781646
 20
10.751713422
 30
0.0
 10
13.7454337726
 20
10.6695397847
 30
0.0
 10
13.8199497733
 20
10.589674437
 30
0.0
 10
13.9025322909
 20
10.5124977634
 30
0.0
 10
13.9926543786
 20
10.4384288202
 30
0.0
 10
14.0897304057
 20
10.3678747384
 30
0.0
 10
14.1931391791
 20
10.3012479275
 30
0.0
 10
14.3022115577
 20
10.2389437786
 30
0.0
 10
14.4162385896
 20
10.181346271
 30
0.0
 10
14.5344758277
 20
10.1288200314
 30
0.0
 10
14.6561441182
 20
10.0816948074
 30
0.0
 10
14.7804444966
 20
10.0402830518
 30
0.0
 10
14.9065552356
 20
10.0048499555
 30
0.0
 10
15.033646693
 20
9.9756340733
 30
0.0
 10
15.1608850067
 20
9.9528330009
 30
0.0
 10
15.287439096
 20
9.9366002687
 30
0.0
 10
15.4124915855
 20
9.9270615816
 30
0.0
 10
15.5352417716
 20
9.924290228
 30
0.0
 10
15.654915879
 20
9.9283365604
 30
0.0
 10
15.7707710597
 20
9.9392100011
 30
0.0
 10
15.8820997064
 20
9.9568946777
 30
0.0
 10
15.9882336389
 20
9.9813574309
 30
0.0
 10
16.0885329067
 20
10.0125393217
 30
0.0
 10
16.1674925305
 20
10.0443771704
 30
0.0
 10
16.2270144528
 20
10.0732210953
 30
0.0
 10
16.2830121922
 20
10.1036936927
 30
0.0
 10
16.3484268219
 20
10.1457726024
 30
0.0
 10
16.4079640014
 20
10.1939069758
 30
0.0
 10
16.4509128412
 20
10.2354594539
 30
0.0
 10
16.4805681309
 20
10.2679012523
 30
0.0
 10
16.5077995103
 20
10.3017859984
 30
0.0
 10
16.532525302
 20
10.3370395682
 30
0.0
 10
16.5546537224
 20
10.3735858406
 30
0.0
 10
16.5740985151
 20
10.4113500561
 30
0.0
 10
16.5908039514
 20
10.4502437865
 30
0.0
 10
16.600075903
 20
10.4768645038
 30
0.0
 10
16.6042316156
 20
10.4903123946
 30
0.0
  0
SPLINE
  5
2E9
100
AcDbEntity
  8
0
100
AcDbSpline
 62
7
  6
CONTINUOUS
 70
0
 71
3
 72
15
 73
11
 74
0
 42
0.0000001
 43
0.0000001
 44
0.0000000001
 40
0.0
 40
0.0
 40
0.0
 40
0.0
 40
0.1195625681
 40
0.2395434915
 40
0.3606435304
 40
0.4833789544
 40
0.6082050633
 40
0.7356422814
 40
0.8661274689
 40
1.0
 40
1.0
 40
1.0
 40
1.0
 10
13.5182222887
 20
11.4439614045
 30
0.0
 10
13.5119054359
 20
11.4235200615
 30
0.0
 10
13.5014506076
 20
11.3818488415
 30
0.0
 10
13.4925005029
 20
11.3178208605
 30
0.0
 10
13.4902762888
 20
11.2526393635
 30
0.0
 10
13.4946682384
 20
11.1867086861
 30
0.0
 10
13.5055798296
 20
11.1203977188
 30
0.0
 10
13.5228210065
 20
11.054019757
 30
0.0
 10
13.5462045769
 20
10.9878431935
 30
0.0
 10
13.5654928212
 20
10.9445885222
 30
0.0
 10
13.5760463809
 20
10.9230826287
 30
0.0
  0
SPLINE
  5
2EA
100
AcDbEntity
  8
0
100
AcDbSpline
 62
7
  6
CONTINUOUS
 70
0
 71
3
 72
31
 73
27
 74
0
 42
0.0000001
 43
0.0000001
 44
0.0000000001
 40
0.0
 40
0.0
 40
0.0
 40
0.0
 40
0.0620139641
 40
0.0930564816
 40
0.12409685
 40
0.1551350039
 40
0.1861692211
 40
0.217208765
 40
0.2482590099
 40
0.2793194857
 40
0.3104049132
 40
0.3415235029
 40
0.3726725737
 40
0.4350624029
 40
0.4663944729
 40
0.4978015279
 40
0.5607761072
 40
0.6239659567
 40
0.6556182658
 40
0.6872561718
 40
0.750334192
 40
0.8131255577
 40
0.8756056362
 40
0.9067853199
 40
0.9379285171
 40
1.0
 40
1.0
 40
1.0
 40
1.0
 10
16.3182976382
 20
13.1420759552
 30
0.0
 10
16.3208797017
 20
13.1504315158
 30
0.0
 10
16.3261059138
 20
13.1626115324
 30
0.0
 10
16.335507054
 20
13.1774007204
 30
0.0
 10
16.3437333177
 20
13.1876729604
 30
0.0
 10
16.3530152611
 20
13.1969965551
 30
0.0
 10
16.3632563013
 20
13.2052570263
 30
0.0
 10
16.3743344198
 20
13.2123569336
 30
0.0
 10
16.3861089609
 20
13.2182375749
 30
0.0
 10
16.3984507474
 20
13.2228280473
 30
0.0
 10
16.4112140607
 20
13.2260988277
 30
0.0
 10
16.4242587807
 20
13.2280459248
 30
0.0
 10
16.4418431589
 20
13.2288591115
 30
0.0
 10
16.4594915094
 20
13.2270337676
 30
0.0
 10
16.476626126
 20
13.222734152
 30
0.0
 10
16.4933679151
 20
13.2168319573
 30
0.0
 10
16.5132354705
 20
13.2065976938
 30
0.0
 10
16.5310118754
 20
13.1930071025
 30
0.0
 10
16.5436665147
 20
13.1804089153
 30
0.0
 10
16.5551646231
 20
13.1667684954
 30
0.0
 10
16.5672068219
 20
13.14795384
 30
0.0
 10
16.5773578105
 20
13.123255367
 30
0.0
 10
16.5818450845
 20
13.1015042266
 30
0.0
 10
16.5828580503
 20
13.0839065488
 30
0.0
 10
16.5821143333
 20
13.066359662
 30
0.0
 10
16.5795564133
 20
13.0533402764
 30
0.0
 10
16.5769719549
 20
13.0449769659
 30
0.0
  0
SPLINE
  5
2EB
100
AcDbEntity
  8
0
100
AcDbSpline
 62
7
  6
CONTINUOUS
 70
0
 71
3
 72
15
 73
11
 74
0
 42
0.0000001
 43
0.0000001
 44
0.0000000001
 40
0.0
 40
0.0
 40
0.0
 40
0.0
 40
0.1250044678
 40
0.2499767237
 40
0.3749199622
 40
0.4998460824
 40
0.6247855562
 40
0.7497802189
 40
0.8748470721
 40
1.0
 40
1.0
 40
1.0
 40
1.0
 10
16.5769719549
 20
13.0449769659
 30
0.0
 10
16.575251808
 20
13.0394105686
 30
0.0
 10
16.5710212244
 20
13.0285063137
 30
0.0
 10
16.5624385949
 20
13.0132195646
 30
0.0
 10
16.5517393452
 20
12.9993309581
 30
0.0
 10
16.5391616658
 20
12.987120444
 30
0.0
 10
16.5249453575
 20
12.9768608458
 30
0.0
 10
16.5094090018
 20
12.968724431
 30
0.0
 10
16.4928686787
 20
12.962878515
 30
0.0
 10
16.4814000143
 20
12.9605370888
 30
0.0
 10
16.475618475
 20
12.95976368
 30
0.0
  0
SPLINE
  5
2EC
100
AcDbEntity
  8
0
100
AcDbSpline
 62
7
  6
CONTINUOUS
 70
0
 71
3
 72
15
 73
11
 74
0
 42
0.0000001
 43
0.0000001
 44
0.0000000001
 40
0.0
 40
0.0
 40
0.0
 40
0.0
 40
0.1097648564
 40
0.2239858894
 40
0.3426631808
 40
0.4657743784
 40
0.5932466436
 40
0.724941023
 40
0.8606460535
 40
1.0
 40
1.0
 40
1.0
 40
1.0
 10
17.6136621371
 20
12.8931419386
 30
0.0
 10
17.5988169699
 20
12.9233932087
 30
0.0
 10
17.5659771049
 20
12.9839005442
 30
0.0
 10
17.5090443467
 20
13.0724586519
 30
0.0
 10
17.4437151917
 20
13.1601797343
 30
0.0
 10
17.3703158274
 20
13.246663629
 30
0.0
 10
17.289163792
 20
13.3315299853
 30
0.0
 10
17.2006216489
 20
13.4144146736
 30
0.0
 10
17.1050971554
 20
13.4949181304
 30
0.0
 10
17.037904994
 20
13.5461246202
 30
0.0
 10
17.0032878214
 20
13.571261904
 30
0.0
  0
SPLINE
  5
2ED
100
AcDbEntity
  8
0
100
AcDbSpline
 62
7
  6
CONTINUOUS
 70
0
 71
3
 72
27
 73
23
 74
0
 42
0.0000001
 43
0.0000001
 44
0.0000000001
 40
0.0
 40
0.0
 40
0.0
 40
0.0
 40
0.0682357325
 40
0.1389586103
 40
0.21138223
 40
0.2847599407
 40
0.3582717461
 40
0.4310967073
 40
0.5024412149
 40
0.5715596415
 40
0.6377898335
 40
0.6696537952
 40
0.7006024914
 40
0.7595602519
 40
0.8144886825
 40
0.8404645952
 40
0.8654779941
 40
0.9128119712
 40
0.9353671327
 40
0.9573252391
 40
0.9788210712
 40
1.0
 40
1.0
 40
1.0
 40
1.0
 10
15.1612545844
 20
14.9088556133
 30
0.0
 10
15.1411016839
 20
14.9234896559
 30
0.0
 10
15.0986830813
 20
14.9514291432
 30
0.0
 10
15.0309256908
 20
14.9884876264
 30
0.0
 10
14.9587900995
 20
15.0209602316
 30
0.0
 10
14.8834831607
 20
15.0483130813
 30
0.0
 10
14.806229566
 20
15.0701014255
 30
0.0
 10
14.7283013593
 20
15.0859667615
 30
0.0
 10
14.6509756347
 20
15.0956466051
 30
0.0
 10
14.5755237997
 20
15.0989809407
 30
0.0
 10
14.5144535314
 20
15.0963984031
 30
0.0
 10
14.4676457803
 20
15.0910000797
 30
0.0
 10
14.4237907206
 20
15.083683108
 30
0.0
 10
14.3723856243
 20
15.0708599992
 30
0.0
 10
14.3245775687
 20
15.0525002664
 30
0.0
 10
14.290172088
 20
15.0347905793
 30
0.0
 10
14.2595942008
 20
15.0159613165
 30
0.0
 10
14.2323630284
 20
14.9941979187
 30
0.0
 10
14.2094488577
 20
14.9696638754
 30
0.0
 10
14.194846989
 20
14.9504426599
 30
0.0
 10
14.1826254233
 20
14.9302140806
 30
0.0
 10
14.1760673238
 20
14.9160436197
 30
0.0
 10
14.1732232656
 20
14.9088556133
 30
0.0
  0
SPLINE
  5
2EE
100
AcDbEntity
  8
0
100
AcDbSpline
 62
7
  6
CONTINUOUS
 70
0
 71
3
 72
30
 73
26
 74
0
 42
0.0000001
 43
0.0000001
 44
0.0000000001
 40
0.0
 40
0.0
 40
0.0
 40
0.0
 40
0.02651075
 40
0.0543701728
 40
0.1139919699
 40
0.14570177
 40
0.1785753483
 40
0.2125207771
 40
0.2474134331
 40
0.3194581181
 40
0.393520055
 40
0.4682754788
 40
0.54235157
 40
0.6144180408
 40
0.6493225891
 40
0.6832845818
 40
0.747878866
 40
0.8075133251
 40
0.8353810964
 40
0.8619428535
 40
0.9113229788
 40
0.9344634203
 40
0.9567892375
 40
0.9785435862
 40
1.0
 40
1.0
 40
1.0
 40
1.0
 10
14.8440871171
 20
14.2198292461
 30
0.0
 10
14.8419360081
 20
14.2242127454
 30
0.0
 10
14.8370643718
 20
14.232982792
 30
0.0
 10
14.8252661238
 20
14.2503745198
 30
0.0
 10
14.8107244534
 20
14.266953087
 30
0.0
 10
14.7939903889
 20
14.2825639971
 30
0.0
 10
14.7799545136
 20
14.2940876775
 30
0.0
 10
14.7647878323
 20
14.3051013628
 30
0.0
 10
14.7429684306
 20
14.31916595
 30
0.0
 10
14.7135348509
 20
14.334954911
 30
0.0
 10
14.6759256612
 20
14.3506142415
 30
0.0
 10
14.6366476145
 20
14.3627678147
 30
0.0
 10
14.5967604373
 20
14.3710876976
 30
0.0
 10
14.5635454052
 20
14.3746861744
 30
0.0
 10
14.5375858358
 20
14.3754059052
 30
0.0
 10
14.5130034138
 20
14.3747216219
 30
0.0
 10
14.483982533
 20
14.3713756242
 30
0.0
 10
14.4567284985
 20
14.3644228091
 30
0.0
 10
14.4371467819
 20
14.3567374394
 30
0.0
 10
14.4200251797
 20
14.3481939526
 30
0.0
 10
14.4048978061
 20
14.3376806807
 30
0.0
 10
14.3925574016
 20
14.3252597672
 30
0.0
 10
14.3850143482
 20
14.315393596
 30
0.0
 10
14.3790450204
 20
14.3048591621
 30
0.0
 10
14.3761348009
 20
14.2974164317
 30
0.0
 10
14.3749672315
 20
14.2936409115
 30
0.0
  0
SPLINE
  5
2EF
100
AcDbEntity
  8
0
100
AcDbSpline
 62
7
  6
CONTINUOUS
 70
0
 71
3
 72
11
 73
7
 74
0
 42
0.0000001
 43
0.0000001
 44
0.0000000001
 40
0.0
 40
0.0
 40
0.0
 40
0.0
 40
0.2397181024
 40
0.4858292423
 40
0.7391540679
 40
1.0
 40
1.0
 40
1.0
 40
1.0
 10
16.1841245879
 20
13.2299643968
 30
0.0
 10
16.1933529968
 20
13.2335589362
 30
0.0
 10
16.2126131132
 20
13.2394815285
 30
0.0
 10
16.2428388319
 20
13.2444045666
 30
0.0
 10
16.2743147118
 20
13.2453948236
 30
0.0
 10
16.295528484
 20
13.243473896
 30
0.0
 10
16.3061883518
 20
13.241891836
 30
0.0
  0
SPLINE
  5
2F0
100
AcDbEntity
  8
0
100
AcDbSpline
 62
7
  6
CONTINUOUS
 70
0
 71
3
 72
9
 73
5
 74
0
 42
0.0000001
 43
0.0000001
 44
0.0000000001
 40
0.0
 40
0.0
 40
0.0
 40
0.0
 40
0.2459208801
 40
1.0
 40
1.0
 40
1.0
 40
1.0
 10
16.3061883518
 20
13.241891836
 30
0.0
 10
16.3108757394
 20
13.2411961681
 30
0.0
 10
16.3298633498
 20
13.2378891494
 30
0.0
 10
16.3485177878
 20
13.2327207427
 30
0.0
 10
16.3622298104
 20
13.2279125576
 30
0.0
  0
SPLINE
  5
2F1
100
AcDbEntity
  8
0
100
AcDbSpline
 62
7
  6
CONTINUOUS
 70
0
 71
3
 72
9
 73
5
 74
0
 42
0.0000001
 43
0.0000001
 44
0.0000000001
 40
0.0
 40
0.0
 40
0.0
 40
0.0
 40
0.5139905102
 40
1.0
 40
1.0
 40
1.0
 40
1.0
 10
16.5956023775
 20
12.9629705857
 30
0.0
 10
16.5995004092
 20
12.9427077216
 30
0.0
 10
16.6029264
 20
12.9023181563
 30
0.0
 10
16.5964259247
 20
12.8621767529
 30
0.0
 10
16.5906653282
 20
12.8435354558
 30
0.0
  0
SPLINE
  5
2F2
100
AcDbEntity
  8
0
100
AcDbSpline
 62
7
  6
CONTINUOUS
 70
0
 71
3
 72
17
 73
13
 74
0
 42
0.0000001
 43
0.0000001
 44
0.0000000001
 40
0.0
 40
0.0
 40
0.0
 40
0.0
 40
0.1364689924
 40
0.2712102427
 40
0.4032803257
 40
0.5319456461
 40
0.656498564
 40
0.717040827
 40
0.7763384156
 40
0.8909673755
 40
0.9462129838
 40
1.0
 40
1.0
 40
1.0
 40
1.0
 10
15.3847186673
 20
12.5721974303
 30
0.0
 10
15.3338205261
 20
12.5847094106
 30
0.0
 10
15.2319431173
 20
12.6067290201
 30
0.0
 10
15.0788391005
 20
12.6307122877
 30
0.0
 10
14.9275503936
 20
12.6452540731
 30
0.0
 10
14.7795590074
 20
12.6502141821
 30
0.0
 10
14.6590134023
 20
12.6463061225
 30
0.0
 10
14.565478599
 20
12.6382228381
 30
0.0
 10
14.4760947036
 20
12.6271561701
 30
0.0
 10
14.389391766
 20
12.6113376402
 30
0.0
 10
14.3060299414
 20
12.5905185733
 30
0.0
 10
14.2658773049
 20
12.5785645831
 30
0.0
 10
14.2462251195
 20
12.5721974303
 30
0.0
  0
SPLINE
  5
2F3
100
AcDbEntity
  8
0
100
AcDbSpline
 62
7
  6
CONTINUOUS
 70
0
 71
3
 72
14
 73
10
 74
0
 42
0.0000001
 43
0.0000001
 44
0.0000000001
 40
0.0
 40
0.0
 40
0.0
 40
0.0
 40
0.1387040563
 40
0.2733456119
 40
0.5302655463
 40
0.652882237
 40
0.7718458486
 40
0.8874391396
 40
1.0
 40
1.0
 40
1.0
 40
1.0
 10
14.2462251195
 20
12.5721974303
 30
0.0
 10
14.2254911357
 20
12.5654797834
 30
0.0
 10
14.1849531903
 20
12.5512038887
 30
0.0
 10
14.1079538137
 20
12.5193023356
 30
0.0
 10
14.0359929439
 20
12.4820285887
 30
0.0
 10
13.9703226971
 20
12.4392378179
 30
0.0
 10
13.9255059761
 20
12.4053695961
 30
0.0
 10
13.8845007236
 20
12.3693286681
 30
0.0
 10
13.8594682946
 20
12.3436005887
 30
0.0
 10
13.8476723138
 20
12.3304215133
 30
0.0
  0
SPLINE
  5
2F4
100
AcDbEntity
  8
0
100
AcDbSpline
 62
7
  6
CONTINUOUS
 70
0
 71
3
 72
24
 73
20
 74
0
 42
0.0000001
 43
0.0000001
 44
0.0000000001
 40
0.0
 40
0.0
 40
0.0
 40
0.0
 40
0.0730480241
 40
0.1461974332
 40
0.2189999081
 40
0.2910931066
 40
0.3621207714
 40
0.4317256124
 40
0.4995807472
 40
0.5653906768
 40
0.6289002732
 40
0.6898978821
 40
0.7482318774
 40
0.776376226
 40
0.8038294809
 40
0.856657594
 40
0.9068163615
 40
0.9544948895
 40
1.0
 40
1.0
 40
1.0
 40
1.0
 10
15.3847186673
 20
12.5721974303
 30
0.0
 10
15.4309056706
 20
12.5608435604
 30
0.0
 10
15.5227785762
 20
12.5357492427
 30
0.0
 10
15.6583173956
 20
12.4912715015
 30
0.0
 10
15.7908458248
 20
12.4401865258
 30
0.0
 10
15.9193092312
 20
12.3829133168
 30
0.0
 10
16.0427247821
 20
12.3198954597
 30
0.0
 10
16.1601311008
 20
12.2516142879
 30
0.0
 10
16.2706166723
 20
12.1786091497
 30
0.0
 10
16.3733167999
 20
12.1014349152
 30
0.0
 10
16.4674465562
 20
12.0206995048
 30
0.0
 10
16.5522603539
 20
11.9370137919
 30
0.0
 10
16.6153823224
 20
11.8645052161
 30
0.0
 10
16.6604634539
 20
11.8055663487
 30
0.0
 10
16.7008688723
 20
11.7476536506
 30
0.0
 10
16.7446749979
 20
11.6747281376
 30
0.0
 10
16.7864429963
 20
11.5857548646
 30
0.0
 10
16.8163588215
 20
11.4971292812
 30
0.0
 10
16.8284763731
 20
11.4374675959
 30
0.0
 10
16.8323348282
 20
11.4080912236
 30
0.0
  0
SPLINE
  5
2F5
100
AcDbEntity
  8
0
100
AcDbSpline
 62
7
  6
CONTINUOUS
 70
0
 71
3
 72
16
 73
12
 74
0
 42
0.0000001
 43
0.0000001
 44
0.0000000001
 40
0.0
 40
0.0
 40
0.0
 40
0.0
 40
0.1352694622
 40
0.2667040416
 40
0.3946262553
 40
0.4574267596
 40
0.5195334608
 40
0.64191808
 40
0.7623606448
 40
0.8814756392
 40
1.0
 40
1.0
 40
1.0
 40
1.0
 10
13.3356174487
 20
11.6734627019
 30
0.0
 10
13.3220134113
 20
11.7011848155
 30
0.0
 10
13.2971790594
 20
11.7568522836
 30
0.0
 10
13.267098033
 20
11.8418700829
 30
0.0
 10
13.2485438948
 20
11.9131446241
 30
0.0
 10
13.2378644389
 20
11.9698844105
 30
0.0
 10
13.2300275279
 20
12.0258088764
 30
0.0
 10
13.2253434183
 20
12.0953847228
 30
0.0
 10
13.2281242188
 20
12.1781100622
 30
0.0
 10
13.239433717
 20
12.2592175963
 30
0.0
 10
13.252657567
 20
12.3119587321
 30
0.0
 10
13.2606462226
 20
12.3378100312
 30
0.0
  0
SPLINE
  5
2F6
100
AcDbEntity
  8
0
100
AcDbSpline
 62
7
  6
CONTINUOUS
 70
0
 71
3
 72
19
 73
15
 74
0
 42
0.0000001
 43
0.0000001
 44
0.0000000001
 40
0.0
 40
0.0
 40
0.0
 40
0.0
 40
0.0567225327
 40
0.1135582561
 40
0.1706887215
 40
0.2282866991
 40
0.2865073355
 40
0.3454860947
 40
0.4053427969
 40
0.4661998663
 40
0.5913219369
 40
0.7216733222
 40
0.8577955567
 40
1.0
 40
1.0
 40
1.0
 40
1.0
 10
17.3211848107
 20
11.0830087024
 30
0.0
 10
17.3155719696
 20
11.0648455418
 30
0.0
 10
17.3029484585
 20
11.0288951352
 30
0.0
 10
17.2799599691
 20
10.9764551079
 30
0.0
 10
17.252991168
 20
10.9256115411
 30
0.0
 10
17.2221171867
 20
10.8764941802
 30
0.0
 10
17.1874511174
 20
10.8292081708
 30
0.0
 10
17.1491147341
 20
10.7838537485
 30
0.0
 10
17.1072175079
 20
10.7405299457
 30
0.0
 10
17.0462175399
 20
10.6850742931
 30
0.0
 10
16.9612726262
 20
10.6211866431
 30
0.0
 10
16.8480321819
 20
10.5543707084
 30
0.0
 10
16.7234694923
 20
10.4969184168
 30
0.0
 10
16.6354251144
 20
10.4656908739
 30
0.0
 10
16.5898986398
 20
10.4515905875
 30
0.0
  0
SPLINE
  5
2F7
100
AcDbEntity
  8
0
100
AcDbSpline
 62
7
  6
CONTINUOUS
 70
0
 71
3
 72
9
 73
5
 74
0
 42
0.0000001
 43
0.0000001
 44
0.0000000001
 40
0.0
 40
0.0
 40
0.0
 40
0.0
 40
0.512627353
 40
1.0
 40
1.0
 40
1.0
 40
1.0
 10
13.5064909977
 20
11.4060704823
 30
0.0
 10
13.4727945765
 20
11.4486505689
 30
0.0
 10
13.4108654727
 20
11.5348220472
 30
0.0
 10
13.3583605082
 20
11.6271172195
 30
0.0
 10
13.3356174487
 20
11.6734627019
 30
0.0
  0
SPLINE
  5
2F8
100
AcDbEntity
  8
0
100
AcDbSpline
 62
7
  6
CONTINUOUS
 70
0
 71
3
 72
15
 73
11
 74
0
 42
0.0000001
 43
0.0000001
 44
0.0000000001
 40
0.0
 40
0.0
 40
0.0
 40
0.0
 40
0.1164467094
 40
0.2338032821
 40
0.3529135324
 40
0.4745966023
 40
0.5995877315
 40
0.7285195258
 40
0.861889607
 40
1.0
 40
1.0
 40
1.0
 40
1.0
 10
17.6866740029
 20
12.2657421453
 30
0.0
 10
17.6940872639
 20
12.2897366672
 30
0.0
 10
17.7063734086
 20
12.3387598595
 30
0.0
 10
17.7168590204
 20
12.4142840329
 30
0.0
 10
17.7193996741
 20
12.4916223158
 30
0.0
 10
17.7140049575
 20
12.5704532635
 30
0.0
 10
17.7007053311
 20
12.650479358
 30
0.0
 10
17.6795667102
 20
12.7313986718
 30
0.0
 10
17.6506791842
 20
12.812877991
 30
0.0
 10
17.6267840256
 20
12.8664023412
 30
0.0
 10
17.6136621371
 20
12.8931419386
 30
0.0
  0
SPLINE
  5
2F9
100
AcDbEntity
  8
0
100
AcDbSpline
 62
7
  6
CONTINUOUS
 70
0
 71
3
 72
13
 73
9
 74
0
 42
0.0000001
 43
0.0000001
 44
0.0000000001
 40
0.0
 40
0.0
 40
0.0
 40
0.0
 40
0.1164656914
 40
0.2338396704
 40
0.3530104569
 40
0.474810878
 40
0.7288132227
 40
1.0
 40
1.0
 40
1.0
 40
1.0
 10
14.8526765058
 20
14.1460175807
 30
0.0
 10
14.8535491227
 20
14.1488393251
 30
0.0
 10
14.8549937807
 20
14.1546050342
 30
0.0
 10
14.8562268944
 20
14.1634882286
 30
0.0
 10
14.8565275137
 20
14.1725876191
 30
0.0
 10
14.8556703616
 20
14.1851298612
 30
0.0
 10
14.8521400181
 20
14.2012535379
 30
0.0
 10
14.847116882
 20
14.2136552345
 30
0.0
 10
14.8440871171
 20
14.2198292461
 30
0.0
  0
SPLINE
  5
2FA
100
AcDbEntity
  8
0
100
AcDbSpline
 62
7
  6
CONTINUOUS
 70
0
 71
3
 72
23
 73
19
 74
0
 42
0.0000001
 43
0.0000001
 44
0.0000000001
 40
0.0
 40
0.0
 40
0.0
 40
0.0
 40
0.0464226674
 40
0.0938348359
 40
0.1427320136
 40
0.1935654955
 40
0.2467100286
 40
0.3024321046
 40
0.3608858922
 40
0.4221456654
 40
0.4861990744
 40
0.5529745037
 40
0.6223330723
 40
0.6940890179
 40
0.768013773
 40
0.8438400188
 40
0.9212759541
 40
1.0
 40
1.0
 40
1.0
 40
1.0
 10
16.9883003319
 20
10.3878489454
 30
0.0
 10
16.9846904661
 20
10.3787254547
 30
0.0
 10
16.9760519868
 20
10.3607867688
 30
0.0
 10
16.9592897695
 20
10.335600141
 30
0.0
 10
16.9387478643
 20
10.3121365857
 30
0.0
 10
16.9145962135
 20
10.290561647
 30
0.0
 10
16.887007137
 20
10.2710033403
 30
0.0
 10
16.8561687631
 20
10.2535802093
 30
0.0
 10
16.8222904818
 20
10.2383902794
 30
0.0
 10
16.7855923991
 20
10.2255419161
 30
0.0
 10
16.7463213771
 20
10.2150994486
 30
0.0
 10
16.7047325662
 20
10.2071420091
 30
0.0
 10
16.6611019992
 20
10.2017088409
 30
0.0
 10
16.6157164981
 20
10.1988413412
 30
0.0
 10
16.5688768303
 20
10.1985565442
 30
0.0
 10
16.5208920236
 20
10.2008521289
 30
0.0
 10
16.4720827393
 20
10.2057205176
 30
0.0
 10
16.439427445
 20
10.2106196757
 30
0.0
 10
16.4230368596
 20
10.2134827389
 30
0.0
  0
SPLINE
  5
2FB
100
AcDbEntity
  8
0
100
AcDbSpline
 62
7
  6
CONTINUOUS
 70
0
 71
3
 72
11
 73
7
 74
0
 42
0.0000001
 43
0.0000001
 44
0.0000000001
 40
0.0
 40
0.0
 40
0.0
 40
0.0
 40
0.2542146036
 40
0.5051939716
 40
0.753507614
 40
1.0
 40
1.0
 40
1.0
 40
1.0
 10
16.5906653282
 20
12.8435354558
 30
0.0
 10
16.5885825267
 20
12.8367955076
 30
0.0
 10
16.5837591995
 20
12.8236011061
 30
0.0
 10
16.5745541744
 20
12.804784419
 30
0.0
 10
16.5634990929
 20
12.7872423068
 30
0.0
 10
16.5549227842
 20
12.7764770618
 30
0.0
 10
16.5503715451
 20
12.7713708195
 30
0.0
  0
SPLINE
  5
2FC
100
AcDbEntity
  8
0
100
AcDbSpline
 62
7
  6
CONTINUOUS
 70
0
 71
3
 72
27
 73
23
 74
0
 42
0.0000001
 43
0.0000001
 44
0.0000000001
 40
0.0
 40
0.0
 40
0.0
 40
0.0
 40
0.0211789294
 40
0.042674763
 40
0.0646328718
 40
0.0871880357
 40
0.1345220161
 40
0.1595354164
 40
0.1855113309
 40
0.2404397645
 40
0.2993975277
 40
0.3303462251
 40
0.362210188
 40
0.4284403812
 40
0.4975588082
 40
0.5689033155
 40
0.641728275
 40
0.7152400775
 40
0.7886177853
 40
0.8610414006
 40
0.9317642709
 40
1.0
 40
1.0
 40
1.0
 40
1.0
 10
14.0219318135
 20
14.4192762948
 30
0.0
 10
14.0247758718
 20
14.4264643013
 30
0.0
 10
14.0313339719
 20
14.4406347628
 30
0.0
 10
14.043555539
 20
14.4608633432
 30
0.0
 10
14.0581574089
 20
14.4800845607
 30
0.0
 10
14.0810715822
 20
14.5046186057
 30
0.0
 10
14.1083027572
 20
14.5263820043
 30
0.0
 10
14.1388806473
 20
14.545211267
 30
0.0
 10
14.173286131
 20
14.5629209531
 30
0.0
 10
14.2210941894
 20
14.5812806862
 30
0.0
 10
14.2724992886
 20
14.594103794
 30
0.0
 10
14.3163543504
 20
14.6014207643
 30
0.0
 10
14.363162103
 20
14.6068190857
 30
0.0
 10
14.4242323723
 20
14.6094016221
 30
0.0
 10
14.4996842078
 20
14.6060672851
 30
0.0
 10
14.5770099314
 20
14.5963874387
 30
0.0
 10
14.6549381361
 20
14.5805221016
 30
0.0
 10
14.732191728
 20
14.5587337574
 30
0.0
 10
14.8074986624
 20
14.5313809066
 30
0.0
 10
14.8796342483
 20
14.4989083028
 30
0.0
 10
14.947391634
 20
14.4618498224
 30
0.0
 10
14.9898102328
 20
14.4339103367
 30
0.0
 10
15.0099631323
 20
14.4192762948
 30
0.0
  0
SPLINE
  5
2FD
100
AcDbEntity
  8
0
100
AcDbSpline
 62
7
  6
CONTINUOUS
 70
0
 71
3
 72
30
 73
26
 74
0
 42
0.0000001
 43
0.0000001
 44
0.0000000001
 40
0.0
 40
0.0
 40
0.0
 40
0.0
 40
0.02651075
 40
0.0543701728
 40
0.1139919699
 40
0.14570177
 40
0.1785753483
 40
0.2125207771
 40
0.2474134331
 40
0.3194581181
 40
0.393520055
 40
0.4682754788
 40
0.54235157
 40
0.6144180408
 40
0.6493225891
 40
0.6832845818
 40
0.747878866
 40
0.8075133251
 40
0.8353810964
 40
0.8619428535
 40
0.9113229788
 40
0.9344634203
 40
0.9567892375
 40
0.9785435862
 40
1.0
 40
1.0
 40
1.0
 40
1.0
 10
14.3835566201
 20
14.2198292461
 30
0.0
 10
14.3857077291
 20
14.2154457469
 30
0.0
 10
14.3905793655
 20
14.2066757003
 30
0.0
 10
14.4023776134
 20
14.1892839725
 30
0.0
 10
14.4169192838
 20
14.1727054053
 30
0.0
 10
14.4336533483
 20
14.1570944951
 30
0.0
 10
14.4476892237
 20
14.1455708148
 30
0.0
 10
14.462855905
 20
14.1345571294
 30
0.0
 10
14.4846753067
 20
14.1204925422
 30
0.0
 10
14.5141088863
 20
14.1047035813
 30
0.0
 10
14.551718076
 20
14.0890442508
 30
0.0
 10
14.5909961228
 20
14.0768906775
 30
0.0
 10
14.6308832999
 20
14.0685707947
 30
0.0
 10
14.664098332
 20
14.0649723178
 30
0.0
 10
14.6900579015
 20
14.064252587
 30
0.0
 10
14.7146403235
 20
14.0649368704
 30
0.0
 10
14.7436612043
 20
14.0682828681
 30
0.0
 10
14.7709152388
 20
14.0752356832
 30
0.0
 10
14.7904969554
 20
14.0829210528
 30
0.0
 10
14.8076185576
 20
14.0914645396
 30
0.0
 10
14.8227459311
 20
14.1019778115
 30
0.0
 10
14.8350863357
 20
14.114398725
 30
0.0
 10
14.8426293891
 20
14.1242648962
 30
0.0
 10
14.8485987169
 20
14.1347993302
 30
0.0
 10
14.8515089363
 20
14.1422420606
 30
0.0
 10
14.8526765058
 20
14.1460175807
 30
0.0
  0
SPLINE
  5
2FE
100
AcDbEntity
  8
0
100
AcDbSpline
 62
7
  6
CONTINUOUS
 70
0
 71
3
 72
11
 73
7
 74
0
 42
0.0000001
 43
0.0000001
 44
0.0000000001
 40
0.0
 40
0.0
 40
0.0
 40
0.0
 40
0.2555590979
 40
0.5069016333
 40
0.7547807458
 40
1.0
 40
1.0
 40
1.0
 40
1.0
 10
13.8476723138
 20
12.3304215133
 30
0.0
 10
13.8384260644
 20
12.3200911286
 30
0.0
 10
13.8207494672
 20
12.2989942871
 30
0.0
 10
13.796636202
 20
12.2658615303
 30
0.0
 10
13.7752065194
 20
12.2315917756
 30
0.0
 10
13.7626824707
 20
12.2079225712
 30
0.0
 10
13.75689929
 20
12.1959423405
 30
0.0
  0
SPLINE
  5
2FF
100
AcDbEntity
  8
0
100
AcDbSpline
 62
7
  6
CONTINUOUS
 70
0
 71
3
 72
11
 73
7
 74
0
 42
0.0000001
 43
0.0000001
 44
0.0000000001
 40
0.0
 40
0.0
 40
0.0
 40
0.0
 40
0.2555542625
 40
0.50689764
 40
0.7547790278
 40
1.0
 40
1.0
 40
1.0
 40
1.0
 10
16.8323348282
 20
11.4080912236
 30
0.0
 10
16.8341405943
 20
11.3943430126
 30
0.0
 10
16.8368321965
 20
11.366946622
 30
0.0
 10
16.8380493059
 20
11.3259788215
 30
0.0
 10
16.8364085372
 20
11.2855859151
 30
0.0
 10
16.8333932937
 20
11.2589725441
 30
0.0
 10
16.8314078939
 20
11.2458158914
 30
0.0
  0
SPLINE
  5
300
100
AcDbEntity
  8
0
100
AcDbSpline
 62
7
  6
CONTINUOUS
 70
0
 71
3
 72
13
 73
9
 74
0
 42
0.0000001
 43
0.0000001
 44
0.0000000001
 40
0.0
 40
0.0
 40
0.0
 40
0.0
 40
0.1164656914
 40
0.2338396704
 40
0.3530104569
 40
0.474810878
 40
0.7288132227
 40
1.0
 40
1.0
 40
1.0
 40
1.0
 10
14.3749672315
 20
14.2936409115
 30
0.0
 10
14.3740946146
 20
14.2908191671
 30
0.0
 10
14.3726499565
 20
14.285053458
 30
0.0
 10
14.3714168428
 20
14.2761702636
 30
0.0
 10
14.3711162235
 20
14.2670708732
 30
0.0
 10
14.3719733757
 20
14.254528631
 30
0.0
 10
14.3755037192
 20
14.2384049544
 30
0.0
 10
14.3805268553
 20
14.2260032578
 30
0.0
 10
14.3835566201
 20
14.2198292461
 30
0.0
  0
SPLINE
  5
301
100
AcDbEntity
  8
0
100
AcDbSpline
 62
7
  6
CONTINUOUS
 70
0
 71
3
 72
11
 73
7
 74
0
 42
0.0000001
 43
0.0000001
 44
0.0000000001
 40
0.0
 40
0.0
 40
0.0
 40
0.0
 40
0.254463816
 40
0.5053689832
 40
0.7534742349
 40
1.0
 40
1.0
 40
1.0
 40
1.0
 10
16.0704739399
 20
13.10726223
 30
0.0
 10
16.0728039096
 20
13.1148020148
 30
0.0
 10
16.0782879594
 20
13.1295278843
 30
0.0
 10
16.0889742523
 20
13.1503687532
 30
0.0
 10
16.1019663698
 20
13.1695621332
 30
0.0
 10
16.1121001389
 20
13.181139687
 30
0.0
 10
16.1174817469
 20
13.1865702043
 30
0.0
  0
SPLINE
  5
302
100
AcDbEntity
  8
0
100
AcDbSpline
 62
7
  6
CONTINUOUS
 70
0
 71
3
 72
17
 73
13
 74
0
 42
0.0000001
 43
0.0000001
 44
0.0000000001
 40
0.0
 40
0.0
 40
0.0
 40
0.0
 40
0.1324750781
 40
0.1973119593
 40
0.2611974359
 40
0.3864110274
 40
0.509195253
 40
0.6306872528
 40
0.7521403385
 40
0.8133243013
 40
0.8749873246
 40
1.0
 40
1.0
 40
1.0
 40
1.0
 10
16.3021009868
 20
13.2263205865
 30
0.0
 10
16.2927969369
 20
13.2261816676
 30
0.0
 10
16.2789246321
 20
13.2250785003
 30
0.0
 10
16.2608839045
 20
13.221670875
 30
0.0
 10
16.2436403226
 20
13.2170534552
 30
0.0
 10
16.223175616
 20
13.2089689149
 30
0.0
 10
16.2007741923
 20
13.1956410878
 30
0.0
 10
16.181059159
 20
13.17899029
 30
0.0
 10
16.1671966274
 20
13.1625956023
 30
0.0
 10
16.1578230825
 20
13.1482016198
 30
0.0
 10
16.1495472865
 20
13.132867761
 30
0.0
 10
16.144712461
 20
13.1206067128
 30
0.0
 10
16.1420980428
 20
13.1122240239
 30
0.0
  0
SPLINE
  5
303
100
AcDbEntity
  8
0
100
AcDbSpline
 62
7
  6
CONTINUOUS
 70
0
 71
3
 72
17
 73
13
 74
0
 42
0.0000001
 43
0.0000001
 44
0.0000000001
 40
0.0
 40
0.0
 40
0.0
 40
0.0
 40
0.11295483
 40
0.1707748072
 40
0.2295015048
 40
0.3497133602
 40
0.4737113702
 40
0.6012515383
 40
0.7319004088
 40
0.7982519161
 40
0.8651579006
 40
1.0
 40
1.0
 40
1.0
 40
1.0
 10
16.1420980428
 20
13.1122240239
 30
0.0
 10
16.1394589428
 20
13.1036043282
 30
0.0
 10
16.1364428193
 20
13.0902486629
 30
0.0
 10
16.1343261002
 20
13.0720450513
 30
0.0
 10
16.1334767324
 20
13.0531542641
 30
0.0
 10
16.1348899205
 20
13.0289420762
 30
0.0
 10
16.1403761851
 20
12.9997111943
 30
0.0
 10
16.1495473144
 20
12.9705499676
 30
0.0
 10
16.160093406
 20
12.9468303021
 30
0.0
 10
16.1701980991
 20
12.9283405004
 30
0.0
 10
16.1814642407
 20
12.9101413512
 30
0.0
 10
16.1910049267
 20
12.8971257953
 30
0.0
 10
16.1977911464
 20
12.8887738193
 30
0.0
  0
SPLINE
  5
304
100
AcDbEntity
  8
0
100
AcDbSpline
 62
7
  6
CONTINUOUS
 70
0
 71
3
 72
17
 73
13
 74
0
 42
0.0000001
 43
0.0000001
 44
0.0000000001
 40
0.0
 40
0.0
 40
0.0
 40
0.0
 40
0.1301468554
 40
0.1953580649
 40
0.2604516462
 40
0.3898327396
 40
0.5175850413
 40
0.6429903236
 40
0.7654381301
 40
0.8254480461
 40
0.8845815689
 40
1.0
 40
1.0
 40
1.0
 40
1.0
 10
16.1977911464
 20
12.8887738193
 30
0.0
 10
16.2046529365
 20
12.8803894711
 30
0.0
 10
16.2155944864
 20
12.8683089347
 30
0.0
 10
16.2313321011
 20
12.8533848884
 30
0.0
 10
16.247777757
 20
12.8393402099
 30
0.0
 10
16.2695113461
 20
12.8235281016
 30
0.0
 10
16.2971391431
 20
12.8075721628
 30
0.0
 10
16.325800592
 20
12.794919846
 30
0.0
 10
16.3503269649
 20
12.7872684456
 30
0.0
 10
16.3700020018
 20
12.7830427017
 30
0.0
 10
16.3893195961
 20
12.7801373223
 30
0.0
 10
16.4038795233
 20
12.7793210248
 30
0.0
 10
16.4134871941
 20
12.7794201773
 30
0.0
  0
SPLINE
  5
305
100
AcDbEntity
  8
0
100
AcDbSpline
 62
7
  6
CONTINUOUS
 70
0
 71
3
 72
17
 73
13
 74
0
 42
0.0000001
 43
0.0000001
 44
0.0000000001
 40
0.0
 40
0.0
 40
0.0
 40
0.0
 40
0.1324750781
 40
0.1973119593
 40
0.2611974359
 40
0.3864110274
 40
0.509195253
 40
0.6306872528
 40
0.7521403385
 40
0.8133243013
 40
0.8749873246
 40
1.0
 40
1.0
 40
1.0
 40
1.0
 10
16.4134871941
 20
12.7794201773
 30
0.0
 10
16.422791244
 20
12.7795590962
 30
0.0
 10
16.4366635488
 20
12.7806622635
 30
0.0
 10
16.4547042764
 20
12.7840698888
 30
0.0
 10
16.4719478583
 20
12.7886873086
 30
0.0
 10
16.4924125649
 20
12.7967718489
 30
0.0
 10
16.5148139886
 20
12.810099676
 30
0.0
 10
16.5345290219
 20
12.8267504737
 30
0.0
 10
16.5483915535
 20
12.8431451615
 30
0.0
 10
16.5577650984
 20
12.857539144
 30
0.0
 10
16.5660408944
 20
12.8728730028
 30
0.0
 10
16.5708757199
 20
12.8851340509
 30
0.0
 10
16.5734901381
 20
12.8935167398
 30
0.0
  0
SPLINE
  5
306
100
AcDbEntity
  8
0
100
AcDbSpline
 62
7
  6
CONTINUOUS
 70
0
 71
3
 72
12
 73
8
 74
0
 42
0.0000001
 43
0.0000001
 44
0.0000000001
 40
0.0
 40
0.0
 40
0.0
 40
0.0
 40
0.2364430781
 40
0.3580171694
 40
0.4818662753
 40
0.7363971376
 40
1.0
 40
1.0
 40
1.0
 40
1.0
 10
16.5734901381
 20
12.8935167398
 30
0.0
 10
16.5766106206
 20
12.9037087031
 30
0.0
 10
16.5799735032
 20
12.9195995437
 30
0.0
 10
16.5817889341
 20
12.9412627953
 30
0.0
 10
16.5818195931
 20
12.9638250929
 30
0.0
 10
16.5784222936
 20
12.9926822691
 30
0.0
 10
16.5723509567
 20
13.0153266477
 30
0.0
 10
16.5685164804
 20
13.0265743395
 30
0.0
  0
SPLINE
  5
307
100
AcDbEntity
  8
0
100
AcDbSpline
 62
7
  6
CONTINUOUS
 70
0
 71
3
 72
9
 73
5
 74
0
 42
0.0000001
 43
0.0000001
 44
0.0000000001
 40
0.0
 40
0.0
 40
0.0
 40
0.0
 40
0.5099533631
 40
1.0
 40
1.0
 40
1.0
 40
1.0
 10
16.378767708
 20
13.2140743497
 30
0.0
 10
16.3661842864
 20
13.2181975775
 30
0.0
 10
16.3408549357
 20
13.2244431462
 30
0.0
 10
16.3148251336
 20
13.2264519015
 30
0.0
 10
16.3021009868
 20
13.2263205865
 30
0.0
  0
SPLINE
  5
308
100
AcDbEntity
  8
0
100
AcDbSpline
 62
7
  6
CONTINUOUS
 70
0
 71
3
 72
30
 73
26
 74
0
 42
0.0000001
 43
0.0000001
 44
0.0000000001
 40
0.0
 40
0.0
 40
0.0
 40
0.0
 40
0.0262984091
 40
0.0525773475
 40
0.0790181516
 40
0.1057908568
 40
0.1608607801
 40
0.2188137514
 40
0.2800768946
 40
0.3119650456
 40
0.3446069114
 40
0.4117933026
 40
0.480834694
 40
0.5507241132
 40
0.6204230952
 40
0.6889949162
 40
0.7557142383
 40
0.7882501432
 40
0.8201764765
 40
0.8514829253
 40
0.8821885897
 40
0.9123368673
 40
0.9419894108
 40
0.9711954414
 40
1.0
 40
1.0
 40
1.0
 40
1.0
 10
16.5186547141
 20
12.7389974587
 30
0.0
 10
16.5141010002
 20
12.7344022675
 30
0.0
 10
16.50446487
 20
12.7257245273
 30
0.0
 10
16.4885843757
 20
12.7144448932
 30
0.0
 10
16.4714210066
 20
12.7049845922
 30
0.0
 10
16.4467652994
 20
12.6947786797
 30
0.0
 10
16.4130097879
 20
12.6869150396
 30
0.0
 10
16.3699359145
 20
12.6854376687
 30
0.0
 10
16.3329394373
 20
12.6905140906
 30
0.0
 10
16.3029252762
 20
12.6981309543
 30
0.0
 10
16.2721454657
 20
12.7083338859
 30
0.0
 10
16.2341548895
 20
12.7254611472
 30
0.0
 10
16.1908223418
 20
12.7520303132
 30
0.0
 10
16.1505698657
 20
12.7840761789
 30
0.0
 10
16.1146343232
 20
12.8207450569
 30
0.0
 10
16.084145812
 20
12.8610890777
 30
0.0
 10
16.0639329521
 20
12.8972707184
 30
0.0
 10
16.0515090049
 20
12.9270840828
 30
0.0
 10
16.0441869318
 20
12.9495043051
 30
0.0
 10
16.0388715659
 20
12.9720223467
 30
0.0
 10
16.0356180019
 20
12.9944896613
 30
0.0
 10
16.0344602282
 20
13.0167568175
 30
0.0
 10
16.0354431223
 20
13.0386660243
 30
0.0
 10
16.0385484495
 20
13.0600409573
 30
0.0
 10
16.0420382377
 20
13.0739095666
 30
0.0
 10
16.0441303085
 20
13.0806795102
 30
0.0
  0
SPLINE
  5
309
100
AcDbEntity
  8
0
100
AcDbSpline
 62
7
  6
CONTINUOUS
 70
0
 71
3
 72
14
 73
10
 74
0
 42
0.0000001
 43
0.0000001
 44
0.0000000001
 40
0.0
 40
0.0
 40
0.0
 40
0.0
 40
0.1181508006
 40
0.2376203682
 40
0.3588173152
 40
0.4820914178
 40
0.6077120181
 40
0.7358842201
 40
1.0
 40
1.0
 40
1.0
 40
1.0
 10
16.517968783
 20
12.7426188276
 30
0.0
 10
16.5124803791
 20
12.73878893
 30
0.0
 10
16.5010232789
 20
12.7316691289
 30
0.0
 10
16.4827101464
 20
12.7227741363
 30
0.0
 10
16.4633133455
 20
12.7156885113
 30
0.0
 10
16.4429801059
 20
12.7104570028
 30
0.0
 10
16.4218524037
 20
12.7071075376
 30
0.0
 10
16.39254999
 20
12.7051789238
 30
0.0
 10
16.3702389962
 20
12.7066635981
 30
0.0
 10
16.3554366081
 20
12.7088341977
 30
0.0
  0
SPLINE
  5
30A
100
AcDbEntity
  8
0
100
AcDbSpline
 62
7
  6
CONTINUOUS
 70
0
 71
3
 72
18
 73
14
 74
0
 42
0.0000001
 43
0.0000001
 44
0.0000000001
 40
0.0
 40
0.0
 40
0.0
 40
0.0
 40
0.1201690266
 40
0.1818266533
 40
0.2443445629
 40
0.3075750615
 40
0.3713594288
 40
0.4998034919
 40
0.5641702688
 40
0.6283584309
 40
0.7553902893
 40
0.8796358261
 40
1.0
 40
1.0
 40
1.0
 40
1.0
 10
16.3416135263
 20
12.7112082539
 30
0.0
 10
16.3256281606
 20
12.7143529947
 30
0.0
 10
16.3017876386
 20
12.7211277468
 30
0.0
 10
16.2711300988
 20
12.733725813
 30
0.0
 10
16.248380186
 20
12.7450931878
 30
0.0
 10
16.2262564576
 20
12.7582063892
 30
0.0
 10
16.1977660582
 20
12.7779365262
 30
0.0
 10
16.1712721642
 20
12.8006829373
 30
0.0
 10
16.1472916816
 20
12.8259896996
 30
0.0
 10
16.1252169331
 20
12.8527290951
 30
0.0
 10
16.1014597536
 20
12.8884783041
 30
0.0
 10
16.0797523104
 20
12.9341305078
 30
0.0
 10
16.070128802
 20
12.9660358563
 30
0.0
 10
16.0667207689
 20
12.9819942202
 30
0.0
  0
SPLINE
  5
30B
100
AcDbEntity
  8
0
100
AcDbSpline
 62
7
  6
CONTINUOUS
 70
0
 71
3
 72
11
 73
7
 74
0
 42
0.0000001
 43
0.0000001
 44
0.0000000001
 40
0.0
 40
0.0
 40
0.0
 40
0.0
 40
0.2607217562
 40
0.514205629
 40
0.7605968763
 40
1.0
 40
1.0
 40
1.0
 40
1.0
 10
16.0661130195
 20
12.984912458
 30
0.0
 10
16.0639759582
 20
12.9954419166
 30
0.0
 10
16.060900507
 20
13.016461958
 30
0.0
 10
16.0600286562
 20
13.0478688914
 30
0.0
 10
16.0630033646
 20
13.0782683451
 30
0.0
 10
16.067561143
 20
13.0978364157
 30
0.0
 10
16.0704739399
 20
13.10726223
 30
0.0
  0
SPLINE
  5
30C
100
AcDbEntity
  8
0
100
AcDbSpline
 62
7
  6
CONTINUOUS
 70
0
 71
3
 72
15
 73
11
 74
0
 42
0.0000001
 43
0.0000001
 44
0.0000000001
 40
0.0
 40
0.0
 40
0.0
 40
0.0
 40
0.1215863292
 40
0.2449302128
 40
0.3070657053
 40
0.3694153457
 40
0.4946710547
 40
0.6205269647
 40
0.7467966718
 40
1.0
 40
1.0
 40
1.0
 40
1.0
 10
16.4091073768
 20
13.4032867337
 30
0.0
 10
16.4279240825
 20
13.3896229699
 30
0.0
 10
16.465071362
 20
13.3610466541
 30
0.0
 10
16.5101002755
 20
13.3233273383
 30
0.0
 10
16.5457582412
 20
13.2920975025
 30
0.0
 10
16.5813022193
 20
13.2601878574
 30
0.0
 10
16.6252475616
 20
13.2194010238
 30
0.0
 10
16.6773285559
 20
13.1694266935
 30
0.0
 10
16.7462980395
 20
13.101718497
 30
0.0
 10
16.797515005
 20
13.0502940659
 30
0.0
 10
16.8316951745
 20
13.015987895
 30
0.0
  0
SPLINE
  5
30D
100
AcDbEntity
  8
0
100
AcDbSpline
 62
7
  6
CONTINUOUS
 70
0
 71
3
 72
12
 73
8
 74
0
 42
0.0000001
 43
0.0000001
 44
0.0000000001
 40
0.0
 40
0.0
 40
0.0
 40
0.0
 40
0.2646944466
 40
0.5243675558
 40
0.7728362697
 40
0.8900971059
 40
1.0
 40
1.0
 40
1.0
 40
1.0
 10
13.4723886905
 20
13.015987895
 30
0.0
 10
13.4852616154
 20
13.0502153258
 30
0.0
 10
13.5107624271
 20
13.1180212086
 30
0.0
 10
13.5484787459
 20
13.2179067738
 30
0.0
 10
13.5792410953
 20
13.2986460895
 30
0.0
 10
13.6029106716
 20
13.359944806
 30
0.0
 10
13.6143519156
 20
13.3891683641
 30
0.0
 10
13.6199380911
 20
13.4032867337
 30
0.0
  0
ENDSEC
  0
SECTION
  2
OBJECTS
  0
DICTIONARY
  5
C
100
AcDbDictionary
280
0
281
1
  3
ACAD_GROUP
350
D
  3
ACAD_MLINESTYLE
350
17
  3
ACAD_LAYOUT
350
1A
  3
ACAD_PLOTSETTINGS
350
19
  3
ACAD_PLOTSTYLENAME
350
E
  0
DICTIONARY
  5
D
102
{ACAD_REACTORS
330
C
102
}
100
AcDbDictionary
280
0
281
1
  0
ACDBDICTIONARYWDFLT
  5
E
102
{ACAD_REACTORS
330
C
102
}
100
AcDbDictionary
281
1
  3
Normal
350
F
100
AcDbDictionaryWithDefault
340
F
  0
DICTIONARY
  5
17
102
{ACAD_REACTORS
330
C
102
}
100
AcDbDictionary
280
0
281
1
  3
Standard
350
18
  0
DICTIONARY
  5
19
102
{ACAD_REACTORS
330
C
102
}
100
AcDbDictionary
281
1
  0
DICTIONARY
  5
1A
102
{ACAD_REACTORS
330
C
102
}
100
AcDbDictionary
281
1
  3
Model
350
30E
  3
Layout1
350
30F
  0
ACDBPLACEHOLDER
  5
F
102
{ACAD_REACTORS
330
E
102
}
  0
MLINESTYLE
  5
18
102
{ACAD_REACTORS
330
17
102
}
100
AcDbMlineStyle
  2
STANDARD
 70
0
  3

 62
256
 51
90.0
 52
90.0
 71
2
 49
0.5
 62
256
  6
BYLAYER
 49
-0.5
 62
256
  6
BYLAYER
  0
LAYOUT
  5
30E
102
{ACAD_REACTORS
330
1A
102
}
100
AcDbPlotSettings
  1

  2
none_device
  4
ANSI_C_(22.00_x_17.00_Inches)
  6

 40
0.0
 41
0.0
 42
0.0
 43
0.0
 44
558.8
 45
431.8
 46
0.0
 47
0.0
 48
0.0
 49
0.0
140
0.0
141
0.0
142
1.0
143
1.0
 70
1024
 72
0
 73
0
 74
0
  7

 75
0
147
1.0
148
0.0
149
0.0
100
AcDbLayout
  1
Model
 70
0
 71
0
 10
0.0
 20
0.0
 11
22.0
 21
17.0
 12
0.0
 22
0.0
 32
0.0
 14
0.0
 24
0.0
 34
0.0
 15
0.0
 25
0.0
 35
0.0
146
0.0
 13
0.0
 23
0.0
 33
0.0
 16
1.0
 26
0.0
 36
0.0
 17
0.0
 27
1.0
 37
0.0
 76
0
330
229
345
0
346
0
  0
LAYOUT
  5
30F
102
{ACAD_REACTORS
330
1A
102
}
100
AcDbPlotSettings
  1

  2
none_device
  4
ANSI_C_(22.00_x_17.00_Inches)
  6

 40
0.0
 41
0.0
 42
0.0
 43
0.0
 44
558.8
 45
431.8
 46
0.0
 47
0.0
 48
0.0
 49
0.0
140
0.0
141
0.0
142
1.0
143
1.0
 70
0
 72
0
 73
0
 74
0
  7

 75
0
147
1.0
148
0.0
149
0.0
100
AcDbLayout
  1
Layout1
 70
0
 71
1
 10
0.0
 20
0.0
 11
22.0
 21
17.0
 12
0.0
 22
0.0
 32
0.0
 14
0.0
 24
0.0
 34
0.0
 15
0.0
 25
0.0
 35
0.0
146
0.0
 13
0.0
 23
0.0
 33
0.0
 16
1.0
 26
0.0
 36
0.0
 17
0.0
 27
1.0
 37
0.0
 76
0
330
22A
345
0
346
0
  0
ENDSEC
  0
EOF