999
DXF file: _cgs_temp_output.dxf
999
Pro/ENGINEER 2016360 by Parametric Technology Corporation
  0
SECTION
  2
HEADER
  9
$ACADVER
  1
AC1021
  9
$DWGCODEPAGE
  3
ANSI_1252
  9
$EXTMAX
 10
22.0
 20
17.0
 30
0.0
  9
$EXTMIN
 10
0.0
 20
0.0
 30
0.0
  9
$LIMMIN
 10
0.0
 20
0.0
  9
$LIMMAX
 10
22.0
 20
17.0
  9
$VIEWCTR
 10
11.0
 20
8.5
  9
$VIEWSIZE
 40
17.0
  9
$CLAYER
  8
0
  9
$LTSCALE
 40
1.21
  9
$CELTYPE
  6
BYLAYER
  9
$DIMSCALE
 40
1.0
  9
$DIMASZ
 40
0.1875
  9
$DIMEXO
 40
0.0625
  9
$DIMDLI
 40
0.836
  9
$DIMEXE
 40
0.125
  9
$DIMCEN
 40
0.198
  9
$DIMLFAC
 40
1.0
  9
$DIMBLK
  1
_CLOSED
  9
$DIMALT
 70
0
  9
$DIMALTF
 40
25.4
  9
$DIMTXT
 40
0.15625
  9
$DIMTOL
 70
0
  9
$DIMLIM
 70
0
  9
$DIMTFAC
 40
1.0
  9
$DIMGAP
 40
0.09
  9
$DIMDSEP
 70
46
  9
$AUNITS
 70
0
  9
$PDMODE
 70
3
  9
$PDSIZE
 40
0.3125
  9
$HANDSEED
  5
327
  9
$TILEMODE
 70
1
  9
$MEASUREMENT
 70
0
  9
$INSUNITS
 70
1
  0
ENDSEC
  0
SECTION
  2
CLASSES
  0
CLASS
  1
ACDBDICTIONARYWDFLT
  2
AcDbDictionaryWithDefault
  3
AutoCAD 2000
 90
0
 91
1
280
0
281
0
  0
CLASS
  1
ACDBPLACEHOLDER
  2
AcDbPlaceHolder
  3
AutoCAD 2000
 90
0
 91
1
280
0
281
0
  0
CLASS
  1
LAYOUT
  2
AcDbLayout
  3
AutoCAD 2000
 90
0
 91
0
280
0
281
0
  0
ENDSEC
  0
SECTION
  2
TABLES
  0
TABLE
  2
VPORT
  5
8
100
AcDbSymbolTable
 70
2
  0
VPORT
  5
1F4
100
AcDbSymbolTableRecord
100
AcDbViewportTableRecord
  2
*ACTIVE
 70
0
 10
0.0
 20
0.0
 11
1.0
 21
1.0
 12
11.0
 22
8.5
 13
0.0
 23
0.0
 14
1.0
 24
1.0
 15
0.0
 25
0.0
 16
0.0
 26
0.0
 36
1.0
 17
0.0
 27
0.0
 37
0.0
 40
17.0
 41
1.2941176471
 42
50.0
 43
0.0
 44
0.0
 50
0.0
 51
0.0
 71
0
 72
100
 73
1
 74
1
 75
0
 76
0
 77
0
 78
0
  0
ENDTAB
  0
TABLE
  2
LTYPE
  5
5
100
AcDbSymbolTable
 70
6
  0
LTYPE
  5
14
100
AcDbSymbolTableRecord
100
AcDbLinetypeTableRecord
  2
BYBLOCK
 70
0
  3

 72
65
 73
0
 40
0.0
  0
LTYPE
  5
15
100
AcDbSymbolTableRecord
100
AcDbLinetypeTableRecord
  2
BYLAYER
 70
0
  3

 72
65
 73
0
 40
0.0
  0
LTYPE
  5
16
100
AcDbSymbolTableRecord
100
AcDbLinetypeTableRecord
  2
CONTINUOUS
 70
64
  3
Solid line
 72
65
 73
0
 40
0.0
  0
LTYPE
  5
1F5
100
AcDbSymbolTableRecord
100
AcDbLinetypeTableRecord
  2
CENTER
 70
64
  3
____ _ ____ _ ____ _ ____ _ ____ _ ____ _ ____
 72
65
 73
4
 40
0.6
 49
0.375
 74
0
 49
-0.075
 74
0
 49
0.075
 74
0
 49
-0.075
 74
0
  0
LTYPE
  5
1F6
100
AcDbSymbolTableRecord
100
AcDbLinetypeTableRecord
  2
HIDDEN
 70
64
  3
- - - - - - - - - - - - - - - - - - - -
 72
65
 73
2
 40
0.2
 49
0.1
 74
0
 49
-0.1
 74
0
  0
LTYPE
  5
1F7
100
AcDbSymbolTableRecord
100
AcDbLinetypeTableRecord
  2
PHANTOM
 70
64
  3
_____ _ _ _____ _ _ _____ _ _ _____
 72
65
 73
6
 40
0.8
 49
0.45
 74
0
 49
-0.05
 74
0
 49
0.1
 74
0
 49
-0.05
 74
0
 49
0.1
 74
0
 49
-0.05
 74
0
  0
LTYPE
  5
1F8
100
AcDbSymbolTableRecord
100
AcDbLinetypeTableRecord
  2
DOT
 70
64
  3
. . . . . . . . . . . . . . . . . . . .
 72
65
 73
2
 40
0.2
 49
0.1
 74
0
 49
-0.1
 74
0
  0
LTYPE
  5
1F9
100
AcDbSymbolTableRecord
100
AcDbLinetypeTableRecord
  2
DASHED
 70
64
  3
- - - - - - - - - - - - - - - - - - - -
 72
65
 73
2
 40
0.2
 49
0.1
 74
0
 49
-0.1
 74
0
  0
ENDTAB
  0
TABLE
  2
LAYER
  5
2
100
AcDbSymbolTable
 70
36
  0
LAYER
  5
10
100
AcDbSymbolTableRecord
100
AcDbLayerTableRecord
  2
0
 70
0
 62
7
  6
CONTINUOUS
370
-3
390
F
  0
LAYER
  5
1FA
100
AcDbSymbolTableRecord
100
AcDbLayerTableRecord
  2
DEFAULT_1
 70
0
 62
7
  6
CENTER
370
-3
390
F
  0
LAYER
  5
1FB
100
AcDbSymbolTableRecord
100
AcDbLayerTableRecord
  2
DEFAULT_2
 70
0
 62
8
  6
HIDDEN
370
-3
390
F
  0
LAYER
  5
1FC
100
AcDbSymbolTableRecord
100
AcDbLayerTableRecord
  2
DEFAULT_3
 70
0
 62
7
  6
PHANTOM
370
-3
390
F
  0
LAYER
  5
1FD
100
AcDbSymbolTableRecord
100
AcDbLayerTableRecord
  2
01_ALL_DTM_PLN
 70
0
 62
7
  6
CONTINUOUS
370
-3
390
F
  0
LAYER
  5
1FE
100
AcDbSymbolTableRecord
100
AcDbLayerTableRecord
  2
01__ASM_ALL_DTM_PLN
 70
0
 62
7
  6
CONTINUOUS
370
-3
390
F
  0
LAYER
  5
1FF
100
AcDbSymbolTableRecord
100
AcDbLayerTableRecord
  2
01__ASM_DEF_DTM_PLN
 70
0
 62
7
  6
CONTINUOUS
370
-3
390
F
  0
LAYER
  5
200
100
AcDbSymbolTableRecord
100
AcDbLayerTableRecord
  2
01___PRT_ALL_DTM_PLN
 70
0
 62
7
  6
CONTINUOUS
370
-3
390
F
  0
LAYER
  5
201
100
AcDbSymbolTableRecord
100
AcDbLayerTableRecord
  2
01___PRT_DEF_DTM_PLN
 70
0
 62
7
  6
CONTINUOUS
370
-3
390
F
  0
LAYER
  5
202
100
AcDbSymbolTableRecord
100
AcDbLayerTableRecord
  2
02_ALL_AXES
 70
0
 62
7
  6
CONTINUOUS
370
-3
390
F
  0
LAYER
  5
203
100
AcDbSymbolTableRecord
100
AcDbLayerTableRecord
  2
02__ASM_ALL_AXES
 70
0
 62
7
  6
CONTINUOUS
370
-3
390
F
  0
LAYER
  5
204
100
AcDbSymbolTableRecord
100
AcDbLayerTableRecord
  2
02___PRT_ALL_AXES
 70
0
 62
7
  6
CONTINUOUS
370
-3
390
F
  0
LAYER
  5
205
100
AcDbSymbolTableRecord
100
AcDbLayerTableRecord
  2
03_ALL_CURVES
 70
0
 62
7
  6
CONTINUOUS
370
-3
390
F
  0
LAYER
  5
206
100
AcDbSymbolTableRecord
100
AcDbLayerTableRecord
  2
03__ASM_ALL_CURVES
 70
0
 62
7
  6
CONTINUOUS
370
-3
390
F
  0
LAYER
  5
207
100
AcDbSymbolTableRecord
100
AcDbLayerTableRecord
  2
03___PRT_ALL_CURVES
 70
0
 62
7
  6
CONTINUOUS
370
-3
390
F
  0
LAYER
  5
208
100
AcDbSymbolTableRecord
100
AcDbLayerTableRecord
  2
04_ALL_DTM_PNT
 70
0
 62
7
  6
CONTINUOUS
370
-3
390
F
  0
LAYER
  5
209
100
AcDbSymbolTableRecord
100
AcDbLayerTableRecord
  2
04__ASM_ALL_DTM_PNT
 70
0
 62
7
  6
CONTINUOUS
370
-3
390
F
  0
LAYER
  5
20A
100
AcDbSymbolTableRecord
100
AcDbLayerTableRecord
  2
04___PRT_ALL_DTM_PNT
 70
0
 62
7
  6
CONTINUOUS
370
-3
390
F
  0
LAYER
  5
20B
100
AcDbSymbolTableRecord
100
AcDbLayerTableRecord
  2
05_ALL_DTM_CSYS
 70
0
 62
7
  6
CONTINUOUS
370
-3
390
F
  0
LAYER
  5
20C
100
AcDbSymbolTableRecord
100
AcDbLayerTableRecord
  2
05__ASM_ALL_DTM_CSYS
 70
0
 62
7
  6
CONTINUOUS
370
-3
390
F
  0
LAYER
  5
20D
100
AcDbSymbolTableRecord
100
AcDbLayerTableRecord
  2
05__ASM_DEF_DTM_CSYS
 70
0
 62
7
  6
CONTINUOUS
370
-3
390
F
  0
LAYER
  5
20E
100
AcDbSymbolTableRecord
100
AcDbLayerTableRecord
  2
05___PRT_ALL_DTM_CSYS
 70
0
 62
7
  6
CONTINUOUS
370
-3
390
F
  0
LAYER
  5
20F
100
AcDbSymbolTableRecord
100
AcDbLayerTableRecord
  2
05___PRT_DEF_DTM_CSYS
 70
0
 62
7
  6
CONTINUOUS
370
-3
390
F
  0
LAYER
  5
210
100
AcDbSymbolTableRecord
100
AcDbLayerTableRecord
  2
06_ALL_SURFS
 70
0
 62
7
  6
CONTINUOUS
370
-3
390
F
  0
LAYER
  5
211
100
AcDbSymbolTableRecord
100
AcDbLayerTableRecord
  2
06__ASM_ALL_SURFS
 70
0
 62
7
  6
CONTINUOUS
370
-3
390
F
  0
LAYER
  5
212
100
AcDbSymbolTableRecord
100
AcDbLayerTableRecord
  2
06___PRT_ALL_SURFS
 70
0
 62
7
  6
CONTINUOUS
370
-3
390
F
  0
LAYER
  5
213
100
AcDbSymbolTableRecord
100
AcDbLayerTableRecord
  2
07__ASM_ALL_SKELETONS
 70
0
 62
7
  6
CONTINUOUS
370
-3
390
F
  0
LAYER
  5
214
100
AcDbSymbolTableRecord
100
AcDbLayerTableRecord
  2
ASM0001
 70
0
 62
7
  6
CONTINUOUS
370
-3
390
F
  0
LAYER
  5
215
100
AcDbSymbolTableRecord
100
AcDbLayerTableRecord
  2
COLOR2
 70
0
 62
7
  6
CONTINUOUS
370
-3
390
F
  0
LAYER
  5
216
100
AcDbSymbolTableRecord
100
AcDbLayerTableRecord
  2
NONE
 70
0
 62
7
  6
CONTINUOUS
370
-3
390
F
  0
LAYER
  5
217
100
AcDbSymbolTableRecord
100
AcDbLayerTableRecord
  2
NONE_1
 70
0
 62
7
  6
CONTINUOUS
370
-3
390
F
  0
LAYER
  5
218
100
AcDbSymbolTableRecord
100
AcDbLayerTableRecord
  2
NONE_2
 70
0
 62
7
  6
CONTINUOUS
370
-3
390
F
  0
LAYER
  5
219
100
AcDbSymbolTableRecord
100
AcDbLayerTableRecord
  2
NONE_3
 70
0
 62
7
  6
CONTINUOUS
370
-3
390
F
  0
LAYER
  5
21A
100
AcDbSymbolTableRecord
100
AcDbLayerTableRecord
  2
NONE_4
 70
0
 62
7
  6
CONTINUOUS
370
-3
390
F
  0
LAYER
  5
21B
100
AcDbSymbolTableRecord
100
AcDbLayerTableRecord
  2
_1538
 70
0
 62
7
  6
CONTINUOUS
370
-3
390
F
  0
LAYER
  5
21C
100
AcDbSymbolTableRecord
100
AcDbLayerTableRecord
  2
_3112
 70
0
 62
7
  6
CONTINUOUS
370
-3
390
F
  0
LAYER
  5
21D
100
AcDbSymbolTableRecord
100
AcDbLayerTableRecord
  2
_3112_1
 70
0
 62
7
  6
CONTINUOUS
370
-3
390
F
  0
LAYER
  5
21E
100
AcDbSymbolTableRecord
100
AcDbLayerTableRecord
  2
_3311
 70
0
 62
7
  6
CONTINUOUS
370
-3
390
F
  0
LAYER
  5
21F
100
AcDbSymbolTableRecord
100
AcDbLayerTableRecord
  2
_3311_1
 70
0
 62
7
  6
CONTINUOUS
370
-3
390
F
  0
LAYER
  5
220
100
AcDbSymbolTableRecord
100
AcDbLayerTableRecord
  2
_4284
 70
0
 62
7
  6
CONTINUOUS
370
-3
390
F
  0
LAYER
  5
221
100
AcDbSymbolTableRecord
100
AcDbLayerTableRecord
  2
_4284_1
 70
0
 62
7
  6
CONTINUOUS
370
-3
390
F
  0
LAYER
  5
222
100
AcDbSymbolTableRecord
100
AcDbLayerTableRecord
  2
_5112
 70
0
 62
7
  6
CONTINUOUS
370
-3
390
F
  0
LAYER
  5
223
100
AcDbSymbolTableRecord
100
AcDbLayerTableRecord
  2
_5112_1
 70
0
 62
7
  6
CONTINUOUS
370
-3
390
F
  0
LAYER
  5
224
100
AcDbSymbolTableRecord
100
AcDbLayerTableRecord
  2
_702
 70
0
 62
7
  6
CONTINUOUS
370
-3
390
F
  0
LAYER
  5
225
100
AcDbSymbolTableRecord
100
AcDbLayerTableRecord
  2
_702_1
 70
0
 62
7
  6
CONTINUOUS
370
-3
390
F
  0
LAYER
  5
226
100
AcDbSymbolTableRecord
100
AcDbLayerTableRecord
  2
___SHELL
 70
0
 62
7
  6
CONTINUOUS
370
-3
390
F
  0
ENDTAB
  0
TABLE
  2
STYLE
  5
3
100
AcDbSymbolTable
 70
1
  0
STYLE
  5
11
100
AcDbSymbolTableRecord
100
AcDbTextStyleTableRecord
  2
STANDARD
 70
0
 40
0.0
 41
0.8
 50
0.0
 71
0
 42
0.2
  3
txt
  4

  0
STYLE
  5
227
100
AcDbSymbolTableRecord
100
AcDbTextStyleTableRecord
  2
TEXTSTYLE_1
 70
0
 40
0.0
 41
0.8
 50
0.0
 71
0
 42
0.2
  3
gdt
  4

  0
ENDTAB
  0
TABLE
  2
VIEW
  5
6
100
AcDbSymbolTable
 70
0
  0
ENDTAB
  0
TABLE
  2
UCS
  5
7
100
AcDbSymbolTable
 70
0
  0
ENDTAB
  0
TABLE
  2
APPID
  5
9
100
AcDbSymbolTable
 70
1
  0
APPID
  5
228
100
AcDbSymbolTableRecord
100
AcDbRegAppTableRecord
  2
ACAD
 70
0
  0
ENDTAB
  0
TABLE
  2
BLOCK_RECORD
  5
1
100
AcDbSymbolTable
 70
0
  0
BLOCK_RECORD
  5
229
100
AcDbSymbolTableRecord
100
AcDbBlockTableRecord
  2
*Model_Space
  0
BLOCK_RECORD
  5
22A
100
AcDbSymbolTableRecord
100
AcDbBlockTableRecord
  2
*Paper_Space
  0
ENDTAB
  0
TABLE
  2
DIMSTYLE
  5
A
100
AcDbSymbolTable
 70
1
100
AcDbDimStyleTable
 71
0
  0
DIMSTYLE
105
22B
100
AcDbSymbolTableRecord
100
AcDbDimStyleTableRecord
  2
STANDARD
 70
0
  3

  4

 40
1.0
 41
0.1875
 42
0.0625
 43
0.38
 44
0.125
 45
0.0
 46
0.0
 47
0.0001
 48
0.0001
140
0.15625
141
0.09
142
0.0
143
25.4
144
1.0
145
0.0
146
1.0
147
0.09
 71
0.0
 72
0.0
 73
1
 74
1
 75
0
 76
0
 77
0
 78
4
 79
1
170
0
171
3
172
0
173
0
174
0
175
0
176
0
177
0
178
0
270
2
179
4
271
4
272
4
273
2
274
2
275
0
280
0
281
0
282
0
283
1
284
4
285
0
286
0
287
3
288
0
340
11
278
46
  0
ENDTAB
  0
ENDSEC
  0
SECTION
  2
BLOCKS
  0
BLOCK
  5
20
100
AcDbEntity
  8
0
100
AcDbBlockBegin
  2
*Model_Space
 70
0
 10
0.0
 20
0.0
 30
0.0
  3
*Model_Space
  1

  0
ENDBLK
  5
21
100
AcDbEntity
  8
0
100
AcDbBlockEnd
  0
BLOCK
  5
1C
100
AcDbEntity
  8
0
100
AcDbBlockBegin
  2
*Paper_Space
 70
0
 10
0.0
 20
0.0
 30
0.0
  3
*Paper_Space
  1

  0
ENDBLK
  5
1D
100
AcDbEntity
  8
0
100
AcDbBlockEnd
  0
ENDSEC
  0
SECTION
  2
ENTITIES
  0
MTEXT
  5
22C
100
AcDbEntity
  8
0
100
AcDbMText
 62
7
  6
CONTINUOUS
  7
STANDARD
 71
1
 72
1
 10
15.9560215477
 20
0.9479130325
 30
0.0
 11
1.0
 21
0.0
 31
0.0
 44
0.9
  1
SCALE: 1:1.000
 40
0.3
 41
3.36
  0
LINE
  5
22D
100
AcDbEntity
  8
0
100
AcDbLine
 62
7
  6
CONTINUOUS
 10
0.0
 20
0.0
 11
0.0
 21
17.0
  0
LINE
  5
22E
100
AcDbEntity
  8
0
100
AcDbLine
 62
7
  6
CONTINUOUS
 10
0.0
 20
0.0
 11
22.0
 21
0.0
  0
LINE
  5
22F
100
AcDbEntity
  8
0
100
AcDbLine
 62
7
  6
CONTINUOUS
 10
0.0
 20
17.0
 11
22.0
 21
17.0
  0
LINE
  5
230
100
AcDbEntity
  8
0
100
AcDbLine
 62
7
  6
CONTINUOUS
 10
22.0
 20
0.0
 11
22.0
 21
17.0
  0
LINE
  5
231
100
AcDbEntity
  8
0
100
AcDbLine
 62
7
  6
CONTINUOUS
 10
4.9170111105
 20
6.0975546357
 11
5.6718315159
 21
7.6836490132
  0
LINE
  5
232
100
AcDbEntity
  8
0
100
AcDbLine
 62
7
  6
CONTINUOUS
 10
5.6718315159
 20
3.3565907803
 11
4.9170111105
 21
4.9426851578
  0
LINE
  5
233
100
AcDbEntity
  8
0
100
AcDbLine
 62
7
  6
CONTINUOUS
 10
6.8961248966
 20
6.7101415859
 11
6.8444274634
 21
6.6584441527
  0
LINE
  5
234
100
AcDbEntity
  8
0
100
AcDbLine
 62
7
  6
CONTINUOUS
 10
6.9323369046
 20
6.673929578
 11
6.9765310784
 21
6.7181237518
  0
LINE
  5
235
100
AcDbEntity
  8
0
100
AcDbLine
 62
7
  6
CONTINUOUS
 10
7.1524511048
 20
6.5422037254
 11
7.108256931
 21
6.4980095516
  0
LINE
  5
236
100
AcDbEntity
  8
0
100
AcDbLine
 62
7
  6
CONTINUOUS
 10
7.3283711313
 20
6.366283699
 11
7.2841769574
 21
6.3220895252
  0
LINE
  5
237
100
AcDbEntity
  8
0
100
AcDbLine
 62
7
  6
CONTINUOUS
 10
7.2686915321
 20
6.2341800839
 11
7.3203889654
 21
6.2858775172
  0
LINE
  5
238
100
AcDbEntity
  8
0
100
AcDbLine
 62
7
  6
CONTINUOUS
 10
7.3437234418
 20
4.9426851578
 11
6.5889030364
 21
3.3565907803
  0
LINE
  5
239
100
AcDbEntity
  8
0
100
AcDbLine
 62
7
  6
CONTINUOUS
 10
7.3203889654
 20
6.2858775172
 11
6.8961248966
 21
6.7101415859
  0
LINE
  5
23A
100
AcDbEntity
  8
0
100
AcDbLine
 62
7
  6
CONTINUOUS
 10
7.3283711313
 20
6.366283699
 11
6.9765310784
 21
6.7181237518
  0
LINE
  5
23B
100
AcDbEntity
  8
0
100
AcDbLine
 62
7
  6
CONTINUOUS
 10
6.5889030364
 20
7.6836490132
 11
7.0656774153
 21
6.6818091633
  0
LINE
  5
23C
100
AcDbEntity
  8
0
100
AcDbLine
 62
7
  6
CONTINUOUS
 10
7.2754752109
 20
6.2409637627
 11
7.3437234418
 21
6.0975546357
  0
LINE
  5
23D
100
AcDbEntity
  8
0
100
AcDbLine
 62
7
  6
CONTINUOUS
 10
7.3972868278
 20
6.7163287703
 11
7.3265761497
 21
6.7870394484
  0
LINE
  5
23E
100
AcDbEntity
  8
0
100
AcDbLine
 62
7
  6
CONTINUOUS
 10
4.7271220839
 20
13.6003602814
 11
4.7271220839
 21
12.3955190314
  0
LINE
  5
23F
100
AcDbEntity
  8
0
100
AcDbLine
 62
7
  6
CONTINUOUS
 10
5.0496220839
 20
12.3503602814
 11
5.0496220839
 21
11.6997352814
  0
LINE
  5
240
100
AcDbEntity
  8
0
100
AcDbLine
 62
7
  6
CONTINUOUS
 10
6.9921220839
 20
11.5997352814
 11
5.1496220839
 21
11.5997352814
  0
LINE
  5
241
100
AcDbEntity
  8
0
100
AcDbLine
 62
7
  6
CONTINUOUS
 10
4.7722808339
 20
12.3503602814
 11
7.3694633339
 21
12.3503602814
  0
LINE
  5
242
100
AcDbEntity
  8
0
100
AcDbLine
 62
7
  6
CONTINUOUS
 10
7.0487617387
 20
12.3784852814
 11
7.02104682
 21
12.3784852814
  0
LINE
  5
243
100
AcDbEntity
  8
0
100
AcDbLine
 62
7
  6
CONTINUOUS
 10
7.0929559125
 20
12.3912090812
 11
7.0487617387
 21
12.3912090812
  0
LINE
  5
244
100
AcDbEntity
  8
0
100
AcDbLine
 62
7
  6
CONTINUOUS
 10
6.8728417123
 20
12.5348471813
 11
6.9170358861
 21
12.5348471813
  0
LINE
  5
245
100
AcDbEntity
  8
0
100
AcDbLine
 62
7
  6
CONTINUOUS
 10
6.9170358861
 20
12.8221233815
 11
6.8728417123
 21
12.8221233815
  0
LINE
  5
246
100
AcDbEntity
  8
0
100
AcDbLine
 62
7
  6
CONTINUOUS
 10
6.8728417123
 20
12.8221233815
 11
7.0487617387
 21
12.9657614816
  0
LINE
  5
247
100
AcDbEntity
  8
0
100
AcDbLine
 62
7
  6
CONTINUOUS
 10
6.9170358861
 20
12.8221233815
 11
7.0929559125
 21
12.9657614816
  0
LINE
  5
248
100
AcDbEntity
  8
0
100
AcDbLine
 62
7
  6
CONTINUOUS
 10
7.0929559125
 20
12.9657614816
 11
7.0487617387
 21
12.9657614816
  0
LINE
  5
249
100
AcDbEntity
  8
0
100
AcDbLine
 62
7
  6
CONTINUOUS
 10
7.0487617387
 20
12.9784852814
 11
7.0234055463
 21
12.9784852814
  0
LINE
  5
24A
100
AcDbEntity
  8
0
100
AcDbLine
 62
7
  6
CONTINUOUS
 10
5.0084711214
 20
13.0066102814
 11
7.1332730463
 21
13.0066102814
  0
LINE
  5
24B
100
AcDbEntity
  8
0
100
AcDbLine
 62
7
  6
CONTINUOUS
 10
6.8728417123
 20
12.5348471813
 11
7.0487617387
 21
12.3912090812
  0
LINE
  5
24C
100
AcDbEntity
  8
0
100
AcDbLine
 62
7
  6
CONTINUOUS
 10
7.0929559125
 20
12.3912090812
 11
6.9170358861
 21
12.5348471813
  0
LINE
  5
24D
100
AcDbEntity
  8
0
100
AcDbLine
 62
7
  6
CONTINUOUS
 10
6.8728417123
 20
12.5348471813
 11
6.8728417123
 21
12.8221233815
  0
LINE
  5
24E
100
AcDbEntity
  8
0
100
AcDbLine
 62
7
  6
CONTINUOUS
 10
6.9170358861
 20
12.5348471813
 11
6.9170358861
 21
12.8221233815
  0
LINE
  5
24F
100
AcDbEntity
  8
0
100
AcDbLine
 62
7
  6
CONTINUOUS
 10
7.0929559125
 20
12.3912090812
 11
7.268875939
 21
12.5348471813
  0
LINE
  5
250
100
AcDbEntity
  8
0
100
AcDbLine
 62
7
  6
CONTINUOUS
 10
4.7271220839
 20
13.6003602814
 11
7.4146220839
 21
13.6003602814
  0
LINE
  5
251
100
AcDbEntity
  8
0
100
AcDbLine
 62
7
  6
CONTINUOUS
 10
7.0929559125
 20
12.9657614816
 11
7.268875939
 21
12.8221233815
  0
LINE
  5
252
100
AcDbEntity
  8
0
100
AcDbLine
 62
7
  6
CONTINUOUS
 10
7.0921220839
 20
12.3503602814
 11
7.0921220839
 21
11.6997352814
  0
LINE
  5
253
100
AcDbEntity
  8
0
100
AcDbLine
 62
7
  6
CONTINUOUS
 10
7.268875939
 20
12.8221233815
 11
7.268875939
 21
12.8142813815
  0
LINE
  5
254
100
AcDbEntity
  8
0
100
AcDbLine
 62
7
  6
CONTINUOUS
 10
7.268875939
 20
12.5428610215
 11
7.268875939
 21
12.5348471813
  0
LINE
  5
255
100
AcDbEntity
  8
0
100
AcDbLine
 62
7
  6
CONTINUOUS
 10
7.4146220839
 20
13.6003602814
 11
7.4146220839
 21
12.3955190314
  0
LINE
  5
256
100
AcDbEntity
  8
0
100
AcDbLine
 62
7
  6
CONTINUOUS
 10
15.9669177569
 20
3.0074997044
 11
16.5606677569
 21
3.0074997044
  0
LINE
  5
257
100
AcDbEntity
  8
0
100
AcDbLine
 62
7
  6
CONTINUOUS
 10
15.9217590069
 20
4.1168747044
 11
15.3558265069
 21
4.1168747044
  0
LINE
  5
258
100
AcDbEntity
  8
0
100
AcDbLine
 62
7
  6
CONTINUOUS
 10
14.5600427569
 20
4.5393752146
 11
14.5600427569
 21
6.3818741943
  0
LINE
  5
259
100
AcDbEntity
  8
0
100
AcDbLine
 62
7
  6
CONTINUOUS
 10
14.6600427569
 20
4.4393747044
 11
15.3106677569
 21
4.4393747044
  0
LINE
  5
25A
100
AcDbEntity
  8
0
100
AcDbLine
 62
7
  6
CONTINUOUS
 10
15.3515165567
 20
6.4827085331
 11
15.4951546568
 21
6.6586285595
  0
LINE
  5
25B
100
AcDbEntity
  8
0
100
AcDbLine
 62
7
  6
CONTINUOUS
 10
15.9260689571
 20
6.4827085331
 11
15.782430857
 21
6.3067885067
  0
LINE
  5
25C
100
AcDbEntity
  8
0
100
AcDbLine
 62
7
  6
CONTINUOUS
 10
15.9260689571
 20
6.4385143593
 11
15.782430857
 21
6.2625943328
  0
LINE
  5
25D
100
AcDbEntity
  8
0
100
AcDbLine
 62
7
  6
CONTINUOUS
 10
15.3106677569
 20
6.7591941641
 11
15.3106677569
 21
4.1620505055
  0
LINE
  5
25E
100
AcDbEntity
  8
0
100
AcDbLine
 62
7
  6
CONTINUOUS
 10
15.3387927569
 20
6.4385143593
 11
15.3387927569
 21
6.4107994406
  0
LINE
  5
25F
100
AcDbEntity
  8
0
100
AcDbLine
 62
7
  6
CONTINUOUS
 10
15.3515165567
 20
6.4827085331
 11
15.3515165567
 21
6.4385143593
  0
LINE
  5
260
100
AcDbEntity
  8
0
100
AcDbLine
 62
7
  6
CONTINUOUS
 10
15.4951546568
 20
6.3067885067
 11
15.4951546568
 21
6.2625943328
  0
LINE
  5
261
100
AcDbEntity
  8
0
100
AcDbLine
 62
7
  6
CONTINUOUS
 10
15.782430857
 20
6.2625943328
 11
15.782430857
 21
6.3067885067
  0
LINE
  5
262
100
AcDbEntity
  8
0
100
AcDbLine
 62
7
  6
CONTINUOUS
 10
15.9260689571
 20
6.4827085331
 11
15.9260689571
 21
6.4385143593
  0
LINE
  5
263
100
AcDbEntity
  8
0
100
AcDbLine
 62
7
  6
CONTINUOUS
 10
15.9387927569
 20
6.4385143593
 11
15.9387927569
 21
6.4131581669
  0
LINE
  5
264
100
AcDbEntity
  8
0
100
AcDbLine
 62
7
  6
CONTINUOUS
 10
15.9669177569
 20
7.9137489196
 11
15.9669177569
 21
6.355259664
  0
LINE
  5
265
100
AcDbEntity
  8
0
100
AcDbLine
 62
7
  6
CONTINUOUS
 10
15.9669177569
 20
4.5659897449
 11
15.9669177569
 21
3.0075004893
  0
LINE
  5
266
100
AcDbEntity
  8
0
100
AcDbLine
 62
7
  6
CONTINUOUS
 10
15.3515165567
 20
6.4385143593
 11
15.4951546568
 21
6.2625943328
  0
LINE
  5
267
100
AcDbEntity
  8
0
100
AcDbLine
 62
7
  6
CONTINUOUS
 10
15.3515165567
 20
6.4827085331
 11
15.4951546568
 21
6.3067885067
  0
LINE
  5
268
100
AcDbEntity
  8
0
100
AcDbLine
 62
7
  6
CONTINUOUS
 10
15.4951546568
 20
6.2625943328
 11
15.782430857
 21
6.2625943328
  0
LINE
  5
269
100
AcDbEntity
  8
0
100
AcDbLine
 62
7
  6
CONTINUOUS
 10
15.782430857
 20
6.3067885067
 11
15.4951546568
 21
6.3067885067
  0
LINE
  5
26A
100
AcDbEntity
  8
0
100
AcDbLine
 62
7
  6
CONTINUOUS
 10
16.5606677569
 20
3.0075004893
 11
16.5606677569
 21
7.9137489196
  0
LINE
  5
26B
100
AcDbEntity
  8
0
100
AcDbLine
 62
7
  6
CONTINUOUS
 10
14.6600427569
 20
6.4818747044
 11
15.3106677569
 21
6.4818747044
  0
LINE
  5
26C
100
AcDbEntity
  8
0
100
AcDbLine
 62
7
  6
CONTINUOUS
 10
15.782430857
 20
6.6586285595
 11
15.9260689571
 21
6.4827085331
  0
LINE
  5
26D
100
AcDbEntity
  8
0
100
AcDbLine
 62
7
  6
CONTINUOUS
 10
15.4951546568
 20
6.6586285595
 11
15.5029966568
 21
6.6586285595
  0
LINE
  5
26E
100
AcDbEntity
  8
0
100
AcDbLine
 62
7
  6
CONTINUOUS
 10
15.7744170168
 20
6.6586285595
 11
15.782430857
 21
6.6586285595
  0
LINE
  5
26F
100
AcDbEntity
  8
0
100
AcDbLine
 62
7
  6
CONTINUOUS
 10
15.9217590069
 20
6.8043747044
 11
15.3558265069
 21
6.8043747044
  0
LINE
  5
270
100
AcDbEntity
  8
0
100
AcDbLine
 62
7
  6
CONTINUOUS
 10
15.9669177569
 20
7.9137497044
 11
16.5606677569
 21
7.9137497044
  0
LINE
  5
271
100
AcDbEntity
  8
03__ASM_ALL_CURVES
100
AcDbLine
 62
4
  6
CONTINUOUS
 10
14.7035048852
 20
13.6799918073
 11
14.7030544313
 21
13.679665562
  0
LINE
  5
272
100
AcDbEntity
  8
0
100
AcDbLine
 62
7
  6
CONTINUOUS
 10
14.2226286446
 20
12.9201096179
 11
14.3917594858
 21
13.7088668745
  0
LINE
  5
273
100
AcDbEntity
  8
0
100
AcDbLine
 62
7
  6
CONTINUOUS
 10
14.1750238368
 20
12.7115624082
 11
14.1783270783
 21
12.7256992533
  0
LINE
  5
274
100
AcDbEntity
  8
0
100
AcDbLine
 62
7
  6
CONTINUOUS
 10
14.3917594858
 20
13.7088668745
 11
14.395511566
 21
13.7231447184
  0
LINE
  5
275
100
AcDbEntity
  8
0
100
AcDbLine
 62
7
  6
CONTINUOUS
 10
14.3954894455
 20
13.7231515563
 11
14.539216325
 21
14.1882519089
  0
LINE
  5
276
100
AcDbEntity
  8
0
100
AcDbLine
 62
7
  6
CONTINUOUS
 10
14.1792876771
 20
12.7253602004
 11
14.0422944775
 21
12.2820500441
  0
LINE
  5
277
100
AcDbEntity
  8
0
100
AcDbLine
 62
7
  6
CONTINUOUS
 10
14.1819918855
 20
11.6418066322
 11
14.3695932862
 21
12.2488849871
  0
LINE
  5
278
100
AcDbEntity
  8
03__ASM_ALL_CURVES
100
AcDbLine
 62
4
  6
CONTINUOUS
 10
15.0920176573
 20
13.5424641825
 11
15.0919441207
 21
13.5429559033
  0
LINE
  5
279
100
AcDbEntity
  8
0
100
AcDbLine
 62
7
  6
CONTINUOUS
 10
15.7839484274
 20
12.9260040228
 11
15.7542524534
 21
12.8960385353
  0
LINE
  5
27A
100
AcDbEntity
  8
0
100
AcDbLine
 62
7
  6
CONTINUOUS
 10
15.8433349241
 20
12.9641731942
 11
15.8161104677
 21
12.9367016553
  0
LINE
  5
27B
100
AcDbEntity
  8
0
100
AcDbLine
 62
7
  6
CONTINUOUS
 10
15.927496675
 20
12.489801246
 11
16.1779626695
 21
12.492963193
  0
LINE
  5
27C
100
AcDbEntity
  8
0
100
AcDbLine
 62
7
  6
CONTINUOUS
 10
15.9547211314
 20
12.517272785
 11
16.2051871258
 21
12.520434732
  0
LINE
  5
27D
100
AcDbEntity
  8
0
100
AcDbLine
 62
7
  6
CONTINUOUS
 10
15.7465705741
 20
12.7116704771
 11
15.7737950305
 21
12.7391420161
  0
LINE
  5
27E
100
AcDbEntity
  8
0
100
AcDbLine
 62
7
  6
CONTINUOUS
 10
15.7465705741
 20
12.7116704771
 11
15.8161104677
 21
12.9367016553
  0
LINE
  5
27F
100
AcDbEntity
  8
0
100
AcDbLine
 62
7
  6
CONTINUOUS
 10
15.7737950305
 20
12.7391420161
 11
15.8433349241
 21
12.9641731942
  0
LINE
  5
280
100
AcDbEntity
  8
0
100
AcDbLine
 62
7
  6
CONTINUOUS
 10
15.9547211314
 20
12.517272785
 11
15.927496675
 21
12.489801246
  0
LINE
  5
281
100
AcDbEntity
  8
0
100
AcDbLine
 62
7
  6
CONTINUOUS
 10
15.8433349241
 20
12.9641731942
 11
16.0938009186
 21
12.9673351412
  0
LINE
  5
282
100
AcDbEntity
  8
03__ASM_ALL_CURVES
100
AcDbLine
 62
4
  6
CONTINUOUS
 10
15.062332724
 20
13.6033746244
 11
15.0619293259
 21
13.6038603218
  0
LINE
  5
283
100
AcDbEntity
  8
0
100
AcDbLine
 62
7
  6
CONTINUOUS
 10
15.7465705741
 20
12.7116704771
 11
15.927496675
 21
12.489801246
  0
LINE
  5
284
100
AcDbEntity
  8
0
100
AcDbLine
 62
7
  6
CONTINUOUS
 10
15.9547211314
 20
12.517272785
 11
15.7737950305
 21
12.7391420161
  0
LINE
  5
285
100
AcDbEntity
  8
0
100
AcDbLine
 62
7
  6
CONTINUOUS
 10
16.2051871259
 20
12.520434732
 11
16.1779626695
 21
12.492963193
  0
LINE
  5
286
100
AcDbEntity
  8
0
100
AcDbLine
 62
7
  6
CONTINUOUS
 10
16.2101247098
 20
12.5036608254
 11
16.1804287357
 21
12.4736953379
  0
LINE
  5
287
100
AcDbEntity
  8
0
100
AcDbLine
 62
7
  6
CONTINUOUS
 10
16.2747270194
 20
12.7454659101
 11
16.2051871258
 21
12.520434732
  0
LINE
  5
288
100
AcDbEntity
  8
0
100
AcDbLine
 62
7
  6
CONTINUOUS
 10
15.2364382921
 20
13.7088668745
 11
16.1259924348
 21
12.965020632
  0
LINE
  5
289
100
AcDbEntity
  8
0
100
AcDbLine
 62
7
  6
CONTINUOUS
 10
16.0938009186
 20
12.9673351412
 11
16.0945398871
 21
12.9664289459
  0
LINE
  5
28A
100
AcDbEntity
  8
0
100
AcDbLine
 62
7
  6
CONTINUOUS
 10
16.2431567405
 20
12.7841804653
 11
16.2747270194
 21
12.7454659101
  0
LINE
  5
28B
100
AcDbEntity
  8
03__ASM_ALL_CURVES
100
AcDbLine
 62
4
  6
CONTINUOUS
 10
14.9549187391
 20
13.6791896622
 11
14.9541929661
 21
13.6794997732
  0
LINE
  5
28C
100
AcDbEntity
  8
0
100
AcDbLine
 62
7
  6
CONTINUOUS
 10
16.1334389599
 20
11.0387638759
 11
16.3210403606
 21
11.6458422309
  0
LINE
  5
28D
100
AcDbEntity
  8
03__ASM_ALL_CURVES
100
AcDbLine
 62
4
  6
CONTINUOUS
 10
14.8148540841
 20
13.709197022
 11
14.8140941986
 21
13.7091983892
  0
LINE
  5
28E
100
AcDbEntity
  8
0
100
AcDbLine
 62
7
  6
CONTINUOUS
 10
16.559225994
 20
13.1880351514
 11
15.3801651716
 21
14.1739672271
  0
LINE
  5
28F
100
AcDbEntity
  8
0
100
AcDbLine
 62
7
  6
CONTINUOUS
 10
16.7255030536
 20
11.8078816002
 11
16.5563722125
 21
11.0191243436
  0
LINE
  5
290
100
AcDbEntity
  8
0
100
AcDbLine
 62
7
  6
CONTINUOUS
 10
16.700099092
 20
11.4842246962
 11
16.9115095353
 21
12.4701567719
  0
LINE
  5
291
100
AcDbEntity
  8
0
100
AcDbLine
 62
7
  6
CONTINUOUS
 10
16.746981196
 20
11.9318828896
 11
16.6099879964
 21
11.4885727333
  0
LINE
  5
292
100
AcDbEntity
  8
0
100
AcDbLine
 62
7
  6
CONTINUOUS
 10
16.5563722125
 20
11.0191243436
 11
16.5526201322
 21
11.0048464997
  0
LINE
  5
293
100
AcDbEntity
  8
0
100
AcDbLine
 62
7
  6
CONTINUOUS
 10
16.696346998
 20
11.4699468566
 11
16.700099092
 21
11.4842246962
  0
LINE
  5
294
100
AcDbEntity
  8
0
100
AcDbLine
 62
7
  6
CONTINUOUS
 10
16.5569968986
 20
11.018931301
 11
16.6963691323
 21
11.4699400144
  0
CIRCLE
  5
295
100
AcDbEntity
  8
0
100
AcDbCircle
 62
7
  6
CONTINUOUS
 10
6.1303672762
 20
5.5201198968
 40
1.34375
  0
CIRCLE
  5
296
100
AcDbEntity
  8
0
100
AcDbCircle
 62
7
  6
CONTINUOUS
 10
6.1303672762
 20
5.5201198968
 40
1.02125
  0
ARC
  5
297
100
AcDbEntity
  8
0
100
AcDbCircle
 62
7
  6
CONTINUOUS
 10
6.1303672762
 20
7.4654323968
 40
0.5078125
100
AcDbArc
 50
25.4497206011
 51
154.5502793989
  0
ARC
  5
298
100
AcDbEntity
  8
0
100
AcDbCircle
 62
7
  6
CONTINUOUS
 10
6.1303672762
 20
3.5748073968
 40
0.5078125
100
AcDbArc
 50
205.4497206011
 51
334.5502793989
  0
CIRCLE
  5
299
100
AcDbEntity
  8
03__ASM_ALL_CURVES
100
AcDbCircle
 62
4
  6
CONTINUOUS
 10
6.1303672762
 20
7.4654323968
 40
0.21875
  0
CIRCLE
  5
29A
100
AcDbEntity
  8
0
100
AcDbCircle
 62
7
  6
CONTINUOUS
 10
6.1303672762
 20
7.4654323968
 40
0.21875
  0
CIRCLE
  5
29B
100
AcDbEntity
  8
0
100
AcDbCircle
 62
7
  6
CONTINUOUS
 10
6.1303672762
 20
3.5748073968
 40
0.21875
  0
ARC
  5
29C
100
AcDbEntity
  8
0
100
AcDbCircle
 62
7
  6
CONTINUOUS
 10
7.064729886
 20
6.806701234
 40
0.125
100
AcDbArc
 50
225.1227337533
 51
337.2041786488
  0
ARC
  5
29D
100
AcDbEntity
  8
0
100
AcDbCircle
 62
7
  6
CONTINUOUS
 10
7.4169486134
 20
6.4544825066
 40
0.125
100
AcDbArc
 50
112.7958213511
 51
224.8772662468
  0
ARC
  5
29E
100
AcDbEntity
  8
0
100
AcDbCircle
 62
7
  6
CONTINUOUS
 10
7.3336472175
 20
6.65268916
 40
0.09
100
AcDbArc
 50
292.7958213516
 51
45.0
  0
ARC
  5
29F
100
AcDbEntity
  8
0
100
AcDbCircle
 62
7
  6
CONTINUOUS
 10
7.2629365394
 20
6.7233998381
 40
0.09
100
AcDbArc
 50
45.0000000003
 51
157.2041786488
  0
ARC
  5
2A0
100
AcDbEntity
  8
0
100
AcDbCircle
 62
7
  6
CONTINUOUS
 10
6.9860588056
 20
12.6162627148
 40
0.2602141427
100
AcDbArc
 50
321.5263389093
 51
322.0849258177
  0
ARC
  5
2A1
100
AcDbEntity
  8
0
100
AcDbCircle
 62
7
  6
CONTINUOUS
 10
6.9861145707
 20
12.7407564694
 40
0.260140192
100
AcDbArc
 50
37.9333365271
 51
38.4792697218
  0
ARC
  5
2A2
100
AcDbEntity
  8
0
100
AcDbCircle
 62
7
  6
CONTINUOUS
 10
7.0467282046
 20
12.5385299034
 40
0.1602712696
100
AcDbArc
 50
286.371750984
 51
287.3200050241
  0
ARC
  5
2A3
100
AcDbEntity
  8
0
100
AcDbCircle
 62
7
  6
CONTINUOUS
 10
7.0467339598
 20
12.8184554584
 40
0.1602554313
100
AcDbArc
 50
72.6865870271
 51
73.6440680527
  0
ARC
  5
2A4
100
AcDbEntity
  8
0
100
AcDbCircle
 62
7
  6
CONTINUOUS
 10
5.1496220839
 20
11.6997352814
 40
0.1
100
AcDbArc
 50
180.0
 51
270.0
  0
ARC
  5
2A5
100
AcDbEntity
  8
0
100
AcDbCircle
 62
7
  6
CONTINUOUS
 10
6.9921220839
 20
11.6997352814
 40
0.1
100
AcDbArc
 50
270.0
 51
360.0
  0
ARC
  5
2A6
100
AcDbEntity
  8
0
100
AcDbCircle
 62
7
  6
CONTINUOUS
 10
4.7722808339
 20
12.3955190314
 40
0.04515875
100
AcDbArc
 50
180.0
 51
270.0000000001
  0
ARC
  5
2A7
100
AcDbEntity
  8
0
100
AcDbCircle
 62
7
  6
CONTINUOUS
 10
7.3694633339
 20
12.3955190314
 40
0.04515875
100
AcDbArc
 50
269.9999999999
 51
360.0
  0
ARC
  5
2A8
100
AcDbEntity
  8
0
100
AcDbCircle
 62
7
  6
CONTINUOUS
 10
15.7010153236
 20
6.3758114262
 40
0.2602141426
100
AcDbArc
 50
51.5263389093
 51
52.0849258178
  0
ARC
  5
2A9
100
AcDbEntity
  8
0
100
AcDbCircle
 62
7
  6
CONTINUOUS
 10
15.5765215689
 20
6.3758671913
 40
0.260140192
100
AcDbArc
 50
127.9333365271
 51
128.4792697217
  0
ARC
  5
2AA
100
AcDbEntity
  8
0
100
AcDbCircle
 62
7
  6
CONTINUOUS
 10
15.7787481349
 20
6.4364808252
 40
0.1602712696
100
AcDbArc
 50
16.371750984
 51
17.320005024
  0
ARC
  5
2AB
100
AcDbEntity
  8
0
100
AcDbCircle
 62
7
  6
CONTINUOUS
 10
15.4988225798
 20
6.4364865804
 40
0.1602554312
100
AcDbArc
 50
162.686587027
 51
163.6440680529
  0
ARC
  5
2AC
100
AcDbEntity
  8
0
100
AcDbCircle
 62
7
  6
CONTINUOUS
 10
14.6600427569
 20
4.5393747044
 40
0.1
100
AcDbArc
 50
180.0
 51
270.0
  0
ARC
  5
2AD
100
AcDbEntity
  8
0
100
AcDbCircle
 62
7
  6
CONTINUOUS
 10
14.6600427569
 20
6.3818747044
 40
0.1
100
AcDbArc
 50
90.0
 51
180.0
  0
ARC
  5
2AE
100
AcDbEntity
  8
0
100
AcDbCircle
 62
7
  6
CONTINUOUS
 10
15.9217590069
 20
4.0717159544
 40
0.04515875
100
AcDbArc
 50
0.0000000001
 51
90.0
  0
ARC
  5
2AF
100
AcDbEntity
  8
0
100
AcDbCircle
 62
7
  6
CONTINUOUS
 10
15.9217590069
 20
6.8495334544
 40
0.04515875
100
AcDbArc
 50
270.0
 51
359.9999999999
  0
ARC
  5
2B0
100
AcDbEntity
  8
0
100
AcDbCircle
 62
7
  6
CONTINUOUS
 10
15.3558265069
 20
6.7592159544
 40
0.04515875
100
AcDbArc
 50
90.0
 51
180.0000000001
  0
ARC
  5
2B1
100
AcDbEntity
  8
0
100
AcDbCircle
 62
7
  6
CONTINUOUS
 10
15.3558265069
 20
4.1620334544
 40
0.04515875
100
AcDbArc
 50
179.9999999999
 51
270.0
  0
ARC
  5
2B2
100
AcDbEntity
  8
0
100
AcDbCircle
 62
7
  6
CONTINUOUS
 10
16.0646126743
 20
12.738152659
 40
0.2930173847
100
AcDbArc
 50
258.7690205224
 51
259.0296441977
  0
ARC
  5
2B3
100
AcDbEntity
  8
0
100
AcDbCircle
 62
7
  6
CONTINUOUS
 10
15.9201377103
 20
12.789108723
 40
0.1932185169
100
AcDbArc
 50
113.7299167123
 51
125.2266273838
  0
ARC
  5
2B4
100
AcDbEntity
  8
0
100
AcDbCircle
 62
7
  6
CONTINUOUS
 10
15.9160793968
 20
12.7949904654
 40
0.1860729895
100
AcDbArc
 50
125.2504965001
 51
135.2432976022
  0
ARC
  5
2B5
100
AcDbEntity
  8
0
100
AcDbCircle
 62
7
  6
CONTINUOUS
 10
16.0779937404
 20
12.6346743829
 40
0.1860729895
100
AcDbArc
 50
305.2504965
 51
315.2432976022
  0
ARC
  5
2B6
100
AcDbEntity
  8
0
100
AcDbCircle
 62
7
  6
CONTINUOUS
 10
16.0785516912
 20
12.6340442482
 40
0.1852331185
100
AcDbArc
 50
315.2601889903
 51
318.3822276811
  0
ARC
  5
2B7
100
AcDbEntity
  8
0
100
AcDbCircle
 62
7
  6
CONTINUOUS
 10
16.1062950655
 20
12.8440401139
 40
0.1271755412
100
AcDbArc
 50
162.8647929611
 51
172.9114001573
  0
SPLINE
  5
2B8
100
AcDbEntity
  8
0
100
AcDbSpline
 62
7
  6
CONTINUOUS
 70
0
 71
3
 72
9
 73
5
 74
0
 42
0.0000001
 43
0.0000001
 44
0.0000000001
 40
0.0
 40
0.0
 40
0.0
 40
0.0
 40
0.4974374604
 40
1.0
 40
1.0
 40
1.0
 40
1.0
 10
7.0487617383
 20
12.9784830322
 30
0.0
 10
7.0560018541
 20
12.9784830586
 30
0.0
 10
7.0705759974
 20
12.97742644
 30
0.0
 10
7.0848437442
 20
12.9742852652
 30
0.0
 10
7.0918624555
 20
12.9722254884
 30
0.0
  0
SPLINE
  5
2B9
100
AcDbEntity
  8
0
100
AcDbSpline
 62
7
  6
CONTINUOUS
 70
0
 71
3
 72
12
 73
8
 74
0
 42
0.0000001
 43
0.0000001
 44
0.0000000001
 40
0.0
 40
0.0
 40
0.0
 40
0.0
 40
0.1167820501
 40
0.2354173154
 40
0.4793037002
 40
0.7338080905
 40
1.0
 40
1.0
 40
1.0
 40
1.0
 10
7.0944257159
 20
12.9714499016
 30
0.0
 10
7.0988579528
 20
12.9700683234
 30
0.0
 10
7.1076768635
 20
12.9668944058
 30
0.0
 10
7.125017214
 20
12.9589538161
 30
0.0
 10
7.1459975893
 20
12.9460309123
 30
0.0
 10
7.1692848222
 20
12.9263480013
 30
0.0
 10
7.1831763162
 20
12.9109079484
 30
0.0
 10
7.1897609857
 20
12.9026238754
 30
0.0
  0
SPLINE
  5
2BA
100
AcDbEntity
  8
0
100
AcDbSpline
 62
7
  6
CONTINUOUS
 70
0
 71
3
 72
9
 73
5
 74
0
 42
0.0000001
 43
0.0000001
 44
0.0000000001
 40
0.0
 40
0.0
 40
0.0
 40
0.0
 40
0.2456878572
 40
1.0
 40
1.0
 40
1.0
 40
1.0
 10
7.1912940444
 20
12.9006761463
 30
0.0
 10
7.1931621126
 20
12.8982794262
 30
0.0
 10
7.2005951974
 20
12.8883922641
 30
0.0
 10
7.2073522876
 20
12.8780004735
 30
0.0
 10
7.2120708824
 20
12.8699521495
 30
0.0
  0
SPLINE
  5
2BB
100
AcDbEntity
  8
0
100
AcDbSpline
 62
7
  6
CONTINUOUS
 70
0
 71
3
 72
9
 73
5
 74
0
 42
0.0000001
 43
0.0000001
 44
0.0000000001
 40
0.0
 40
0.0
 40
0.0
 40
0.0
 40
0.2543799269
 40
1.0
 40
1.0
 40
1.0
 40
1.0
 10
7.21202032
 20
12.4869321536
 30
0.0
 10
7.2104361888
 20
12.4842321939
 30
0.0
 10
7.2040441442
 20
12.4737161814
 30
0.0
 10
7.1969859371
 20
12.4636017417
 30
0.0
 10
7.1913475827
 20
12.4563630023
 30
0.0
  0
SPLINE
  5
2BC
100
AcDbEntity
  8
0
100
AcDbSpline
 62
7
  6
CONTINUOUS
 70
0
 71
3
 72
12
 73
8
 74
0
 42
0.0000001
 43
0.0000001
 44
0.0000000001
 40
0.0
 40
0.0
 40
0.0
 40
0.0
 40
0.2661923012
 40
0.520697249
 40
0.7645844853
 40
0.8832190201
 40
1.0
 40
1.0
 40
1.0
 40
1.0
 10
7.1897789603
 20
12.4543692355
 30
0.0
 10
7.1831944614
 20
12.4460837034
 30
0.0
 10
7.1693036318
 20
12.430640301
 30
0.0
 10
7.1460160162
 20
12.4109531897
 30
0.0
 10
7.1250353113
 20
12.3980262303
 30
0.0
 10
7.1076940606
 20
12.39008326
 30
0.0
 10
7.0988747426
 20
12.3869080375
 30
0.0
 10
7.0944422781
 20
12.3855258281
 30
0.0
  0
SPLINE
  5
2BD
100
AcDbEntity
  8
0
100
AcDbSpline
 62
7
  6
CONTINUOUS
 70
0
 71
3
 72
9
 73
5
 74
0
 42
0.0000001
 43
0.0000001
 44
0.0000000001
 40
0.0
 40
0.0
 40
0.0
 40
0.0
 40
0.5025681536
 40
1.0
 40
1.0
 40
1.0
 40
1.0
 10
7.091903618
 20
12.3847571428
 30
0.0
 10
7.0848785199
 20
12.3826933839
 30
0.0
 10
7.0705973221
 20
12.3795461974
 30
0.0
 10
7.0560088682
 20
12.3784875571
 30
0.0
 10
7.048761739
 20
12.3784875306
 30
0.0
  0
SPLINE
  5
2BE
100
AcDbEntity
  8
0
100
AcDbSpline
 62
7
  6
CONTINUOUS
 70
0
 71
3
 72
28
 73
24
 74
0
 42
0.0000001
 43
0.0000001
 44
0.0000000001
 40
0.0
 40
0.0
 40
0.0
 40
0.0
 40
0.0621451631
 40
0.1242547448
 40
0.1863917089
 40
0.2485388149
 40
0.2796364306
 40
0.3107346326
 40
0.3418295795
 40
0.3729195151
 40
0.4350610645
 40
0.4661509249
 40
0.4972376175
 40
0.5283346009
 40
0.5594511275
 40
0.5905889781
 40
0.6217489505
 40
0.6841658992
 40
0.7468103945
 40
0.8097237964
 40
0.8729629789
 40
0.9364707241
 40
1.0
 40
1.0
 40
1.0
 40
1.0
 10
7.1762655563
 20
12.8001988136
 30
0.0
 10
7.1810764223
 20
12.8032408395
 30
0.0
 10
7.1911403724
 20
12.8086508461
 30
0.0
 10
7.2072352392
 20
12.8145157347
 30
0.0
 10
7.2240198694
 20
12.8179552348
 30
0.0
 10
7.2382873831
 20
12.8187322067
 30
0.0
 10
7.2496658271
 20
12.8180738696
 30
0.0
 10
7.2581445229
 20
12.8169523193
 30
0.0
 10
7.2665170399
 20
12.8152087673
 30
0.0
 10
7.2774701478
 20
12.8120656479
 30
0.0
 10
7.2880501501
 20
12.807729361
 30
0.0
 10
7.298069971
 20
12.8023056031
 30
0.0
 10
7.3052805764
 20
12.7977098393
 30
0.0
 10
7.3121545159
 20
12.7926217983
 30
0.0
 10
7.3186682447
 20
12.7870730902
 30
0.0
 10
7.3247982937
 20
12.7810947515
 30
0.0
 10
7.3324318567
 20
12.7725878115
 30
0.0
 10
7.3409318446
 20
12.7610252453
 30
0.0
 10
7.3493533847
 20
12.7459612016
 30
0.0
 10
7.3559457554
 20
12.7299318819
 30
0.0
 10
7.3606748391
 20
12.7131777353
 30
0.0
 10
7.3635156264
 20
12.6959492041
 30
0.0
 10
7.3641520252
 20
12.6843040093
 30
0.0
 10
7.3641520252
 20
12.6784852814
 30
0.0
  0
SPLINE
  5
2BF
100
AcDbEntity
  8
0
100
AcDbSpline
 62
7
  6
CONTINUOUS
 70
0
 71
3
 72
24
 73
20
 74
0
 42
0.0000001
 43
0.0000001
 44
0.0000000001
 40
0.0
 40
0.0
 40
0.0
 40
0.0
 40
0.0635431051
 40
0.1270683057
 40
0.1903194479
 40
0.2532347588
 40
0.3158740172
 40
0.3782827218
 40
0.4405370199
 40
0.4716458189
 40
0.5027362685
 40
0.5648705175
 40
0.6270068175
 40
0.6891603707
 40
0.7513298863
 40
0.8135067432
 40
0.8756743708
 40
0.9378163139
 40
1.0
 40
1.0
 40
1.0
 40
1.0
 10
7.3641520252
 20
12.6784852814
 30
0.0
 10
7.3641520252
 20
12.6726662094
 30
0.0
 10
7.3635152188
 20
12.6610199989
 30
0.0
 10
7.3606740744
 20
12.6437903561
 30
0.0
 10
7.3559449229
 20
12.6270359945
 30
0.0
 10
7.3493531029
 20
12.6110089614
 30
0.0
 10
7.3409324752
 20
12.5959471553
 30
0.0
 10
7.3307485621
 20
12.5820892762
 30
0.0
 10
7.3208486066
 20
12.5717552393
 30
0.0
 10
7.3121677694
 20
12.5643585288
 30
0.0
 10
7.303011552
 20
12.5575774682
 30
0.0
 10
7.2907073477
 20
12.5503324073
 30
0.0
 10
7.2748592865
 20
12.5438280392
 30
0.0
 10
7.2582233013
 20
12.5397128634
 30
0.0
 10
7.2411589299
 20
12.5380820705
 30
0.0
 10
7.224041098
 20
12.5390148814
 30
0.0
 10
7.207248054
 20
12.5424494758
 30
0.0
 10
7.1911475203
 20
12.5483175084
 30
0.0
 10
7.1810786415
 20
12.55372832
 30
0.0
 10
7.1762655563
 20
12.5567717492
 30
0.0
  0
SPLINE
  5
2C0
100
AcDbEntity
  8
0
100
AcDbSpline
 62
7
  6
CONTINUOUS
 70
0
 71
3
 72
15
 73
11
 74
0
 42
0.0000001
 43
0.0000001
 44
0.0000000001
 40
0.0
 40
0.0
 40
0.0
 40
0.0
 40
0.1203390571
 40
0.2420036925
 40
0.3034535756
 40
0.365283331
 40
0.4900786582
 40
0.6162726105
 40
0.7435540626
 40
1.0
 40
1.0
 40
1.0
 40
1.0
 10
7.1332730463
 20
13.0066102814
 30
0.0
 10
7.1396326834
 20
13.0066102814
 30
0.0
 10
7.1524303642
 20
13.00571601
 30
0.0
 10
7.1682353118
 20
13.0028837345
 30
0.0
 10
7.1808303053
 20
12.9998877817
 30
0.0
 10
7.1934854897
 20
12.9964563993
 30
0.0
 10
7.2092525949
 20
12.9914622442
 30
0.0
 10
7.2280470637
 20
12.9846404477
 30
0.0
 10
7.2531121084
 20
12.9747369514
 30
0.0
 10
7.271762623
 20
12.9667694465
 30
0.0
 10
7.2842282495
 20
12.9614515314
 30
0.0
  0
SPLINE
  5
2C1
100
AcDbEntity
  8
0
100
AcDbSpline
 62
7
  6
CONTINUOUS
 70
0
 71
3
 72
15
 73
11
 74
0
 42
0.0000001
 43
0.0000001
 44
0.0000000001
 40
0.0
 40
0.0
 40
0.0
 40
0.0
 40
0.2564456716
 40
0.3837269469
 40
0.509920357
 40
0.6347155828
 40
0.696545862
 40
0.7579964781
 40
0.8796611866
 40
1.0
 40
1.0
 40
1.0
 40
1.0
 10
4.8575159182
 20
12.9614515314
 30
0.0
 10
4.8699815338
 20
12.9667694418
 30
0.0
 10
4.8886320468
 20
12.9747368962
 30
0.0
 10
4.9136970219
 20
12.9846404391
 30
0.0
 10
4.9324915057
 20
12.9914620853
 30
0.0
 10
4.9482586413
 20
12.9964561156
 30
0.0
 10
4.9609138237
 20
12.9998877328
 30
0.0
 10
4.9735087822
 20
13.0028841512
 30
0.0
 10
4.9893138197
 20
13.005716242
 30
0.0
 10
5.0021114962
 20
13.0066102814
 30
0.0
 10
5.0084711214
 20
13.0066102814
 30
0.0
  0
SPLINE
  5
2C2
100
AcDbEntity
  8
0
100
AcDbSpline
 62
7
  6
CONTINUOUS
 70
0
 71
3
 72
17
 73
13
 74
0
 42
0.0000001
 43
0.0000001
 44
0.0000000001
 40
0.0
 40
0.0
 40
0.0
 40
0.0
 40
0.2695704532
 40
0.3359843822
 40
0.4016973454
 40
0.5305310725
 40
0.6552758242
 40
0.7159233151
 40
0.775329089
 40
0.8334574831
 40
0.8902922635
 40
1.0
 40
1.0
 40
1.0
 40
1.0
 10
6.9170358861
 20
12.6784852814
 30
0.0
 10
6.9170698935
 20
12.6569276672
 30
0.0
 10
6.919495595
 20
12.6299503371
 30
0.0
 10
6.9262309995
 20
12.5985366911
 30
0.0
 10
6.9315973791
 20
12.5783607092
 30
0.0
 10
6.9399904731
 20
12.5541975421
 30
0.0
 10
6.9506980685
 20
12.5314041848
 30
0.0
 10
6.9605157839
 20
12.5144561477
 30
0.0
 10
6.9683794519
 20
12.5025628551
 30
0.0
 10
6.9767845149
 20
12.4914230965
 30
0.0
 10
6.9885229257
 20
12.4778106017
 30
0.0
 10
6.9982140959
 20
12.4685940163
 30
0.0
 10
7.0049958993
 20
12.4630281312
 30
0.0
  0
SPLINE
  5
2C3
100
AcDbEntity
  8
0
100
AcDbSpline
 62
7
  6
CONTINUOUS
 70
0
 71
3
 72
11
 73
7
 74
0
 42
0.0000001
 43
0.0000001
 44
0.0000000001
 40
0.0
 40
0.0
 40
0.0
 40
0.0
 40
0.2495118797
 40
0.501155541
 40
0.7523515658
 40
1.0
 40
1.0
 40
1.0
 40
1.0
 10
7.021046683
 20
12.3784848057
 30
0.0
 10
7.0147595683
 20
12.3784845259
 30
0.0
 10
7.0021205152
 20
12.3792925644
 30
0.0
 10
6.9834319262
 20
12.3826978841
 30
0.0
 10
6.9652816278
 20
12.3881255147
 30
0.0
 10
6.953628694
 20
12.3928940276
 30
0.0
 10
6.9479672444
 20
12.3955184491
 30
0.0
  0
SPLINE
  5
2C4
100
AcDbEntity
  8
0
100
AcDbSpline
 62
7
  6
CONTINUOUS
 70
0
 71
3
 72
17
 73
13
 74
0
 42
0.0000001
 43
0.0000001
 44
0.0000000001
 40
0.0
 40
0.0
 40
0.0
 40
0.0
 40
0.1311771877
 40
0.1948889235
 40
0.2574361543
 40
0.3797191136
 40
0.5
 40
0.6202808864
 40
0.7425638457
 40
0.8051110765
 40
0.8688228123
 40
1.0
 40
1.0
 40
1.0
 40
1.0
 10
7.0049958993
 20
12.4630281312
 30
0.0
 10
7.0115026619
 20
12.4577427186
 30
0.0
 10
7.0217478256
 20
12.450550835
 30
0.0
 10
7.0362665166
 20
12.4427812485
 30
0.0
 10
7.0508697686
 20
12.4364927018
 30
0.0
 10
7.0697375948
 20
12.4311457267
 30
0.0
 10
7.0929559125
 20
12.4289859351
 30
0.0
 10
7.1161742303
 20
12.4311457267
 30
0.0
 10
7.1350420564
 20
12.4364927018
 30
0.0
 10
7.1496453084
 20
12.4427812485
 30
0.0
 10
7.1641639995
 20
12.450550835
 30
0.0
 10
7.1744091631
 20
12.4577427186
 30
0.0
 10
7.1809159257
 20
12.4630281312
 30
0.0
  0
SPLINE
  5
2C5
100
AcDbEntity
  8
0
100
AcDbSpline
 62
7
  6
CONTINUOUS
 70
0
 71
3
 72
22
 73
18
 74
0
 42
0.0000001
 43
0.0000001
 44
0.0000000001
 40
0.0
 40
0.0
 40
0.0
 40
0.0
 40
0.0514654893
 40
0.1034198664
 40
0.1563187586
 40
0.2105613729
 40
0.2664658801
 40
0.3242649988
 40
0.3840976643
 40
0.4460151599
 40
0.5758009148
 40
0.6435270081
 40
0.7128155043
 40
0.7834117353
 40
0.8550463688
 40
0.9273932079
 40
1.0
 40
1.0
 40
1.0
 40
1.0
 10
7.048761739
 20
12.3784875306
 30
0.0
 10
7.0418142596
 20
12.3784875052
 30
0.0
 10
7.0278339075
 20
12.3794601012
 30
0.0
 10
7.0071257653
 20
12.383829939
 30
0.0
 10
6.986831611
 20
12.3910476923
 30
0.0
 10
6.9671608439
 20
12.4010486141
 30
0.0
 10
6.9482952479
 20
12.4137157529
 30
0.0
 10
6.9304195394
 20
12.4289288026
 30
0.0
 10
6.9136944364
 20
12.4465318143
 30
0.0
 10
6.8928242732
 20
12.4733720241
 30
0.0
 10
6.8752973643
 20
12.5039371752
 30
0.0
 10
6.861269578
 20
12.5371343978
 30
0.0
 10
6.8523887283
 20
12.5637480631
 30
0.0
 10
6.8453966212
 20
12.5914579037
 30
0.0
 10
6.8403515011
 20
12.6200072814
 30
0.0
 10
6.8373118216
 20
12.6491095017
 30
0.0
 10
6.8366297043
 20
12.6686838746
 30
0.0
 10
6.8366297043
 20
12.6784852814
 30
0.0
  0
SPLINE
  5
2C6
100
AcDbEntity
  8
0
100
AcDbSpline
 62
7
  6
CONTINUOUS
 70
0
 71
3
 72
11
 73
7
 74
0
 42
0.0000001
 43
0.0000001
 44
0.0000000001
 40
0.0
 40
0.0
 40
0.0
 40
0.0
 40
0.2357537344
 40
0.4811152756
 40
0.7359958557
 40
1.0
 40
1.0
 40
1.0
 40
1.0
 10
7.1809159257
 20
12.4630281312
 30
0.0
 10
7.1867131674
 20
12.4677859779
 30
0.0
 10
7.1979462658
 20
12.4782441459
 30
0.0
 10
7.213159079
 20
12.496103802
 30
0.0
 10
7.2268251597
 20
12.5162643684
 30
0.0
 10
7.2346826703
 20
12.5308149273
 30
0.0
 10
7.2383268697
 20
12.5383814517
 30
0.0
  0
SPLINE
  5
2C7
100
AcDbEntity
  8
0
100
AcDbSpline
 62
7
  6
CONTINUOUS
 70
0
 71
3
 72
17
 73
13
 74
0
 42
0.0000001
 43
0.0000001
 44
0.0000000001
 40
0.0
 40
0.0
 40
0.0
 40
0.0
 40
0.1097077365
 40
0.1665425169
 40
0.224670911
 40
0.2840766849
 40
0.3447241758
 40
0.4694689275
 40
0.5983026546
 40
0.6640156178
 40
0.7304295468
 40
1.0
 40
1.0
 40
1.0
 40
1.0
 10
7.0049958993
 20
12.8939424315
 30
0.0
 10
6.9982140959
 20
12.8883765464
 30
0.0
 10
6.9885229257
 20
12.879159961
 30
0.0
 10
6.9767845149
 20
12.8655474663
 30
0.0
 10
6.9683794519
 20
12.8544077076
 30
0.0
 10
6.9605157839
 20
12.842514415
 30
0.0
 10
6.9506980685
 20
12.825566378
 30
0.0
 10
6.9399904731
 20
12.8027730206
 30
0.0
 10
6.9315973791
 20
12.7786098535
 30
0.0
 10
6.9262309995
 20
12.7584338716
 30
0.0
 10
6.919495595
 20
12.7270202256
 30
0.0
 10
6.9170698935
 20
12.7000428956
 30
0.0
 10
6.9170358861
 20
12.6784852814
 30
0.0
  0
SPLINE
  5
2C8
100
AcDbEntity
  8
0
100
AcDbSpline
 62
7
  6
CONTINUOUS
 70
0
 71
3
 72
17
 73
13
 74
0
 42
0.0000001
 43
0.0000001
 44
0.0000000001
 40
0.0
 40
0.0
 40
0.0
 40
0.0
 40
0.1311771877
 40
0.1948889235
 40
0.2574361543
 40
0.3797191136
 40
0.5
 40
0.6202808864
 40
0.7425638457
 40
0.8051110765
 40
0.8688228123
 40
1.0
 40
1.0
 40
1.0
 40
1.0
 10
7.1809159257
 20
12.8939424315
 30
0.0
 10
7.1744091631
 20
12.8992278442
 30
0.0
 10
7.1641639995
 20
12.9064197277
 30
0.0
 10
7.1496453084
 20
12.9141893143
 30
0.0
 10
7.1350420564
 20
12.9204778609
 30
0.0
 10
7.1161742303
 20
12.9258248361
 30
0.0
 10
7.0929559125
 20
12.9279846276
 30
0.0
 10
7.0697375948
 20
12.9258248361
 30
0.0
 10
7.0508697686
 20
12.9204778609
 30
0.0
 10
7.0362665166
 20
12.9141893143
 30
0.0
 10
7.0217478256
 20
12.9064197277
 30
0.0
 10
7.0115026619
 20
12.8992278442
 30
0.0
 10
7.0049958993
 20
12.8939424315
 30
0.0
  0
SPLINE
  5
2C9
100
AcDbEntity
  8
0
100
AcDbSpline
 62
7
  6
CONTINUOUS
 70
0
 71
3
 72
11
 73
7
 74
0
 42
0.0000001
 43
0.0000001
 44
0.0000000001
 40
0.0
 40
0.0
 40
0.0
 40
0.0
 40
0.2640010006
 40
0.5188802712
 40
0.7642428147
 40
1.0
 40
1.0
 40
1.0
 40
1.0
 10
7.2383146254
 20
12.8186145309
 30
0.0
 10
7.2346707608
 20
12.826178353
 30
0.0
 10
7.2268142687
 20
12.8407237375
 30
0.0
 10
7.2131508177
 20
12.8608772422
 30
0.0
 10
7.1979415896
 20
12.8787309531
 30
0.0
 10
7.1867115405
 20
12.88918592
 30
0.0
 10
7.1809159257
 20
12.8939424315
 30
0.0
  0
SPLINE
  5
2CA
100
AcDbEntity
  8
0
100
AcDbSpline
 62
7
  6
CONTINUOUS
 70
0
 71
3
 72
11
 73
7
 74
0
 42
0.0000001
 43
0.0000001
 44
0.0000000001
 40
0.0
 40
0.0
 40
0.0
 40
0.0
 40
0.2373588301
 40
0.485783196
 40
0.7419025448
 40
1.0
 40
1.0
 40
1.0
 40
1.0
 10
7.02340395
 20
12.9784852814
 30
0.0
 10
7.017242412
 20
12.978485283
 30
0.0
 10
7.0046235703
 20
12.977709045
 30
0.0
 10
6.9856071397
 20
12.9744640665
 30
0.0
 10
6.9664970048
 20
12.9691709642
 30
0.0
 10
6.9540459398
 20
12.9642693014
 30
0.0
 10
6.9479673993
 20
12.9614515314
 30
0.0
  0
SPLINE
  5
2CB
100
AcDbEntity
  8
0
100
AcDbSpline
 62
7
  6
CONTINUOUS
 70
0
 71
3
 72
20
 73
16
 74
0
 42
0.0000001
 43
0.0000001
 44
0.0000000001
 40
0.0
 40
0.0
 40
0.0
 40
0.0
 40
0.1092174537
 40
0.2243872679
 40
0.2840637461
 40
0.3450121791
 40
0.4702473386
 40
0.5343831483
 40
0.5993477376
 40
0.6650207636
 40
0.7312909859
 40
0.7980517849
 40
0.8651998626
 40
0.9325815177
 40
1.0
 40
1.0
 40
1.0
 40
1.0
 10
6.9479673993
 20
12.3955190314
 30
0.0
 10
6.9366197458
 20
12.400779353
 30
0.0
 10
6.9142529807
 20
12.4137144309
 30
0.0
 10
6.8889189061
 20
12.434320611
 30
0.0
 10
6.8699280019
 20
12.4535460877
 30
0.0
 10
6.8516073844
 20
12.4749517847
 30
0.0
 10
6.8352919617
 20
12.4986529608
 30
0.0
 10
6.8212639554
 20
12.5241968099
 30
0.0
 10
6.8118512892
 20
12.5444387262
 30
0.0
 10
6.8037248502
 20
12.5654912042
 30
0.0
 10
6.7969650786
 20
12.5872374382
 30
0.0
 10
6.7916280694
 20
12.6095495794
 30
0.0
 10
6.7877803325
 20
12.6322958877
 30
0.0
 10
6.7854553964
 20
12.6553222714
 30
0.0
 10
6.784932271
 20
12.6707645021
 30
0.0
 10
6.784932271
 20
12.6784852814
 30
0.0
  0
SPLINE
  5
2CC
100
AcDbEntity
  8
0
100
AcDbSpline
 62
7
  6
CONTINUOUS
 70
0
 71
3
 72
22
 73
18
 74
0
 42
0.0000001
 43
0.0000001
 44
0.0000000001
 40
0.0
 40
0.0
 40
0.0
 40
0.0
 40
0.0726068653
 40
0.1449527019
 40
0.2165856705
 40
0.287180664
 40
0.3564684647
 40
0.4241938643
 40
0.5539787337
 40
0.6158963838
 40
0.6757298861
 40
0.7335298116
 40
0.7894355305
 40
0.8436791344
 40
0.8965789803
 40
0.9485340119
 40
1.0
 40
1.0
 40
1.0
 40
1.0
 10
6.8366297043
 20
12.6784852814
 30
0.0
 10
6.8366297043
 20
12.6882866997
 30
0.0
 10
6.8373117707
 20
12.7078609516
 30
0.0
 10
6.8403514005
 20
12.7369628317
 30
0.0
 10
6.8453964235
 20
12.7655116929
 30
0.0
 10
6.8523882801
 20
12.7932211001
 30
0.0
 10
6.8612689478
 20
12.8198344556
 30
0.0
 10
6.8752962297
 20
12.8530315519
 30
0.0
 10
6.8928227497
 20
12.8835967596
 30
0.0
 10
6.9136930192
 20
12.9104368833
 30
0.0
 10
6.9304178218
 20
12.9280405335
 30
0.0
 10
6.9482939697
 20
12.94325367
 30
0.0
 10
6.9671596282
 20
12.9559214463
 30
0.0
 10
6.986830842
 20
12.9659224599
 30
0.0
 10
7.0071252404
 20
12.9731405633
 30
0.0
 10
7.027833687
 20
12.9775104296
 30
0.0
 10
7.0418141904
 20
12.9784830067
 30
0.0
 10
7.0487617383
 20
12.9784830322
 30
0.0
  0
SPLINE
  5
2CD
100
AcDbEntity
  8
0
100
AcDbSpline
 62
7
  6
CONTINUOUS
 70
0
 71
3
 72
20
 73
16
 74
0
 42
0.0000001
 43
0.0000001
 44
0.0000000001
 40
0.0
 40
0.0
 40
0.0
 40
0.0
 40
0.067418774
 40
0.1348004878
 40
0.2019478475
 40
0.2687075268
 40
0.3349768142
 40
0.4006489405
 40
0.4656122679
 40
0.5297466985
 40
0.6549813704
 40
0.7159300868
 40
0.7756072059
 40
0.8907802576
 40
1.0
 40
1.0
 40
1.0
 40
1.0
 10
6.784932271
 20
12.6784852814
 30
0.0
 10
6.784932271
 20
12.6862060988
 30
0.0
 10
6.7854547733
 20
12.7016483763
 30
0.0
 10
6.7877782825
 20
12.7246748872
 30
0.0
 10
6.7916258317
 20
12.7474210777
 30
0.0
 10
6.7969643979
 20
12.7697325627
 30
0.0
 10
6.8037258087
 20
12.791477927
 30
0.0
 10
6.8118523614
 20
12.8125299494
 30
0.0
 10
6.8212636857
 20
12.8327720386
 30
0.0
 10
6.8352902494
 20
12.8583163159
 30
0.0
 10
6.851605646
 20
12.8820173891
 30
0.0
 10
6.8699264556
 20
12.9034229922
 30
0.0
 10
6.8889175788
 20
12.9226489482
 30
0.0
 10
6.9142522805
 20
12.9432555099
 30
0.0
 10
6.9366195011
 20
12.9561910963
 30
0.0
 10
6.9479673993
 20
12.9614515314
 30
0.0
  0
SPLINE
  5
2CE
100
AcDbEntity
  8
0
100
AcDbSpline
 62
7
  6
CONTINUOUS
 70
0
 71
3
 72
9
 73
5
 74
0
 42
0.0000001
 43
0.0000001
 44
0.0000000001
 40
0.0
 40
0.0
 40
0.0
 40
0.0
 40
0.2543799269
 40
1.0
 40
1.0
 40
1.0
 40
1.0
 10
15.8303458848
 20
6.6017729406
 30
0.0
 10
15.8330458444
 20
6.6001888094
 30
0.0
 10
15.8435618569
 20
6.5937967648
 30
0.0
 10
15.8536762966
 20
6.5867385576
 30
0.0
 10
15.860915036
 20
6.5811002033
 30
0.0
  0
SPLINE
  5
2CF
100
AcDbEntity
  8
0
100
AcDbSpline
 62
7
  6
CONTINUOUS
 70
0
 71
3
 72
12
 73
8
 74
0
 42
0.0000001
 43
0.0000001
 44
0.0000000001
 40
0.0
 40
0.0
 40
0.0
 40
0.0
 40
0.2661923012
 40
0.520697249
 40
0.7645844853
 40
0.8832190201
 40
1.0
 40
1.0
 40
1.0
 40
1.0
 10
15.8629088028
 20
6.5795315809
 30
0.0
 10
15.8711943349
 20
6.572947082
 30
0.0
 10
15.8866377373
 20
6.5590562523
 30
0.0
 10
15.9063248486
 20
6.5357686368
 30
0.0
 10
15.919251808
 20
6.5147879319
 30
0.0
 10
15.9271947783
 20
6.4974466812
 30
0.0
 10
15.9303700009
 20
6.4886273632
 30
0.0
 10
15.9317522102
 20
6.4841948986
 30
0.0
  0
SPLINE
  5
2D0
100
AcDbEntity
  8
0
100
AcDbSpline
 62
7
  6
CONTINUOUS
 70
0
 71
3
 72
9
 73
5
 74
0
 42
0.0000001
 43
0.0000001
 44
0.0000000001
 40
0.0
 40
0.0
 40
0.0
 40
0.0
 40
0.5025681536
 40
1.0
 40
1.0
 40
1.0
 40
1.0
 10
15.9325208955
 20
6.4816562386
 30
0.0
 10
15.9345846544
 20
6.4746311405
 30
0.0
 10
15.9377318409
 20
6.4603499427
 30
0.0
 10
15.9387904812
 20
6.4457614887
 30
0.0
 10
15.9387905077
 20
6.4385143596
 30
0.0
  0
SPLINE
  5
2D1
100
AcDbEntity
  8
0
100
AcDbSpline
 62
7
  6
CONTINUOUS
 70
0
 71
3
 72
9
 73
5
 74
0
 42
0.0000001
 43
0.0000001
 44
0.0000000001
 40
0.0
 40
0.0
 40
0.0
 40
0.0
 40
0.4974374604
 40
1.0
 40
1.0
 40
1.0
 40
1.0
 10
15.3387950061
 20
6.4385143589
 30
0.0
 10
15.3387949797
 20
6.4457544747
 30
0.0
 10
15.3398515983
 20
6.460328618
 30
0.0
 10
15.3429927731
 20
6.4745963648
 30
0.0
 10
15.3450525499
 20
6.4816150761
 30
0.0
  0
SPLINE
  5
2D2
100
AcDbEntity
  8
0
100
AcDbSpline
 62
7
  6
CONTINUOUS
 70
0
 71
3
 72
12
 73
8
 74
0
 42
0.0000001
 43
0.0000001
 44
0.0000000001
 40
0.0
 40
0.0
 40
0.0
 40
0.0
 40
0.1167820501
 40
0.2354173154
 40
0.4793037002
 40
0.7338080905
 40
1.0
 40
1.0
 40
1.0
 40
1.0
 10
15.3458281367
 20
6.4841783364
 30
0.0
 10
15.3472097149
 20
6.4886105734
 30
0.0
 10
15.3503836325
 20
6.4974294841
 30
0.0
 10
15.3583242222
 20
6.5147698345
 30
0.0
 10
15.371247126
 20
6.5357502099
 30
0.0
 10
15.390930037
 20
6.5590374428
 30
0.0
 10
15.4063700899
 20
6.5729289368
 30
0.0
 10
15.4146541629
 20
6.5795136063
 30
0.0
  0
SPLINE
  5
2D3
100
AcDbEntity
  8
0
100
AcDbSpline
 62
7
  6
CONTINUOUS
 70
0
 71
3
 72
9
 73
5
 74
0
 42
0.0000001
 43
0.0000001
 44
0.0000000001
 40
0.0
 40
0.0
 40
0.0
 40
0.0
 40
0.2456878572
 40
1.0
 40
1.0
 40
1.0
 40
1.0
 10
15.416601892
 20
6.5810466649
 30
0.0
 10
15.4189986121
 20
6.5829147332
 30
0.0
 10
15.4288857742
 20
6.590347818
 30
0.0
 10
15.4392775648
 20
6.5971049082
 30
0.0
 10
15.4473258888
 20
6.601823503
 30
0.0
  0
SPLINE
  5
2D4
100
AcDbEntity
  8
0
100
AcDbSpline
 62
7
  6
CONTINUOUS
 70
0
 71
3
 72
24
 73
20
 74
0
 42
0.0000001
 43
0.0000001
 44
0.0000000001
 40
0.0
 40
0.0
 40
0.0
 40
0.0
 40
0.0635431051
 40
0.1270683057
 40
0.1903194479
 40
0.2532347588
 40
0.3158740172
 40
0.3782827218
 40
0.4405370199
 40
0.4716458189
 40
0.5027362685
 40
0.5648705175
 40
0.6270068175
 40
0.6891603707
 40
0.7513298863
 40
0.8135067432
 40
0.8756743708
 40
0.9378163139
 40
1.0
 40
1.0
 40
1.0
 40
1.0
 10
15.6387927569
 20
6.7539046458
 30
0.0
 10
15.6446118289
 20
6.7539046458
 30
0.0
 10
15.6562580394
 20
6.7532678394
 30
0.0
 10
15.6734876823
 20
6.7504266949
 30
0.0
 10
15.6902420438
 20
6.7456975434
 30
0.0
 10
15.7062690769
 20
6.7391057235
 30
0.0
 10
15.721330883
 20
6.7306850958
 30
0.0
 10
15.7351887621
 20
6.7205011826
 30
0.0
 10
15.745522799
 20
6.7106012271
 30
0.0
 10
15.7529195095
 20
6.70192039
 30
0.0
 10
15.7597005701
 20
6.6927641726
 30
0.0
 10
15.766945631
 20
6.6804599683
 30
0.0
 10
15.7734499991
 20
6.6646119071
 30
0.0
 10
15.7775651749
 20
6.6479759219
 30
0.0
 10
15.7791959678
 20
6.6309115504
 30
0.0
 10
15.7782631569
 20
6.6137937185
 30
0.0
 10
15.7748285625
 20
6.5970006745
 30
0.0
 10
15.7689605299
 20
6.5809001408
 30
0.0
 10
15.7635497183
 20
6.5708312621
 30
0.0
 10
15.7605062891
 20
6.5660181768
 30
0.0
  0
SPLINE
  5
2D5
100
AcDbEntity
  8
0
100
AcDbSpline
 62
7
  6
CONTINUOUS
 70
0
 71
3
 72
28
 73
24
 74
0
 42
0.0000001
 43
0.0000001
 44
0.0000000001
 40
0.0
 40
0.0
 40
0.0
 40
0.0
 40
0.0621451631
 40
0.1242547448
 40
0.1863917089
 40
0.2485388149
 40
0.2796364306
 40
0.3107346326
 40
0.3418295795
 40
0.3729195151
 40
0.4350610645
 40
0.4661509249
 40
0.4972376175
 40
0.5283346009
 40
0.5594511275
 40
0.5905889781
 40
0.6217489505
 40
0.6841658992
 40
0.7468103945
 40
0.8097237964
 40
0.8729629789
 40
0.9364707241
 40
1.0
 40
1.0
 40
1.0
 40
1.0
 10
15.5170792247
 20
6.5660181768
 30
0.0
 10
15.5140371988
 20
6.5708290429
 30
0.0
 10
15.5086271922
 20
6.580892993
 30
0.0
 10
15.5027623036
 20
6.5969878598
 30
0.0
 10
15.4993228035
 20
6.61377249
 30
0.0
 10
15.4985458317
 20
6.6280400036
 30
0.0
 10
15.4992041687
 20
6.6394184477
 30
0.0
 10
15.500325719
 20
6.6478971435
 30
0.0
 10
15.502069271
 20
6.6562696605
 30
0.0
 10
15.5052123904
 20
6.6672227683
 30
0.0
 10
15.5095486773
 20
6.6778027707
 30
0.0
 10
15.5149724352
 20
6.6878225916
 30
0.0
 10
15.519568199
 20
6.695033197
 30
0.0
 10
15.52465624
 20
6.7019071364
 30
0.0
 10
15.5302049481
 20
6.7084208653
 30
0.0
 10
15.5361832868
 20
6.7145509143
 30
0.0
 10
15.5446902268
 20
6.7221844773
 30
0.0
 10
15.556252793
 20
6.7306844652
 30
0.0
 10
15.5713168367
 20
6.7391060053
 30
0.0
 10
15.5873461564
 20
6.745698376
 30
0.0
 10
15.604100303
 20
6.7504274597
 30
0.0
 10
15.6213288342
 20
6.753268247
 30
0.0
 10
15.632974029
 20
6.7539046458
 30
0.0
 10
15.6387927569
 20
6.7539046458
 30
0.0
  0
SPLINE
  5
2D6
100
AcDbEntity
  8
0
100
AcDbSpline
 62
7
  6
CONTINUOUS
 70
0
 71
3
 72
17
 73
13
 74
0
 42
0.0000001
 43
0.0000001
 44
0.0000000001
 40
0.0
 40
0.0
 40
0.0
 40
0.0
 40
0.1097077365
 40
0.1665425169
 40
0.224670911
 40
0.2840766849
 40
0.3447241758
 40
0.4694689275
 40
0.5983026546
 40
0.6640156178
 40
0.7304295468
 40
1.0
 40
1.0
 40
1.0
 40
1.0
 10
15.4233356068
 20
6.3947485199
 30
0.0
 10
15.4289014919
 20
6.3879667165
 30
0.0
 10
15.4381180773
 20
6.3782755463
 30
0.0
 10
15.451730572
 20
6.3665371354
 30
0.0
 10
15.4628703307
 20
6.3581320725
 30
0.0
 10
15.4747636233
 20
6.3502684045
 30
0.0
 10
15.4917116603
 20
6.3404506891
 30
0.0
 10
15.5145050177
 20
6.3297430937
 30
0.0
 10
15.5386681848
 20
6.3213499997
 30
0.0
 10
15.5588441667
 20
6.3159836201
 30
0.0
 10
15.5902578127
 20
6.3092482156
 30
0.0
 10
15.6172351427
 20
6.3068225141
 30
0.0
 10
15.6387927569
 20
6.3067885067
 30
0.0
  0
SPLINE
  5
2D7
100
AcDbEntity
  8
0
100
AcDbSpline
 62
7
  6
CONTINUOUS
 70
0
 71
3
 72
11
 73
7
 74
0
 42
0.0000001
 43
0.0000001
 44
0.0000000001
 40
0.0
 40
0.0
 40
0.0
 40
0.0
 40
0.2357537344
 40
0.4811152756
 40
0.7359958557
 40
1.0
 40
1.0
 40
1.0
 40
1.0
 10
15.8542499071
 20
6.5706685463
 30
0.0
 10
15.8494920604
 20
6.576465788
 30
0.0
 10
15.8390338924
 20
6.5876988864
 30
0.0
 10
15.8211742363
 20
6.6029116996
 30
0.0
 10
15.8010136699
 20
6.6165777803
 30
0.0
 10
15.786463111
 20
6.6244352909
 30
0.0
 10
15.7788965867
 20
6.6280794903
 30
0.0
  0
SPLINE
  5
2D8
100
AcDbEntity
  8
0
100
AcDbSpline
 62
7
  6
CONTINUOUS
 70
0
 71
3
 72
17
 73
13
 74
0
 42
0.0000001
 43
0.0000001
 44
0.0000000001
 40
0.0
 40
0.0
 40
0.0
 40
0.0
 40
0.1311771877
 40
0.1948889235
 40
0.2574361543
 40
0.3797191136
 40
0.5
 40
0.6202808864
 40
0.7425638457
 40
0.8051110765
 40
0.8688228123
 40
1.0
 40
1.0
 40
1.0
 40
1.0
 10
15.4233356068
 20
6.5706685463
 30
0.0
 10
15.4180501941
 20
6.5641617837
 30
0.0
 10
15.4108583106
 20
6.5539166201
 30
0.0
 10
15.403088724
 20
6.539397929
 30
0.0
 10
15.3968001774
 20
6.524794677
 30
0.0
 10
15.3914532022
 20
6.5059268509
 30
0.0
 10
15.3892934107
 20
6.4827085331
 30
0.0
 10
15.3914532022
 20
6.4594902153
 30
0.0
 10
15.3968001774
 20
6.4406223892
 30
0.0
 10
15.403088724
 20
6.4260191372
 30
0.0
 10
15.4108583106
 20
6.4115004462
 30
0.0
 10
15.4180501941
 20
6.4012552825
 30
0.0
 10
15.4233356068
 20
6.3947485199
 30
0.0
  0
SPLINE
  5
2D9
100
AcDbEntity
  8
0
100
AcDbSpline
 62
7
  6
CONTINUOUS
 70
0
 71
3
 72
17
 73
13
 74
0
 42
0.0000001
 43
0.0000001
 44
0.0000000001
 40
0.0
 40
0.0
 40
0.0
 40
0.0
 40
0.1311771877
 40
0.1948889235
 40
0.2574361543
 40
0.3797191136
 40
0.5
 40
0.6202808864
 40
0.7425638457
 40
0.8051110765
 40
0.8688228123
 40
1.0
 40
1.0
 40
1.0
 40
1.0
 10
15.8542499071
 20
6.3947485199
 30
0.0
 10
15.8595353197
 20
6.4012552825
 30
0.0
 10
15.8667272033
 20
6.4115004462
 30
0.0
 10
15.8744967898
 20
6.4260191372
 30
0.0
 10
15.8807853365
 20
6.4406223892
 30
0.0
 10
15.8861323116
 20
6.4594902153
 30
0.0
 10
15.8882921032
 20
6.4827085331
 30
0.0
 10
15.8861323116
 20
6.5059268509
 30
0.0
 10
15.8807853365
 20
6.524794677
 30
0.0
 10
15.8744967898
 20
6.539397929
 30
0.0
 10
15.8667272033
 20
6.5539166201
 30
0.0
 10
15.8595353197
 20
6.5641617837
 30
0.0
 10
15.8542499071
 20
6.5706685463
 30
0.0
  0
SPLINE
  5
2DA
100
AcDbEntity
  8
0
100
AcDbSpline
 62
7
  6
CONTINUOUS
 70
0
 71
3
 72
22
 73
18
 74
0
 42
0.0000001
 43
0.0000001
 44
0.0000000001
 40
0.0
 40
0.0
 40
0.0
 40
0.0
 40
0.0514654893
 40
0.1034198664
 40
0.1563187586
 40
0.2105613729
 40
0.2664658801
 40
0.3242649988
 40
0.3840976643
 40
0.4460151599
 40
0.5758009148
 40
0.6435270081
 40
0.7128155043
 40
0.7834117353
 40
0.8550463688
 40
0.9273932079
 40
1.0
 40
1.0
 40
1.0
 40
1.0
 10
15.9387905077
 20
6.4385143596
 30
0.0
 10
15.9387905331
 20
6.4315668802
 30
0.0
 10
15.9378179371
 20
6.4175865281
 30
0.0
 10
15.9334480993
 20
6.3968783859
 30
0.0
 10
15.926230346
 20
6.3765842316
 30
0.0
 10
15.9162294242
 20
6.3569134644
 30
0.0
 10
15.9035622854
 20
6.3380478685
 30
0.0
 10
15.8883492357
 20
6.32017216
 30
0.0
 10
15.870746224
 20
6.303447057
 30
0.0
 10
15.8439060142
 20
6.2825768938
 30
0.0
 10
15.8133408631
 20
6.2650499849
 30
0.0
 10
15.7801436406
 20
6.2510221986
 30
0.0
 10
15.7535299752
 20
6.2421413489
 30
0.0
 10
15.7258201346
 20
6.2351492418
 30
0.0
 10
15.6972707569
 20
6.2301041217
 30
0.0
 10
15.6681685367
 20
6.2270644422
 30
0.0
 10
15.6485941637
 20
6.2263823249
 30
0.0
 10
15.6387927569
 20
6.2263823249
 30
0.0
  0
SPLINE
  5
2DB
100
AcDbEntity
  8
0
100
AcDbSpline
 62
7
  6
CONTINUOUS
 70
0
 71
3
 72
17
 73
13
 74
0
 42
0.0000001
 43
0.0000001
 44
0.0000000001
 40
0.0
 40
0.0
 40
0.0
 40
0.0
 40
0.2695704532
 40
0.3359843822
 40
0.4016973454
 40
0.5305310725
 40
0.6552758242
 40
0.7159233151
 40
0.775329089
 40
0.8334574831
 40
0.8902922635
 40
1.0
 40
1.0
 40
1.0
 40
1.0
 10
15.6387927569
 20
6.3067885067
 30
0.0
 10
15.6603503711
 20
6.3068225141
 30
0.0
 10
15.6873277012
 20
6.3092482156
 30
0.0
 10
15.7187413472
 20
6.3159836201
 30
0.0
 10
15.7389173291
 20
6.3213499997
 30
0.0
 10
15.7630804962
 20
6.3297430937
 30
0.0
 10
15.7858738535
 20
6.3404506891
 30
0.0
 10
15.8028218906
 20
6.3502684045
 30
0.0
 10
15.8147151832
 20
6.3581320725
 30
0.0
 10
15.8258549419
 20
6.3665371354
 30
0.0
 10
15.8394674366
 20
6.3782755463
 30
0.0
 10
15.848684022
 20
6.3879667165
 30
0.0
 10
15.8542499071
 20
6.3947485199
 30
0.0
  0
SPLINE
  5
2DC
100
AcDbEntity
  8
0
100
AcDbSpline
 62
7
  6
CONTINUOUS
 70
0
 71
3
 72
15
 73
11
 74
0
 42
0.0000001
 43
0.0000001
 44
0.0000000001
 40
0.0
 40
0.0
 40
0.0
 40
0.0
 40
0.2503255736
 40
0.3754320092
 40
0.5004790306
 40
0.625456177
 40
0.6879288521
 40
0.7504002209
 40
0.8752710495
 40
1.0
 40
1.0
 40
1.0
 40
1.0
 10
15.9217590069
 20
4.8831899655
 30
0.0
 10
15.9270865954
 20
4.8569484581
 30
0.0
 10
15.9350859805
 20
4.8175928045
 30
0.0
 10
15.9449769999
 20
4.7649777433
 30
0.0
 10
15.9518041424
 20
4.7254337897
 30
0.0
 10
15.9567822333
 20
4.6923753983
 30
0.0
 10
15.9602025538
 20
4.6658605117
 30
0.0
 10
15.9632077432
 20
4.6393069024
 30
0.0
 10
15.9660349042
 20
4.6060352041
 30
0.0
 10
15.9669177569
 20
4.5793317652
 30
0.0
 10
15.9669177569
 20
4.5659897449
 30
0.0
  0
SPLINE
  5
2DD
100
AcDbEntity
  8
0
100
AcDbSpline
 62
7
  6
CONTINUOUS
 70
0
 71
3
 72
20
 73
16
 74
0
 42
0.0000001
 43
0.0000001
 44
0.0000000001
 40
0.0
 40
0.0
 40
0.0
 40
0.0
 40
0.0674189784
 40
0.1348014238
 40
0.2019494193
 40
0.2687085897
 40
0.3349767496
 40
0.4006484241
 40
0.4656123003
 40
0.529747365
 40
0.6549808206
 40
0.7159295257
 40
0.7756079581
 40
0.8907823792
 40
1.0
 40
1.0
 40
1.0
 40
1.0
 10
15.6387927569
 20
6.1746848916
 30
0.0
 10
15.6310719162
 20
6.1746848916
 30
0.0
 10
15.6156295292
 20
6.1752080184
 30
0.0
 10
15.5926029902
 20
6.1775328958
 30
0.0
 10
15.5698567405
 20
6.1813804465
 30
0.0
 10
15.5475450338
 20
6.1867175039
 30
0.0
 10
15.5257994369
 20
6.1934774302
 30
0.0
 10
15.504747473
 20
6.2016038963
 30
0.0
 10
15.484505697
 20
6.2110161187
 30
0.0
 10
15.4589618527
 20
6.2250433802
 30
0.0
 10
15.4352600267
 20
6.2413574873
 30
0.0
 10
15.4138542619
 20
6.2596781916
 30
0.0
 10
15.3946288789
 20
6.2786703553
 30
0.0
 10
15.3740229943
 20
6.3040055602
 30
0.0
 10
15.3610868397
 20
6.3263723422
 30
0.0
 10
15.3558265069
 20
6.3377200199
 30
0.0
  0
SPLINE
  5
2DE
100
AcDbEntity
  8
0
100
AcDbSpline
 62
7
  6
CONTINUOUS
 70
0
 71
3
 72
11
 73
7
 74
0
 42
0.0000001
 43
0.0000001
 44
0.0000000001
 40
0.0
 40
0.0
 40
0.0
 40
0.0
 40
0.2476463769
 40
0.4989530387
 40
0.7506582716
 40
1.0
 40
1.0
 40
1.0
 40
1.0
 10
15.3558259247
 20
6.337719865
 30
0.0
 10
15.3532015276
 20
6.3433812619
 30
0.0
 10
15.3484323231
 20
6.3550368377
 30
0.0
 10
15.3430031972
 20
6.3731912012
 30
0.0
 10
15.339600091
 20
6.391880296
 30
0.0
 10
15.3387925609
 20
6.4045164826
 30
0.0
 10
15.3387922813
 20
6.4107993036
 30
0.0
  0
SPLINE
  5
2DF
100
AcDbEntity
  8
0
100
AcDbSpline
 62
7
  6
CONTINUOUS
 70
0
 71
3
 72
22
 73
18
 74
0
 42
0.0000001
 43
0.0000001
 44
0.0000000001
 40
0.0
 40
0.0
 40
0.0
 40
0.0
 40
0.0726068653
 40
0.1449527019
 40
0.2165856705
 40
0.287180664
 40
0.3564684647
 40
0.4241938643
 40
0.5539787337
 40
0.6158963838
 40
0.6757298861
 40
0.7335298116
 40
0.7894355305
 40
0.8436791344
 40
0.8965789803
 40
0.9485340119
 40
1.0
 40
1.0
 40
1.0
 40
1.0
 10
15.6387927569
 20
6.2263823249
 30
0.0
 10
15.6289913386
 20
6.2263823249
 30
0.0
 10
15.6094170867
 20
6.2270643912
 30
0.0
 10
15.5803152066
 20
6.2301040211
 30
0.0
 10
15.5517663454
 20
6.2351490441
 30
0.0
 10
15.5240569382
 20
6.2421409007
 30
0.0
 10
15.4974435827
 20
6.2510215684
 30
0.0
 10
15.4642464864
 20
6.2650488502
 30
0.0
 10
15.4336812787
 20
6.2825753703
 30
0.0
 10
15.406841155
 20
6.3034456398
 30
0.0
 10
15.3892375048
 20
6.3201704424
 30
0.0
 10
15.3740243683
 20
6.3380465903
 30
0.0
 10
15.361356592
 20
6.3569122488
 30
0.0
 10
15.3513555785
 20
6.3765834626
 30
0.0
 10
15.3441374751
 20
6.3968778609
 30
0.0
 10
15.3397676088
 20
6.4175863076
 30
0.0
 10
15.3387950316
 20
6.431566811
 30
0.0
 10
15.3387950061
 20
6.4385143589
 30
0.0
  0
SPLINE
  5
2E0
100
AcDbEntity
  8
0
100
AcDbSpline
 62
7
  6
CONTINUOUS
 70
0
 71
3
 72
20
 73
16
 74
0
 42
0.0000001
 43
0.0000001
 44
0.0000000001
 40
0.0
 40
0.0
 40
0.0
 40
0.0
 40
0.1092161994
 40
0.2243910672
 40
0.2840707822
 40
0.3450204026
 40
0.4702527749
 40
0.5343862126
 40
0.5993492839
 40
0.6650217865
 40
0.7312915161
 40
0.798051321
 40
0.8651988393
 40
0.9325809161
 40
1.0
 40
1.0
 40
1.0
 40
1.0
 10
15.9217590069
 20
6.3377200199
 30
0.0
 10
15.9164987348
 20
6.326372473
 30
0.0
 10
15.9035627817
 20
6.304005645
 30
0.0
 10
15.882956554
 20
6.2786706076
 30
0.0
 10
15.863731088
 20
6.2596780572
 30
0.0
 10
15.8423256485
 20
6.2413567391
 30
0.0
 10
15.8186241185
 20
6.225042287
 30
0.0
 10
15.7930794522
 20
6.2110172066
 30
0.0
 10
15.7728371778
 20
6.2016064854
 30
0.0
 10
15.7517853336
 20
6.1934792985
 30
0.0
 10
15.7300404658
 20
6.1867158732
 30
0.0
 10
15.7077292397
 20
6.1813755704
 30
0.0
 10
15.6849828196
 20
6.1775284451
 30
0.0
 10
15.6619559955
 20
6.1752066556
 30
0.0
 10
15.6465136213
 20
6.1746848916
 30
0.0
 10
15.6387927569
 20
6.1746848916
 30
0.0
  0
SPLINE
  5
2E1
100
AcDbEntity
  8
0
100
AcDbSpline
 62
7
  6
CONTINUOUS
 70
0
 71
3
 72
15
 73
11
 74
0
 42
0.0000001
 43
0.0000001
 44
0.0000000001
 40
0.0
 40
0.0
 40
0.0
 40
0.0
 40
0.1247291194
 40
0.249599813
 40
0.3120707361
 40
0.3745431015
 40
0.4995202737
 40
0.6245676229
 40
0.7496742307
 40
1.0
 40
1.0
 40
1.0
 40
1.0
 10
15.9669177569
 20
6.355259664
 30
0.0
 10
15.9669177569
 20
6.3419176261
 30
0.0
 10
15.9660346771
 20
6.3152141854
 30
0.0
 10
15.9632073143
 20
6.2819425614
 30
0.0
 10
15.9602026035
 20
6.2553889956
 30
0.0
 10
15.9567825259
 20
6.2288741554
 30
0.0
 10
15.951804306
 20
6.1958157772
 30
0.0
 10
15.9449770011
 20
6.1562717977
 30
0.0
 10
15.9350860394
 20
6.1036566521
 30
0.0
 10
15.9270865994
 20
6.0643009703
 30
0.0
 10
15.9217590069
 20
6.0380594434
 30
0.0
  0
SPLINE
  5
2E2
100
AcDbEntity
  8
0
100
AcDbSpline
 62
7
  6
CONTINUOUS
 70
0
 71
3
 72
11
 73
7
 74
0
 42
0.0000001
 43
0.0000001
 44
0.0000000001
 40
0.0
 40
0.0
 40
0.0
 40
0.0
 40
0.2580972089
 40
0.514212003
 40
0.7626361115
 40
1.0
 40
1.0
 40
1.0
 40
1.0
 10
15.9217590069
 20
6.3377200199
 30
0.0
 10
15.9245767743
 20
6.3437985546
 30
0.0
 10
15.9294783485
 20
6.3562495186
 30
0.0
 10
15.9347715119
 20
6.3753594976
 30
0.0
 10
15.9380164979
 20
6.3943759361
 30
0.0
 10
15.9387927553
 20
6.4069949015
 30
0.0
 10
15.938792757
 20
6.4131565708
 30
0.0
  0
SPLINE
  5
2E3
100
AcDbEntity
  8
0
100
AcDbSpline
 62
7
  6
CONTINUOUS
 70
0
 71
3
 72
11
 73
7
 74
0
 42
0.0000001
 43
0.0000001
 44
0.0000000001
 40
0.0
 40
0.0
 40
0.0
 40
0.0
 40
0.2640010006
 40
0.5188802712
 40
0.7642428147
 40
1.0
 40
1.0
 40
1.0
 40
1.0
 10
15.4986635074
 20
6.6280672459
 30
0.0
 10
15.4910996853
 20
6.6244233813
 30
0.0
 10
15.4765543008
 20
6.6165668893
 30
0.0
 10
15.4564007961
 20
6.6029034383
 30
0.0
 10
15.4385470852
 20
6.5876942102
 30
0.0
 10
15.4280921183
 20
6.5764641611
 30
0.0
 10
15.4233356068
 20
6.5706685463
 30
0.0
  0
SPLINE
  5
2E4
100
AcDbEntity
  8
03__ASM_ALL_CURVES
100
AcDbSpline
 62
4
  6
CONTINUOUS
 70
0
 71
3
 72
17
 73
13
 74
0
 42
0.0000001
 43
0.0000001
 44
0.0000000001
 40
0.0
 40
0.0
 40
0.0
 40
0.0
 40
0.125
 40
0.1875
 40
0.25
 40
0.375
 40
0.5
 40
0.625
 40
0.6875
 40
0.75
 40
0.875
 40
1.0
 40
1.0
 40
1.0
 40
1.0
 10
15.0821461854
 20
13.5732212505
 30
0.0
 10
15.0815333084
 20
13.5744076342
 30
0.0
 10
15.080634215
 20
13.5761700485
 30
0.0
 10
15.0793545357
 20
13.5785885798
 30
0.0
 10
15.0778193825
 20
13.5812459458
 30
0.0
 10
15.0759484774
 20
13.5844442857
 30
0.0
 10
15.0734225031
 20
13.5884941846
 30
0.0
 10
15.0714672291
 20
13.5912905851
 30
0.0
 10
15.0697969297
 20
13.5937036908
 30
0.0
 10
15.0678430313
 20
13.596318168
 30
0.0
 10
15.0654546647
 20
13.5995153736
 30
0.0
 10
15.0633578622
 20
13.6020895768
 30
0.0
 10
15.0623327246
 20
13.6033746236
 30
0.0
  0
SPLINE
  5
2E5
100
AcDbEntity
  8
03__ASM_ALL_CURVES
100
AcDbSpline
 62
4
  6
CONTINUOUS
 70
0
 71
3
 72
21
 73
17
 74
0
 42
0.0000001
 43
0.0000001
 44
0.0000000001
 40
0.0
 40
0.0
 40
0.0
 40
0.0
 40
0.125
 40
0.1875
 40
0.25
 40
0.375
 40
0.4375
 40
0.5
 40
0.5625
 40
0.625
 40
0.6875
 40
0.75
 40
0.8125
 40
0.84375
 40
0.875
 40
1.0
 40
1.0
 40
1.0
 40
1.0
 10
15.0619293259
 20
13.6038603218
 30
0.0
 10
15.0609383994
 20
13.60501153
 30
0.0
 10
15.0594758659
 20
13.6067236062
 30
0.0
 10
15.057430396
 20
13.6090653189
 30
0.0
 10
15.0550573368
 20
13.611621224
 30
0.0
 10
15.0528082181
 20
13.6140650518
 30
0.0
 10
15.0505814206
 20
13.6163040195
 30
0.0
 10
15.0490173204
 20
13.6179490075
 30
0.0
 10
15.0470180676
 20
13.6198333764
 30
0.0
 10
15.0451285283
 20
13.6216666006
 30
0.0
 10
15.0432352877
 20
13.623465023
 30
0.0
 10
15.0414374049
 20
13.6250724806
 30
0.0
 10
15.0399415041
 20
13.6264420521
 30
0.0
 10
15.038691501
 20
13.6275611354
 30
0.0
 10
15.0365068952
 20
13.6294156239
 30
0.0
 10
15.0347670157
 20
13.6309152331
 30
0.0
 10
15.0333493119
 20
13.6321295759
 30
0.0
  0
SPLINE
  5
2E6
100
AcDbEntity
  8
03__ASM_ALL_CURVES
100
AcDbSpline
 62
4
  6
CONTINUOUS
 70
0
 71
3
 72
20
 73
16
 74
0
 42
0.0000001
 43
0.0000001
 44
0.0000000001
 40
0.0
 40
0.0
 40
0.0
 40
0.0
 40
0.125
 40
0.1875
 40
0.25
 40
0.375
 40
0.4375
 40
0.5
 40
0.5625
 40
0.625
 40
0.6875
 40
0.75
 40
0.8125
 40
0.875
 40
1.0
 40
1.0
 40
1.0
 40
1.0
 10
15.0333493123
 20
13.6321295756
 30
0.0
 10
15.0320397729
 20
13.6331898767
 30
0.0
 10
15.0301033234
 20
13.6347676962
 30
0.0
 10
15.0274099522
 20
13.6369219845
 30
0.0
 10
15.0243569934
 20
13.6392429036
 30
0.0
 10
15.0213798505
 20
13.6415186922
 30
0.0
 10
15.0182885291
 20
13.6437300199
 30
0.0
 10
15.0159239145
 20
13.6454772699
 30
0.0
 10
15.0138008834
 20
13.6469017335
 30
0.0
 10
15.0116312931
 20
13.6484055213
 30
0.0
 10
15.0094063562
 20
13.6499147988
 30
0.0
 10
15.0068786774
 20
13.651540553
 30
0.0
 10
15.0044759379
 20
13.6531304303
 30
0.0
 10
15.0010095985
 20
13.6552863078
 30
0.0
 10
14.9983649956
 20
13.6569062468
 30
0.0
 10
14.9966118933
 20
13.6579855326
 30
0.0
  0
SPLINE
  5
2E7
100
AcDbEntity
  8
03__ASM_ALL_CURVES
100
AcDbSpline
 62
4
  6
CONTINUOUS
 70
0
 71
3
 72
22
 73
18
 74
0
 42
0.0000001
 43
0.0000001
 44
0.0000000001
 40
0.0
 40
0.0
 40
0.0
 40
0.0
 40
0.125
 40
0.1875
 40
0.25
 40
0.3125
 40
0.375
 40
0.4375
 40
0.5
 40
0.5625
 40
0.625
 40
0.6875
 40
0.75
 40
0.8125
 40
0.84375
 40
0.875
 40
1.0
 40
1.0
 40
1.0
 40
1.0
 10
14.9966118939
 20
13.6579855322
 30
0.0
 10
14.9950431761
 20
13.6589002874
 30
0.0
 10
14.992720258
 20
13.6602622797
 30
0.0
 10
14.9895023996
 20
13.6621188315
 30
0.0
 10
14.9868044528
 20
13.6635908198
 30
0.0
 10
14.9841327574
 20
13.6650861878
 30
0.0
 10
14.9816406092
 20
13.6664084628
 30
0.0
 10
14.9791689328
 20
13.6676909329
 30
0.0
 10
14.9768182782
 20
13.668951317
 30
0.0
 10
14.9739630646
 20
13.6703398499
 30
0.0
 10
14.9712286398
 20
13.6717056094
 30
0.0
 10
14.9685156189
 20
13.6730343135
 30
0.0
 10
14.9660110236
 20
13.6741908737
 30
0.0
 10
14.9639026551
 20
13.6751874678
 30
0.0
 10
14.9621626413
 20
13.6759921095
 30
0.0
 10
14.9592126722
 20
13.6772842642
 30
0.0
 10
14.9568428928
 20
13.6783388743
 30
0.0
 10
14.9549187403
 20
13.6791896617
 30
0.0
  0
SPLINE
  5
2E8
100
AcDbEntity
  8
03__ASM_ALL_CURVES
100
AcDbSpline
 62
4
  6
CONTINUOUS
 70
0
 71
3
 72
19
 73
15
 74
0
 42
0.0000001
 43
0.0000001
 44
0.0000000001
 40
0.0
 40
0.0
 40
0.0
 40
0.0
 40
0.125
 40
0.25
 40
0.3125
 40
0.375
 40
0.4375
 40
0.5
 40
0.5625
 40
0.625
 40
0.6875
 40
0.75
 40
0.875
 40
1.0
 40
1.0
 40
1.0
 40
1.0
 10
14.9541929661
 20
13.6794997732
 30
0.0
 10
14.9524446382
 20
13.6802236437
 30
0.0
 10
14.9489690344
 20
13.68168711
 30
0.0
 10
14.9445192697
 20
13.6834378164
 30
0.0
 10
14.9410589089
 20
13.6848039795
 30
0.0
 10
14.9381676437
 20
13.6858792252
 30
0.0
 10
14.9352244672
 20
13.6869470882
 30
0.0
 10
14.9321918487
 20
13.6880828135
 30
0.0
 10
14.9295689091
 20
13.6889544722
 30
0.0
 10
14.9268562782
 20
13.6898949873
 30
0.0
 10
14.9240927336
 20
13.6908241433
 30
0.0
 10
14.920015381
 20
13.6921138703
 30
0.0
 10
14.9150515926
 20
13.6936808309
 30
0.0
 10
14.9110296018
 20
13.6948414985
 30
0.0
 10
14.9090249764
 20
13.6954334449
 30
0.0
  0
SPLINE
  5
2E9
100
AcDbEntity
  8
03__ASM_ALL_CURVES
100
AcDbSpline
 62
4
  6
CONTINUOUS
 70
0
 71
3
 72
20
 73
16
 74
0
 42
0.0000001
 43
0.0000001
 44
0.0000000001
 40
0.0
 40
0.0
 40
0.0
 40
0.0
 40
0.125
 40
0.1875
 40
0.25
 40
0.5
 40
0.5625
 40
0.625
 40
0.6875
 40
0.75
 40
0.8125
 40
0.84375
 40
0.875
 40
0.9375
 40
1.0
 40
1.0
 40
1.0
 40
1.0
 10
14.9090249764
 20
13.6954334449
 30
0.0
 10
14.907185459
 20
13.695934968
 30
0.0
 10
14.9044555758
 20
13.6966864099
 30
0.0
 10
14.9006981605
 20
13.6976917036
 30
0.0
 10
14.8945023686
 20
13.6992213707
 30
0.0
 10
14.888459575
 20
13.7007182594
 30
0.0
 10
14.8823484785
 20
13.7019345517
 30
0.0
 10
14.8792771832
 20
13.7025656501
 30
0.0
 10
14.8762825364
 20
13.7031610587
 30
0.0
 10
14.8735556961
 20
13.7036388622
 30
0.0
 10
14.8712578567
 20
13.7040631033
 30
0.0
 10
14.8693468158
 20
13.7043987272
 30
0.0
 10
14.8671194391
 20
13.7047421029
 30
0.0
 10
14.864444479
 20
13.7051686452
 30
0.0
 10
14.8622712124
 20
13.7055106949
 30
0.0
 10
14.8611887414
 20
13.7056816178
 30
0.0
  0
SPLINE
  5
2EA
100
AcDbEntity
  8
03__ASM_ALL_CURVES
100
AcDbSpline
 62
4
  6
CONTINUOUS
 70
0
 71
3
 72
18
 73
14
 74
0
 42
0.0000001
 43
0.0000001
 44
0.0000000001
 40
0.0
 40
0.0
 40
0.0
 40
0.0
 40
0.125
 40
0.1875
 40
0.25
 40
0.3125
 40
0.375
 40
0.4375
 40
0.5
 40
0.5625
 40
0.625
 40
0.75
 40
1.0
 40
1.0
 40
1.0
 40
1.0
 10
14.8611887421
 20
13.7056816177
 30
0.0
 10
14.8593477155
 20
13.7059295194
 30
0.0
 10
14.8566139691
 20
13.706303974
 30
0.0
 10
14.8528577999
 20
13.7067928383
 30
0.0
 10
14.8497948843
 20
13.7071190036
 30
0.0
 10
14.8467232633
 20
13.7074792967
 30
0.0
 10
14.8439322526
 20
13.7077435615
 30
0.0
 10
14.8411934299
 20
13.7079769208
 30
0.0
 10
14.8385482064
 20
13.7082394852
 30
0.0
 10
14.8354763983
 20
13.7084161346
 30
0.0
 10
14.8315245512
 20
13.7086956409
 30
0.0
 10
14.8245909467
 20
13.7090237558
 30
0.0
 10
14.8187486247
 20
13.7091351062
 30
0.0
 10
14.8148540832
 20
13.709197022
 30
0.0
  0
SPLINE
  5
2EB
100
AcDbEntity
  8
03__ASM_ALL_CURVES
100
AcDbSpline
 62
4
  6
CONTINUOUS
 70
0
 71
3
 72
19
 73
15
 74
0
 42
0.0000001
 43
0.0000001
 44
0.0000000001
 40
0.0
 40
0.0
 40
0.0
 40
0.0
 40
0.125
 40
0.1875
 40
0.25
 40
0.3125
 40
0.375
 40
0.5
 40
0.625
 40
0.6875
 40
0.75
 40
0.8125
 40
0.875
 40
1.0
 40
1.0
 40
1.0
 40
1.0
 10
14.8140941986
 20
13.7091983892
 30
0.0
 10
14.8123459748
 20
13.7091786111
 30
0.0
 10
14.8097475518
 20
13.709155817
 30
0.0
 10
14.8061873375
 20
13.7090979328
 30
0.0
 10
14.8033097162
 20
13.708973898
 30
0.0
 10
14.8004165905
 20
13.708887392
 30
0.0
 10
14.7969183938
 20
13.7086793923
 30
0.0
 10
14.7928647647
 20
13.7084647182
 30
0.0
 10
14.7880772508
 20
13.7079993016
 30
0.0
 10
14.7845035623
 20
13.7076685492
 30
0.0
 10
14.7820870416
 20
13.7073620424
 30
0.0
 10
14.7796721422
 20
13.707100225
 30
0.0
 10
14.776091969
 20
13.706590715
 30
0.0
 10
14.7733170325
 20
13.7061759257
 30
0.0
 10
14.7714870319
 20
13.7059066565
 30
0.0
  0
SPLINE
  5
2EC
100
AcDbEntity
  8
03__ASM_ALL_CURVES
100
AcDbSpline
 62
4
  6
CONTINUOUS
 70
0
 71
3
 72
18
 73
14
 74
0
 42
0.0000001
 43
0.0000001
 44
0.0000000001
 40
0.0
 40
0.0
 40
0.0
 40
0.0
 40
0.125
 40
0.1875
 40
0.25
 40
0.375
 40
0.4375
 40
0.5
 40
0.5625
 40
0.625
 40
0.75
 40
0.875
 40
1.0
 40
1.0
 40
1.0
 40
1.0
 10
14.771487032
 20
13.7059066565
 30
0.0
 10
14.7699156355
 20
13.705626985
 30
0.0
 10
14.7675760706
 20
13.7052188676
 30
0.0
 10
14.7643865317
 20
13.7046291517
 30
0.0
 10
14.7609649319
 20
13.7038943504
 30
0.0
 10
14.7576084438
 20
13.7031847726
 30
0.0
 10
14.754365789
 20
13.70236444
 30
0.0
 10
14.7517974322
 20
13.7017684346
 30
0.0
 10
14.7497176215
 20
13.7011508302
 30
0.0
 10
14.7468064235
 20
13.7003617873
 30
0.0
 10
14.7429819379
 20
13.699171259
 30
0.0
 10
14.7383162741
 20
13.6976479521
 30
0.0
 10
14.7352263961
 20
13.6965022265
 30
0.0
 10
14.7336788865
 20
13.6959456372
 30
0.0
  0
SPLINE
  5
2ED
100
AcDbEntity
  8
03__ASM_ALL_CURVES
100
AcDbSpline
 62
4
  6
CONTINUOUS
 70
0
 71
3
 72
18
 73
14
 74
0
 42
0.0000001
 43
0.0000001
 44
0.0000000001
 40
0.0
 40
0.0
 40
0.0
 40
0.0
 40
0.125
 40
0.1875
 40
0.25
 40
0.3125
 40
0.375
 40
0.5
 40
0.5625
 40
0.625
 40
0.75
 40
0.875
 40
1.0
 40
1.0
 40
1.0
 40
1.0
 10
14.7336788863
 20
13.6959456371
 30
0.0
 10
14.7323653964
 20
13.6954160746
 30
0.0
 10
14.7304084351
 20
13.6946358462
 30
0.0
 10
14.7277460595
 20
13.6935390804
 30
0.0
 10
14.725648817
 20
13.6925715823
 30
0.0
 10
14.7235135747
 20
13.6916398559
 30
0.0
 10
14.721003198
 20
13.690400003
 30
0.0
 10
14.7186718167
 20
13.689302082
 30
0.0
 10
14.7160816584
 20
13.6878335709
 30
0.0
 10
14.7135180974
 20
13.6864430825
 30
0.0
 10
14.7104376368
 20
13.6845830388
 30
0.0
 10
14.70684802
 20
13.6823201341
 30
0.0
 10
14.7046342021
 20
13.6807639515
 30
0.0
 10
14.7035048856
 20
13.6799918076
 30
0.0
  0
SPLINE
  5
2EE
100
AcDbEntity
  8
03__ASM_ALL_CURVES
100
AcDbSpline
 62
4
  6
CONTINUOUS
 70
0
 71
3
 72
17
 73
13
 74
0
 42
0.0000001
 43
0.0000001
 44
0.0000000001
 40
0.0
 40
0.0
 40
0.0
 40
0.0
 40
0.125
 40
0.25
 40
0.375
 40
0.4375
 40
0.5
 40
0.5625
 40
0.625
 40
0.75
 40
0.875
 40
1.0
 40
1.0
 40
1.0
 40
1.0
 10
14.7030544312
 20
13.679665562
 30
0.0
 10
14.702067649
 20
13.6789111113
 30
0.0
 10
14.7000628432
 20
13.6774158411
 30
0.0
 10
14.6972430832
 20
13.6750911482
 30
0.0
 10
14.6948995549
 20
13.6730774284
 30
0.0
 10
14.6929980811
 20
13.6712548717
 30
0.0
 10
14.6914806184
 20
13.6698855629
 30
0.0
 10
14.6903419108
 20
13.6686316096
 30
0.0
 10
14.6886974084
 20
13.6669577457
 30
0.0
 10
14.686641585
 20
13.6645914738
 30
0.0
 10
14.6842033069
 20
13.6616576919
 30
0.0
 10
14.6827386376
 20
13.6596465764
 30
0.0
 10
14.6819861968
 20
13.6586479263
 30
0.0
  0
SPLINE
  5
2EF
100
AcDbEntity
  8
03__ASM_ALL_CURVES
100
AcDbSpline
 62
4
  6
CONTINUOUS
 70
0
 71
3
 72
15
 73
11
 74
0
 42
0.0000001
 43
0.0000001
 44
0.0000000001
 40
0.0
 40
0.0
 40
0.0
 40
0.0
 40
0.125
 40
0.25
 40
0.375
 40
0.5
 40
0.625
 40
0.75
 40
0.875
 40
1.0
 40
1.0
 40
1.0
 40
1.0
 10
14.6819861964
 20
13.6586479258
 30
0.0
 10
14.6817304193
 20
13.6582765702
 30
0.0
 10
14.6812131814
 20
13.6575341266
 30
0.0
 10
14.6804714266
 20
13.6564188551
 30
0.0
 10
14.6797271107
 20
13.6552601112
 30
0.0
 10
14.6787308287
 20
13.6536552966
 30
0.0
 10
14.6781719595
 20
13.6526841984
 30
0.0
 10
14.6773722167
 20
13.6512545117
 30
0.0
 10
14.6765934552
 20
13.6498074442
 30
0.0
 10
14.6761499349
 20
13.6489223663
 30
0.0
 10
14.675918718
 20
13.6484698731
 30
0.0
  0
SPLINE
  5
2F0
100
AcDbEntity
  8
03__ASM_ALL_CURVES
100
AcDbSpline
 62
4
  6
CONTINUOUS
 70
0
 71
3
 72
14
 73
10
 74
0
 42
0.0000001
 43
0.0000001
 44
0.0000000001
 40
0.0
 40
0.0
 40
0.0
 40
0.0
 40
0.25
 40
0.375
 40
0.5
 40
0.625
 40
0.75
 40
0.875
 40
1.0
 40
1.0
 40
1.0
 40
1.0
 10
14.675918718
 20
13.6484698731
 30
0.0
 10
14.6755383185
 20
13.6476755393
 30
0.0
 10
14.6749752399
 20
13.6464997776
 30
0.0
 10
14.6742544819
 20
13.6448475995
 30
0.0
 10
14.6737893298
 20
13.6437663237
 30
0.0
 10
14.6731281181
 20
13.6420537215
 30
0.0
 10
14.6726654557
 20
13.6408026247
 30
0.0
 10
14.6722176364
 20
13.6395161098
 30
0.0
 10
14.6718693211
 20
13.6384343478
 30
0.0
 10
14.6717013846
 20
13.6379214775
 30
0.0
  0
SPLINE
  5
2F1
100
AcDbEntity
  8
03__ASM_ALL_CURVES
100
AcDbSpline
 62
4
  6
CONTINUOUS
 70
0
 71
3
 72
14
 73
10
 74
0
 42
0.0000001
 43
0.0000001
 44
0.0000000001
 40
0.0
 40
0.0
 40
0.0
 40
0.0
 40
0.125
 40
0.25
 40
0.375
 40
0.5
 40
0.625
 40
0.75
 40
1.0
 40
1.0
 40
1.0
 40
1.0
 10
14.6717013846
 20
13.6379214775
 30
0.0
 10
14.671606918
 20
13.6376074896
 30
0.0
 10
14.6714311116
 20
13.6370390938
 30
0.0
 10
14.67108864
 20
13.63582902
 30
0.0
 10
14.6707511203
 20
13.6345817787
 30
0.0
 10
14.670398551
 20
13.6331784535
 30
0.0
 10
14.6702239362
 20
13.6324005113
 30
0.0
 10
14.669864252
 20
13.6307359391
 30
0.0
 10
14.6696198153
 20
13.6294061702
 30
0.0
 10
14.6694603572
 20
13.6285281526
 30
0.0
  0
SPLINE
  5
2F2
100
AcDbEntity
  8
03__ASM_ALL_CURVES
100
AcDbSpline
 62
4
  6
CONTINUOUS
 70
0
 71
3
 72
27
 73
23
 74
0
 42
0.0000001
 43
0.0000001
 44
0.0000000001
 40
0.0
 40
0.0
 40
0.0
 40
0.0
 40
0.125
 40
0.15625
 40
0.1875
 40
0.25
 40
0.3125
 40
0.34375
 40
0.375
 40
0.4375
 40
0.46875
 40
0.5
 40
0.53125
 40
0.5625
 40
0.625
 40
0.65625
 40
0.6875
 40
0.75
 40
0.8125
 40
0.84375
 40
0.875
 40
1.0
 40
1.0
 40
1.0
 40
1.0
 10
14.6694603572
 20
13.6285281524
 30
0.0
 10
14.66922291
 20
13.6263281606
 30
0.0
 10
14.6689656564
 20
13.6235694922
 30
0.0
 10
14.6685382862
 20
13.6202851261
 30
0.0
 10
14.6685065266
 20
13.6180400053
 30
0.0
 10
14.6685654889
 20
13.61521233
 30
0.0
 10
14.6685593557
 20
13.6123975703
 30
0.0
 10
14.6686317487
 20
13.6101317844
 30
0.0
 10
14.6689636111
 20
13.6078202783
 30
0.0
 10
14.6692111315
 20
13.605523171
 30
0.0
 10
14.6695170756
 20
13.6032171572
 30
0.0
 10
14.6696556046
 20
13.6014999675
 30
0.0
 10
14.6701286381
 20
13.5997379486
 30
0.0
 10
14.6706381752
 20
13.5974046499
 30
0.0
 10
14.6712057484
 20
13.5950646501
 30
0.0
 10
14.6716900941
 20
13.5927327086
 30
0.0
 10
14.6724299679
 20
13.590377469
 30
0.0
 10
14.6734498061
 20
13.5874252117
 30
0.0
 10
14.6744060579
 20
13.5844772844
 30
0.0
 10
14.6752476698
 20
13.5821151169
 30
0.0
 10
14.6768781445
 20
13.578554964
 30
0.0
 10
14.6781410253
 20
13.5755925714
 30
0.0
 10
14.6791820013
 20
13.5732212489
 30
0.0
  0
SPLINE
  5
2F3
100
AcDbEntity
  8
03__ASM_ALL_CURVES
100
AcDbSpline
 62
4
  6
CONTINUOUS
 70
0
 71
3
 72
117
 73
113
 74
0
 42
0.0000001
 43
0.0000001
 44
0.0000000001
 40
0.0
 40
0.0
 40
0.0
 40
0.0
 40
0.03125
 40
0.046875
 40
0.0625
 40
0.0703125
 40
0.078125
 40
0.08203125
 40
0.0859375
 40
0.09375
 40
0.1015625
 40
0.109375
 40
0.125
 40
0.140625
 40
0.1484375
 40
0.15234375
 40
0.154296875
 40
0.15625
 40
0.16015625
 40
0.1640625
 40
0.171875
 40
0.1875
 40
0.203125
 40
0.21875
 40
0.2265625
 40
0.23046875
 40
0.234375
 40
0.2421875
 40
0.25
 40
0.265625
 40
0.28125
 40
0.296875
 40
0.3046875
 40
0.30859375
 40
0.3125
 40
0.3203125
 40
0.328125
 40
0.34375
 40
0.359375
 40
0.375
 40
0.37890625
 40
0.3828125
 40
0.390625
 40
0.3984375
 40
0.40625
 40
0.421875
 40
0.4375
 40
0.4453125
 40
0.453125
 40
0.45703125
 40
0.4609375
 40
0.46484375
 40
0.46875
 40
0.4765625
 40
0.484375
 40
0.5
 40
0.515625
 40
0.5234375
 40
0.53125
 40
0.53515625
 40
0.5390625
 40
0.54296875
 40
0.546875
 40
0.5546875
 40
0.5625
 40
0.578125
 40
0.59375
 40
0.6015625
 40
0.609375
 40
0.6171875
 40
0.62109375
 40
0.625
 40
0.640625
 40
0.65625
 40
0.671875
 40
0.6796875
 40
0.6875
 40
0.69140625
 40
0.6953125
 40
0.69921875
 40
0.703125
 40
0.71875
 40
0.734375
 40
0.75
 40
0.7578125
 40
0.765625
 40
0.76953125
 40
0.771484375
 40
0.7734375
 40
0.78125
 40
0.796875
 40
0.8125
 40
0.828125
 40
0.8359375
 40
0.83984375
 40
0.84375
 40
0.845703125
 40
0.84765625
 40
0.8515625
 40
0.859375
 40
0.875
 40
0.890625
 40
0.8984375
 40
0.90625
 40
0.9140625
 40
0.91796875
 40
0.921875
 40
0.9296875
 40
0.9375
 40
0.953125
 40
0.96875
 40
1.0
 40
1.0
 40
1.0
 40
1.0
 10
14.6791820005
 20
13.5732212505
 30
0.0
 10
14.6815562244
 20
13.5695186868
 30
0.0
 10
14.6851137442
 20
13.5639645167
 30
0.0
 10
14.6898723683
 20
13.5565602548
 30
0.0
 10
14.6928147077
 20
13.5519298864
 30
0.0
 10
14.6952410847
 20
13.5482317585
 30
0.0
 10
14.696592207
 20
13.5459063639
 30
0.0
 10
14.6984271483
 20
13.544110182
 30
0.0
 10
14.7001303916
 20
13.542302799
 30
0.0
 10
14.7023046269
 20
13.5400474116
 30
0.0
 10
14.7048943867
 20
13.5373393099
 30
0.0
 10
14.7083540666
 20
13.5337290428
 30
0.0
 10
14.7126769714
 20
13.5292162866
 30
0.0
 10
14.7169983232
 20
13.5247025507
 30
0.0
 10
14.7200277173
 20
13.5215449386
 30
0.0
 10
14.7215361502
 20
13.5199633851
 30
0.0
 10
14.722408215
 20
13.519064064
 30
0.0
 10
14.723528204
 20
13.5182732875
 30
0.0
 10
14.7248433198
 20
13.5172476598
 30
0.0
 10
14.7269948274
 20
13.5156273714
 30
0.0
 10
14.7307383553
 20
13.5127824289
 30
0.0
 10
14.7360940267
 20
13.5087214364
 30
0.0
 10
14.7425329101
 20
13.5038544044
 30
0.0
 10
14.7478480211
 20
13.4997737329
 30
0.0
 10
14.7516696278
 20
13.4969666725
 30
0.0
 10
14.7536953981
 20
13.4952853792
 30
0.0
 10
14.7563147009
 20
13.4938942982
 30
0.0
 10
14.7594482061
 20
13.4920866923
 30
0.0
 10
14.764540371
 20
13.489232907
 30
0.0
 10
14.7708788957
 20
13.4856528122
 30
0.0
 10
14.7784953616
 20
13.4813608659
 30
0.0
 10
14.7848438708
 20
13.4777875033
 30
0.0
 10
14.7892802949
 20
13.4752774818
 30
0.0
 10
14.7918278707
 20
13.4738570648
 30
0.0
 10
14.7946821763
 20
13.4727771875
 30
0.0
 10
14.7981450244
 20
13.4713107041
 30
0.0
 10
14.8037443386
 20
13.4690297263
 30
0.0
 10
14.8107229382
 20
13.4661545838
 30
0.0
 10
14.8191077285
 20
13.4627211364
 30
0.0
 10
14.8253895606
 20
13.4601245845
 30
0.0
 10
14.8295854443
 20
13.4584241009
 30
0.0
 10
14.8323643831
 20
13.4572185166
 30
0.0
 10
14.8359714368
 20
13.4562357254
 30
0.0
 10
14.8402913007
 20
13.4550225893
 30
0.0
 10
14.8460541042
 20
13.4534167716
 30
0.0
 10
14.8532567227
 20
13.4514062382
 30
0.0
 10
14.8604591538
 20
13.4493941287
 30
0.0
 10
14.8662222569
 20
13.4477908326
 30
0.0
 10
14.8698213946
 20
13.4467735818
 30
0.0
 10
14.8727071394
 20
13.445994641
 30
0.0
 10
14.8748538252
 20
13.4453149704
 30
0.0
 10
14.8770677848
 20
13.4449997299
 30
0.0
 10
14.8800118273
 20
13.4445365914
 30
0.0
 10
14.8836945848
 20
13.443972336
 30
0.0
 10
14.8895854963
 20
13.4430612892
 30
0.0
 10
14.8969495718
 20
13.4419255963
 30
0.0
 10
14.9043137781
 20
13.4407877387
 30
0.0
 10
14.9102044804
 20
13.4398801554
 30
0.0
 10
14.9138877608
 20
13.4393072414
 30
0.0
 10
14.9168307314
 20
13.438861853
 30
0.0
 10
14.9190479655
 20
13.4384923882
 30
0.0
 10
14.9211516422
 20
13.4385249197
 30
0.0
 10
14.9239962067
 20
13.4384278875
 30
0.0
 10
14.9275383387
 20
13.4383546636
 30
0.0
 10
14.9332132965
 20
13.4382106952
 30
0.0
 10
14.9403046895
 20
13.438039546
 30
0.0
 10
14.947395866
 20
13.4378666642
 30
0.0
 10
14.95307117
 20
13.4377254679
 30
0.0
 10
14.9573206897
 20
13.437629283
 30
0.0
 10
14.9608841659
 20
13.4375179589
 30
0.0
 10
14.9634043004
 20
13.4378931376
 30
0.0
 10
14.9672695805
 20
13.4383364566
 30
0.0
 10
14.9730312483
 20
13.4390522788
 30
0.0
 10
14.9807366618
 20
13.4399744401
 30
0.0
 10
14.987144989
 20
13.4407600801
 30
0.0
 10
14.9922908977
 20
13.4413635128
 30
0.0
 10
14.9954653986
 20
13.4417947702
 30
0.0
 10
14.9981002484
 20
13.4420161774
 30
0.0
 10
14.9998156537
 20
13.4425205619
 30
0.0
 10
15.0015200518
 20
13.4430392232
 30
0.0
 10
15.0049345829
 20
13.4440691502
 30
0.0
 10
15.0100529092
 20
13.4456178985
 30
0.0
 10
15.0168843833
 20
13.4476771123
 30
0.0
 10
15.0225599844
 20
13.4494055453
 30
0.0
 10
15.0271384514
 20
13.450761372
 30
0.0
 10
15.029913675
 20
13.4516698523
 30
0.0
 10
15.0320292904
 20
13.452183391
 30
0.0
 10
15.0328878974
 20
13.4527247477
 30
0.0
 10
15.0342658167
 20
13.453473087
 30
0.0
 10
15.0371986641
 20
13.4551317416
 30
0.0
 10
15.0417466405
 20
13.4576581238
 30
0.0
 10
15.0471873788
 20
13.4607016348
 30
0.0
 10
15.0517295671
 20
13.4632322448
 30
0.0
 10
15.0548991602
 20
13.4650103496
 30
0.0
 10
15.0567249221
 20
13.4660166566
 30
0.0
 10
15.0578319752
 20
13.4666683908
 30
0.0
 10
15.0587956916
 20
13.4671375149
 30
0.0
 10
15.0594743505
 20
13.4677974582
 30
0.0
 10
15.0606416754
 20
13.4689659673
 30
0.0
 10
15.0629907324
 20
13.4712933348
 30
0.0
 10
15.0663391987
 20
13.4746231052
 30
0.0
 10
15.0696895406
 20
13.4779514191
 30
0.0
 10
15.0723711761
 20
13.480613598
 30
0.0
 10
15.0743771917
 20
13.4826125227
 30
0.0
 10
15.0760656738
 20
13.4842708548
 30
0.0
 10
15.0773787391
 20
13.4856142277
 30
0.0
 10
15.078829244
 20
13.4868967227
 30
0.0
 10
15.0796587281
 20
13.4889355409
 30
0.0
 10
15.0812620189
 20
13.4920753462
 30
0.0
 10
15.0831715492
 20
13.4960419978
 30
0.0
 10
15.0862798971
 20
13.5023651203
 30
0.0
 10
15.0885992106
 20
13.5071127542
 30
0.0
 10
15.0901480746
 20
13.5102766675
 30
0.0
  0
LINE
  5
2F4
100
AcDbEntity
  8
03__ASM_ALL_CURVES
100
AcDbLine
 62
4
  6
CONTINUOUS
 10
15.0901480747
 20
13.5102766678
 11
15.0909322069
 21
13.5132953805
  0
LINE
  5
2F5
100
AcDbEntity
  8
03__ASM_ALL_CURVES
100
AcDbLine
 62
4
  6
CONTINUOUS
 10
15.0909322069
 20
13.5132953806
 11
15.0910864485
 21
13.5139609793
  0
LINE
  5
2F6
100
AcDbEntity
  8
03__ASM_ALL_CURVES
100
AcDbLine
 62
4
  6
CONTINUOUS
 10
15.0910864485
 20
13.5139609793
 11
15.0918678287
 21
13.5179143484
  0
SPLINE
  5
2F7
100
AcDbEntity
  8
03__ASM_ALL_CURVES
100
AcDbSpline
 62
4
  6
CONTINUOUS
 70
0
 71
3
 72
11
 73
7
 74
0
 42
0.0000001
 43
0.0000001
 44
0.0000000001
 40
0.0
 40
0.0
 40
0.0
 40
0.0
 40
0.5
 40
0.75
 40
0.875
 40
1.0
 40
1.0
 40
1.0
 40
1.0
 10
15.0918678287
 20
13.5179143485
 30
0.0
 10
15.0924229611
 20
13.5218435256
 30
0.0
 10
15.09309727
 20
13.5277964994
 30
0.0
 10
15.0927917098
 20
13.5349233875
 30
0.0
 10
15.0924498572
 20
13.5390922838
 30
0.0
 10
15.0921510687
 20
13.5413550788
 30
0.0
 10
15.0920176573
 20
13.5424641829
 30
0.0
  0
SPLINE
  5
2F8
100
AcDbEntity
  8
03__ASM_ALL_CURVES
100
AcDbSpline
 62
4
  6
CONTINUOUS
 70
0
 71
3
 72
19
 73
15
 74
0
 42
0.0000001
 43
0.0000001
 44
0.0000000001
 40
0.0
 40
0.0
 40
0.0
 40
0.0
 40
0.125
 40
0.1875
 40
0.25
 40
0.375
 40
0.4375
 40
0.5
 40
0.625
 40
0.6875
 40
0.75
 40
0.8125
 40
0.875
 40
1.0
 40
1.0
 40
1.0
 40
1.0
 10
15.0919441207
 20
13.5429559033
 30
0.0
 10
15.0917356246
 20
13.5441171361
 30
0.0
 10
15.0914375009
 20
13.5458400314
 30
0.0
 10
15.0909815208
 20
13.5482130408
 30
0.0
 10
15.0903409928
 20
13.5508336578
 30
0.0
 10
15.0897277714
 20
13.5533937941
 30
0.0
 10
15.0889397082
 20
13.5559723047
 30
0.0
 10
15.088197716
 20
13.5586183265
 30
0.0
 10
15.0873541397
 20
13.5608409069
 30
0.0
 10
15.0864940615
 20
13.5632690549
 30
0.0
 10
15.0856589815
 20
13.5652622528
 30
0.0
 10
15.0849100158
 20
13.5671950157
 30
0.0
 10
15.0837054808
 20
13.5698649034
 30
0.0
 10
15.0827649534
 20
13.5718804643
 30
0.0
 10
15.0821461854
 20
13.5732212505
 30
0.0
  0
SPLINE
  5
2F9
100
AcDbEntity
  8
0
100
AcDbSpline
 62
7
  6
CONTINUOUS
 70
0
 71
3
 72
44
 73
40
 74
0
 42
0.0000001
 43
0.0000001
 44
0.0000000001
 40
0.0
 40
0.0
 40
0.0
 40
0.0
 40
0.0275588496
 40
0.0560431192
 40
0.0854749587
 40
0.115889363
 40
0.1472825507
 40
0.1796148666
 40
0.2128220451
 40
0.2468198475
 40
0.2815024312
 40
0.316749258
 40
0.3524267808
 40
0.388392507
 40
0.4244980865
 40
0.4605920286
 40
0.4965233343
 40
0.532144097
 40
0.5673133251
 40
0.6018987519
 40
0.6357823922
 40
0.6688612973
 40
0.7010532094
 40
0.7322986678
 40
0.7625648089
 40
0.7918489292
 40
0.8201792536
 40
0.8476170266
 40
0.874252793
 40
0.8873106195
 40
0.9002145925
 40
0.9129809697
 40
0.92562943
 40
0.9381796195
 40
0.9506437414
 40
0.9630350901
 40
0.9753721716
 40
0.9876833053
 40
1.0
 40
1.0
 40
1.0
 40
1.0
 10
14.2194148167
 20
11.2962309831
 30
0.0
 10
14.2286233301
 20
11.2774660057
 30
0.0
 10
14.2492493773
 20
11.2402145414
 30
0.0
 10
14.2855947766
 20
11.1864425967
 30
0.0
 10
14.3275377184
 20
11.1341115401
 30
0.0
 10
14.3747557876
 20
11.0834406475
 30
0.0
 10
14.4269381044
 20
11.0346269469
 30
0.0
 10
14.4837593943
 20
10.9878989547
 30
0.0
 10
14.5448612862
 20
10.9434845343
 30
0.0
 10
14.609863923
 20
10.901619166
 30
0.0
 10
14.6783584218
 20
10.8625326365
 30
0.0
 10
14.7499108274
 20
10.8264526024
 30
0.0
 10
14.8240637591
 20
10.7935960737
 30
0.0
 10
14.9003383751
 20
10.7641625541
 30
0.0
 10
14.9782428047
 20
10.7383415369
 30
0.0
 10
15.057271069
 20
10.7162944225
 30
0.0
 10
15.1369133244
 20
10.6981689004
 30
0.0
 10
15.2166575885
 20
10.6840855945
 30
0.0
 10
15.2959959539
 20
10.6741423709
 30
0.0
 10
15.3744308534
 20
10.668418581
 30
0.0
 10
15.4514778862
 20
10.6669651428
 30
0.0
 10
15.5266724785
 20
10.6698220057
 30
0.0
 10
15.5995716739
 20
10.6770059018
 30
0.0
 10
15.6697567424
 20
10.6885278696
 30
0.0
 10
15.7368330713
 20
10.7043893387
 30
0.0
 10
15.8004243695
 20
10.7245927844
 30
0.0
 10
15.8601672525
 20
10.7491426015
 30
0.0
 10
15.9156846653
 20
10.7780452787
 30
0.0
 10
15.9583944652
 20
10.8059504404
 30
0.0
 10
15.989918879
 20
10.8304276605
 30
0.0
 10
16.0120830321
 20
10.849729933
 30
0.0
 10
16.0328581878
 20
10.8700792241
 30
0.0
 10
16.0521773094
 20
10.8914572145
 30
0.0
 10
16.069967895
 20
10.9138320578
 30
0.0
 10
16.0861667788
 20
10.9371487621
 30
0.0
 10
16.1007034671
 20
10.9613491661
 30
0.0
 10
16.1135093644
 20
10.9863793059
 30
0.0
 10
16.1245407958
 20
11.012177892
 30
0.0
 10
16.1306807924
 20
11.0298384425
 30
0.0
 10
16.1334389599
 20
11.0387638759
 30
0.0
  0
SPLINE
  5
2FA
100
AcDbEntity
  8
0
100
AcDbSpline
 62
7
  6
CONTINUOUS
 70
0
 71
3
 72
15
 73
11
 74
0
 42
0.0000001
 43
0.0000001
 44
0.0000000001
 40
0.0
 40
0.0
 40
0.0
 40
0.0
 40
0.1209875326
 40
0.2421642043
 40
0.3641757882
 40
0.4873990237
 40
0.6121644998
 40
0.7389258168
 40
0.86807888
 40
1.0
 40
1.0
 40
1.0
 40
1.0
 10
14.1819918855
 20
11.6418066322
 30
0.0
 10
14.1777522988
 20
11.6280873244
 30
0.0
 10
14.1707351529
 20
11.6001487735
 30
0.0
 10
14.1647145096
 20
11.557270435
 30
0.0
 10
14.1631875106
 20
11.5137323522
 30
0.0
 10
14.1660575943
 20
11.4698415837
 30
0.0
 10
14.173240778
 20
11.4258817341
 30
0.0
 10
14.1845702653
 20
11.3820828651
 30
0.0
 10
14.1998910381
 20
11.3386231537
 30
0.0
 10
14.2125171974
 20
11.3102868533
 30
0.0
 10
14.2194148167
 20
11.2962309831
 30
0.0
  0
SPLINE
  5
2FB
100
AcDbEntity
  8
0
100
AcDbSpline
 62
7
  6
CONTINUOUS
 70
0
 71
3
 72
31
 73
27
 74
0
 42
0.0000001
 43
0.0000001
 44
0.0000000001
 40
0.0
 40
0.0
 40
0.0
 40
0.0
 40
0.0327723433
 40
0.0664340935
 40
0.1359684582
 40
0.2078064633
 40
0.2443437379
 40
0.2811360885
 40
0.3550023588
 40
0.4284817056
 40
0.5006530232
 40
0.5359800282
 40
0.5706598464
 40
0.6376847397
 40
0.7010938598
 40
0.7312998767
 40
0.7604439162
 40
0.7885038946
 40
0.815480565
 40
0.8662390623
 40
0.8901794746
 40
0.9132643424
 40
0.9356231124
 40
0.9574132546
 40
0.9788119294
 40
1.0
 40
1.0
 40
1.0
 40
1.0
 10
15.3801651716
 20
14.1739672271
 30
0.0
 10
15.3722413135
 20
14.1805931667
 30
0.0
 10
15.3558241769
 20
14.1936065656
 30
0.0
 10
15.3209793898
 20
14.2185756996
 30
0.0
 10
15.2739288572
 20
14.2475313531
 30
0.0
 10
15.2237835264
 20
14.2727727982
 30
0.0
 10
15.1817369703
 20
14.2908405999
 30
0.0
 10
15.1384066316
 20
14.3074465979
 30
0.0
 10
15.0830149917
 20
14.3249852269
 30
0.0
 10
15.0155538695
 20
14.3406464556
 30
0.0
 10
14.9590648893
 20
14.3490557712
 30
0.0
 10
14.914398405
 20
14.3528096017
 30
0.0
 10
14.8712320128
 20
14.3545408902
 30
0.0
 10
14.8191312707
 20
14.3531107814
 30
0.0
 10
14.7688068557
 20
14.3466601888
 30
0.0
 10
14.7309781626
 20
14.3384407157
 30
0.0
 10
14.7044453379
 20
14.3309582986
 30
0.0
 10
14.6794164287
 20
14.3220849418
 30
0.0
 10
14.6488396359
 20
14.3087431102
 30
0.0
 10
14.620944927
 20
14.2926076413
 30
0.0
 10
14.5966042984
 20
14.2736393939
 30
0.0
 10
14.5807189307
 20
14.2585543458
 30
0.0
 10
14.5669330601
 20
14.242407854
 30
0.0
 10
14.5553135926
 20
14.2252711588
 30
0.0
 10
14.5459349854
 20
14.2072279869
 30
0.0
 10
14.5411913123
 20
14.1946311902
 30
0.0
 10
14.5392184012
 20
14.1882512665
 30
0.0
  0
SPLINE
  5
2FC
100
AcDbEntity
  8
0
100
AcDbSpline
 62
7
  6
CONTINUOUS
 70
0
 71
3
 72
21
 73
17
 74
0
 42
0.0000001
 43
0.0000001
 44
0.0000000001
 40
0.0
 40
0.0
 40
0.0
 40
0.0
 40
0.0768772733
 40
0.1518985515
 40
0.2958672351
 40
0.4314551977
 40
0.4961225176
 40
0.5587248452
 40
0.6193227686
 40
0.6780152873
 40
0.7349320969
 40
0.7902418986
 40
0.844155939
 40
0.8969156616
 40
0.9487754655
 40
1.0
 40
1.0
 40
1.0
 40
1.0
 10
16.559225994
 20
13.1880351514
 30
0.0
 10
16.5757135403
 20
13.1742482454
 30
0.0
 10
16.6077360323
 20
13.1463329469
 30
0.0
 10
16.6676805346
 20
13.0893100338
 30
0.0
 10
16.734826927
 20
13.0161732332
 30
0.0
 10
16.7924507942
 20
12.9388359798
 30
0.0
 10
16.8310023716
 20
12.8762274349
 30
0.0
 10
16.8557343554
 20
12.8298518445
 30
0.0
 10
16.876650443
 20
12.7834582265
 30
0.0
 10
16.8936928636
 20
12.7371920643
 30
0.0
 10
16.9068040177
 20
12.6911929074
 30
0.0
 10
16.9159341796
 20
12.6455984201
 30
0.0
 10
16.9210577633
 20
12.6005472899
 30
0.0
 10
16.9221408989
 20
12.5561782948
 30
0.0
 10
16.9191861325
 20
12.5126494719
 30
0.0
 10
16.9145120175
 20
12.4841591243
 30
0.0
 10
16.9115095353
 20
12.4701567719
 30
0.0
  0
SPLINE
  5
2FD
100
AcDbEntity
  8
0
100
AcDbSpline
 62
7
  6
CONTINUOUS
 70
0
 71
3
 72
15
 73
11
 74
0
 42
0.0000001
 43
0.0000001
 44
0.0000000001
 40
0.0
 40
0.0
 40
0.0
 40
0.0
 40
0.1364755127
 40
0.2712232007
 40
0.4032995938
 40
0.5319710617
 40
0.6565299305
 40
0.7763549641
 40
0.8909894008
 40
1.0
 40
1.0
 40
1.0
 40
1.0
 10
15.3873640428
 20
12.4364337719
 30
0.0
 10
15.3551784535
 20
12.4443457595
 30
0.0
 10
15.2907560141
 20
12.4582699174
 30
0.0
 10
15.1939400633
 20
12.4734358376
 30
0.0
 10
15.0982728286
 20
12.4826312706
 30
0.0
 10
15.0046878053
 20
12.485768196
 30
0.0
 10
14.9140671587
 20
12.4828286683
 30
0.0
 10
14.8272621987
 20
12.4738258881
 30
0.0
 10
14.7451205321
 20
12.4588403084
 30
0.0
 10
14.6926192393
 20
12.4445934935
 30
0.0
 10
14.6674342994
 20
12.4364337719
 30
0.0
  0
SPLINE
  5
2FE
100
AcDbEntity
  8
0
100
AcDbSpline
 62
7
  6
CONTINUOUS
 70
0
 71
3
 72
13
 73
9
 74
0
 42
0.0000001
 43
0.0000001
 44
0.0000000001
 40
0.0
 40
0.0
 40
0.0
 40
0.0
 40
0.1387243793
 40
0.2733856627
 40
0.5303432412
 40
0.7718124193
 40
0.8874226471
 40
1.0
 40
1.0
 40
1.0
 40
1.0
 10
14.6674342994
 20
12.4364337719
 30
0.0
 10
14.6543231037
 20
12.4321858482
 30
0.0
 10
14.6286894662
 20
12.4231588993
 30
0.0
 10
14.5799949665
 20
12.402983261
 30
0.0
 10
14.5240007683
 20
12.3739844657
 30
0.0
 10
14.473772503
 20
12.3389787988
 30
0.0
 10
14.4386973169
 20
12.3081494698
 30
0.0
 10
14.4228674836
 20
12.2918798868
 30
0.0
 10
14.4154082605
 20
12.2835460597
 30
0.0
  0
SPLINE
  5
2FF
100
AcDbEntity
  8
0
100
AcDbSpline
 62
7
  6
CONTINUOUS
 70
0
 71
3
 72
11
 73
7
 74
0
 42
0.0000001
 43
0.0000001
 44
0.0000000001
 40
0.0
 40
0.0
 40
0.0
 40
0.0
 40
0.2543200087
 40
0.505309121
 40
0.7535505356
 40
1.0
 40
1.0
 40
1.0
 40
1.0
 10
16.2571322628
 20
12.582969037
 30
0.0
 10
16.2550558041
 20
12.5762496142
 30
0.0
 10
16.2502517228
 20
12.5630968343
 30
0.0
 10
16.2410901142
 20
12.5443382599
 30
0.0
 10
16.2300861217
 20
12.526852508
 30
0.0
 10
16.2215569935
 20
12.5161151805
 30
0.0
 10
16.2170305099
 20
12.5110201653
 30
0.0
  0
SPLINE
  5
300
100
AcDbEntity
  8
0
100
AcDbSpline
 62
7
  6
CONTINUOUS
 70
0
 71
3
 72
32
 73
28
 74
0
 42
0.0000001
 43
0.0000001
 44
0.0000000001
 40
0.0
 40
0.0
 40
0.0
 40
0.0
 40
0.0265133747
 40
0.0543697918
 40
0.1139762856
 40
0.1785203339
 40
0.2124625785
 40
0.2473500512
 40
0.283048231
 40
0.3194089575
 40
0.393463891
 40
0.4682112036
 40
0.5422812577
 40
0.6143405174
 40
0.6831730711
 40
0.7160674522
 40
0.7477958993
 40
0.7782784963
 40
0.8074651951
 40
0.8353296825
 40
0.8618865678
 40
0.8871900179
 40
0.9113348207
 40
0.9344711878
 40
0.9567943813
 40
0.978545254
 40
1.0
 40
1.0
 40
1.0
 40
1.0
 10
15.0821461854
 20
13.5732212505
 30
0.0
 10
15.0802635667
 20
13.577057624
 30
0.0
 10
15.076000977
 20
13.5847323153
 30
0.0
 10
15.0656776347
 20
13.5999509953
 30
0.0
 10
15.0494520064
 20
13.6184441084
 30
0.0
 10
15.0301612227
 20
13.6351946177
 30
0.0
 10
15.0127612871
 20
13.6478338999
 30
0.0
 10
14.9985936672
 20
13.6569674584
 30
0.0
 10
14.9836227456
 20
13.6655276302
 30
0.0
 10
14.9626036669
 20
13.6761680551
 30
0.0
 10
14.9350043186
 20
13.6876570484
 30
0.0
 10
14.9006388112
 20
13.6982921979
 30
0.0
 10
14.8657340562
 20
13.7055748965
 30
0.0
 10
14.8312317787
 20
13.7093080886
 30
0.0
 10
14.803156426
 20
13.7093818572
 30
0.0
 10
14.7817156726
 20
13.7075125879
 30
0.0
 10
14.7665479961
 20
13.7052173111
 30
0.0
 10
14.7521552182
 20
13.7020195933
 30
0.0
 10
14.7386325751
 20
13.6979465315
 30
0.0
 10
14.7260726371
 20
13.693018208
 30
0.0
 10
14.7145604534
 20
13.6872673618
 30
0.0
 10
14.7041718561
 20
13.6807339692
 30
0.0
 10
14.6949835588
 20
13.6734513363
 30
0.0
 10
14.6870581154
 20
13.6654709334
 30
0.0
 10
14.6804550333
 20
13.6568417734
 30
0.0
 10
14.6752336108
 20
13.6476226633
 30
0.0
 10
14.6726888064
 20
13.6411098819
 30
0.0
 10
14.6716670509
 20
13.6378062165
 30
0.0
  0
SPLINE
  5
301
100
AcDbEntity
  8
0
100
AcDbSpline
 62
7
  6
CONTINUOUS
 70
0
 71
3
 72
23
 73
19
 74
0
 42
0.0000001
 43
0.0000001
 44
0.0000000001
 40
0.0
 40
0.0
 40
0.0
 40
0.0
 40
0.0730489999
 40
0.1461993862
 40
0.2190028338
 40
0.2910969953
 40
0.3621256091
 40
0.43173138
 40
0.4995874213
 40
0.56539823
 40
0.6289086748
 40
0.6899070986
 40
0.7482418732
 40
0.8038268602
 40
0.856655679
 40
0.9068151166
 40
0.9544942815
 40
1.0
 40
1.0
 40
1.0
 40
1.0
 10
15.3873640428
 20
12.4364337719
 30
0.0
 10
15.4165705302
 20
12.4292541189
 30
0.0
 10
15.4746666322
 20
12.4133856533
 30
0.0
 10
15.5603750034
 20
12.3852600228
 30
0.0
 10
15.6441797451
 20
12.3529562884
 30
0.0
 10
15.725413959
 20
12.3167394055
 30
0.0
 10
15.8034561422
 20
12.2768898809
 30
0.0
 10
15.8776983853
 20
12.2337120712
 30
0.0
 10
15.9475642175
 20
12.1875470929
 30
0.0
 10
16.012507102
 20
12.1387456119
 30
0.0
 10
16.0720297756
 20
12.0876927862
 30
0.0
 10
16.125663978
 20
12.0347723043
 30
0.0
 10
16.1729993345
 20
11.9803955902
 30
0.0
 10
16.2136634205
 20
11.9249708494
 30
0.0
 10
16.2473359411
 20
11.8689177696
 30
0.0
 10
16.2737486664
 20
11.8126535791
 30
0.0
 10
16.2926658728
 20
11.756611355
 30
0.0
 10
16.3003284744
 20
11.7188840237
 30
0.0
 10
16.3027683799
 20
11.7003077883
 30
0.0
  0
SPLINE
  5
302
100
AcDbEntity
  8
0
100
AcDbSpline
 62
7
  6
CONTINUOUS
 70
0
 71
3
 72
11
 73
7
 74
0
 42
0.0000001
 43
0.0000001
 44
0.0000000001
 40
0.0
 40
0.0
 40
0.0
 40
0.0
 40
0.2390168999
 40
0.4826414617
 40
0.7351633987
 40
1.0
 40
1.0
 40
1.0
 40
1.0
 10
16.2764646474
 20
11.0901850016
 30
0.0
 10
16.2776748666
 20
11.0940980307
 30
0.0
 10
16.2794382786
 20
11.1022274031
 30
0.0
 10
16.280001007
 20
11.1148676101
 30
0.0
 10
16.2784990841
 20
11.1278718999
 30
0.0
 10
16.2761969248
 20
11.1364676922
 30
0.0
 10
16.2747467278
 20
11.1407681176
 30
0.0
  0
SPLINE
  5
303
100
AcDbEntity
  8
0
100
AcDbSpline
 62
7
  6
CONTINUOUS
 70
0
 71
3
 72
25
 73
21
 74
0
 42
0.0000001
 43
0.0000001
 44
0.0000000001
 40
0.0
 40
0.0
 40
0.0
 40
0.0
 40
0.0226943615
 40
0.0454975865
 40
0.0684978485
 40
0.0917824721
 40
0.13951799
 40
0.1893607439
 40
0.2417830786
 40
0.2970994905
 40
0.3554908506
 40
0.417012797
 40
0.4816164266
 40
0.5491570909
 40
0.6194178412
 40
0.6921137983
 40
0.7669125739
 40
0.8434357139
 40
0.9212764185
 40
1.0
 40
1.0
 40
1.0
 40
1.0
 10
16.5526401767
 20
11.0048403041
 30
0.0
 10
16.5513135267
 20
11.0005502343
 30
0.0
 10
16.5483042015
 20
10.9920532424
 30
0.0
 10
16.542761875
 20
10.9796696913
 30
0.0
 10
16.5361964953
 20
10.9676620792
 30
0.0
 10
16.5260151241
 20
10.9520726201
 30
0.0
 10
16.5106730086
 20
10.9336044222
 30
0.0
 10
16.4886298647
 20
10.9136010393
 30
0.0
 10
16.4630027377
 20
10.8957054288
 30
0.0
 10
16.4340199431
 20
10.8800596563
 30
0.0
 10
16.4019303644
 20
10.8667843032
 30
0.0
 10
16.3670069686
 20
10.8559790454
 30
0.0
 10
16.329543377
 20
10.8477310334
 30
0.0
 10
16.2898554842
 20
10.8421032795
 30
0.0
 10
16.2482783912
 20
10.8391447783
 30
0.0
 10
16.2051638644
 20
10.8388754761
 30
0.0
 10
16.1608781347
 20
10.841301146
 30
0.0
 10
16.1157964298
 20
10.8463966092
 30
0.0
 10
16.0703051234
 20
10.8541229626
 30
0.0
 10
16.040070665
 20
10.8609549863
 30
0.0
 10
16.0249734508
 20
10.8647911121
 30
0.0
  0
SPLINE
  5
304
100
AcDbEntity
  8
0
100
AcDbSpline
 62
7
  6
CONTINUOUS
 70
0
 71
3
 72
13
 73
9
 74
0
 42
0.0000001
 43
0.0000001
 44
0.0000000001
 40
0.0
 40
0.0
 40
0.0
 40
0.0
 40
0.1164742251
 40
0.2338475735
 40
0.3530091251
 40
0.4747873878
 40
0.7287548726
 40
1.0
 40
1.0
 40
1.0
 40
1.0
 10
15.089661135
 20
13.5086362844
 30
0.0
 10
15.0904248049
 20
13.5111054755
 30
0.0
 10
15.0916900585
 20
13.5161503688
 30
0.0
 10
15.0927686696
 20
13.5239232774
 30
0.0
 10
15.093031081
 20
13.5318845349
 30
0.0
 10
15.0922822195
 20
13.542857574
 30
0.0
 10
15.0891946591
 20
13.5569663328
 30
0.0
 10
15.0847978066
 20
13.5678178145
 30
0.0
 10
15.0821461854
 20
13.5732212505
 30
0.0
  0
SPLINE
  5
305
100
AcDbEntity
  8
0
100
AcDbSpline
 62
7
  6
CONTINUOUS
 70
0
 71
3
 72
11
 73
7
 74
0
 42
0.0000001
 43
0.0000001
 44
0.0000000001
 40
0.0
 40
0.0
 40
0.0
 40
0.0
 40
0.2647295193
 40
0.5233064798
 40
0.7710549641
 40
1.0
 40
1.0
 40
1.0
 40
1.0
 10
14.1783270783
 20
12.7256992533
 30
0.0
 10
14.1823265894
 20
12.7428340268
 30
0.0
 10
14.1902201777
 20
12.7767082589
 30
0.0
 10
14.2017566329
 20
12.8266414727
 30
0.0
 10
14.2125955963
 20
12.8742944194
 30
0.0
 10
14.2194382464
 20
12.9052309021
 30
0.0
 10
14.2226286446
 20
12.9201096179
 30
0.0
  0
SPLINE
  5
306
100
AcDbEntity
  8
0
100
AcDbSpline
 62
7
  6
CONTINUOUS
 70
0
 71
3
 72
14
 73
10
 74
0
 42
0.0000001
 43
0.0000001
 44
0.0000000001
 40
0.0
 40
0.0
 40
0.0
 40
0.0
 40
0.1162751678
 40
0.2346764214
 40
0.3555154511
 40
0.4789950774
 40
0.6052343838
 40
0.7342451301
 40
1.0
 40
1.0
 40
1.0
 40
1.0
 10
15.8423815881
 20
12.9659911154
 30
0.0
 10
15.8491243473
 20
12.9689641459
 30
0.0
 10
15.8630750271
 20
12.9742178448
 30
0.0
 10
15.8849201679
 20
12.9798913688
 30
0.0
 10
15.9076812227
 20
12.9833789458
 30
0.0
 10
15.9311659388
 20
12.9846623939
 30
0.0
 10
15.9551855762
 20
12.9837205876
 30
0.0
 10
15.9879646625
 20
12.9794924637
 30
0.0
 10
16.0123008242
 20
12.9730668829
 30
0.0
 10
16.0282034427
 20
12.9675189335
 30
0.0
  0
SPLINE
  5
307
100
AcDbEntity
  8
0
100
AcDbSpline
 62
7
  6
CONTINUOUS
 70
0
 71
3
 72
11
 73
7
 74
0
 42
0.0000001
 43
0.0000001
 44
0.0000000001
 40
0.0
 40
0.0
 40
0.0
 40
0.0
 40
0.2604475466
 40
0.5137792802
 40
0.7602302447
 40
1.0
 40
1.0
 40
1.0
 40
1.0
 10
16.2621806202
 20
12.7018165678
 30
0.0
 10
16.2641295522
 20
12.6915768423
 30
0.0
 10
16.2668887881
 20
12.6711499835
 30
0.0
 10
16.2674787973
 20
12.6406603847
 30
0.0
 10
16.264435382
 20
12.6111450969
 30
0.0
 10
16.2599654525
 20
12.5921372424
 30
0.0
 10
16.2571322628
 20
12.582969037
 30
0.0
  0
SPLINE
  5
308
100
AcDbEntity
  8
0
100
AcDbSpline
 62
7
  6
CONTINUOUS
 70
0
 71
3
 72
21
 73
17
 74
0
 42
0.0000001
 43
0.0000001
 44
0.0000000001
 40
0.0
 40
0.0
 40
0.0
 40
0.0
 40
0.0565240853
 40
0.1131772934
 40
0.1701406966
 40
0.2275874111
 40
0.2856777371
 40
0.344554271
 40
0.4043431455
 40
0.4651655766
 40
0.5271417513
 40
0.5903745038
 40
0.6549502137
 40
0.7209433268
 40
0.8573682129
 40
1.0
 40
1.0
 40
1.0
 40
1.0
 10
16.6099879964
 20
11.4885727333
 30
0.0
 10
16.6064882691
 20
11.4772476113
 30
0.0
 10
16.5986182919
 20
11.4548279097
 30
0.0
 10
16.584290422
 20
11.4221167554
 30
0.0
 10
16.5674819941
 20
11.3903875124
 30
0.0
 10
16.5482371149
 20
11.3597195826
 30
0.0
 10
16.5266200975
 20
11.3301781379
 30
0.0
 10
16.5027031743
 20
11.3018222966
 30
0.0
 10
16.4765533038
 20
11.2747117625
 30
0.0
 10
16.4482392099
 20
11.2488977703
 30
0.0
 10
16.4178363543
 20
11.2244143126
 30
0.0
 10
16.3854150466
 20
11.2012937843
 30
0.0
 10
16.3510437737
 20
11.1795674767
 30
0.0
 10
16.302176841
 20
11.1521906687
 30
0.0
 10
16.2364259204
 20
11.1216940199
 30
0.0
 10
16.1812394185
 20
11.1019784346
 30
0.0
 10
16.1526888071
 20
11.0930604413
 30
0.0
  0
SPLINE
  5
309
100
AcDbEntity
  8
0
100
AcDbSpline
 62
7
  6
CONTINUOUS
 70
0
 71
3
 72
9
 73
5
 74
0
 42
0.0000001
 43
0.0000001
 44
0.0000000001
 40
0.0
 40
0.0
 40
0.0
 40
0.0
 40
0.2584063215
 40
1.0
 40
1.0
 40
1.0
 40
1.0
 10
14.1968055401
 20
11.697402366
 30
0.0
 10
14.1875340253
 20
11.7091358565
 30
0.0
 10
14.1525806052
 20
11.7552589517
 30
0.0
 10
14.1214701985
 20
11.8043578122
 30
0.0
 10
14.101346164
 20
11.8422646398
 30
0.0
  0
SPLINE
  5
30A
100
AcDbEntity
  8
0
100
AcDbSpline
 62
7
  6
CONTINUOUS
 70
0
 71
3
 72
16
 73
12
 74
0
 42
0.0000001
 43
0.0000001
 44
0.0000000001
 40
0.0
 40
0.0
 40
0.0
 40
0.0
 40
0.1366411779
 40
0.2689458377
 40
0.3973066497
 40
0.5222262601
 40
0.6442782835
 40
0.7640799131
 40
0.8233843924
 40
0.8824099747
 40
1.0
 40
1.0
 40
1.0
 40
1.0
 10
14.101346164
 20
11.8422646398
 30
0.0
 10
14.0916179945
 20
11.8605891981
 30
0.0
 10
14.0738031982
 20
11.8973881698
 30
0.0
 10
14.0520149429
 20
11.9537149344
 30
0.0
 10
14.0357463336
 20
12.0100388028
 30
0.0
 10
14.0251481166
 20
12.066125191
 30
0.0
 10
14.0203370156
 20
12.1217019345
 30
0.0
 10
14.0212232372
 20
12.1675164914
 30
0.0
 10
14.0249220825
 20
12.2035005594
 30
0.0
 10
14.030563499
 20
12.2388873098
 30
0.0
 10
14.0370230949
 20
12.2649918438
 30
0.0
 10
14.0422944775
 20
12.2820500441
 30
0.0
  0
SPLINE
  5
30B
100
AcDbEntity
  8
0
100
AcDbSpline
 62
7
  6
CONTINUOUS
 70
0
 71
3
 72
33
 73
29
 74
0
 42
0.0000001
 43
0.0000001
 44
0.0000000001
 40
0.0
 40
0.0
 40
0.0
 40
0.0
 40
0.0620045025
 40
0.0930415661
 40
0.1240759664
 40
0.1551066811
 40
0.1861371019
 40
0.2171743984
 40
0.2482177992
 40
0.2792749949
 40
0.3103550866
 40
0.3414571955
 40
0.3725993275
 40
0.4037959396
 40
0.4350521247
 40
0.4663827842
 40
0.4977906579
 40
0.5607547488
 40
0.6239326048
 40
0.655580786
 40
0.6872144974
 40
0.7502869608
 40
0.8130760153
 40
0.8443830277
 40
0.8756194989
 40
0.9067948607
 40
0.9379310307
 40
1.0
 40
1.0
 40
1.0
 40
1.0
 10
15.9847645727
 20
12.8815095364
 30
0.0
 10
15.9873466225
 20
12.8898650524
 30
0.0
 10
15.9925702464
 20
12.902046281
 30
0.0
 10
16.0019748952
 20
12.9168327989
 30
0.0
 10
16.0101980798
 20
12.9271062981
 30
0.0
 10
16.0194788922
 20
12.9364308056
 30
0.0
 10
16.0297233713
 20
12.9446867393
 30
0.0
 10
16.0407977838
 20
12.9517924357
 30
0.0
 10
16.0525743927
 20
12.9576702646
 30
0.0
 10
16.0649162297
 20
12.9622583421
 30
0.0
 10
16.0776762131
 20
12.9655375321
 30
0.0
 10
16.0907188227
 20
12.9674780063
 30
0.0
 10
16.1039060818
 20
12.9680866757
 30
0.0
 10
16.1171099933
 20
12.9673871851
 30
0.0
 10
16.1302077954
 20
12.9653981289
 30
0.0
 10
16.1430866051
 20
12.9621684936
 30
0.0
 10
16.1598295426
 20
12.9562714513
 30
0.0
 10
16.1796968679
 20
12.9460337284
 30
0.0
 10
16.1974731754
 20
12.9324446409
 30
0.0
 10
16.2101284997
 20
12.9198475868
 30
0.0
 10
16.2216291619
 20
12.9062078326
 30
0.0
 10
16.2336717568
 20
12.8873959778
 30
0.0
 10
16.2421436369
 20
12.866767507
 30
0.0
 10
16.2465246979
 20
12.8496182929
 30
0.0
 10
16.2485644603
 20
12.8365372445
 30
0.0
 10
16.2493245908
 20
12.8233414701
 30
0.0
 10
16.2485838486
 20
12.805794853
 30
0.0
 10
16.2460236237
 20
12.7927747505
 30
0.0
 10
16.2434388894
 20
12.7844105472
 30
0.0
  0
SPLINE
  5
30C
100
AcDbEntity
  8
0
100
AcDbSpline
 62
7
  6
CONTINUOUS
 70
0
 71
3
 72
15
 73
11
 74
0
 42
0.0000001
 43
0.0000001
 44
0.0000000001
 40
0.0
 40
0.0
 40
0.0
 40
0.0
 40
0.1250147549
 40
0.2499826945
 40
0.3749199601
 40
0.4998532036
 40
0.6247986717
 40
0.7497801805
 40
0.8748388818
 40
1.0
 40
1.0
 40
1.0
 40
1.0
 10
16.2434388894
 20
12.7844105472
 30
0.0
 10
16.2417185899
 20
12.7788436558
 30
0.0
 10
16.2374913923
 20
12.7679373877
 30
0.0
 10
16.2289023774
 20
12.7526544183
 30
0.0
 10
16.2182101857
 20
12.7387601774
 30
0.0
 10
16.2056249022
 20
12.7265569455
 30
0.0
 10
16.1914144768
 20
12.7162891747
 30
0.0
 10
16.1758743874
 20
12.7081607734
 30
0.0
 10
16.1593371545
 20
12.7023084254
 30
0.0
 10
16.1478673645
 20
12.6999707257
 30
0.0
 10
16.1420854095
 20
12.6991972612
 30
0.0
  0
SPLINE
  5
30D
100
AcDbEntity
  8
0
100
AcDbSpline
 62
7
  6
CONTINUOUS
 70
0
 71
3
 72
11
 73
7
 74
0
 42
0.0000001
 43
0.0000001
 44
0.0000000001
 40
0.0
 40
0.0
 40
0.0
 40
0.0
 40
0.2545720448
 40
0.5054666051
 40
0.7534950213
 40
1.0
 40
1.0
 40
1.0
 40
1.0
 10
15.7369408744
 20
12.8466958113
 30
0.0
 10
15.739271848
 20
12.8542388446
 30
0.0
 10
15.7447551668
 20
12.8689682265
 30
0.0
 10
15.7554414497
 20
12.8898103754
 30
0.0
 10
15.7684373748
 20
12.9089970934
 30
0.0
 10
15.7785672087
 20
12.9205739708
 30
0.0
 10
15.7839484058
 20
12.9260040472
 30
0.0
  0
SPLINE
  5
30E
100
AcDbEntity
  8
0
100
AcDbSpline
 62
7
  6
CONTINUOUS
 70
0
 71
3
 72
11
 73
7
 74
0
 42
0.0000001
 43
0.0000001
 44
0.0000000001
 40
0.0
 40
0.0
 40
0.0
 40
0.0
 40
0.2488257282
 40
0.4979445698
 40
0.7480495949
 40
1.0
 40
1.0
 40
1.0
 40
1.0
 10
15.7050942667
 20
12.8145601714
 30
0.0
 10
15.7074459091
 20
12.8221700892
 30
0.0
 10
15.7130901312
 20
12.8371263537
 30
0.0
 10
15.7242252667
 20
12.8583894801
 30
0.0
 10
15.7379136892
 20
12.8782269072
 30
0.0
 10
15.7485755059
 20
12.8903099602
 30
0.0
 10
15.7542524353
 20
12.8960385634
 30
0.0
  0
SPLINE
  5
30F
100
AcDbEntity
  8
0
100
AcDbSpline
 62
7
  6
CONTINUOUS
 70
0
 71
3
 72
10
 73
6
 74
0
 42
0.0000001
 43
0.0000001
 44
0.0000000001
 40
0.0
 40
0.0
 40
0.0
 40
0.0
 40
0.2473365951
 40
0.4970346633
 40
1.0
 40
1.0
 40
1.0
 40
1.0
 10
16.2420400677
 20
12.862937704
 30
0.0
 10
16.2560799952
 20
12.849094868
 30
0.0
 10
16.2837827445
 20
12.8207571163
 30
0.0
 10
16.3380619562
 20
12.7623702945
 30
0.0
 10
16.3779236126
 20
12.717521306
 30
0.0
 10
16.4045677019
 20
12.6875607347
 30
0.0
  0
SPLINE
  5
310
100
AcDbEntity
  8
0
100
AcDbSpline
 62
7
  6
CONTINUOUS
 70
0
 71
3
 72
32
 73
28
 74
0
 42
0.0000001
 43
0.0000001
 44
0.0000000001
 40
0.0
 40
0.0
 40
0.0
 40
0.0
 40
0.0265133747
 40
0.0543697918
 40
0.1139762856
 40
0.1785203339
 40
0.2124625785
 40
0.2473500512
 40
0.283048231
 40
0.3194089575
 40
0.393463891
 40
0.4682112036
 40
0.5422812577
 40
0.6143405174
 40
0.6831730711
 40
0.7160674522
 40
0.7477958993
 40
0.7782784963
 40
0.8074651951
 40
0.8353296825
 40
0.8618865678
 40
0.8871900179
 40
0.9113348207
 40
0.9344711878
 40
0.9567943813
 40
0.978545254
 40
1.0
 40
1.0
 40
1.0
 40
1.0
 10
14.6791820005
 20
13.5732212505
 30
0.0
 10
14.6810646192
 20
13.5693848769
 30
0.0
 10
14.6853272089
 20
13.5617101856
 30
0.0
 10
14.6956505512
 20
13.5464915056
 30
0.0
 10
14.7118761795
 20
13.5279983925
 30
0.0
 10
14.7311669632
 20
13.5112478833
 30
0.0
 10
14.7485668988
 20
13.498608601
 30
0.0
 10
14.7627345187
 20
13.4894750425
 30
0.0
 10
14.7777054403
 20
13.4809148707
 30
0.0
 10
14.798724519
 20
13.4702744458
 30
0.0
 10
14.8263238673
 20
13.4587854525
 30
0.0
 10
14.8606893746
 20
13.4481503031
 30
0.0
 10
14.8955941297
 20
13.4408676044
 30
0.0
 10
14.9300964072
 20
13.4371344123
 30
0.0
 10
14.9581717599
 20
13.4370606438
 30
0.0
 10
14.9796125133
 20
13.438929913
 30
0.0
 10
14.9947801898
 20
13.4412251898
 30
0.0
 10
15.0091729676
 20
13.4444229076
 30
0.0
 10
15.0226956107
 20
13.4484959694
 30
0.0
 10
15.0352555487
 20
13.4534242929
 30
0.0
 10
15.0467677325
 20
13.4591751391
 30
0.0
 10
15.0571563298
 20
13.4657085317
 30
0.0
 10
15.0663446271
 20
13.4729911646
 30
0.0
 10
15.0742700705
 20
13.4809715675
 30
0.0
 10
15.0808731526
 20
13.4896007275
 30
0.0
 10
15.0860945751
 20
13.4988198376
 30
0.0
 10
15.0886393795
 20
13.505332619
 30
0.0
 10
15.089661135
 20
13.5086362844
 30
0.0
  0
SPLINE
  5
311
100
AcDbEntity
  8
0
100
AcDbSpline
 62
7
  6
CONTINUOUS
 70
0
 71
3
 72
18
 73
14
 74
0
 42
0.0000001
 43
0.0000001
 44
0.0000000001
 40
0.0
 40
0.0
 40
0.0
 40
0.0
 40
0.1301400667
 40
0.1953478746
 40
0.2604380605
 40
0.3898124051
 40
0.5175580429
 40
0.6429567839
 40
0.7046021905
 40
0.7654503653
 40
0.8254571511
 40
0.8845875893
 40
1.0
 40
1.0
 40
1.0
 40
1.0
 10
15.864258081
 20
12.6282074006
 30
0.0
 10
15.8711198711
 20
12.6198230524
 30
0.0
 10
15.8820614142
 20
12.6077425189
 30
0.0
 10
15.8977990468
 20
12.5928184647
 30
0.0
 10
15.9142446313
 20
12.5787738175
 30
0.0
 10
15.9359787604
 20
12.5629614728
 30
0.0
 10
15.9636043631
 20
12.5470064948
 30
0.0
 10
15.9876330201
 20
12.5363993023
 30
0.0
 10
16.0071652515
 20
12.5297067612
 30
0.0
 10
16.0218091916
 20
12.5256246851
 30
0.0
 10
16.0364692155
 20
12.5224762675
 30
0.0
 10
16.0557863684
 20
12.5195709126
 30
0.0
 10
16.0703464579
 20
12.518754606
 30
0.0
 10
16.0799541286
 20
12.5188537585
 30
0.0
  0
SPLINE
  5
312
100
AcDbEntity
  8
0
100
AcDbSpline
 62
7
  6
CONTINUOUS
 70
0
 71
3
 72
18
 73
14
 74
0
 42
0.0000001
 43
0.0000001
 44
0.0000000001
 40
0.0
 40
0.0
 40
0.0
 40
0.0
 40
0.1129490877
 40
0.1707661255
 40
0.2294898376
 40
0.3496955818
 40
0.4736872881
 40
0.6012209724
 40
0.666210666
 40
0.7319140382
 40
0.7982621724
 40
0.8651647556
 40
1.0
 40
1.0
 40
1.0
 40
1.0
 10
15.8085649773
 20
12.8516576052
 30
0.0
 10
15.8059258774
 20
12.8430379094
 30
0.0
 10
15.8029097525
 20
12.8296822487
 30
0.0
 10
15.800793037
 20
12.8114786248
 30
0.0
 10
15.7999436544
 20
12.7925878885
 30
0.0
 10
15.8013569611
 20
12.7683752958
 30
0.0
 10
15.8068427146
 20
12.7391461575
 30
0.0
 10
15.814439974
 20
12.7149889492
 30
0.0
 10
15.8222700559
 20
12.6959155994
 30
0.0
 10
15.8290461577
 20
12.6817149061
 30
0.0
 10
15.8366652333
 20
12.6677738153
 30
0.0
 10
15.847931054
 20
12.6495750941
 30
0.0
 10
15.8574718613
 20
12.6365593766
 30
0.0
 10
15.864258081
 20
12.6282074006
 30
0.0
  0
LINE
  5
313
100
AcDbEntity
  8
0
100
AcDbLine
 62
7
  6
CONTINUOUS
 10
16.7568512432
 20
11.9696823552
 11
16.7499012807
 21
11.9316326656
  0
SPLINE
  5
314
100
AcDbEntity
  8
0
100
AcDbSpline
 62
7
  6
CONTINUOUS
 70
0
 71
3
 72
11
 73
7
 74
0
 42
0.0000001
 43
0.0000001
 44
0.0000000001
 40
0.0
 40
0.0
 40
0.0
 40
0.0
 40
0.2257268847
 40
0.4631023091
 40
0.7182405992
 40
1.0
 40
1.0
 40
1.0
 40
1.0
 10
16.7499012807
 20
11.9316326656
 30
0.0
 10
16.7481821958
 20
11.92229877
 30
0.0
 10
16.744625222
 20
11.9031548078
 30
0.0
 10
16.7389480433
 20
11.873493992
 30
0.0
 10
16.7326007447
 20
11.8415634283
 30
0.0
 10
16.7279868713
 20
11.8194651128
 30
0.0
 10
16.7255030536
 20
11.8078816002
 30
0.0
  0
SPLINE
  5
315
100
AcDbEntity
  8
0
100
AcDbSpline
 62
7
  6
CONTINUOUS
 70
0
 71
3
 72
17
 73
13
 74
0
 42
0.0000001
 43
0.0000001
 44
0.0000000001
 40
0.0
 40
0.0
 40
0.0
 40
0.0
 40
0.1324750781
 40
0.1973119593
 40
0.2611974359
 40
0.3864110274
 40
0.509195253
 40
0.6306872528
 40
0.7521403385
 40
0.8133243013
 40
0.8749873246
 40
1.0
 40
1.0
 40
1.0
 40
1.0
 10
16.0799541286
 20
12.5188537585
 30
0.0
 10
16.0892581785
 20
12.5189926774
 30
0.0
 10
16.1031304833
 20
12.5200958447
 30
0.0
 10
16.1211712109
 20
12.52350347
 30
0.0
 10
16.1384147928
 20
12.5281208899
 30
0.0
 10
16.1588794994
 20
12.5362054301
 30
0.0
 10
16.1812809232
 20
12.5495332573
 30
0.0
 10
16.2009959564
 20
12.566184055
 30
0.0
 10
16.214858488
 20
12.5825787427
 30
0.0
 10
16.2242320329
 20
12.5969727252
 30
0.0
 10
16.2325078289
 20
12.612306584
 30
0.0
 10
16.2373426545
 20
12.6245676322
 30
0.0
 10
16.2399570726
 20
12.6329503211
 30
0.0
  0
SPLINE
  5
316
100
AcDbEntity
  8
0
100
AcDbSpline
 62
7
  6
CONTINUOUS
 70
0
 71
3
 72
18
 73
14
 74
0
 42
0.0000001
 43
0.0000001
 44
0.0000000001
 40
0.0
 40
0.0
 40
0.0
 40
0.0
 40
0.1563687609
 40
0.3043758099
 40
0.4428303002
 40
0.5711231835
 40
0.6315124954
 40
0.6894830841
 40
0.7987316683
 40
0.8506751661
 40
0.9012460148
 40
0.9508671813
 40
1.0
 40
1.0
 40
1.0
 40
1.0
 10
16.125372399
 20
11.0189221157
 30
0.0
 10
16.1346736727
 20
11.018652273
 30
0.0
 10
16.1528162847
 20
11.0189387552
 30
0.0
 10
16.1790391957
 20
11.0219971339
 30
0.0
 10
16.2031287063
 20
11.0276298683
 30
0.0
 10
16.2214125319
 20
11.0345242543
 30
0.0
 10
16.234455343
 20
11.041292219
 30
0.0
 10
16.2459236106
 20
11.0485177467
 30
0.0
 10
16.2560032575
 20
11.0569524569
 30
0.0
 10
16.2642604463
 20
11.0665005099
 30
0.0
 10
16.2693867317
 20
11.07398819
 30
0.0
 10
16.2735176669
 20
11.0818782542
 30
0.0
 10
16.2756007521
 20
11.0873917495
 30
0.0
 10
16.2764646474
 20
11.0901850016
 30
0.0
  0
SPLINE
  5
317
100
AcDbEntity
  8
0
100
AcDbSpline
 62
7
  6
CONTINUOUS
 70
0
 71
3
 72
17
 73
13
 74
0
 42
0.0000001
 43
0.0000001
 44
0.0000000001
 40
0.0
 40
0.0
 40
0.0
 40
0.0
 40
0.1324750781
 40
0.1973119593
 40
0.2611974359
 40
0.3864110274
 40
0.509195253
 40
0.6306872528
 40
0.7521403385
 40
0.8133243013
 40
0.8749873246
 40
1.0
 40
1.0
 40
1.0
 40
1.0
 10
15.9685679213
 20
12.9657541677
 30
0.0
 10
15.9592638715
 20
12.9656152488
 30
0.0
 10
15.9453915667
 20
12.9645120816
 30
0.0
 10
15.927350839
 20
12.9611044562
 30
0.0
 10
15.9101072572
 20
12.9564870364
 30
0.0
 10
15.8896425506
 20
12.9484024961
 30
0.0
 10
15.8672411268
 20
12.935074669
 30
0.0
 10
15.8475260935
 20
12.9184238713
 30
0.0
 10
15.8336635619
 20
12.9020291835
 30
0.0
 10
15.824290017
 20
12.887635201
 30
0.0
 10
15.816014221
 20
12.8723013422
 30
0.0
 10
15.8111793955
 20
12.8600402941
 30
0.0
 10
15.8085649773
 20
12.8516576052
 30
0.0
  0
SPLINE
  5
318
100
AcDbEntity
  8
0
100
AcDbSpline
 62
7
  6
CONTINUOUS
 70
0
 71
3
 72
20
 73
16
 74
0
 42
0.0000001
 43
0.0000001
 44
0.0000000001
 40
0.0
 40
0.0
 40
0.0
 40
0.0
 40
0.0623282444
 40
0.1235426851
 40
0.1838687287
 40
0.2435481234
 40
0.3028378002
 40
0.362002713
 40
0.4213103776
 40
0.4810252573
 40
0.5414003197
 40
0.6026752136
 40
0.7287245607
 40
0.8608240516
 40
1.0
 40
1.0
 40
1.0
 40
1.0
 10
14.4154082605
 20
12.2835460597
 30
0.0
 10
14.4089735448
 20
12.276356865
 30
0.0
 10
14.3967263436
 20
12.2616419102
 30
0.0
 10
14.3802043385
 20
12.2384327847
 30
0.0
 10
14.3657476418
 20
12.214357746
 30
0.0
 10
14.3533951784
 20
12.1894697373
 30
0.0
 10
14.3431756713
 20
12.1638253349
 30
0.0
 10
14.3351090243
 20
12.1374845398
 30
0.0
 10
14.3292178855
 20
12.1105061521
 30
0.0
 10
14.3255163499
 20
12.0829532988
 30
0.0
 10
14.3240065208
 20
12.0548888528
 30
0.0
 10
14.3249283981
 20
12.0165238588
 30
0.0
 10
14.3317653659
 20
11.9673573163
 30
0.0
 10
14.3486229451
 20
11.908035688
 30
0.0
 10
14.3650851301
 20
11.8692782633
 30
0.0
 10
14.3745762843
 20
11.8499373246
 30
0.0
  0
SPLINE
  5
319
100
AcDbEntity
  8
0
100
AcDbSpline
 62
7
  6
CONTINUOUS
 70
0
 71
3
 72
22
 73
18
 74
0
 42
0.0000001
 43
0.0000001
 44
0.0000000001
 40
0.0
 40
0.0
 40
0.0
 40
0.0
 40
0.0596671056
 40
0.118065456
 40
0.1755410779
 40
0.2324713178
 40
0.2892517129
 40
0.3462826774
 40
0.4039568908
 40
0.4626446405
 40
0.522686228
 40
0.5843754724
 40
0.6479626868
 40
0.7136580398
 40
0.8519212598
 40
0.9247447861
 40
1.0
 40
1.0
 40
1.0
 40
1.0
 10
16.3027683799
 20
11.7003077883
 30
0.0
 10
16.3043354755
 20
11.6883766959
 30
0.0
 10
16.3063783622
 20
11.6646127625
 30
0.0
 10
16.3060460639
 20
11.6291581896
 30
0.0
 10
16.3022722169
 20
11.5944525587
 30
0.0
 10
16.2950628714
 20
11.5606276586
 30
0.0
 10
16.2844528645
 20
11.5278041917
 30
0.0
 10
16.2704710453
 20
11.4961057725
 30
0.0
 10
16.2531756108
 20
11.4656461818
 30
0.0
 10
16.2326345344
 20
11.4365311105
 30
0.0
 10
16.208917284
 20
11.4088686531
 30
0.0
 10
16.1821220857
 20
11.3827465023
 30
0.0
 10
16.1523410474
 20
11.3582534332
 30
0.0
 10
16.1080463749
 20
11.3273607572
 30
0.0
 10
16.0587684092
 20
11.3006817969
 30
0.0
 10
16.0055881606
 20
11.2781186089
 30
0.0
 10
15.9774238009
 20
11.2681188215
 30
0.0
 10
15.9629853494
 20
11.2634408773
 30
0.0
  0
SPLINE
  5
31A
100
AcDbEntity
  8
0
100
AcDbSpline
 62
7
  6
CONTINUOUS
 70
0
 71
3
 72
13
 73
9
 74
0
 42
0.0000001
 43
0.0000001
 44
0.0000000001
 40
0.0
 40
0.0
 40
0.0
 40
0.0
 40
0.1164742251
 40
0.2338475735
 40
0.3530091251
 40
0.4747873878
 40
0.7287548726
 40
1.0
 40
1.0
 40
1.0
 40
1.0
 10
14.6716670509
 20
13.6378062165
 30
0.0
 10
14.670903381
 20
13.6353370255
 30
0.0
 10
14.6696381274
 20
13.6302921321
 30
0.0
 10
14.6685595163
 20
13.6225192235
 30
0.0
 10
14.6682971048
 20
13.614557966
 30
0.0
 10
14.6690459664
 20
13.6035849269
 30
0.0
 10
14.6721335268
 20
13.5894761681
 30
0.0
 10
14.6765303793
 20
13.5786246864
 30
0.0
 10
14.6791820005
 20
13.5732212505
 30
0.0
  0
SPLINE
  5
31B
100
AcDbEntity
  8
0
100
AcDbSpline
 62
7
  6
CONTINUOUS
 70
0
 71
3
 72
11
 73
7
 74
0
 42
0.0000001
 43
0.0000001
 44
0.0000000001
 40
0.0
 40
0.0
 40
0.0
 40
0.0
 40
0.2572378004
 40
0.5098290326
 40
0.7575145248
 40
1.0
 40
1.0
 40
1.0
 40
1.0
 10
16.0442983206
 20
12.9538128118
 30
0.0
 10
16.0380180959
 20
12.9558448418
 30
0.0
 10
16.0254149301
 20
12.9594093371
 30
0.0
 10
16.0063316942
 20
12.9632120621
 30
0.0
 10
15.9873783796
 20
12.9654064343
 30
0.0
 10
15.9747898271
 20
12.9658183787
 30
0.0
 10
15.9685679213
 20
12.9657541677
 30
0.0
  0
SPLINE
  5
31C
100
AcDbEntity
  8
0
100
AcDbSpline
 62
7
  6
CONTINUOUS
 70
0
 71
3
 72
16
 73
12
 74
0
 42
0.0000001
 43
0.0000001
 44
0.0000000001
 40
0.0
 40
0.0
 40
0.0
 40
0.0
 40
0.117232894
 40
0.2341081283
 40
0.3521341278
 40
0.4727149858
 40
0.5970432309
 40
0.7260660412
 40
0.7925767222
 40
0.8604301001
 40
1.0
 40
1.0
 40
1.0
 40
1.0
 10
16.1804280519
 20
12.4736946064
 30
0.0
 10
16.1749961464
 20
12.4682132335
 30
0.0
 10
16.1633445196
 20
12.4580303195
 30
0.0
 10
16.1437921656
 20
12.4454353421
 30
0.0
 10
16.1224291792
 20
12.4356942518
 30
0.0
 10
16.0994676102
 20
12.4288436932
 30
0.0
 10
16.0751079763
 20
12.4248998224
 30
0.0
 10
16.0540226
 20
12.424023723
 30
0.0
 10
16.0366918154
 20
12.4247059512
 30
0.0
 10
16.0187285301
 20
12.4263472289
 30
0.0
 10
16.0052351981
 20
12.4286044517
 30
0.0
 10
15.9962503827
 20
12.4305225799
 30
0.0
  0
SPLINE
  5
31D
100
AcDbEntity
  8
0
100
AcDbSpline
 62
7
  6
CONTINUOUS
 70
0
 71
3
 72
14
 73
10
 74
0
 42
0.0000001
 43
0.0000001
 44
0.0000000001
 40
0.0
 40
0.0
 40
0.0
 40
0.0
 40
0.1175206209
 40
0.236461674
 40
0.3572975306
 40
0.4804242699
 40
0.6061407863
 40
0.7346377543
 40
1.0
 40
1.0
 40
1.0
 40
1.0
 10
16.185386188
 20
12.482720378
 30
0.0
 10
16.1794915788
 20
12.4785508466
 30
0.0
 10
16.1671380958
 20
12.4708355406
 30
0.0
 10
16.1472895168
 20
12.4613599003
 30
0.0
 10
16.126201634
 20
12.4539870401
 30
0.0
 10
16.1040520894
 20
12.4487851521
 30
0.0
 10
16.0810228695
 20
12.4457898594
 30
0.0
 10
16.049082059
 20
12.4447539707
 30
0.0
 10
16.024856495
 20
12.4473874325
 30
0.0
 10
16.0088511475
 20
12.4504899401
 30
0.0
  0
SPLINE
  5
31E
100
AcDbEntity
  8
0
100
AcDbSpline
 62
7
  6
CONTINUOUS
 70
0
 71
3
 72
17
 73
13
 74
0
 42
0.0000001
 43
0.0000001
 44
0.0000000001
 40
0.0
 40
0.0
 40
0.0
 40
0.0
 40
0.1202659791
 40
0.2444575785
 40
0.3714832509
 40
0.4999872464
 40
0.6284819558
 40
0.6922965332
 40
0.7555583625
 40
0.8181032787
 40
0.879787786
 40
1.0
 40
1.0
 40
1.0
 40
1.0
 10
16.0075432256
 20
12.45074656
 30
0.0
 10
15.9914875456
 20
12.453934669
 30
0.0
 10
15.9593447944
 20
12.4631478565
 30
0.0
 10
15.9132520628
 20
12.4843456804
 30
0.0
 10
15.8697198952
 20
12.5125272701
 30
0.0
 10
15.8300702285
 20
12.546829886
 30
0.0
 10
15.8011615403
 20
12.579757406
 30
0.0
 10
15.7810518361
 20
12.6081698513
 30
0.0
 10
15.7676501346
 20
12.6302524685
 30
0.0
 10
15.7560100694
 20
12.6529902627
 30
0.0
 10
15.7430623301
 20
12.6836579127
 30
0.0
 10
15.736039461
 20
12.7075396228
 30
0.0
 10
15.7327408658
 20
12.7235654971
 30
0.0
  0
SPLINE
  5
31F
100
AcDbEntity
  8
0
100
AcDbSpline
 62
7
  6
CONTINUOUS
 70
0
 71
3
 72
11
 73
7
 74
0
 42
0.0000001
 43
0.0000001
 44
0.0000000001
 40
0.0
 40
0.0
 40
0.0
 40
0.0
 40
0.2608040949
 40
0.5142541505
 40
0.7605791447
 40
1.0
 40
1.0
 40
1.0
 40
1.0
 10
15.7327408658
 20
12.7235654971
 30
0.0
 10
15.7305601807
 20
12.7341601246
 30
0.0
 10
15.7274109529
 20
12.7553102159
 30
0.0
 10
15.7264755599
 20
12.7869175349
 30
0.0
 10
15.7294270065
 20
12.8175144276
 30
0.0
 10
15.734009108
 20
12.8372086118
 30
0.0
 10
15.7369408744
 20
12.8466958113
 30
0.0
  0
SPLINE
  5
320
100
AcDbEntity
  8
0
100
AcDbSpline
 62
7
  6
CONTINUOUS
 70
0
 71
3
 72
31
 73
27
 74
0
 42
0.0000001
 43
0.0000001
 44
0.0000000001
 40
0.0
 40
0.0
 40
0.0
 40
0.0
 40
0.0211880694
 40
0.0425867422
 40
0.0643768823
 40
0.0867356505
 40
0.1098205173
 40
0.1337609282
 40
0.1845194227
 40
0.2114960914
 40
0.2395560684
 40
0.2687001069
 40
0.2989061224
 40
0.3623152408
 40
0.4293401329
 40
0.4640199508
 40
0.4993469555
 40
0.5715182738
 40
0.6449976222
 40
0.7188638951
 40
0.7556562473
 40
0.7921935234
 40
0.864031532
 40
0.9335659033
 40
0.9672276559
 40
1.0
 40
1.0
 40
1.0
 40
1.0
 10
14.3954915215
 20
13.723150914
 30
0.0
 10
14.3974644324
 20
13.7295308374
 30
0.0
 10
14.4022081048
 20
13.7421276332
 30
0.0
 10
14.4115867114
 20
13.7601708036
 30
0.0
 10
14.4232061777
 20
13.7773074973
 30
0.0
 10
14.4369920464
 20
13.7934539886
 30
0.0
 10
14.4528774131
 20
13.8085390359
 30
0.0
 10
14.4772180391
 20
13.827507284
 30
0.0
 10
14.5051127464
 20
13.8436427521
 30
0.0
 10
14.5356895367
 20
13.8569845847
 30
0.0
 10
14.5607184444
 20
13.865857942
 30
0.0
 10
14.5872512678
 20
13.8733403589
 30
0.0
 10
14.6250799591
 20
13.8815598342
 30
0.0
 10
14.6754043728
 20
13.8880104271
 30
0.0
 10
14.7275051138
 20
13.8894405373
 30
0.0
 10
14.7706715055
 20
13.8877092503
 30
0.0
 10
14.81533799
 20
13.8839554213
 30
0.0
 10
14.871826971
 20
13.8755461066
 30
0.0
 10
14.9392880949
 20
13.8598848787
 30
0.0
 10
14.9946797369
 20
13.8423462503
 30
0.0
 10
15.0380100776
 20
13.8257402523
 30
0.0
 10
15.0800566361
 20
13.807672451
 30
0.0
 10
15.1302019705
 20
13.7824310047
 30
0.0
 10
15.1772525065
 20
13.7534753492
 30
0.0
 10
15.2120972963
 20
13.7285062136
 30
0.0
 10
15.2285144338
 20
13.7154928143
 30
0.0
 10
15.2364382921
 20
13.7088668745
 30
0.0
  0
SPLINE
  5
321
100
AcDbEntity
  8
0
100
AcDbSpline
 62
7
  6
CONTINUOUS
 70
0
 71
3
 72
12
 73
8
 74
0
 42
0.0000001
 43
0.0000001
 44
0.0000000001
 40
0.0
 40
0.0
 40
0.0
 40
0.0
 40
0.2365273558
 40
0.3581210793
 40
0.4819742129
 40
0.7364712837
 40
1.0
 40
1.0
 40
1.0
 40
1.0
 10
16.2399570726
 20
12.6329503211
 30
0.0
 10
16.2430567202
 20
12.6430742342
 30
0.0
 10
16.2464058875
 20
12.6588546715
 30
0.0
 10
16.2482388249
 20
12.6803677177
 30
0.0
 10
16.2483108547
 20
12.70277056
 30
0.0
 10
16.2450101006
 20
12.7314274006
 30
0.0
 10
16.2390556621
 20
12.7539264259
 30
0.0
 10
16.2352892676
 20
12.7651054701
 30
0.0
  0
SPLINE
  5
322
100
AcDbEntity
  8
0
100
AcDbSpline
 62
7
  6
CONTINUOUS
 70
0
 71
3
 72
15
 73
11
 74
0
 42
0.0000001
 43
0.0000001
 44
0.0000000001
 40
0.0
 40
0.0
 40
0.0
 40
0.0
 40
0.1076716732
 40
0.2205192811
 40
0.3385218201
 40
0.46161989
 40
0.5896469058
 40
0.7223105437
 40
0.8592407583
 40
1.0
 40
1.0
 40
1.0
 40
1.0
 10
14.3745762843
 20
11.8499373246
 30
0.0
 10
14.3830603864
 20
11.8326485421
 30
0.0
 10
14.4021742688
 20
11.7980726705
 30
0.0
 10
14.4359707407
 20
11.747756655
 30
0.0
 10
14.4753529015
 20
11.6981107546
 30
0.0
 10
14.520052645
 20
11.6494499857
 30
0.0
 10
14.5697921523
 20
11.6020729289
 30
0.0
 10
14.6242572044
 20
11.5562739009
 30
0.0
 10
14.6831016609
 20
11.512344732
 30
0.0
 10
14.724486413
 20
11.4848322266
 30
0.0
 10
14.7458028807
 20
11.4714360166
 30
0.0
  0
SPLINE
  5
323
100
AcDbEntity
  8
0
100
AcDbSpline
 62
7
  6
CONTINUOUS
 70
0
 71
3
 72
15
 73
11
 74
0
 42
0.0000001
 43
0.0000001
 44
0.0000000001
 40
0.0
 40
0.0
 40
0.0
 40
0.0
 40
0.1107372979
 40
0.2295242385
 40
0.3549514487
 40
0.4849987454
 40
0.6170725503
 40
0.7484676407
 40
0.8768082994
 40
1.0
 40
1.0
 40
1.0
 40
1.0
 10
15.9962504119
 20
12.4305220275
 30
0.0
 10
15.9891909449
 20
12.4320291132
 30
0.0
 10
15.97466544
 20
12.4356698594
 30
0.0
 10
15.9526218485
 20
12.442753395
 30
0.0
 10
15.9299185942
 20
12.4517304219
 30
0.0
 10
15.9070327606
 20
12.4624667052
 30
0.0
 10
15.8845150851
 20
12.4747861183
 30
0.0
 10
15.8628466482
 20
12.4883336778
 30
0.0
 10
15.8424677005
 20
12.5027699193
 30
0.0
 10
15.8296132017
 20
12.5129633706
 30
0.0
 10
15.8234600028
 20
12.5181233571
 30
0.0
  0
SPLINE
  5
324
100
AcDbEntity
  8
0
100
AcDbSpline
 62
7
  6
CONTINUOUS
 70
0
 71
3
 72
19
 73
15
 74
0
 42
0.0000001
 43
0.0000001
 44
0.0000000001
 40
0.0
 40
0.0
 40
0.0
 40
0.0
 40
0.1367092874
 40
0.2714371767
 40
0.402761919
 40
0.4669372023
 40
0.5300179717
 40
0.6527623434
 40
0.7125842922
 40
0.7714518326
 40
0.8294866483
 40
0.8868404833
 40
0.9436430995
 40
1.0
 40
1.0
 40
1.0
 40
1.0
 10
15.8234603271
 20
12.5181237302
 30
0.0
 10
15.8116664557
 20
12.5280138742
 30
0.0
 10
15.7892485061
 20
12.5488836222
 30
0.0
 10
15.759537346
 20
12.5832569569
 30
0.0
 10
15.7386239813
 20
12.6141237495
 30
0.0
 10
15.7247132404
 20
12.6397221004
 30
0.0
 10
15.7129822314
 20
12.6653251967
 30
0.0
 10
15.7041842555
 20
12.6916807645
 30
0.0
 10
15.6987506672
 20
12.7183409385
 30
0.0
 10
15.6964310513
 20
12.7381280843
 30
0.0
 10
15.6958586658
 20
12.7577648358
 30
0.0
 10
15.6970670379
 20
12.7771422261
 30
0.0
 10
15.7000510378
 20
12.7961340485
 30
0.0
 10
15.7032208813
 20
12.8084978939
 30
0.0
 10
15.7050942667
 20
12.8145601714
 30
0.0
  0
ENDSEC
  0
SECTION
  2
OBJECTS
  0
DICTIONARY
  5
C
100
AcDbDictionary
280
0
281
1
  3
ACAD_GROUP
350
D
  3
ACAD_MLINESTYLE
350
17
  3
ACAD_LAYOUT
350
1A
  3
ACAD_PLOTSETTINGS
350
19
  3
ACAD_PLOTSTYLENAME
350
E
  0
DICTIONARY
  5
D
102
{ACAD_REACTORS
330
C
102
}
100
AcDbDictionary
280
0
281
1
  0
ACDBDICTIONARYWDFLT
  5
E
102
{ACAD_REACTORS
330
C
102
}
100
AcDbDictionary
281
1
  3
Normal
350
F
100
AcDbDictionaryWithDefault
340
F
  0
DICTIONARY
  5
17
102
{ACAD_REACTORS
330
C
102
}
100
AcDbDictionary
280
0
281
1
  3
Standard
350
18
  0
DICTIONARY
  5
19
102
{ACAD_REACTORS
330
C
102
}
100
AcDbDictionary
281
1
  0
DICTIONARY
  5
1A
102
{ACAD_REACTORS
330
C
102
}
100
AcDbDictionary
281
1
  3
Model
350
325
  3
Layout1
350
326
  0
ACDBPLACEHOLDER
  5
F
102
{ACAD_REACTORS
330
E
102
}
  0
MLINESTYLE
  5
18
102
{ACAD_REACTORS
330
17
102
}
100
AcDbMlineStyle
  2
STANDARD
 70
0
  3

 62
256
 51
90.0
 52
90.0
 71
2
 49
0.5
 62
256
  6
BYLAYER
 49
-0.5
 62
256
  6
BYLAYER
  0
LAYOUT
  5
325
102
{ACAD_REACTORS
330
1A
102
}
100
AcDbPlotSettings
  1

  2
none_device
  4
ANSI_C_(22.00_x_17.00_Inches)
  6

 40
0.0
 41
0.0
 42
0.0
 43
0.0
 44
558.8
 45
431.8
 46
0.0
 47
0.0
 48
0.0
 49
0.0
140
0.0
141
0.0
142
1.0
143
1.0
 70
1024
 72
0
 73
0
 74
0
  7

 75
0
147
1.0
148
0.0
149
0.0
100
AcDbLayout
  1
Model
 70
0
 71
0
 10
0.0
 20
0.0
 11
22.0
 21
17.0
 12
0.0
 22
0.0
 32
0.0
 14
0.0
 24
0.0
 34
0.0
 15
0.0
 25
0.0
 35
0.0
146
0.0
 13
0.0
 23
0.0
 33
0.0
 16
1.0
 26
0.0
 36
0.0
 17
0.0
 27
1.0
 37
0.0
 76
0
330
229
345
0
346
0
  0
LAYOUT
  5
326
102
{ACAD_REACTORS
330
1A
102
}
100
AcDbPlotSettings
  1

  2
none_device
  4
ANSI_C_(22.00_x_17.00_Inches)
  6

 40
0.0
 41
0.0
 42
0.0
 43
0.0
 44
558.8
 45
431.8
 46
0.0
 47
0.0
 48
0.0
 49
0.0
140
0.0
141
0.0
142
1.0
143
1.0
 70
0
 72
0
 73
0
 74
0
  7

 75
0
147
1.0
148
0.0
149
0.0
100
AcDbLayout
  1
Layout1
 70
0
 71
1
 10
0.0
 20
0.0
 11
22.0
 21
17.0
 12
0.0
 22
0.0
 32
0.0
 14
0.0
 24
0.0
 34
0.0
 15
0.0
 25
0.0
 35
0.0
146
0.0
 13
0.0
 23
0.0
 33
0.0
 16
1.0
 26
0.0
 36
0.0
 17
0.0
 27
1.0
 37
0.0
 76
0
330
22A
345
0
346
0
  0
ENDSEC
  0
EOF