999
DXF file: _cgs_temp_output.dxf
999
Pro/ENGINEER 2016360 by Parametric Technology Corporation
  0
SECTION
  2
HEADER
  9
$ACADVER
  1
AC1021
  9
$DWGCODEPAGE
  3
ANSI_1252
  9
$EXTMAX
 10
22.0
 20
17.0
 30
0.0
  9
$EXTMIN
 10
0.0
 20
0.0
 30
0.0
  9
$LIMMIN
 10
0.0
 20
0.0
  9
$LIMMAX
 10
22.0
 20
17.0
  9
$VIEWCTR
 10
11.0
 20
8.5
  9
$VIEWSIZE
 40
17.0
  9
$CLAYER
  8
0
  9
$LTSCALE
 40
1.21
  9
$CELTYPE
  6
BYLAYER
  9
$DIMSCALE
 40
1.0
  9
$DIMASZ
 40
0.1875
  9
$DIMEXO
 40
0.0625
  9
$DIMDLI
 40
0.836
  9
$DIMEXE
 40
0.125
  9
$DIMCEN
 40
0.198
  9
$DIMLFAC
 40
1.0
  9
$DIMBLK
  1
_CLOSED
  9
$DIMALT
 70
0
  9
$DIMALTF
 40
25.4
  9
$DIMTXT
 40
0.15625
  9
$DIMTOL
 70
0
  9
$DIMLIM
 70
0
  9
$DIMTFAC
 40
1.0
  9
$DIMGAP
 40
0.09
  9
$DIMDSEP
 70
46
  9
$AUNITS
 70
0
  9
$PDMODE
 70
3
  9
$PDSIZE
 40
0.3125
  9
$HANDSEED
  5
3EB
  9
$TILEMODE
 70
1
  9
$MEASUREMENT
 70
0
  9
$INSUNITS
 70
1
  0
ENDSEC
  0
SECTION
  2
CLASSES
  0
CLASS
  1
ACDBDICTIONARYWDFLT
  2
AcDbDictionaryWithDefault
  3
AutoCAD 2000
 90
0
 91
1
280
0
281
0
  0
CLASS
  1
ACDBPLACEHOLDER
  2
AcDbPlaceHolder
  3
AutoCAD 2000
 90
0
 91
1
280
0
281
0
  0
CLASS
  1
LAYOUT
  2
AcDbLayout
  3
AutoCAD 2000
 90
0
 91
0
280
0
281
0
  0
ENDSEC
  0
SECTION
  2
TABLES
  0
TABLE
  2
VPORT
  5
8
100
AcDbSymbolTable
 70
2
  0
VPORT
  5
1F4
100
AcDbSymbolTableRecord
100
AcDbViewportTableRecord
  2
*ACTIVE
 70
0
 10
0.0
 20
0.0
 11
1.0
 21
1.0
 12
11.0
 22
8.5
 13
0.0
 23
0.0
 14
1.0
 24
1.0
 15
0.0
 25
0.0
 16
0.0
 26
0.0
 36
1.0
 17
0.0
 27
0.0
 37
0.0
 40
17.0
 41
1.2941176471
 42
50.0
 43
0.0
 44
0.0
 50
0.0
 51
0.0
 71
0
 72
100
 73
1
 74
1
 75
0
 76
0
 77
0
 78
0
  0
ENDTAB
  0
TABLE
  2
LTYPE
  5
5
100
AcDbSymbolTable
 70
6
  0
LTYPE
  5
14
100
AcDbSymbolTableRecord
100
AcDbLinetypeTableRecord
  2
BYBLOCK
 70
0
  3

 72
65
 73
0
 40
0.0
  0
LTYPE
  5
15
100
AcDbSymbolTableRecord
100
AcDbLinetypeTableRecord
  2
BYLAYER
 70
0
  3

 72
65
 73
0
 40
0.0
  0
LTYPE
  5
16
100
AcDbSymbolTableRecord
100
AcDbLinetypeTableRecord
  2
CONTINUOUS
 70
64
  3
Solid line
 72
65
 73
0
 40
0.0
  0
LTYPE
  5
1F5
100
AcDbSymbolTableRecord
100
AcDbLinetypeTableRecord
  2
CENTER
 70
64
  3
____ _ ____ _ ____ _ ____ _ ____ _ ____ _ ____
 72
65
 73
4
 40
0.6
 49
0.375
 74
0
 49
-0.075
 74
0
 49
0.075
 74
0
 49
-0.075
 74
0
  0
LTYPE
  5
1F6
100
AcDbSymbolTableRecord
100
AcDbLinetypeTableRecord
  2
HIDDEN
 70
64
  3
- - - - - - - - - - - - - - - - - - - -
 72
65
 73
2
 40
0.2
 49
0.1
 74
0
 49
-0.1
 74
0
  0
LTYPE
  5
1F7
100
AcDbSymbolTableRecord
100
AcDbLinetypeTableRecord
  2
PHANTOM
 70
64
  3
_____ _ _ _____ _ _ _____ _ _ _____
 72
65
 73
6
 40
0.8
 49
0.45
 74
0
 49
-0.05
 74
0
 49
0.1
 74
0
 49
-0.05
 74
0
 49
0.1
 74
0
 49
-0.05
 74
0
  0
LTYPE
  5
1F8
100
AcDbSymbolTableRecord
100
AcDbLinetypeTableRecord
  2
DOT
 70
64
  3
. . . . . . . . . . . . . . . . . . . .
 72
65
 73
2
 40
0.2
 49
0.1
 74
0
 49
-0.1
 74
0
  0
LTYPE
  5
1F9
100
AcDbSymbolTableRecord
100
AcDbLinetypeTableRecord
  2
DASHED
 70
64
  3
- - - - - - - - - - - - - - - - - - - -
 72
65
 73
2
 40
0.2
 49
0.1
 74
0
 49
-0.1
 74
0
  0
ENDTAB
  0
TABLE
  2
LAYER
  5
2
100
AcDbSymbolTable
 70
36
  0
LAYER
  5
10
100
AcDbSymbolTableRecord
100
AcDbLayerTableRecord
  2
0
 70
0
 62
7
  6
CONTINUOUS
370
-3
390
F
  0
LAYER
  5
1FA
100
AcDbSymbolTableRecord
100
AcDbLayerTableRecord
  2
DEFAULT_1
 70
0
 62
7
  6
CENTER
370
-3
390
F
  0
LAYER
  5
1FB
100
AcDbSymbolTableRecord
100
AcDbLayerTableRecord
  2
DEFAULT_2
 70
0
 62
8
  6
HIDDEN
370
-3
390
F
  0
LAYER
  5
1FC
100
AcDbSymbolTableRecord
100
AcDbLayerTableRecord
  2
DEFAULT_3
 70
0
 62
7
  6
PHANTOM
370
-3
390
F
  0
LAYER
  5
1FD
100
AcDbSymbolTableRecord
100
AcDbLayerTableRecord
  2
01_ALL_DTM_PLN
 70
0
 62
7
  6
CONTINUOUS
370
-3
390
F
  0
LAYER
  5
1FE
100
AcDbSymbolTableRecord
100
AcDbLayerTableRecord
  2
01__ASM_ALL_DTM_PLN
 70
0
 62
7
  6
CONTINUOUS
370
-3
390
F
  0
LAYER
  5
1FF
100
AcDbSymbolTableRecord
100
AcDbLayerTableRecord
  2
01__ASM_DEF_DTM_PLN
 70
0
 62
7
  6
CONTINUOUS
370
-3
390
F
  0
LAYER
  5
200
100
AcDbSymbolTableRecord
100
AcDbLayerTableRecord
  2
01___PRT_ALL_DTM_PLN
 70
0
 62
7
  6
CONTINUOUS
370
-3
390
F
  0
LAYER
  5
201
100
AcDbSymbolTableRecord
100
AcDbLayerTableRecord
  2
01___PRT_DEF_DTM_PLN
 70
0
 62
7
  6
CONTINUOUS
370
-3
390
F
  0
LAYER
  5
202
100
AcDbSymbolTableRecord
100
AcDbLayerTableRecord
  2
02_ALL_AXES
 70
0
 62
7
  6
CONTINUOUS
370
-3
390
F
  0
LAYER
  5
203
100
AcDbSymbolTableRecord
100
AcDbLayerTableRecord
  2
02__ASM_ALL_AXES
 70
0
 62
7
  6
CONTINUOUS
370
-3
390
F
  0
LAYER
  5
204
100
AcDbSymbolTableRecord
100
AcDbLayerTableRecord
  2
02___PRT_ALL_AXES
 70
0
 62
7
  6
CONTINUOUS
370
-3
390
F
  0
LAYER
  5
205
100
AcDbSymbolTableRecord
100
AcDbLayerTableRecord
  2
03_ALL_CURVES
 70
0
 62
7
  6
CONTINUOUS
370
-3
390
F
  0
LAYER
  5
206
100
AcDbSymbolTableRecord
100
AcDbLayerTableRecord
  2
03__ASM_ALL_CURVES
 70
0
 62
7
  6
CONTINUOUS
370
-3
390
F
  0
LAYER
  5
207
100
AcDbSymbolTableRecord
100
AcDbLayerTableRecord
  2
03___PRT_ALL_CURVES
 70
0
 62
7
  6
CONTINUOUS
370
-3
390
F
  0
LAYER
  5
208
100
AcDbSymbolTableRecord
100
AcDbLayerTableRecord
  2
04_ALL_DTM_PNT
 70
0
 62
7
  6
CONTINUOUS
370
-3
390
F
  0
LAYER
  5
209
100
AcDbSymbolTableRecord
100
AcDbLayerTableRecord
  2
04__ASM_ALL_DTM_PNT
 70
0
 62
7
  6
CONTINUOUS
370
-3
390
F
  0
LAYER
  5
20A
100
AcDbSymbolTableRecord
100
AcDbLayerTableRecord
  2
04___PRT_ALL_DTM_PNT
 70
0
 62
7
  6
CONTINUOUS
370
-3
390
F
  0
LAYER
  5
20B
100
AcDbSymbolTableRecord
100
AcDbLayerTableRecord
  2
05_ALL_DTM_CSYS
 70
0
 62
7
  6
CONTINUOUS
370
-3
390
F
  0
LAYER
  5
20C
100
AcDbSymbolTableRecord
100
AcDbLayerTableRecord
  2
05__ASM_ALL_DTM_CSYS
 70
0
 62
7
  6
CONTINUOUS
370
-3
390
F
  0
LAYER
  5
20D
100
AcDbSymbolTableRecord
100
AcDbLayerTableRecord
  2
05__ASM_DEF_DTM_CSYS
 70
0
 62
7
  6
CONTINUOUS
370
-3
390
F
  0
LAYER
  5
20E
100
AcDbSymbolTableRecord
100
AcDbLayerTableRecord
  2
05___PRT_ALL_DTM_CSYS
 70
0
 62
7
  6
CONTINUOUS
370
-3
390
F
  0
LAYER
  5
20F
100
AcDbSymbolTableRecord
100
AcDbLayerTableRecord
  2
05___PRT_DEF_DTM_CSYS
 70
0
 62
7
  6
CONTINUOUS
370
-3
390
F
  0
LAYER
  5
210
100
AcDbSymbolTableRecord
100
AcDbLayerTableRecord
  2
06_ALL_SURFS
 70
0
 62
7
  6
CONTINUOUS
370
-3
390
F
  0
LAYER
  5
211
100
AcDbSymbolTableRecord
100
AcDbLayerTableRecord
  2
06__ASM_ALL_SURFS
 70
0
 62
7
  6
CONTINUOUS
370
-3
390
F
  0
LAYER
  5
212
100
AcDbSymbolTableRecord
100
AcDbLayerTableRecord
  2
06___PRT_ALL_SURFS
 70
0
 62
7
  6
CONTINUOUS
370
-3
390
F
  0
LAYER
  5
213
100
AcDbSymbolTableRecord
100
AcDbLayerTableRecord
  2
07__ASM_ALL_SKELETONS
 70
0
 62
7
  6
CONTINUOUS
370
-3
390
F
  0
LAYER
  5
214
100
AcDbSymbolTableRecord
100
AcDbLayerTableRecord
  2
SHELL
 70
0
 62
7
  6
CONTINUOUS
370
-3
390
F
  0
ENDTAB
  0
TABLE
  2
STYLE
  5
3
100
AcDbSymbolTable
 70
1
  0
STYLE
  5
11
100
AcDbSymbolTableRecord
100
AcDbTextStyleTableRecord
  2
STANDARD
 70
0
 40
0.0
 41
0.8
 50
0.0
 71
0
 42
0.2
  3
txt
  4

  0
STYLE
  5
215
100
AcDbSymbolTableRecord
100
AcDbTextStyleTableRecord
  2
TEXTSTYLE_1
 70
0
 40
0.0
 41
0.8
 50
0.0
 71
0
 42
0.2
  3
gdt
  4

  0
ENDTAB
  0
TABLE
  2
VIEW
  5
6
100
AcDbSymbolTable
 70
0
  0
ENDTAB
  0
TABLE
  2
UCS
  5
7
100
AcDbSymbolTable
 70
0
  0
ENDTAB
  0
TABLE
  2
APPID
  5
9
100
AcDbSymbolTable
 70
1
  0
APPID
  5
216
100
AcDbSymbolTableRecord
100
AcDbRegAppTableRecord
  2
ACAD
 70
0
  0
ENDTAB
  0
TABLE
  2
BLOCK_RECORD
  5
1
100
AcDbSymbolTable
 70
0
  0
BLOCK_RECORD
  5
217
100
AcDbSymbolTableRecord
100
AcDbBlockTableRecord
  2
*Model_Space
  0
BLOCK_RECORD
  5
218
100
AcDbSymbolTableRecord
100
AcDbBlockTableRecord
  2
*Paper_Space
  0
ENDTAB
  0
TABLE
  2
DIMSTYLE
  5
A
100
AcDbSymbolTable
 70
1
100
AcDbDimStyleTable
 71
0
  0
DIMSTYLE
105
219
100
AcDbSymbolTableRecord
100
AcDbDimStyleTableRecord
  2
STANDARD
 70
0
  3

  4

 40
1.0
 41
0.1875
 42
0.0625
 43
0.38
 44
0.125
 45
0.0
 46
0.0
 47
0.0001
 48
0.0001
140
0.15625
141
0.09
142
0.0
143
25.4
144
1.0
145
0.0
146
1.0
147
0.09
 71
0.0
 72
0.0
 73
1
 74
1
 75
0
 76
0
 77
0
 78
4
 79
1
170
0
171
3
172
0
173
0
174
0
175
0
176
0
177
0
178
0
270
2
179
4
271
4
272
4
273
2
274
2
275
0
280
0
281
0
282
0
283
1
284
4
285
0
286
0
287
3
288
0
340
11
278
46
  0
ENDTAB
  0
ENDSEC
  0
SECTION
  2
BLOCKS
  0
BLOCK
  5
20
100
AcDbEntity
  8
0
100
AcDbBlockBegin
  2
*Model_Space
 70
0
 10
0.0
 20
0.0
 30
0.0
  3
*Model_Space
  1

  0
ENDBLK
  5
21
100
AcDbEntity
  8
0
100
AcDbBlockEnd
  0
BLOCK
  5
1C
100
AcDbEntity
  8
0
100
AcDbBlockBegin
  2
*Paper_Space
 70
0
 10
0.0
 20
0.0
 30
0.0
  3
*Paper_Space
  1

  0
ENDBLK
  5
1D
100
AcDbEntity
  8
0
100
AcDbBlockEnd
  0
ENDSEC
  0
SECTION
  2
ENTITIES
  0
MTEXT
  5
21A
100
AcDbEntity
  8
0
100
AcDbMText
 62
7
  6
CONTINUOUS
  7
STANDARD
 71
1
 72
1
 10
15.9560215477
 20
0.9479130325
 30
0.0
 11
1.0
 21
0.0
 31
0.0
 44
0.9
  1
SCALE: 1:0.250
 40
0.3
 41
3.36
  0
LINE
  5
21B
100
AcDbEntity
  8
0
100
AcDbLine
 62
7
  6
CONTINUOUS
 10
0.0
 20
0.0
 11
0.0
 21
17.0
  0
LINE
  5
21C
100
AcDbEntity
  8
0
100
AcDbLine
 62
7
  6
CONTINUOUS
 10
0.0
 20
0.0
 11
22.0
 21
0.0
  0
LINE
  5
21D
100
AcDbEntity
  8
0
100
AcDbLine
 62
7
  6
CONTINUOUS
 10
0.0
 20
17.0
 11
22.0
 21
17.0
  0
LINE
  5
21E
100
AcDbEntity
  8
0
100
AcDbLine
 62
7
  6
CONTINUOUS
 10
22.0
 20
0.0
 11
22.0
 21
17.0
  0
LINE
  5
21F
100
AcDbEntity
  8
0
100
AcDbLine
 62
7
  6
CONTINUOUS
 10
4.6147422762
 20
4.331874159
 11
4.6147422762
 21
6.7083656345
  0
LINE
  5
220
100
AcDbEntity
  8
0
100
AcDbLine
 62
7
  6
CONTINUOUS
 10
7.3186130139
 20
4.0044948968
 11
4.9421215384
 21
4.0044948968
  0
LINE
  5
221
100
AcDbEntity
  8
0
100
AcDbLine
 62
7
  6
CONTINUOUS
 10
6.2163672762
 20
6.9060573968
 11
6.2241145261
 21
6.9149695883
  0
LINE
  5
222
100
AcDbEntity
  8
0
100
AcDbLine
 62
7
  6
CONTINUOUS
 10
4.7066481488
 20
4.5681031955
 11
4.7845549584
 21
4.6460100052
  0
LINE
  5
223
100
AcDbEntity
  8
0
100
AcDbLine
 62
7
  6
CONTINUOUS
 10
7.0044771678
 20
6.8659322145
 11
7.0823839774
 21
6.9438390241
  0
LINE
  5
224
100
AcDbEntity
  8
0
100
AcDbLine
 62
7
  6
CONTINUOUS
 10
7.0871209175
 20
6.9398577309
 11
7.0092130779
 21
6.8619498912
  0
LINE
  5
225
100
AcDbEntity
  8
0
100
AcDbLine
 62
7
  6
CONTINUOUS
 10
4.7885372817
 20
4.641274095
 11
4.7106294421
 21
4.5633662554
  0
LINE
  5
226
100
AcDbEntity
  8
0
100
AcDbLine
 62
7
  6
CONTINUOUS
 10
7.0646666638
 20
5.4276198968
 11
7.090254616
 21
5.4326198968
  0
LINE
  5
227
100
AcDbEntity
  8
0
100
AcDbLine
 62
7
  6
CONTINUOUS
 10
5.1704799364
 20
5.4326198968
 11
5.1960678885
 21
5.4276198968
  0
LINE
  5
228
100
AcDbEntity
  8
0
100
AcDbLine
 62
7
  6
CONTINUOUS
 10
7.0823839774
 20
4.0964007694
 11
7.0044771678
 21
4.174307579
  0
LINE
  5
229
100
AcDbEntity
  8
0
100
AcDbLine
 62
7
  6
CONTINUOUS
 10
4.7845549584
 20
6.3942297884
 11
4.7066481488
 21
6.472136598
  0
LINE
  5
22A
100
AcDbEntity
  8
0
100
AcDbLine
 62
7
  6
CONTINUOUS
 10
4.7106294421
 20
6.4768735381
 11
4.7885372817
 21
6.3989656985
  0
LINE
  5
22B
100
AcDbEntity
  8
0
100
AcDbLine
 62
7
  6
CONTINUOUS
 10
7.0092130779
 20
4.1782899023
 11
7.0871209175
 21
4.1003820627
  0
LINE
  5
22C
100
AcDbEntity
  8
0
100
AcDbLine
 62
7
  6
CONTINUOUS
 10
6.0303672762
 20
6.8894414455
 11
6.0303672762
 21
6.929621561
  0
LINE
  5
22D
100
AcDbEntity
  8
0
100
AcDbLine
 62
7
  6
CONTINUOUS
 10
6.0366200262
 20
6.9935573968
 11
6.0366200262
 21
6.9149480052
  0
LINE
  5
22E
100
AcDbEntity
  8
0
100
AcDbLine
 62
7
  6
CONTINUOUS
 10
6.0729454012
 20
6.3932337085
 11
6.0729454012
 21
6.3988698968
  0
LINE
  5
22F
100
AcDbEntity
  8
0
100
AcDbLine
 62
7
  6
CONTINUOUS
 10
6.0753672762
 20
6.9935573968
 11
6.0753672762
 21
7.0135573968
  0
LINE
  5
230
100
AcDbEntity
  8
0
100
AcDbLine
 62
7
  6
CONTINUOUS
 10
6.1303672762
 20
6.9851842301
 11
6.1303672762
 21
6.9316530938
  0
LINE
  5
231
100
AcDbEntity
  8
0
100
AcDbLine
 62
7
  6
CONTINUOUS
 10
6.1303672762
 20
6.9935573968
 11
6.1303672762
 21
7.0135573968
  0
LINE
  5
232
100
AcDbEntity
  8
0
100
AcDbLine
 62
7
  6
CONTINUOUS
 10
7.0034810879
 20
5.4626980218
 11
7.0091172762
 21
5.4626980218
  0
LINE
  5
233
100
AcDbEntity
  8
0
100
AcDbLine
 62
7
  6
CONTINUOUS
 10
6.1853672762
 20
6.9935573968
 11
6.1853672762
 21
7.0135573968
  0
LINE
  5
234
100
AcDbEntity
  8
0
100
AcDbLine
 62
7
  6
CONTINUOUS
 10
6.1877891512
 20
6.3932337085
 11
6.1877891512
 21
6.3988698968
  0
LINE
  5
235
100
AcDbEntity
  8
0
100
AcDbLine
 62
7
  6
CONTINUOUS
 10
6.2241145261
 20
6.9149480011
 11
6.2241145261
 21
6.9935573968
  0
LINE
  5
236
100
AcDbEntity
  8
0
100
AcDbLine
 62
7
  6
CONTINUOUS
 10
6.2303672762
 20
6.8894414455
 11
6.2303672762
 21
6.929621561
  0
LINE
  5
237
100
AcDbEntity
  8
0
100
AcDbLine
 62
7
  6
CONTINUOUS
 10
7.0034810879
 20
5.5775417718
 11
7.0091172762
 21
5.5775417718
  0
LINE
  5
238
100
AcDbEntity
  8
0
100
AcDbLine
 62
7
  6
CONTINUOUS
 10
5.1736136348
 20
4.1003820627
 11
5.2515214744
 21
4.1782899023
  0
LINE
  5
239
100
AcDbEntity
  8
0
100
AcDbLine
 62
7
  6
CONTINUOUS
 10
7.4721972706
 20
6.3989656985
 11
7.5501051103
 21
6.4768735381
  0
LINE
  5
23A
100
AcDbEntity
  8
0
100
AcDbLine
 62
7
  6
CONTINUOUS
 10
7.5540864035
 20
6.472136598
 11
7.4761795939
 21
6.3942297883
  0
LINE
  5
23B
100
AcDbEntity
  8
0
100
AcDbLine
 62
7
  6
CONTINUOUS
 10
5.1960678885
 20
5.6126198968
 11
5.1704799364
 21
5.6076198968
  0
LINE
  5
23C
100
AcDbEntity
  8
0
100
AcDbLine
 62
7
  6
CONTINUOUS
 10
7.090254616
 20
5.6076198968
 11
7.0646666638
 21
5.6126198968
  0
LINE
  5
23D
100
AcDbEntity
  8
0
100
AcDbLine
 62
7
  6
CONTINUOUS
 10
7.5501051103
 20
4.5633662554
 11
7.4721972706
 21
4.641274095
  0
LINE
  5
23E
100
AcDbEntity
  8
0
100
AcDbLine
 62
7
  6
CONTINUOUS
 10
5.2515214744
 20
6.8619498912
 11
5.1736136348
 21
6.9398577309
  0
LINE
  5
23F
100
AcDbEntity
  8
0
100
AcDbLine
 62
7
  6
CONTINUOUS
 10
7.4761795939
 20
4.6460100051
 11
7.5540864035
 21
4.5681031955
  0
LINE
  5
240
100
AcDbEntity
  8
0
100
AcDbLine
 62
7
  6
CONTINUOUS
 10
7.0103672762
 20
5.5762914498
 11
7.0103672762
 21
5.4639480218
  0
LINE
  5
241
100
AcDbEntity
  8
0
100
AcDbLine
 62
7
  6
CONTINUOUS
 10
6.0741954012
 20
6.4001198968
 11
6.1865388293
 21
6.4001198968
  0
LINE
  5
242
100
AcDbEntity
  8
0
100
AcDbLine
 62
7
  6
CONTINUOUS
 10
6.0443672762
 20
6.9060573968
 11
6.0366200262
 21
6.9149695883
  0
LINE
  5
243
100
AcDbEntity
  8
0
100
AcDbLine
 62
7
  6
CONTINUOUS
 10
7.6459922762
 20
6.7083656345
 11
7.6459922762
 21
4.331874159
  0
LINE
  5
244
100
AcDbEntity
  8
0
100
AcDbLine
 62
7
  6
CONTINUOUS
 10
6.2241172762
 20
6.9060573968
 11
6.0366172762
 21
6.9060573968
  0
LINE
  5
245
100
AcDbEntity
  8
0
100
AcDbLine
 62
7
  6
CONTINUOUS
 10
6.0366200262
 20
6.9935573968
 11
6.2241145261
 21
6.9935573968
  0
LINE
  5
246
100
AcDbEntity
  8
0
100
AcDbLine
 62
7
  6
CONTINUOUS
 10
6.0753672762
 20
7.0135573968
 11
6.1853672762
 21
7.0135573968
  0
LINE
  5
247
100
AcDbEntity
  8
0
100
AcDbLine
 62
7
  6
CONTINUOUS
 10
4.9421215384
 20
7.0357448968
 11
6.1022002013
 21
7.0357448968
  0
LINE
  5
248
100
AcDbEntity
  8
0
100
AcDbLine
 62
7
  6
CONTINUOUS
 10
6.158534351
 20
7.0357448968
 11
7.3186130139
 21
7.0357448968
  0
LINE
  5
249
100
AcDbEntity
  8
0
100
AcDbLine
 62
7
  6
CONTINUOUS
 10
6.1023049017
 20
7.0448073968
 11
6.1584296507
 21
7.0448073968
  0
LINE
  5
24A
100
AcDbEntity
  8
0
100
AcDbLine
 62
7
  6
CONTINUOUS
 10
6.1428672762
 20
7.0835573968
 11
6.1178672762
 21
7.0835573968
  0
LINE
  5
24B
100
AcDbEntity
  8
0
100
AcDbLine
 62
7
  6
CONTINUOUS
 10
4.5552470839
 20
12.9852040314
 11
4.5552470839
 21
13.3227040314
  0
LINE
  5
24C
100
AcDbEntity
  8
0
100
AcDbLine
 62
7
  6
CONTINUOUS
 10
4.7036845839
 20
12.9789540314
 11
4.7036845839
 21
12.1608290314
  0
LINE
  5
24D
100
AcDbEntity
  8
0
100
AcDbLine
 62
7
  6
CONTINUOUS
 10
5.1958720839
 20
11.8798915314
 11
5.1958720839
 21
12.1508290314
  0
LINE
  5
24E
100
AcDbEntity
  8
0
100
AcDbLine
 62
7
  6
CONTINUOUS
 10
6.9433720839
 20
11.8773915314
 11
5.1983720839
 21
11.8773915314
  0
LINE
  5
24F
100
AcDbEntity
  8
0
100
AcDbLine
 62
7
  6
CONTINUOUS
 10
6.9458720839
 20
12.0022157501
 11
6.9496220839
 21
12.0022157501
  0
LINE
  5
250
100
AcDbEntity
  8
0
100
AcDbLine
 62
7
  6
CONTINUOUS
 10
6.0533598775
 20
12.0293055939
 11
6.0883842903
 21
12.0293055939
  0
LINE
  5
251
100
AcDbEntity
  8
0
100
AcDbLine
 62
7
  6
CONTINUOUS
 10
6.0883842903
 20
12.0899696564
 11
6.0533598775
 21
12.0899696564
  0
LINE
  5
252
100
AcDbEntity
  8
0
100
AcDbLine
 62
7
  6
CONTINUOUS
 10
6.9496220839
 20
12.1170595001
 11
6.9458720839
 21
12.1170595001
  0
LINE
  5
253
100
AcDbEntity
  8
0
100
AcDbLine
 62
7
  6
CONTINUOUS
 10
7.4280595839
 20
12.1508290314
 11
4.7136845839
 21
12.1508290314
  0
LINE
  5
254
100
AcDbEntity
  8
0
100
AcDbLine
 62
7
  6
CONTINUOUS
 10
5.9771220839
 20
12.2543446564
 11
6.1646220839
 21
12.2543446564
  0
LINE
  5
255
100
AcDbEntity
  8
0
100
AcDbLine
 62
7
  6
CONTINUOUS
 10
6.0533598775
 20
12.0293055939
 11
6.035847671
 21
12.0596376251
  0
LINE
  5
256
100
AcDbEntity
  8
0
100
AcDbLine
 62
7
  6
CONTINUOUS
 10
6.0883842903
 20
12.0899696564
 11
6.1058964967
 21
12.0596376251
  0
LINE
  5
257
100
AcDbEntity
  8
0
100
AcDbLine
 62
7
  6
CONTINUOUS
 10
5.9708720839
 20
12.2605946564
 11
5.9708720839
 21
13.0113570304
  0
LINE
  5
258
100
AcDbEntity
  8
0
100
AcDbLine
 62
7
  6
CONTINUOUS
 10
5.9771248339
 20
12.6449107048
 11
5.9771248339
 21
12.5366607048
  0
LINE
  5
259
100
AcDbEntity
  8
0
100
AcDbLine
 62
7
  6
CONTINUOUS
 10
6.0158720839
 20
12.6235989212
 11
6.0158720839
 21
12.5600903916
  0
LINE
  5
25A
100
AcDbEntity
  8
0
100
AcDbLine
 62
7
  6
CONTINUOUS
 10
6.0708720839
 20
12.6990357048
 11
5.9771248339
 21
12.6449107048
  0
LINE
  5
25B
100
AcDbEntity
  8
0
100
AcDbLine
 62
7
  6
CONTINUOUS
 10
6.0708720839
 20
12.655353186
 11
6.0158720839
 21
12.6235989212
  0
LINE
  5
25C
100
AcDbEntity
  8
0
100
AcDbLine
 62
7
  6
CONTINUOUS
 10
5.9771248339
 20
12.5366607048
 11
6.0708720839
 21
12.4825357048
  0
LINE
  5
25D
100
AcDbEntity
  8
0
100
AcDbLine
 62
7
  6
CONTINUOUS
 10
6.0158720839
 20
12.5600903916
 11
6.0708720839
 21
12.5283361268
  0
LINE
  5
25E
100
AcDbEntity
  8
0
100
AcDbLine
 62
7
  6
CONTINUOUS
 10
6.1258720839
 20
12.5600903916
 11
6.1258720839
 21
12.6235989212
  0
LINE
  5
25F
100
AcDbEntity
  8
0
100
AcDbLine
 62
7
  6
CONTINUOUS
 10
6.1646193338
 20
12.5366607048
 11
6.1646193338
 21
12.6449107048
  0
LINE
  5
260
100
AcDbEntity
  8
0
100
AcDbLine
 62
7
  6
CONTINUOUS
 10
6.1708720839
 20
12.2605946564
 11
6.1708720839
 21
13.0113570304
  0
LINE
  5
261
100
AcDbEntity
  8
0
100
AcDbLine
 62
7
  6
CONTINUOUS
 10
6.0708720839
 20
12.5283361268
 11
6.1258720839
 21
12.5600903916
  0
LINE
  5
262
100
AcDbEntity
  8
0
100
AcDbLine
 62
7
  6
CONTINUOUS
 10
6.0708720839
 20
12.4825357048
 11
6.1646193338
 21
12.5366607048
  0
LINE
  5
263
100
AcDbEntity
  8
0
100
AcDbLine
 62
7
  6
CONTINUOUS
 10
6.1258720839
 20
12.6235989212
 11
6.0708720839
 21
12.655353186
  0
LINE
  5
264
100
AcDbEntity
  8
0
100
AcDbLine
 62
7
  6
CONTINUOUS
 10
6.1646193338
 20
12.6449107048
 11
6.0708720839
 21
12.6990357048
  0
LINE
  5
265
100
AcDbEntity
  8
0
100
AcDbLine
 62
7
  6
CONTINUOUS
 10
6.035847671
 20
12.0596376251
 11
6.0533598775
 21
12.0899696564
  0
LINE
  5
266
100
AcDbEntity
  8
0
100
AcDbLine
 62
7
  6
CONTINUOUS
 10
6.1058964967
 20
12.0596376251
 11
6.0883842903
 21
12.0293055939
  0
LINE
  5
267
100
AcDbEntity
  8
0
100
AcDbLine
 62
7
  6
CONTINUOUS
 10
6.9449819755
 20
13.03436453
 11
7.0228887851
 21
13.0438066742
  0
LINE
  5
268
100
AcDbEntity
  8
0
100
AcDbLine
 62
7
  6
CONTINUOUS
 10
7.5802470839
 20
12.9789540314
 11
6.6614582842
 21
12.9789540314
  0
LINE
  5
269
100
AcDbEntity
  8
0
100
AcDbLine
 62
7
  6
CONTINUOUS
 10
5.4802858701
 20
12.9789540314
 11
4.5615001933
 21
12.9789540314
  0
LINE
  5
26A
100
AcDbEntity
  8
03__ASM_ALL_CURVES
100
AcDbLine
 62
8
  6
PHANTOM
 10
8.0786845839
 20
13.3227040314
 11
4.0630595839
 21
13.3227040314
  0
LINE
  5
26B
100
AcDbEntity
  8
0
100
AcDbLine
 62
7
  6
CONTINUOUS
 10
4.5552470839
 20
13.3227040314
 11
7.5864970839
 21
13.3227040314
  0
LINE
  5
26C
100
AcDbEntity
  8
0
100
AcDbLine
 62
7
  6
CONTINUOUS
 10
6.9458720839
 20
12.1508290314
 11
6.9458720839
 21
12.1170595001
  0
LINE
  5
26D
100
AcDbEntity
  8
0
100
AcDbLine
 62
7
  6
CONTINUOUS
 10
6.9458720839
 20
12.0022157501
 11
6.9458720839
 21
11.8798915314
  0
LINE
  5
26E
100
AcDbEntity
  8
0
100
AcDbLine
 62
7
  6
CONTINUOUS
 10
6.9508720839
 20
12.1158095001
 11
6.9508720839
 21
12.0034657501
  0
LINE
  5
26F
100
AcDbEntity
  8
0
100
AcDbLine
 62
7
  6
CONTINUOUS
 10
7.4380595839
 20
12.1608290314
 11
7.4380595839
 21
12.9789540314
  0
LINE
  5
270
100
AcDbEntity
  8
0
100
AcDbLine
 62
7
  6
CONTINUOUS
 10
7.5864970839
 20
12.9852040314
 11
7.5864970839
 21
13.3227040314
  0
LINE
  5
271
100
AcDbEntity
  8
0
100
AcDbLine
 62
7
  6
CONTINUOUS
 10
15.9455115069
 20
3.9449997044
 11
16.2830115069
 21
3.9449997044
  0
LINE
  5
272
100
AcDbEntity
  8
0
100
AcDbLine
 62
7
  6
CONTINUOUS
 10
15.4573459304
 20
6.9340622044
 11
15.4428431803
 21
6.9256890378
  0
LINE
  5
273
100
AcDbEntity
  8
0
100
AcDbLine
 62
7
  6
CONTINUOUS
 10
15.9392615069
 20
4.0934372044
 11
15.1211365069
 21
4.0934372044
  0
LINE
  5
274
100
AcDbEntity
  8
0
100
AcDbLine
 62
7
  6
CONTINUOUS
 10
15.6593431803
 20
6.8721579015
 11
15.6370931803
 21
6.8465622044
  0
LINE
  5
275
100
AcDbEntity
  8
0
100
AcDbLine
 62
7
  6
CONTINUOUS
 10
15.1111365069
 20
4.5856247044
 11
14.8401990069
 21
4.5856247044
  0
LINE
  5
276
100
AcDbEntity
  8
0
100
AcDbLine
 62
7
  6
CONTINUOUS
 10
14.8376990069
 20
6.3331247044
 11
14.8376990069
 21
4.5881247044
  0
LINE
  5
277
100
AcDbEntity
  8
0
100
AcDbLine
 62
7
  6
CONTINUOUS
 10
14.9625232257
 20
6.3393747044
 11
14.9625232257
 21
6.3356247044
  0
LINE
  5
278
100
AcDbEntity
  8
0
100
AcDbLine
 62
7
  6
CONTINUOUS
 10
14.9896130694
 20
5.4781369109
 11
14.9896130694
 21
5.443112498
  0
LINE
  5
279
100
AcDbEntity
  8
0
100
AcDbLine
 62
7
  6
CONTINUOUS
 10
15.0502771319
 20
5.443112498
 11
15.0502771319
 21
5.4781369109
  0
LINE
  5
27A
100
AcDbEntity
  8
0
100
AcDbLine
 62
7
  6
CONTINUOUS
 10
15.0773669757
 20
6.3356247044
 11
15.0773669757
 21
6.3393747044
  0
LINE
  5
27B
100
AcDbEntity
  8
0
100
AcDbLine
 62
7
  6
CONTINUOUS
 10
15.1111365069
 20
6.8178122044
 11
15.1111365069
 21
4.1034376108
  0
LINE
  5
27C
100
AcDbEntity
  8
0
100
AcDbLine
 62
7
  6
CONTINUOUS
 10
15.2146521319
 20
6.8403122044
 11
15.2146521319
 21
6.83085881
  0
LINE
  5
27D
100
AcDbEntity
  8
0
100
AcDbLine
 62
7
  6
CONTINUOUS
 10
14.9896130694
 20
5.4781369109
 11
15.0199451007
 21
5.4956491173
  0
LINE
  5
27E
100
AcDbEntity
  8
0
100
AcDbLine
 62
7
  6
CONTINUOUS
 10
15.0199451007
 20
5.4256002916
 11
14.9896130694
 21
5.443112498
  0
LINE
  5
27F
100
AcDbEntity
  8
0
100
AcDbLine
 62
7
  6
CONTINUOUS
 10
15.0502771319
 20
5.443112498
 11
15.0199451007
 21
5.4256002916
  0
LINE
  5
280
100
AcDbEntity
  8
0
100
AcDbLine
 62
7
  6
CONTINUOUS
 10
15.0199451007
 20
5.4956491173
 11
15.0502771319
 21
5.4781369109
  0
LINE
  5
281
100
AcDbEntity
  8
0
100
AcDbLine
 62
7
  6
CONTINUOUS
 10
15.4428431803
 20
6.9256890378
 11
15.4428431803
 21
6.8721579015
  0
LINE
  5
282
100
AcDbEntity
  8
0
100
AcDbLine
 62
7
  6
CONTINUOUS
 10
15.4886436023
 20
6.9340622044
 11
15.4886436023
 21
6.9540622044
  0
LINE
  5
283
100
AcDbEntity
  8
0
100
AcDbLine
 62
7
  6
CONTINUOUS
 10
15.4969681803
 20
6.9256890378
 11
15.4969681803
 21
6.8721579015
  0
LINE
  5
284
100
AcDbEntity
  8
0
100
AcDbLine
 62
7
  6
CONTINUOUS
 10
15.5203978671
 20
6.9340622044
 11
15.5203978671
 21
6.9540622044
  0
LINE
  5
285
100
AcDbEntity
  8
0
100
AcDbLine
 62
7
  6
CONTINUOUS
 10
15.5839063967
 20
6.9340622044
 11
15.5839063967
 21
6.9540622044
  0
LINE
  5
286
100
AcDbEntity
  8
0
100
AcDbLine
 62
7
  6
CONTINUOUS
 10
15.6052181803
 20
6.9256890378
 11
15.6052181803
 21
6.8721579015
  0
LINE
  5
287
100
AcDbEntity
  8
0
100
AcDbLine
 62
7
  6
CONTINUOUS
 10
15.6156606615
 20
6.9540622044
 11
15.6156606615
 21
6.9340622044
  0
LINE
  5
288
100
AcDbEntity
  8
0
100
AcDbLine
 62
7
  6
CONTINUOUS
 10
15.6593431803
 20
6.8721579015
 11
15.6593431803
 21
6.9256890378
  0
LINE
  5
289
100
AcDbEntity
  8
0
100
AcDbLine
 62
7
  6
CONTINUOUS
 10
15.9392615069
 20
3.9512566978
 11
15.9392615069
 21
4.8700385041
  0
LINE
  5
28A
100
AcDbEntity
  8
0
100
AcDbLine
 62
7
  6
CONTINUOUS
 10
15.9392615069
 20
6.0512109182
 11
15.9392615069
 21
6.9699997044
  0
LINE
  5
28B
100
AcDbEntity
  8
0
100
AcDbLine
 62
7
  6
CONTINUOUS
 10
16.0041141497
 20
6.4126414057
 11
15.9946720055
 21
6.334734596
  0
LINE
  5
28C
100
AcDbEntity
  8
0
100
AcDbLine
 62
7
  6
CONTINUOUS
 10
15.9946720055
 20
4.5865148128
 11
16.0041141497
 21
4.5086080032
  0
LINE
  5
28D
100
AcDbEntity
  8
0
100
AcDbLine
 62
7
  6
CONTINUOUS
 10
16.2830115069
 20
3.9449997044
 11
16.2830115069
 21
6.9762497044
  0
LINE
  5
28E
100
AcDbEntity
  8
03__ASM_ALL_CURVES
100
AcDbLine
 62
8
  6
PHANTOM
 10
16.2830115069
 20
3.4631889852
 11
16.2830115069
 21
7.4580604237
  0
LINE
  5
28F
100
AcDbEntity
  8
0
100
AcDbLine
 62
7
  6
CONTINUOUS
 10
15.4650931803
 20
6.8465622044
 11
15.4428431803
 21
6.8721579015
  0
LINE
  5
290
100
AcDbEntity
  8
0
100
AcDbLine
 62
7
  6
CONTINUOUS
 10
15.1111365069
 20
6.3356247044
 11
15.0773669757
 21
6.3356247044
  0
LINE
  5
291
100
AcDbEntity
  8
0
100
AcDbLine
 62
7
  6
CONTINUOUS
 10
14.9625232257
 20
6.3356247044
 11
14.8401990069
 21
6.3356247044
  0
LINE
  5
292
100
AcDbEntity
  8
0
100
AcDbLine
 62
7
  6
CONTINUOUS
 10
14.9637732257
 20
6.3406247044
 11
15.0761169757
 21
6.3406247044
  0
LINE
  5
293
100
AcDbEntity
  8
0
100
AcDbLine
 62
7
  6
CONTINUOUS
 10
15.2084021319
 20
6.8278122044
 11
15.1211365069
 21
6.8278122044
  0
LINE
  5
294
100
AcDbEntity
  8
0
100
AcDbLine
 62
7
  6
CONTINUOUS
 10
15.9366726722
 20
6.8465622044
 11
15.2209021319
 21
6.8465622044
  0
LINE
  5
295
100
AcDbEntity
  8
0
100
AcDbLine
 62
7
  6
CONTINUOUS
 10
15.6448404303
 20
6.9340622044
 11
15.6593431803
 21
6.9256890378
  0
LINE
  5
296
100
AcDbEntity
  8
0
100
AcDbLine
 62
7
  6
CONTINUOUS
 10
15.4573459304
 20
6.9340622044
 11
15.6448404303
 21
6.9340622044
  0
LINE
  5
297
100
AcDbEntity
  8
0
100
AcDbLine
 62
7
  6
CONTINUOUS
 10
15.4886436023
 20
6.9540622044
 11
15.6156606615
 21
6.9540622044
  0
LINE
  5
298
100
AcDbEntity
  8
0
100
AcDbLine
 62
7
  6
CONTINUOUS
 10
15.9455115069
 20
6.9762497044
 11
16.2830115069
 21
6.9762497044
  0
LINE
  5
299
100
AcDbEntity
  8
0
100
AcDbLine
 62
7
  6
CONTINUOUS
 10
15.5240897574
 20
6.9853122044
 11
15.5802145064
 21
6.9853122044
  0
LINE
  5
29A
100
AcDbEntity
  8
0
100
AcDbLine
 62
7
  6
CONTINUOUS
 10
15.5396521319
 20
7.0240622044
 11
15.5646521319
 21
7.0240622044
  0
LINE
  5
29B
100
AcDbEntity
  8
0
100
AcDbLine
 62
7
  6
CONTINUOUS
 10
13.619718615
 20
13.3395619067
 11
13.7014159992
 21
13.6039347387
  0
LINE
  5
29C
100
AcDbEntity
  8
0
100
AcDbLine
 62
7
  6
CONTINUOUS
 10
14.0801498198
 20
12.898145574
 11
13.8836222235
 21
12.2621820392
  0
LINE
  5
29D
100
AcDbEntity
  8
0
100
AcDbLine
 62
7
  6
CONTINUOUS
 10
14.3167764671
 20
11.6360034151
 11
14.3159861048
 21
11.6373562631
  0
LINE
  5
29E
100
AcDbEntity
  8
0
100
AcDbLine
 62
7
  6
CONTINUOUS
 10
14.3166528446
 20
11.6360026784
 11
14.3159861048
 21
11.6373562631
  0
LWPOLYLINE
  5
29F
100
AcDbEntity
  8
0
100
AcDbPolyline
 62
7
  6
CONTINUOUS
 90
3
 70
0
 10
13.7277546644
 20
13.1344141799
 10
13.8256095111
 20
12.9165964252
 10
13.9831905477
 20
12.5843852544
  0
LINE
  5
2A0
100
AcDbEntity
  8
0
100
AcDbLine
 62
7
  6
CONTINUOUS
 10
14.4922829357
 20
11.6373562631
 11
14.4918086041
 21
11.6383261908
  0
LINE
  5
2A1
100
AcDbEntity
  8
0
100
AcDbLine
 62
7
  6
CONTINUOUS
 10
14.4922829357
 20
11.6373562631
 11
14.4918960765
 21
11.6383266432
  0
LINE
  5
2A2
100
AcDbEntity
  8
0
100
AcDbLine
 62
7
  6
CONTINUOUS
 10
14.316667326
 20
12.2127997368
 11
14.3344913502
 21
12.2704783002
  0
LINE
  5
2A3
100
AcDbEntity
  8
0
100
AcDbLine
 62
7
  6
CONTINUOUS
 10
14.3155452114
 20
12.0309944711
 11
14.3028746563
 21
11.9899925397
  0
LINE
  5
2A4
100
AcDbEntity
  8
0
100
AcDbLine
 62
7
  6
CONTINUOUS
 10
14.3728838646
 20
12.1783989742
 11
14.2858629125
 21
11.8967990699
  0
LINE
  5
2A5
100
AcDbEntity
  8
0
100
AcDbLine
 62
7
  6
CONTINUOUS
 10
14.7926078206
 20
13.13947158
 11
14.7802900711
 21
13.0996113279
  0
LINE
  5
2A6
100
AcDbEntity
  8
0
100
AcDbLine
 62
7
  6
CONTINUOUS
 10
14.7008282582
 20
12.7961454214
 11
14.7712713333
 21
13.024099296
  0
LINE
  5
2A7
100
AcDbEntity
  8
0
100
AcDbLine
 62
7
  6
CONTINUOUS
 10
14.8211394807
 20
13.1854726802
 11
14.8740922013
 21
13.3568277467
  0
LINE
  5
2A8
100
AcDbEntity
  8
0
100
AcDbLine
 62
7
  6
CONTINUOUS
 10
14.8540083402
 20
13.1742332383
 11
14.8529007406
 21
13.1737610401
  0
LINE
  5
2A9
100
AcDbEntity
  8
0
100
AcDbLine
 62
7
  6
CONTINUOUS
 10
16.5437932455
 20
11.6091968652
 11
16.7117216974
 21
11.6152841855
  0
LINE
  5
2AA
100
AcDbEntity
  8
0
100
AcDbLine
 62
7
  6
CONTINUOUS
 10
14.8816067805
 20
13.0996113279
 11
14.8969800567
 21
13.1493592682
  0
LINE
  5
2AB
100
AcDbEntity
  8
0
100
AcDbLine
 62
7
  6
CONTINUOUS
 10
14.9030808941
 20
13.1369270688
 11
14.8877076178
 21
13.0871791286
  0
LINE
  5
2AC
100
AcDbEntity
  8
0
100
AcDbLine
 62
7
  6
CONTINUOUS
 10
14.9366080644
 20
13.0303456926
 11
14.935467894
 21
13.0292042466
  0
LINE
  5
2AD
100
AcDbEntity
  8
0
100
AcDbLine
 62
7
  6
CONTINUOUS
 10
14.8232617877
 20
13.0747373578
 11
14.8816067805
 21
13.0996113279
  0
LINE
  5
2AE
100
AcDbEntity
  8
0
100
AcDbLine
 62
7
  6
CONTINUOUS
 10
14.8877076178
 20
13.0871791286
 11
14.829362625
 21
13.0623051585
  0
LINE
  5
2AF
100
AcDbEntity
  8
0
100
AcDbLine
 62
7
  6
CONTINUOUS
 10
16.1024437023
 20
11.8781027454
 11
16.1160389819
 21
11.8800196843
  0
LINE
  5
2B0
100
AcDbEntity
  8
0
100
AcDbLine
 62
7
  6
CONTINUOUS
 10
15.9706241526
 20
11.721835697
 11
15.9747489758
 21
11.721835697
  0
LINE
  5
2B1
100
AcDbEntity
  8
0
100
AcDbLine
 62
7
  6
CONTINUOUS
 10
15.9693143206
 20
11.7574860479
 11
15.9865842143
 21
11.7574860479
  0
LINE
  5
2B2
100
AcDbEntity
  8
0
100
AcDbLine
 62
7
  6
CONTINUOUS
 10
15.9885846214
 20
11.7921317062
 11
15.9713147278
 21
11.7921317062
  0
LINE
  5
2B3
100
AcDbEntity
  8
0
100
AcDbLine
 62
7
  6
CONTINUOUS
 10
15.9706241526
 20
11.836679447
 11
15.9747489758
 21
11.836679447
  0
LINE
  5
2B4
100
AcDbEntity
  8
0
100
AcDbLine
 62
7
  6
CONTINUOUS
 10
14.8472988068
 20
12.2970681516
 11
14.8457616522
 21
12.3002005433
  0
LINE
  5
2B5
100
AcDbEntity
  8
0
100
AcDbLine
 62
7
  6
CONTINUOUS
 10
14.7043109119
 20
12.7851865242
 11
14.704313206
 21
12.7851724237
  0
LINE
  5
2B6
100
AcDbEntity
  8
0
100
AcDbLine
 62
7
  6
CONTINUOUS
 10
14.8748426265
 20
13.3639020927
 11
14.872936509
 21
13.4064261359
  0
LINE
  5
2B7
100
AcDbEntity
  8
0
100
AcDbLine
 62
7
  6
CONTINUOUS
 10
14.8646701642
 20
12.3262743441
 11
14.8703896992
 21
12.3146191572
  0
LINE
  5
2B8
100
AcDbEntity
  8
0
100
AcDbLine
 62
7
  6
CONTINUOUS
 10
14.8881423377
 20
12.3500342404
 11
14.8938618727
 21
12.3383790535
  0
LINE
  5
2B9
100
AcDbEntity
  8
0
100
AcDbLine
 62
7
  6
CONTINUOUS
 10
14.7043002387
 20
12.7852063198
 11
14.7011888156
 21
12.7915467334
  0
LINE
  5
2BA
100
AcDbEntity
  8
0
100
AcDbLine
 62
7
  6
CONTINUOUS
 10
14.9503976763
 20
12.3476617283
 11
14.9488605218
 21
12.35079412
  0
LINE
  5
2BB
100
AcDbEntity
  8
0
100
AcDbLine
 62
7
  6
CONTINUOUS
 10
14.8734576111
 20
12.3025144478
 11
14.8646701642
 21
12.3262743441
  0
LINE
  5
2BC
100
AcDbEntity
  8
0
100
AcDbLine
 62
7
  6
CONTINUOUS
 10
14.8703896992
 20
12.3146191572
 11
14.8748665492
 21
12.3025144478
  0
LINE
  5
2BD
100
AcDbEntity
  8
0
100
AcDbLine
 62
7
  6
CONTINUOUS
 10
14.9204019582
 20
12.3500342404
 11
14.9291894051
 21
12.3262743441
  0
LINE
  5
2BE
100
AcDbEntity
  8
0
100
AcDbLine
 62
7
  6
CONTINUOUS
 10
15.7958946096
 20
13.3793577382
 11
15.8461723196
 21
13.4351816733
  0
LINE
  5
2BF
100
AcDbEntity
  8
0
100
AcDbLine
 62
7
  6
CONTINUOUS
 10
14.3151988683
 20
11.9917302577
 11
14.3028746563
 21
11.9899925397
  0
LINE
  5
2C0
100
AcDbEntity
  8
0
100
AcDbLine
 62
7
  6
CONTINUOUS
 10
13.8853193266
 20
13.0477505909
 11
13.8860246234
 21
13.0473524178
  0
LINE
  5
2C1
100
AcDbEntity
  8
0
100
AcDbLine
 62
7
  6
CONTINUOUS
 10
14.7475849561
 20
13.0636211806
 11
14.7639141939
 21
13.0303456926
  0
LINE
  5
2C2
100
AcDbEntity
  8
0
100
AcDbLine
 62
7
  6
CONTINUOUS
 10
14.7863909085
 20
13.0871791286
 11
14.7802900711
 21
13.0996113279
  0
LINE
  5
2C3
100
AcDbEntity
  8
0
100
AcDbLine
 62
7
  6
CONTINUOUS
 10
14.8208300516
 20
13.0212236116
 11
14.8371592894
 21
12.9879481237
  0
LINE
  5
2C4
100
AcDbEntity
  8
0
100
AcDbLine
 62
7
  6
CONTINUOUS
 10
14.829362625
 20
13.0623051585
 11
14.8232617877
 21
13.0747373578
  0
LINE
  5
2C5
100
AcDbEntity
  8
0
100
AcDbLine
 62
7
  6
CONTINUOUS
 10
14.8646701642
 20
12.3262743441
 11
14.8881423377
 21
12.3500342404
  0
LINE
  5
2C6
100
AcDbEntity
  8
0
100
AcDbLine
 62
7
  6
CONTINUOUS
 10
14.8938618727
 20
12.3383790535
 11
14.8703896992
 21
12.3146191572
  0
LINE
  5
2C7
100
AcDbEntity
  8
0
100
AcDbLine
 62
7
  6
CONTINUOUS
 10
14.9291894051
 20
12.3262743441
 11
14.9057172316
 21
12.3025144478
  0
LINE
  5
2C8
100
AcDbEntity
  8
0
100
AcDbLine
 62
7
  6
CONTINUOUS
 10
14.8734576111
 20
12.3025144478
 11
14.9057172316
 21
12.3025144478
  0
LINE
  5
2C9
100
AcDbEntity
  8
0
100
AcDbLine
 62
7
  6
CONTINUOUS
 10
14.9247125551
 20
12.3383790535
 11
14.8938618727
 21
12.3383790535
  0
LINE
  5
2CA
100
AcDbEntity
  8
0
100
AcDbLine
 62
7
  6
CONTINUOUS
 10
14.9204019582
 20
12.3500342404
 11
14.8881423377
 21
12.3500342404
  0
LINE
  5
2CB
100
AcDbEntity
  8
0
100
AcDbLine
 62
7
  6
CONTINUOUS
 10
16.6080962729
 20
11.6673563797
 11
16.703619298
 21
11.61892809
  0
LINE
  5
2CC
100
AcDbEntity
  8
0
100
AcDbLine
 62
7
  6
CONTINUOUS
 10
13.7897963016
 20
13.0961788806
 11
13.8860513441
 21
13.0473787783
  0
LINE
  5
2CD
100
AcDbEntity
  8
0
100
AcDbLine
 62
7
  6
CONTINUOUS
 10
15.7510494109
 20
11.6381995097
 11
15.7515460135
 21
11.6373562631
  0
LINE
  5
2CE
100
AcDbEntity
  8
0
100
AcDbLine
 62
7
  6
CONTINUOUS
 10
14.8877076178
 20
13.0871791286
 11
14.8816067805
 21
13.0996113279
  0
LINE
  5
2CF
100
AcDbEntity
  8
0
100
AcDbLine
 62
7
  6
CONTINUOUS
 10
14.9202788266
 20
13.0636211806
 11
14.9366080644
 21
13.0303456926
  0
LINE
  5
2D0
100
AcDbEntity
  8
0
100
AcDbLine
 62
7
  6
CONTINUOUS
 10
14.9030808941
 20
13.1369270688
 11
14.8969800567
 21
13.1493592682
  0
LINE
  5
2D1
100
AcDbEntity
  8
0
100
AcDbLine
 62
7
  6
CONTINUOUS
 10
14.9464825061
 20
13.1484163185
 11
14.9628117439
 21
13.1151408306
  0
LINE
  5
2D2
100
AcDbEntity
  8
0
100
AcDbLine
 62
7
  6
CONTINUOUS
 10
14.8709855368
 20
13.4021883171
 11
14.8696372012
 21
13.4054647902
  0
LINE
  5
2D3
100
AcDbEntity
  8
0
100
AcDbLine
 62
7
  6
CONTINUOUS
 10
15.7511311269
 20
11.6381991748
 11
15.7515460135
 21
11.6373562631
  0
LINE
  5
2D4
100
AcDbEntity
  8
0
100
AcDbLine
 62
7
  6
CONTINUOUS
 10
16.9075305296
 20
11.9994319641
 11
17.0053379168
 21
11.9584006003
  0
LINE
  5
2D5
100
AcDbEntity
  8
0
100
AcDbLine
 62
7
  6
CONTINUOUS
 10
14.829362625
 20
13.0623051585
 11
14.7863909085
 21
13.0871791286
  0
LINE
  5
2D6
100
AcDbEntity
  8
0
100
AcDbLine
 62
7
  6
CONTINUOUS
 10
14.7802900711
 20
13.0996113279
 11
14.8232617877
 21
13.0747373578
  0
LINE
  5
2D7
100
AcDbEntity
  8
0
100
AcDbLine
 62
7
  6
CONTINUOUS
 10
15.9632159826
 20
11.7663834378
 11
15.9738998949
 21
11.7446119136
  0
LINE
  5
2D8
100
AcDbEntity
  8
0
100
AcDbLine
 62
7
  6
CONTINUOUS
 10
15.9713147278
 20
11.7921317062
 11
15.9663726312
 21
11.8022026402
  0
LINE
  5
2D9
100
AcDbEntity
  8
0
100
AcDbLine
 62
7
  6
CONTINUOUS
 10
15.9885846214
 20
11.7921317062
 11
15.9779007092
 21
11.8139032304
  0
LINE
  5
2DA
100
AcDbEntity
  8
0
100
AcDbLine
 62
7
  6
CONTINUOUS
 10
16.356258265
 20
13.0489257012
 11
16.4042509843
 21
13.0973539909
  0
LINE
  5
2DB
100
AcDbEntity
  8
0
100
AcDbLine
 62
7
  6
CONTINUOUS
 10
14.8969800567
 20
13.1493592682
 11
14.8540083402
 21
13.1742332383
  0
LINE
  5
2DC
100
AcDbEntity
  8
0
100
AcDbLine
 62
7
  6
CONTINUOUS
 10
16.015221869
 20
11.9201888924
 11
16.0147471498
 21
11.9211588809
  0
LINE
  5
2DD
100
AcDbEntity
  8
0
100
AcDbLine
 62
7
  6
CONTINUOUS
 10
16.1331898318
 20
11.8502429831
 11
16.1325517932
 21
11.8515472149
  0
LINE
  5
2DE
100
AcDbEntity
  8
0
100
AcDbLine
 62
7
  6
CONTINUOUS
 10
16.0151340516
 20
11.9201885371
 11
16.0147471498
 21
11.9211588809
  0
LINE
  5
2DF
100
AcDbEntity
  8
0
100
AcDbLine
 62
7
  6
CONTINUOUS
 10
16.1330720694
 20
11.8502436772
 11
16.1325517932
 21
11.8515472149
  0
LINE
  5
2E0
100
AcDbEntity
  8
0
100
AcDbLine
 62
7
  6
CONTINUOUS
 10
15.9632159826
 20
11.7663834378
 11
15.9652163898
 21
11.8010290961
  0
LINE
  5
2E1
100
AcDbEntity
  8
0
100
AcDbLine
 62
7
  6
CONTINUOUS
 10
15.9693143206
 20
11.7574860479
 11
15.9713147278
 21
11.7921317062
  0
LINE
  5
2E2
100
AcDbEntity
  8
0
100
AcDbLine
 62
7
  6
CONTINUOUS
 10
15.9885846214
 20
11.7921317062
 11
15.9865842143
 21
11.7574860479
  0
LINE
  5
2E3
100
AcDbEntity
  8
0
100
AcDbLine
 62
7
  6
CONTINUOUS
 10
16.4341821579
 20
13.1462461733
 11
16.4488464439
 21
13.1937002363
  0
LINE
  5
2E4
100
AcDbEntity
  8
0
100
AcDbLine
 62
7
  6
CONTINUOUS
 10
16.0448703421
 20
11.6617160741
 11
15.95784939
 21
11.3801161698
  0
LINE
  5
2E5
100
AcDbEntity
  8
0
100
AcDbLine
 62
7
  6
CONTINUOUS
 10
16.1106938879
 20
11.6584035982
 11
16.1285179121
 21
11.7160821617
  0
LINE
  5
2E6
100
AcDbEntity
  8
0
100
AcDbLine
 62
7
  6
CONTINUOUS
 10
15.9652163898
 20
11.8010290961
 11
15.9779007092
 21
11.8139032304
  0
LINE
  5
2E7
100
AcDbEntity
  8
0
100
AcDbLine
 62
7
  6
CONTINUOUS
 10
15.9681580792
 20
11.7563125038
 11
15.9693143206
 21
11.7574860479
  0
LINE
  5
2E8
100
AcDbEntity
  8
0
100
AcDbLine
 62
7
  6
CONTINUOUS
 10
15.9865842143
 20
11.7574860479
 11
15.9738998949
 21
11.7446119136
  0
LINE
  5
2E9
100
AcDbEntity
  8
0
100
AcDbLine
 62
7
  6
CONTINUOUS
 10
16.6926286908
 20
12.0908285426
 11
16.4961010945
 21
11.4548650079
  0
LINE
  5
2EA
100
AcDbEntity
  8
0
100
AcDbLine
 62
7
  6
CONTINUOUS
 10
16.1032301897
 20
13.7107790848
 11
13.914336589
 21
13.7107790848
  0
LINE
  5
2EB
100
AcDbEntity
  8
03__ASM_ALL_CURVES
100
AcDbLine
 62
8
  6
PHANTOM
 10
16.3499015267
 20
13.6490397572
 11
16.3424838327
 21
13.6528019937
  0
LINE
  5
2EC
100
AcDbEntity
  8
0
100
AcDbLine
 62
7
  6
CONTINUOUS
 10
17.2295602354
 20
12.0300260813
 11
16.5046308397
 21
13.507276872
  0
LINE
  5
2ED
100
AcDbEntity
  8
0
100
AcDbLine
 62
7
  6
CONTINUOUS
 10
17.1591115536
 20
11.6689953827
 11
17.2408089378
 21
11.9333682147
  0
ARC
  5
2EE
100
AcDbEntity
  8
0
100
AcDbCircle
 62
7
  6
CONTINUOUS
 10
5.4907839006
 20
3.9390274761
 40
0.3383681681
100
AcDbArc
 50
67.975687163
 51
135.0
  0
ARC
  5
2EF
100
AcDbEntity
  8
0
100
AcDbCircle
 62
7
  6
CONTINUOUS
 10
4.5492748555
 20
4.8805365212
 40
0.3383681681
100
AcDbArc
 50
315.0
 51
22.024312837
  0
ARC
  5
2F0
100
AcDbEntity
  8
0
100
AcDbCircle
 62
7
  6
CONTINUOUS
 10
4.9421215384
 20
4.331874159
 40
0.3273792623
100
AcDbArc
 50
135.0
 51
315.0
  0
CIRCLE
  5
2F1
100
AcDbEntity
  8
0
100
AcDbCircle
 62
7
  6
CONTINUOUS
 10
4.9428672762
 20
4.3326198968
 40
0.140625
  0
ARC
  5
2F2
100
AcDbEntity
  8
0
100
AcDbCircle
 62
7
  6
CONTINUOUS
 10
4.5492748555
 20
6.1597032723
 40
0.3383681681
100
AcDbArc
 50
337.975687163
 51
45.0
  0
ARC
  5
2F3
100
AcDbEntity
  8
0
100
AcDbCircle
 62
7
  6
CONTINUOUS
 10
5.4907839006
 20
7.1012123174
 40
0.3383681681
100
AcDbArc
 50
225.0
 51
292.024312837
  0
ARC
  5
2F4
100
AcDbEntity
  8
0
100
AcDbCircle
 62
7
  6
CONTINUOUS
 10
4.9421215384
 20
6.7083656345
 40
0.3273792623
100
AcDbArc
 50
45.0
 51
225.0
  0
CIRCLE
  5
2F5
100
AcDbEntity
  8
0
100
AcDbCircle
 62
7
  6
CONTINUOUS
 10
4.9428672762
 20
6.7076198968
 40
0.140625
  0
ARC
  5
2F6
100
AcDbEntity
  8
0
100
AcDbCircle
 62
7
  6
CONTINUOUS
 10
6.0700753138
 20
7.0406236584
 40
0.0325
100
AcDbArc
 50
303.6117174819
 51
7.3962338239
  0
ARC
  5
2F7
100
AcDbEntity
  8
0
100
AcDbCircle
 62
7
  6
CONTINUOUS
 10
6.1178672762
 20
7.0610573968
 40
0.0225
100
AcDbArc
 50
90.0
 51
226.2382573073
  0
ARC
  5
2F8
100
AcDbEntity
  8
0
100
AcDbCircle
 62
7
  6
CONTINUOUS
 10
6.0366172762
 20
6.8998073968
 40
0.00625
100
AcDbArc
 50
90.0
 51
180.0
  0
ARC
  5
2F9
100
AcDbEntity
  8
0
100
AcDbCircle
 62
7
  6
CONTINUOUS
 10
6.0241172762
 20
6.8894414455
 40
0.00625
100
AcDbArc
 50
274.4368710664
 51
360.0
  0
ARC
  5
2FA
100
AcDbEntity
  8
0
100
AcDbCircle
 62
7
  6
CONTINUOUS
 10
6.0741954012
 20
6.3988698968
 40
0.00125
100
AcDbArc
 50
90.0
 51
180.0
  0
ARC
  5
2FB
100
AcDbEntity
  8
0
100
AcDbCircle
 62
7
  6
CONTINUOUS
 10
7.7114596968
 20
4.8805365212
 40
0.3383681681
100
AcDbArc
 50
157.975687163
 51
225.0
  0
ARC
  5
2FC
100
AcDbEntity
  8
0
100
AcDbCircle
 62
7
  6
CONTINUOUS
 10
6.7699506517
 20
3.9390274761
 40
0.3383681681
100
AcDbArc
 50
45.0
 51
112.024312837
  0
ARC
  5
2FD
100
AcDbEntity
  8
0
100
AcDbCircle
 62
7
  6
CONTINUOUS
 10
7.3186130139
 20
4.331874159
 40
0.3273792623
100
AcDbArc
 50
225.0
 51
45.0
  0
CIRCLE
  5
2FE
100
AcDbEntity
  8
0
100
AcDbCircle
 62
7
  6
CONTINUOUS
 10
7.3178672762
 20
4.3326198968
 40
0.140625
  0
ARC
  5
2FF
100
AcDbEntity
  8
0
100
AcDbCircle
 62
7
  6
CONTINUOUS
 10
7.0091172762
 20
5.4639480218
 40
0.00125
100
AcDbArc
 50
270.0
 51
360.0
  0
CIRCLE
  5
300
100
AcDbEntity
  8
03__ASM_ALL_CURVES
100
AcDbCircle
 62
8
  6
PHANTOM
 10
6.1303672762
 20
5.5201198968
 40
2.0078125
  0
ARC
  5
301
100
AcDbEntity
  8
03__ASM_ALL_CURVES
100
AcDbCircle
 62
8
  6
PHANTOM
 10
6.1303672762
 20
5.5201198968
 40
1.6793786053
100
AcDbArc
 50
40.2041505278
 51
49.7736489088
  0
ARC
  5
302
100
AcDbEntity
  8
03__ASM_ALL_CURVES
100
AcDbCircle
 62
8
  6
PHANTOM
 10
6.1303672762
 20
5.5201198968
 40
1.6793786053
100
AcDbArc
 50
64.4990246323
 51
115.5009753677
  0
ARC
  5
303
100
AcDbEntity
  8
03__ASM_ALL_CURVES
100
AcDbCircle
 62
8
  6
PHANTOM
 10
6.1303672762
 20
5.5201198968
 40
1.6793786053
100
AcDbArc
 50
130.2265715445
 51
139.7942076826
  0
ARC
  5
304
100
AcDbEntity
  8
03__ASM_ALL_CURVES
100
AcDbCircle
 62
8
  6
PHANTOM
 10
6.1303672762
 20
5.5201198968
 40
1.6793786053
100
AcDbArc
 50
154.5124016333
 51
205.4875983667
  0
ARC
  5
305
100
AcDbEntity
  8
03__ASM_ALL_CURVES
100
AcDbCircle
 62
8
  6
PHANTOM
 10
6.1303672762
 20
5.5201198968
 40
1.6793786053
100
AcDbArc
 50
220.2041505278
 51
229.7736489088
  0
ARC
  5
306
100
AcDbEntity
  8
03__ASM_ALL_CURVES
100
AcDbCircle
 62
8
  6
PHANTOM
 10
6.1303672762
 20
5.5201198968
 40
1.6793786053
100
AcDbArc
 50
244.4990246323
 51
295.5009753677
  0
ARC
  5
307
100
AcDbEntity
  8
03__ASM_ALL_CURVES
100
AcDbCircle
 62
8
  6
PHANTOM
 10
6.1303672762
 20
5.5201198968
 40
1.6793786053
100
AcDbArc
 50
310.2265715445
 51
319.7942076826
  0
ARC
  5
308
100
AcDbEntity
  8
03__ASM_ALL_CURVES
100
AcDbCircle
 62
8
  6
PHANTOM
 10
6.1303672762
 20
5.5201198968
 40
1.6793786053
100
AcDbArc
 50
334.5124016333
 51
25.4875983667
  0
CIRCLE
  5
309
100
AcDbEntity
  8
0
100
AcDbCircle
 62
7
  6
CONTINUOUS
 10
6.1303672762
 20
5.5201198968
 40
1.3671875
  0
CIRCLE
  5
30A
100
AcDbEntity
  8
0
100
AcDbCircle
 62
7
  6
CONTINUOUS
 10
6.1303672762
 20
5.5201198968
 40
1.025390625
  0
ARC
  5
30B
100
AcDbEntity
  8
0
100
AcDbCircle
 62
7
  6
CONTINUOUS
 10
6.1303672762
 20
5.5201198968
 40
0.9638671875
100
AcDbArc
 50
5.2084896566
 51
174.7915103434
  0
ARC
  5
30C
100
AcDbEntity
  8
0
100
AcDbCircle
 62
7
  6
CONTINUOUS
 10
6.1303672762
 20
5.5201198968
 40
0.9638671875
100
AcDbArc
 50
185.2084896566
 51
354.7915103434
  0
ARC
  5
30D
100
AcDbEntity
  8
0
100
AcDbCircle
 62
7
  6
CONTINUOUS
 10
6.1303672762
 20
5.5201198968
 40
0.9388671875
100
AcDbArc
 50
5.6541238632
 51
174.3458761368
  0
ARC
  5
30E
100
AcDbEntity
  8
0
100
AcDbCircle
 62
7
  6
CONTINUOUS
 10
6.1303672762
 20
5.5201198968
 40
0.9388671875
100
AcDbArc
 50
185.6541238632
 51
354.3458761368
  0
CIRCLE
  5
30F
100
AcDbEntity
  8
0
100
AcDbCircle
 62
7
  6
CONTINUOUS
 10
6.1303672762
 20
5.5201198968
 40
0.875
  0
CIRCLE
  5
310
100
AcDbEntity
  8
0
100
AcDbCircle
 62
7
  6
CONTINUOUS
 10
6.1303672762
 20
5.5201198968
 40
0.68359375
  0
CIRCLE
  5
311
100
AcDbEntity
  8
0
100
AcDbCircle
 62
7
  6
CONTINUOUS
 10
6.1303672762
 20
5.5201198968
 40
0.4921875
  0
ARC
  5
312
100
AcDbEntity
  8
0
100
AcDbCircle
 62
7
  6
CONTINUOUS
 10
6.7699506517
 20
7.1012123174
 40
0.3383681681
100
AcDbArc
 50
247.975687163
 51
315.0
  0
ARC
  5
313
100
AcDbEntity
  8
0
100
AcDbCircle
 62
7
  6
CONTINUOUS
 10
6.1906592385
 20
7.0406236584
 40
0.0325
100
AcDbArc
 50
172.6037661761
 51
236.3882825181
  0
ARC
  5
314
100
AcDbEntity
  8
0
100
AcDbCircle
 62
7
  6
CONTINUOUS
 10
6.1428672762
 20
7.0610573968
 40
0.0225
100
AcDbArc
 50
313.7617426927
 51
90.0
  0
ARC
  5
315
100
AcDbEntity
  8
0
100
AcDbCircle
 62
7
  6
CONTINUOUS
 10
6.2241172762
 20
6.8998073968
 40
0.00625
100
AcDbArc
 50
0.0
 51
90.0
  0
ARC
  5
316
100
AcDbEntity
  8
0
100
AcDbCircle
 62
7
  6
CONTINUOUS
 10
6.2366172762
 20
6.8894414455
 40
0.00625
100
AcDbArc
 50
180.0
 51
265.5631289336
  0
ARC
  5
317
100
AcDbEntity
  8
0
100
AcDbCircle
 62
7
  6
CONTINUOUS
 10
6.1865391512
 20
6.3988698968
 40
0.00125
100
AcDbArc
 50
0.0
 51
90.0
  0
ARC
  5
318
100
AcDbEntity
  8
0
100
AcDbCircle
 62
7
  6
CONTINUOUS
 10
7.7114596968
 20
6.1597032723
 40
0.3383681681
100
AcDbArc
 50
135.0
 51
202.024312837
  0
ARC
  5
319
100
AcDbEntity
  8
0
100
AcDbCircle
 62
7
  6
CONTINUOUS
 10
7.0091172762
 20
5.5762917718
 40
0.00125
100
AcDbArc
 50
0.0
 51
90.0
  0
ARC
  5
31A
100
AcDbEntity
  8
0
100
AcDbCircle
 62
7
  6
CONTINUOUS
 10
7.3186130139
 20
6.7083656345
 40
0.3273792623
100
AcDbArc
 50
315.0
 51
135.0
  0
CIRCLE
  5
31B
100
AcDbEntity
  8
0
100
AcDbCircle
 62
7
  6
CONTINUOUS
 10
7.3178672762
 20
6.7076198968
 40
0.140625
  0
CIRCLE
  5
31C
100
AcDbEntity
  8
0
100
AcDbCircle
 62
7
  6
CONTINUOUS
 10
6.0708720839
 20
12.0596376251
 40
0.057421875
  0
ARC
  5
31D
100
AcDbEntity
  8
0
100
AcDbCircle
 62
7
  6
CONTINUOUS
 10
4.7136845839
 20
12.1608290314
 40
0.01
100
AcDbArc
 50
180.0
 51
270.0
  0
ARC
  5
31E
100
AcDbEntity
  8
0
100
AcDbCircle
 62
7
  6
CONTINUOUS
 10
5.9771220839
 20
12.2605946564
 40
0.00625
100
AcDbArc
 50
180.0
 51
270.0
  0
ARC
  5
31F
100
AcDbEntity
  8
0
100
AcDbCircle
 62
7
  6
CONTINUOUS
 10
6.1646220839
 20
12.2605946564
 40
0.00625
100
AcDbArc
 50
270.0
 51
360.0
  0
ARC
  5
320
100
AcDbEntity
  8
0
100
AcDbCircle
 62
7
  6
CONTINUOUS
 10
5.1983720839
 20
11.8798915314
 40
0.0025
100
AcDbArc
 50
180.0
 51
270.0
  0
CIRCLE
  5
321
100
AcDbEntity
  8
0
100
AcDbCircle
 62
7
  6
CONTINUOUS
 10
6.0708720839
 20
12.5907857048
 40
0.09374725
  0
CIRCLE
  5
322
100
AcDbEntity
  8
0
100
AcDbCircle
 62
7
  6
CONTINUOUS
 10
6.0708720839
 20
12.5918446564
 40
0.0423012013
  0
CIRCLE
  5
323
100
AcDbEntity
  8
0
100
AcDbCircle
 62
7
  6
CONTINUOUS
 10
6.0708720839
 20
12.5918446564
 40
0.035
  0
ARC
  5
324
100
AcDbEntity
  8
0
100
AcDbCircle
 62
7
  6
CONTINUOUS
 10
4.5614970839
 20
12.9852040314
 40
0.00625
100
AcDbArc
 50
180.0
 51
270.0
  0
ARC
  5
325
100
AcDbEntity
  8
0
100
AcDbCircle
 62
7
  6
CONTINUOUS
 10
7.8190168538
 20
12.0596376251
 40
0.8750308914
100
AcDbArc
 50
176.2373934002
 51
183.7626065998
  0
ARC
  5
326
100
AcDbEntity
  8
0
100
AcDbCircle
 62
7
  6
CONTINUOUS
 10
7.4280595839
 20
12.1608290314
 40
0.01
100
AcDbArc
 50
270.0
 51
360.0
  0
ARC
  5
327
100
AcDbEntity
  8
0
100
AcDbCircle
 62
7
  6
CONTINUOUS
 10
6.9433720839
 20
11.8798915314
 40
0.0025
100
AcDbArc
 50
270.0
 51
360.0
  0
ARC
  5
328
100
AcDbEntity
  8
0
100
AcDbCircle
 62
7
  6
CONTINUOUS
 10
6.9496220839
 20
12.0034657501
 40
0.00125
100
AcDbArc
 50
270.0
 51
360.0
  0
ARC
  5
329
100
AcDbEntity
  8
0
100
AcDbCircle
 62
7
  6
CONTINUOUS
 10
6.9496220839
 20
12.1158095001
 40
0.00125
100
AcDbArc
 50
0.0
 51
90.0
  0
ARC
  5
32A
100
AcDbEntity
  8
0
100
AcDbCircle
 62
7
  6
CONTINUOUS
 10
7.5802470839
 20
12.9852040314
 40
0.00625
100
AcDbArc
 50
270.0
 51
360.0
  0
ARC
  5
32B
100
AcDbEntity
  8
0
100
AcDbCircle
 62
7
  6
CONTINUOUS
 10
15.0199451007
 20
7.2087957418
 40
0.8750571023
100
AcDbArc
 50
266.2375062649
 51
273.7624937351
  0
CIRCLE
  5
32C
100
AcDbEntity
  8
0
100
AcDbCircle
 62
7
  6
CONTINUOUS
 10
15.0199451007
 20
5.4606247044
 40
0.057421875
  0
ARC
  5
32D
100
AcDbEntity
  8
0
100
AcDbCircle
 62
7
  6
CONTINUOUS
 10
15.4918601696
 20
6.9811284661
 40
0.0325
100
AcDbArc
 50
303.6117174819
 51
7.3962338239
  0
ARC
  5
32E
100
AcDbEntity
  8
0
100
AcDbCircle
 62
7
  6
CONTINUOUS
 10
15.6124440943
 20
6.9811284661
 40
0.0325
100
AcDbArc
 50
172.6037661761
 51
236.3882825181
  0
ARC
  5
32F
100
AcDbEntity
  8
0
100
AcDbCircle
 62
7
  6
CONTINUOUS
 10
15.5396521319
 20
7.0015622044
 40
0.0225
100
AcDbArc
 50
90.0
 51
226.2382573073
  0
ARC
  5
330
100
AcDbEntity
  8
0
100
AcDbCircle
 62
7
  6
CONTINUOUS
 10
15.5646521319
 20
7.0015622044
 40
0.0225
100
AcDbArc
 50
313.7617426927
 51
90.0
  0
ARC
  5
331
100
AcDbEntity
  8
0
100
AcDbCircle
 62
7
  6
CONTINUOUS
 10
15.1211365069
 20
4.1034372044
 40
0.01
100
AcDbArc
 50
180.0
 51
270.0
  0
ARC
  5
332
100
AcDbEntity
  8
0
100
AcDbCircle
 62
7
  6
CONTINUOUS
 10
15.1211365069
 20
6.8178122044
 40
0.01
100
AcDbArc
 50
90.0
 51
180.0
  0
ARC
  5
333
100
AcDbEntity
  8
0
100
AcDbCircle
 62
7
  6
CONTINUOUS
 10
15.2084021319
 20
6.8340622044
 40
0.00625
100
AcDbArc
 50
270.0
 51
360.0
  0
ARC
  5
334
100
AcDbEntity
  8
0
100
AcDbCircle
 62
7
  6
CONTINUOUS
 10
15.9455115069
 20
3.9512497044
 40
0.00625
100
AcDbArc
 50
180.0
 51
270.0
  0
ARC
  5
335
100
AcDbEntity
  8
0
100
AcDbCircle
 62
7
  6
CONTINUOUS
 10
15.9455115069
 20
6.9699997044
 40
0.00625
100
AcDbArc
 50
90.0
 51
180.0
  0
ARC
  5
336
100
AcDbEntity
  8
0
100
AcDbCircle
 62
7
  6
CONTINUOUS
 10
15.9366726722
 20
6.8528122044
 40
0.00625
100
AcDbArc
 50
270.0
 51
294.6646012537
  0
ARC
  5
337
100
AcDbEntity
  8
0
100
AcDbCircle
 62
7
  6
CONTINUOUS
 10
15.2209021319
 20
6.8403122044
 40
0.00625
100
AcDbArc
 50
90.0
 51
180.0
  0
ARC
  5
338
100
AcDbEntity
  8
0
100
AcDbCircle
 62
7
  6
CONTINUOUS
 10
15.2084275468
 20
6.8308594286
 40
0.0062245852
100
AcDbArc
 50
330.9321326737
 51
359.9943054074
  0
ARC
  5
339
100
AcDbEntity
  8
0
100
AcDbCircle
 62
7
  6
CONTINUOUS
 10
14.8401990069
 20
6.3331247044
 40
0.0025
100
AcDbArc
 50
90.0
 51
180.0
  0
ARC
  5
33A
100
AcDbEntity
  8
0
100
AcDbCircle
 62
7
  6
CONTINUOUS
 10
14.8401990069
 20
4.5881247044
 40
0.0025
100
AcDbArc
 50
180.0
 51
270.0
  0
ARC
  5
33B
100
AcDbEntity
  8
0
100
AcDbCircle
 62
7
  6
CONTINUOUS
 10
15.0761169757
 20
6.3393747044
 40
0.00125
100
AcDbArc
 50
0.0
 51
90.0
  0
ARC
  5
33C
100
AcDbEntity
  8
0
100
AcDbCircle
 62
7
  6
CONTINUOUS
 10
14.9637732257
 20
6.3393747044
 40
0.00125
100
AcDbArc
 50
90.0
 51
180.0
  0
ARC
  5
33D
100
AcDbEntity
  8
0
100
AcDbCircle
 62
7
  6
CONTINUOUS
 10
33.6839649871
 20
46.0101201313
 40
38.012507986
100
AcDbArc
 50
238.9760834043
 51
239.1398569855
  0
ARC
  5
33E
100
AcDbEntity
  8
0
100
AcDbCircle
 62
7
  6
CONTINUOUS
 10
14.9248378499
 20
11.0181672045
 40
1.4625711278
100
AcDbArc
 50
77.8253463692
 51
81.0254421648
  0
ARC
  5
33F
100
AcDbEntity
  8
0
100
AcDbCircle
 62
7
  6
CONTINUOUS
 10
14.6488932973
 20
12.2064980215
 40
0.799864875
100
AcDbArc
 50
206.1389350228
 51
206.5719252758
  0
ARC
  5
340
100
AcDbEntity
  8
0
100
AcDbCircle
 62
7
  6
CONTINUOUS
 10
14.8228248638
 20
12.2074237847
 40
0.6167259394
100
AcDbArc
 50
206.1517603739
 51
209.5394242399
  0
ARC
  5
341
100
AcDbEntity
  8
0
100
AcDbCircle
 62
7
  6
CONTINUOUS
 10
15.5841053687
 20
11.5823071401
 40
0.6109694743
100
AcDbArc
 50
26.1470718263
 51
28.8681897719
  0
ARC
  5
342
100
AcDbEntity
  8
0
100
AcDbCircle
 62
7
  6
CONTINUOUS
 10
16.3511519297
 20
11.159698754
 40
0.5689786115
100
AcDbArc
 50
63.1543373572
 51
67.6458367831
  0
ARC
  5
343
100
AcDbEntity
  8
0
100
AcDbCircle
 62
7
  6
CONTINUOUS
 10
14.8490880001
 20
11.8124515915
 40
0.3974521707
100
AcDbArc
 50
206.1386212109
 51
206.3562514396
  0
ARC
  5
344
100
AcDbEntity
  8
0
100
AcDbCircle
 62
7
  6
CONTINUOUS
 10
15.3984336021
 20
11.4640731713
 40
0.3933387915
100
AcDbArc
 50
25.9271077559
 51
26.1386032838
  0
ARC
  5
345
100
AcDbEntity
  8
0
100
AcDbCircle
 62
7
  6
CONTINUOUS
 10
15.4570487842
 20
11.4883366027
 40
0.3298582536
100
AcDbArc
 50
16.9344791791
 51
19.7215510609
  0
ARC
  5
346
100
AcDbEntity
  8
0
100
AcDbCircle
 62
7
  6
CONTINUOUS
 10
15.4600435332
 20
11.4902664647
 40
0.326710754
100
AcDbArc
 50
16.7444094599
 51
19.557042357
  0
ARC
  5
347
100
AcDbEntity
  8
0
100
AcDbCircle
 62
7
  6
CONTINUOUS
 10
15.8438203816
 20
11.8047954143
 40
0.3232350729
100
AcDbArc
 50
332.2314958648
 51
336.7662149779
  0
ARC
  5
348
100
AcDbEntity
  8
0
100
AcDbCircle
 62
7
  6
CONTINUOUS
 10
15.4806487587
 20
11.4955307751
 40
0.3051861065
100
AcDbArc
 50
11.851617774
 51
16.9329640321
  0
ARC
  5
349
100
AcDbEntity
  8
0
100
AcDbCircle
 62
7
  6
CONTINUOUS
 10
15.4851855546
 20
11.4975346279
 40
0.3005409228
100
AcDbArc
 50
11.6435341671
 51
16.7984562083
  0
ARC
  5
34A
100
AcDbEntity
  8
0
100
AcDbCircle
 62
7
  6
CONTINUOUS
 10
14.6738588686
 20
12.1659765717
 40
0.2912408397
100
AcDbArc
 50
168.7528074049
 51
170.7058525417
  0
ARC
  5
34B
100
AcDbEntity
  8
0
100
AcDbCircle
 62
7
  6
CONTINUOUS
 10
15.7898120682
 20
11.8210648502
 40
0.2907475998
100
AcDbArc
 50
335.4733458871
 51
337.5957624966
  0
ARC
  5
34C
100
AcDbEntity
  8
0
100
AcDbCircle
 62
7
  6
CONTINUOUS
 10
15.7691310573
 20
11.7469161868
 40
0.2886021697
100
AcDbArc
 50
342.8294819164
 51
346.029100935
  0
ARC
  5
34D
100
AcDbEntity
  8
0
100
AcDbCircle
 62
7
  6
CONTINUOUS
 10
14.6485896937
 20
12.0931894758
 40
0.2885729766
100
AcDbArc
 50
159.6268767248
 51
162.8257404523
  0
ARC
  5
34E
100
AcDbEntity
  8
0
100
AcDbCircle
 62
7
  6
CONTINUOUS
 10
14.6519155873
 20
12.1092095332
 40
0.287020379
100
AcDbArc
 50
162.8294108213
 51
164.623223517
  0
ARC
  5
34F
100
AcDbEntity
  8
0
100
AcDbCircle
 62
7
  6
CONTINUOUS
 10
15.7755522167
 20
11.7619642235
 40
0.2869098076
100
AcDbArc
 50
340.1886982269
 51
342.8287703404
  0
ARC
  5
350
100
AcDbEntity
  8
0
100
AcDbCircle
 62
7
  6
CONTINUOUS
 10
15.3215282031
 20
11.5128471303
 40
0.282624945
100
AcDbArc
 50
25.8443452519
 51
26.1386879778
  0
ARC
  5
351
100
AcDbEntity
  8
0
100
AcDbCircle
 62
7
  6
CONTINUOUS
 10
15.5087051717
 20
11.5015992962
 40
0.2764814957
100
AcDbArc
 50
5.7547424266
 51
11.8149394432
  0
ARC
  5
352
100
AcDbEntity
  8
0
100
AcDbCircle
 62
7
  6
CONTINUOUS
 10
15.512390755
 20
11.5028789866
 40
0.2728170562
100
AcDbArc
 50
5.5580648556
 51
11.6973461585
  0
ARC
  5
353
100
AcDbEntity
  8
0
100
AcDbCircle
 62
7
  6
CONTINUOUS
 10
15.5308642477
 20
11.5041049918
 40
0.254182994
100
AcDbArc
 50
0.5238195554
 51
5.6936180878
  0
ARC
  5
354
100
AcDbEntity
  8
0
100
AcDbCircle
 62
7
  6
CONTINUOUS
 10
15.532592806
 20
11.5047730228
 40
0.2525265483
100
AcDbArc
 50
0.3734576799
 51
5.5742936982
  0
ARC
  5
355
100
AcDbEntity
  8
0
100
AcDbCircle
 62
7
  6
CONTINUOUS
 10
15.5472916246
 20
11.5043388152
 40
0.2377541807
100
AcDbArc
 50
353.2177582456
 51
0.5036656554
  0
ARC
  5
356
100
AcDbEntity
  8
0
100
AcDbCircle
 62
7
  6
CONTINUOUS
 10
15.5481619188
 20
11.5046844928
 40
0.2369584195
100
AcDbArc
 50
353.1096182969
 51
0.4194009674
  0
ARC
  5
357
100
AcDbEntity
  8
0
100
AcDbCircle
 62
7
  6
CONTINUOUS
 10
15.5581113315
 20
11.5036774922
 40
0.2269929811
100
AcDbArc
 50
333.9404521643
 51
342.8196897077
  0
ARC
  5
358
100
AcDbEntity
  8
0
100
AcDbCircle
 62
7
  6
CONTINUOUS
 10
15.5588331746
 20
11.5033384259
 40
0.226202756
100
AcDbArc
 50
342.8477342292
 51
353.1238312358
  0
ARC
  5
359
100
AcDbEntity
  8
0
100
AcDbCircle
 62
7
  6
CONTINUOUS
 10
15.5590041198
 20
11.5034560601
 40
0.2260741641
100
AcDbArc
 50
333.8919400156
 51
342.8064704331
  0
ARC
  5
35A
100
AcDbEntity
  8
0
100
AcDbCircle
 62
7
  6
CONTINUOUS
 10
15.5595042099
 20
11.5030382146
 40
0.2254735115
100
AcDbArc
 50
342.8703408006
 51
353.1794479579
  0
ARC
  5
35B
100
AcDbEntity
  8
0
100
AcDbCircle
 62
7
  6
CONTINUOUS
 10
16.4512503058
 20
12.9547656504
 40
0.1337520205
100
AcDbArc
 50
135.2520152541
 51
137.1047806537
  0
ARC
  5
35C
100
AcDbEntity
  8
0
100
AcDbCircle
 62
7
  6
CONTINUOUS
 10
16.3274664087
 20
13.1792290692
 40
0.1116965646
100
AcDbArc
 50
338.9364564861
 51
342.8250628443
  0
ARC
  5
35D
100
AcDbEntity
  8
0
100
AcDbCircle
 62
7
  6
CONTINUOUS
 10
14.9109086719
 20
12.3090120235
 40
0.0617362494
100
AcDbArc
 50
90.0002465434
 51
90.3831346721
  0
ARC
  5
35E
100
AcDbEntity
  8
0
100
AcDbCircle
 62
7
  6
CONTINUOUS
 10
15.9450811937
 20
11.802028528
 40
0.0494431662
100
AcDbArc
 50
25.5845169966
 51
26.1370123317
  0
ARC
  5
35F
100
AcDbEntity
  8
0
100
AcDbCircle
 62
7
  6
CONTINUOUS
 10
14.7067986367
 20
12.7943000468
 40
0.0062490661
100
AcDbArc
 50
162.8242288596
 51
206.1419129284
  0
SPLINE
  5
360
100
AcDbEntity
  8
0
100
AcDbSpline
 62
7
  6
CONTINUOUS
 70
0
 71
3
 72
19
 73
15
 74
0
 42
0.0000001
 43
0.0000001
 44
0.0000000001
 40
0.0
 40
0.0
 40
0.0
 40
0.0
 40
0.1271397773
 40
0.2527381934
 40
0.3149825133
 40
0.3768965984
 40
0.4385187515
 40
0.499999858
 40
0.5614808314
 40
0.6231029256
 40
0.6850171071
 40
0.7472615036
 40
0.8728601044
 40
1.0
 40
1.0
 40
1.0
 40
1.0
 10
6.1303672762
 20
6.9316530938
 30
0.0
 10
6.1268037053
 20
6.9292862929
 30
0.0
 10
6.119539635
 20
6.9248403358
 30
0.0
 10
6.1099061587
 20
6.9203424767
 30
0.0
 10
6.1019401022
 20
6.9176417273
 30
0.0
 10
6.0958691371
 20
6.9161197396
 30
0.0
 10
6.0897073266
 20
6.9151644461
 30
0.0
 10
6.0834936239
 20
6.9148461983
 30
0.0
 10
6.0772799037
 20
6.9151641814
 30
0.0
 10
6.0711180854
 20
6.9161194437
 30
0.0
 10
6.065047128
 20
6.9176414798
 30
0.0
 10
6.0570810858
 20
6.9203423106
 30
0.0
 10
6.0474476509
 20
6.9248402878
 30
0.0
 10
6.0401836004
 20
6.9292862907
 30
0.0
 10
6.0366200262
 20
6.9316530938
 30
0.0
  0
SPLINE
  5
361
100
AcDbEntity
  8
0
100
AcDbSpline
 62
7
  6
CONTINUOUS
 70
0
 71
3
 72
19
 73
15
 74
0
 42
0.0000001
 43
0.0000001
 44
0.0000000001
 40
0.0
 40
0.0
 40
0.0
 40
0.0
 40
0.1271397773
 40
0.2527381934
 40
0.3149825133
 40
0.3768965984
 40
0.4385187515
 40
0.499999858
 40
0.5614808314
 40
0.6231029256
 40
0.6850171071
 40
0.7472615036
 40
0.8728601044
 40
1.0
 40
1.0
 40
1.0
 40
1.0
 10
6.2241145261
 20
6.9316530938
 30
0.0
 10
6.2205509553
 20
6.9292862929
 30
0.0
 10
6.213286885
 20
6.9248403358
 30
0.0
 10
6.2036534087
 20
6.9203424767
 30
0.0
 10
6.1956873521
 20
6.9176417273
 30
0.0
 10
6.1896163871
 20
6.9161197396
 30
0.0
 10
6.1834545765
 20
6.9151644461
 30
0.0
 10
6.1772408738
 20
6.9148461983
 30
0.0
 10
6.1710271537
 20
6.9151641814
 30
0.0
 10
6.1648653353
 20
6.9161194437
 30
0.0
 10
6.158794378
 20
6.9176414798
 30
0.0
 10
6.1508283358
 20
6.9203423106
 30
0.0
 10
6.1411949009
 20
6.9248402878
 30
0.0
 10
6.1339308504
 20
6.9292862907
 30
0.0
 10
6.1303672762
 20
6.9316530938
 30
0.0
  0
SPLINE
  5
362
100
AcDbEntity
  8
0
100
AcDbSpline
 62
7
  6
CONTINUOUS
 70
0
 71
3
 72
10
 73
6
 74
0
 42
0.0000001
 43
0.0000001
 44
0.0000000001
 40
0.0
 40
0.0
 40
0.0
 40
0.0
 40
0.5015803297
 40
0.7510710647
 40
1.0
 40
1.0
 40
1.0
 40
1.0
 10
6.1303672762
 20
6.9851842301
 30
0.0
 10
6.1379489284
 20
6.9877114475
 30
0.0
 10
6.1495404568
 20
6.9908873917
 30
0.0
 10
6.165327873
 20
6.9931628643
 30
0.0
 10
6.1732746749
 20
6.9935573968
 30
0.0
 10
6.1772409011
 20
6.9935573968
 30
0.0
  0
SPLINE
  5
363
100
AcDbEntity
  8
0
100
AcDbSpline
 62
7
  6
CONTINUOUS
 70
0
 71
3
 72
10
 73
6
 74
0
 42
0.0000001
 43
0.0000001
 44
0.0000000001
 40
0.0
 40
0.0
 40
0.0
 40
0.0
 40
0.2489289942
 40
0.4984202289
 40
1.0
 40
1.0
 40
1.0
 40
1.0
 10
6.0834936512
 20
6.9935573968
 30
0.0
 10
6.0874598739
 20
6.9935573968
 30
0.0
 10
6.0954066241
 20
6.9931620486
 30
0.0
 10
6.1111941489
 20
6.9908877132
 30
0.0
 10
6.122785641
 20
6.9877114418
 30
0.0
 10
6.1303672762
 20
6.9851842301
 30
0.0
  0
SPLINE
  5
364
100
AcDbEntity
  8
0
100
AcDbSpline
 62
7
  6
CONTINUOUS
 70
0
 71
3
 72
10
 73
6
 74
0
 42
0.0000001
 43
0.0000001
 44
0.0000000001
 40
0.0
 40
0.0
 40
0.0
 40
0.0
 40
0.2489289942
 40
0.4984202289
 40
1.0
 40
1.0
 40
1.0
 40
1.0
 10
6.1772409011
 20
6.9935573968
 30
0.0
 10
6.1812071239
 20
6.9935573968
 30
0.0
 10
6.189153874
 20
6.9931620486
 30
0.0
 10
6.2049413989
 20
6.9908877132
 30
0.0
 10
6.216532891
 20
6.9877114418
 30
0.0
 10
6.2241145261
 20
6.9851842301
 30
0.0
  0
LINE
  5
365
100
AcDbEntity
  8
0
100
AcDbLine
 62
7
  6
CONTINUOUS
 10
5.2563177189
 20
4.1742473119
 11
5.1783358117
 21
4.096415493
  0
SPLINE
  5
366
100
AcDbEntity
  8
0
100
AcDbSpline
 62
7
  6
CONTINUOUS
 70
0
 71
3
 72
10
 73
6
 74
0
 42
0.0000001
 43
0.0000001
 44
0.0000000001
 40
0.0
 40
0.0
 40
0.0
 40
0.0
 40
0.5015803297
 40
0.7510710647
 40
1.0
 40
1.0
 40
1.0
 40
1.0
 10
6.0366200262
 20
6.9851842301
 30
0.0
 10
6.0442016784
 20
6.9877114475
 30
0.0
 10
6.0557932069
 20
6.9908873917
 30
0.0
 10
6.0715806231
 20
6.9931628643
 30
0.0
 10
6.0795274249
 20
6.9935573968
 30
0.0
 10
6.0834936512
 20
6.9935573968
 30
0.0
  0
LINE
  5
367
100
AcDbEntity
  8
0
100
AcDbLine
 62
7
  6
CONTINUOUS
 10
5.1784109122
 20
6.9438992882
 11
5.2562401736
 21
6.8659150481
  0
LINE
  5
368
100
AcDbEntity
  8
0
100
AcDbLine
 62
7
  6
CONTINUOUS
 10
6.0241172761
 20
6.8888983276
 11
6.024158811
 21
6.929078379
  0
LINE
  5
369
100
AcDbEntity
  8
0
100
AcDbLine
 62
7
  6
CONTINUOUS
 10
6.2366172762
 20
6.929078367
 11
6.2365757413
 21
6.8888983396
  0
LINE
  5
36A
100
AcDbEntity
  8
0
100
AcDbLine
 62
7
  6
CONTINUOUS
 10
5.1189157199
 20
13.0438072537
 11
5.1967449813
 21
13.0343641523
  0
LINE
  5
36B
100
AcDbEntity
  8
0
100
AcDbLine
 62
7
  6
CONTINUOUS
 10
5.9646220838
 20
13.0140783186
 11
5.9646636187
 21
13.0175832434
  0
LINE
  5
36C
100
AcDbEntity
  8
0
100
AcDbLine
 62
7
  6
CONTINUOUS
 10
6.1771220839
 20
13.0175833809
 11
6.177080549
 21
13.0140781812
  0
SPLINE
  5
36D
100
AcDbEntity
  8
0
100
AcDbSpline
 62
7
  6
CONTINUOUS
 70
0
 71
3
 72
11
 73
7
 74
0
 42
0.0000001
 43
0.0000001
 44
0.0000000001
 40
0.0
 40
0.0
 40
0.0
 40
0.0
 40
0.2616307252
 40
0.5144730878
 40
0.759585192
 40
1.0
 40
1.0
 40
1.0
 40
1.0
 10
15.4428431803
 20
6.9256890378
 30
0.0
 10
15.4450063941
 20
6.9269379699
 30
0.0
 10
15.4493577293
 20
6.9292327824
 30
0.0
 10
15.4561068371
 20
6.9319325378
 30
0.0
 10
15.4629665307
 20
6.9336593788
 30
0.0
 10
15.4676103707
 20
6.9340622044
 30
0.0
 10
15.4699056803
 20
6.9340622044
 30
0.0
  0
SPLINE
  5
36E
100
AcDbEntity
  8
0
100
AcDbSpline
 62
7
  6
CONTINUOUS
 70
0
 71
3
 72
11
 73
7
 74
0
 42
0.0000001
 43
0.0000001
 44
0.0000000001
 40
0.0
 40
0.0
 40
0.0
 40
0.0
 40
0.2404159743
 40
0.4855266894
 40
0.738365012
 40
1.0
 40
1.0
 40
1.0
 40
1.0
 10
15.4699056803
 20
6.9340622044
 30
0.0
 10
15.4722009967
 20
6.9340622044
 30
0.0
 10
15.4768447516
 20
6.9336585968
 30
0.0
 10
15.4837044909
 20
6.9319324919
 30
0.0
 10
15.4904538401
 20
6.9292332424
 30
0.0
 10
15.4948049354
 20
6.9269379878
 30
0.0
 10
15.4969681803
 20
6.9256890378
 30
0.0
  0
SPLINE
  5
36F
100
AcDbEntity
  8
0
100
AcDbSpline
 62
7
  6
CONTINUOUS
 70
0
 71
3
 72
10
 73
6
 74
0
 42
0.0000001
 43
0.0000001
 44
0.0000000001
 40
0.0
 40
0.0
 40
0.0
 40
0.0
 40
0.4998782841
 40
0.7499474002
 40
1.0
 40
1.0
 40
1.0
 40
1.0
 10
15.4969681803
 20
6.9256890378
 30
0.0
 10
15.5057618485
 20
6.9282275511
 30
0.0
 10
15.5191686435
 20
6.9314016919
 30
0.0
 10
15.5373528419
 20
6.9336683226
 30
0.0
 10
15.5465147329
 20
6.9340622044
 30
0.0
 10
15.5510931803
 20
6.9340622044
 30
0.0
  0
SPLINE
  5
370
100
AcDbEntity
  8
0
100
AcDbSpline
 62
7
  6
CONTINUOUS
 70
0
 71
3
 72
19
 73
15
 74
0
 42
0.0000001
 43
0.0000001
 44
0.0000000001
 40
0.0
 40
0.0
 40
0.0
 40
0.0
 40
0.140142884
 40
0.2699939286
 40
0.3308006183
 40
0.3890351157
 40
0.4451296889
 40
0.4999992269
 40
0.5548684432
 40
0.6109628139
 40
0.669197547
 40
0.7300046056
 40
0.8598565928
 40
1.0
 40
1.0
 40
1.0
 40
1.0
 10
15.6593431803
 20
6.8721579015
 30
0.0
 10
15.6573366216
 20
6.8698496197
 30
0.0
 10
15.653299132
 20
6.8655453109
 30
0.0
 10
15.6476838076
 20
6.8609473074
 30
0.0
 10
15.6429970547
 20
6.8581803465
 30
0.0
 10
15.639484557
 20
6.8566449864
 30
0.0
 10
15.6359046764
 20
6.8556746164
 30
0.0
 10
15.6322806728
 20
6.8553494044
 30
0.0
 10
15.6286566394
 20
6.8556743496
 30
0.0
 10
15.6250767476
 20
6.8566446948
 30
0.0
 10
15.6215642608
 20
6.8581801021
 30
0.0
 10
15.6168775174
 20
6.8609471464
 30
0.0
 10
15.6112622308
 20
6.8655452574
 30
0.0
 10
15.6072247465
 20
6.8698496111
 30
0.0
 10
15.6052181803
 20
6.8721579015
 30
0.0
  0
SPLINE
  5
371
100
AcDbEntity
  8
0
100
AcDbSpline
 62
7
  6
CONTINUOUS
 70
0
 71
3
 72
19
 73
15
 74
0
 42
0.0000001
 43
0.0000001
 44
0.0000000001
 40
0.0
 40
0.0
 40
0.0
 40
0.0
 40
0.1249599626
 40
0.2499205877
 40
0.3124309263
 40
0.3749593525
 40
0.437471529
 40
0.4999996926
 40
0.5625275053
 40
0.6250396363
 40
0.6875684337
 40
0.7500791085
 40
0.8750398712
 40
1.0
 40
1.0
 40
1.0
 40
1.0
 10
15.6052181803
 20
6.8721579015
 30
0.0
 10
15.6010814577
 20
6.869778524
 30
0.0
 10
15.5926346888
 20
6.865307872
 30
0.0
 10
15.5815411004
 20
6.8608323778
 30
0.0
 10
15.5723733491
 20
6.858142283
 30
0.0
 10
15.5653669263
 20
6.8566220715
 30
0.0
 10
15.5582586354
 20
6.8556684251
 30
0.0
 10
15.5510929337
 20
6.8553506323
 30
0.0
 10
15.5439271804
 20
6.8556675013
 30
0.0
 10
15.5368188294
 20
6.856620776
 30
0.0
 10
15.5298123228
 20
6.8581407163
 30
0.0
 10
15.5206444465
 20
6.8608305139
 30
0.0
 10
15.5095509891
 20
6.8653066038
 30
0.0
 10
15.5011049085
 20
6.8697785208
 30
0.0
 10
15.4969681803
 20
6.8721579015
 30
0.0
  0
SPLINE
  5
372
100
AcDbEntity
  8
0
100
AcDbSpline
 62
7
  6
CONTINUOUS
 70
0
 71
3
 72
10
 73
6
 74
0
 42
0.0000001
 43
0.0000001
 44
0.0000000001
 40
0.0
 40
0.0
 40
0.0
 40
0.0
 40
0.250052653
 40
0.5001214192
 40
1.0
 40
1.0
 40
1.0
 40
1.0
 10
15.5510931803
 20
6.9340622044
 30
0.0
 10
15.5556716268
 20
6.9340622044
 30
0.0
 10
15.5648335233
 20
6.9336684499
 30
0.0
 10
15.5830176315
 20
6.9314011953
 30
0.0
 10
15.5964245106
 20
6.9282275516
 30
0.0
 10
15.6052181803
 20
6.9256890378
 30
0.0
  0
SPLINE
  5
373
100
AcDbEntity
  8
0
100
AcDbSpline
 62
7
  6
CONTINUOUS
 70
0
 71
3
 72
19
 73
15
 74
0
 42
0.0000001
 43
0.0000001
 44
0.0000000001
 40
0.0
 40
0.0
 40
0.0
 40
0.0
 40
0.140142884
 40
0.2699939286
 40
0.3308006183
 40
0.3890351157
 40
0.4451296889
 40
0.4999992269
 40
0.5548684432
 40
0.6109628139
 40
0.669197547
 40
0.7300046056
 40
0.8598565928
 40
1.0
 40
1.0
 40
1.0
 40
1.0
 10
15.4969681803
 20
6.8721579015
 30
0.0
 10
15.4949616216
 20
6.8698496197
 30
0.0
 10
15.490924132
 20
6.8655453109
 30
0.0
 10
15.4853088076
 20
6.8609473074
 30
0.0
 10
15.4806220547
 20
6.8581803465
 30
0.0
 10
15.477109557
 20
6.8566449864
 30
0.0
 10
15.4735296764
 20
6.8556746164
 30
0.0
 10
15.4699056728
 20
6.8553494044
 30
0.0
 10
15.4662816394
 20
6.8556743496
 30
0.0
 10
15.4627017476
 20
6.8566446948
 30
0.0
 10
15.4591892608
 20
6.8581801021
 30
0.0
 10
15.4545025174
 20
6.8609471464
 30
0.0
 10
15.4488872308
 20
6.8655452574
 30
0.0
 10
15.4448497465
 20
6.8698496111
 30
0.0
 10
15.4428431803
 20
6.8721579015
 30
0.0
  0
SPLINE
  5
374
100
AcDbEntity
  8
0
100
AcDbSpline
 62
7
  6
CONTINUOUS
 70
0
 71
3
 72
11
 73
7
 74
0
 42
0.0000001
 43
0.0000001
 44
0.0000000001
 40
0.0
 40
0.0
 40
0.0
 40
0.0
 40
0.2616307252
 40
0.5144730878
 40
0.759585192
 40
1.0
 40
1.0
 40
1.0
 40
1.0
 10
15.6052181803
 20
6.9256890378
 30
0.0
 10
15.6073813941
 20
6.9269379699
 30
0.0
 10
15.6117327293
 20
6.9292327824
 30
0.0
 10
15.6184818371
 20
6.9319325378
 30
0.0
 10
15.6253415307
 20
6.9336593788
 30
0.0
 10
15.6299853707
 20
6.9340622044
 30
0.0
 10
15.6322806803
 20
6.9340622044
 30
0.0
  0
SPLINE
  5
375
100
AcDbEntity
  8
0
100
AcDbSpline
 62
7
  6
CONTINUOUS
 70
0
 71
3
 72
11
 73
7
 74
0
 42
0.0000001
 43
0.0000001
 44
0.0000000001
 40
0.0
 40
0.0
 40
0.0
 40
0.0
 40
0.2404159743
 40
0.4855266894
 40
0.738365012
 40
1.0
 40
1.0
 40
1.0
 40
1.0
 10
15.6322806803
 20
6.9340622044
 30
0.0
 10
15.6345759967
 20
6.9340622044
 30
0.0
 10
15.6392197516
 20
6.9336585968
 30
0.0
 10
15.6460794909
 20
6.9319324919
 30
0.0
 10
15.6528288401
 20
6.9292332424
 30
0.0
 10
15.6571799354
 20
6.9269379878
 30
0.0
 10
15.6593431803
 20
6.9256890378
 30
0.0
  0
SPLINE
  5
376
100
AcDbEntity
  8
03__ASM_ALL_CURVES
100
AcDbSpline
 62
8
  6
PHANTOM
 70
0
 71
3
 72
96
 73
92
 74
0
 42
0.0000001
 43
0.0000001
 44
0.0000000001
 40
0.0
 40
0.0
 40
0.0
 40
0.0
 40
0.0625
 40
0.09375
 40
0.109375
 40
0.125
 40
0.140625
 40
0.1484375
 40
0.15625
 40
0.16015625
 40
0.1640625
 40
0.166015625
 40
0.16796875
 40
0.169921875
 40
0.171875
 40
0.1796875
 40
0.1875
 40
0.1953125
 40
0.203125
 40
0.21875
 40
0.25
 40
0.28125
 40
0.296875
 40
0.3046875
 40
0.3125
 40
0.3203125
 40
0.328125
 40
0.330078125
 40
0.33203125
 40
0.3330078125
 40
0.333984375
 40
0.3359375
 40
0.33984375
 40
0.34375
 40
0.3515625
 40
0.359375
 40
0.375
 40
0.390625
 40
0.40625
 40
0.421875
 40
0.4375
 40
0.453125
 40
0.46875
 40
0.4765625
 40
0.484375
 40
0.4921875
 40
0.49609375
 40
0.498046875
 40
0.5
 40
0.501953125
 40
0.50390625
 40
0.5078125
 40
0.515625
 40
0.5234375
 40
0.53125
 40
0.546875
 40
0.5625
 40
0.578125
 40
0.59375
 40
0.609375
 40
0.625
 40
0.640625
 40
0.6484375
 40
0.65625
 40
0.66015625
 40
0.6640625
 40
0.666015625
 40
0.66796875
 40
0.671875
 40
0.6796875
 40
0.6875
 40
0.703125
 40
0.71875
 40
0.75
 40
0.78125
 40
0.796875
 40
0.8125
 40
0.8203125
 40
0.828125
 40
0.83203125
 40
0.833984375
 40
0.8359375
 40
0.83984375
 40
0.84375
 40
0.8515625
 40
0.859375
 40
0.875
 40
0.890625
 40
0.90625
 40
0.9375
 40
1.0
 40
1.0
 40
1.0
 40
1.0
 10
17.3204302455
 20
12.7686514767
 30
0.0
 10
17.3086445325
 20
12.7887448175
 30
0.0
 10
17.2909659183
 20
12.8188848248
 30
0.0
 10
17.2703410251
 20
12.8540481809
 30
0.0
 10
17.2585551478
 20
12.8741415067
 30
0.0
 10
17.2497163673
 20
12.8892115586
 30
0.0
 10
17.2423487188
 20
12.9017697521
 30
0.0
 10
17.2364590817
 20
12.9118167174
 30
0.0
 10
17.2327678532
 20
12.918095136
 30
0.0
 10
17.2298382426
 20
12.9231200116
 30
0.0
 10
17.2279539082
 20
12.9262556744
 30
0.0
 10
17.2265685843
 20
12.9287753921
 30
0.0
 10
17.2251951573
 20
12.9306345488
 30
0.0
 10
17.2237280155
 20
12.9324851221
 30
0.0
 10
17.2208419392
 20
12.936190684
 30
0.0
 10
17.2164925772
 20
12.9417471724
 30
0.0
 10
17.2107050004
 20
12.9491568835
 30
0.0
 10
17.2049143281
 20
12.9565663111
 30
0.0
 10
17.197194511
 20
12.9664456468
 30
0.0
 10
17.1836843325
 20
12.9837344383
 30
0.0
 10
17.1643843042
 20
13.0084327345
 30
0.0
 10
17.1450843186
 20
13.0331310275
 30
0.0
 10
17.1315740803
 20
13.0504198235
 30
0.0
 10
17.1238543571
 20
13.0602991521
 30
0.0
 10
17.1180633966
 20
13.0677086013
 30
0.0
 10
17.1122769023
 20
13.0751182314
 30
0.0
 10
17.1079245089
 20
13.0806749467
 30
0.0
 10
17.1050423888
 20
13.0843802124
 30
0.0
 10
17.1038125248
 20
13.0859228994
 30
0.0
 10
17.1028962395
 20
13.087159787
 30
0.0
 10
17.101732715
 20
13.0883866616
 30
0.0
 10
17.0995816739
 20
13.09052904
 30
0.0
 10
17.0965686931
 20
13.0935920079
 30
0.0
 10
17.0917144294
 20
13.0984914001
 30
0.0
 10
17.0856580682
 20
13.1046161047
 30
0.0
 10
17.0759614806
 20
13.1144153726
 30
0.0
 10
17.0638429457
 20
13.1266645466
 30
0.0
 10
17.0492997598
 20
13.1413635166
 30
0.0
 10
17.0347568307
 20
13.1560624991
 30
0.0
 10
17.0202138187
 20
13.1707614701
 30
0.0
 10
17.0056708814
 20
13.1854604748
 30
0.0
 10
16.9911277279
 20
13.2001593564
 30
0.0
 10
16.9790090918
 20
13.2124088066
 30
0.0
 10
16.9693127108
 20
13.222207511
 30
0.0
 10
16.9620444461
 20
13.2295588772
 30
0.0
 10
16.955974769
 20
13.2356775794
 30
0.0
 10
16.9517510944
 20
13.2399752642
 30
0.0
 10
16.9492983755
 20
13.242408298
 30
0.0
 10
16.947569237
 20
13.2442972622
 30
0.0
 10
16.9454180908
 20
13.2459408638
 30
0.0
 10
16.9426970969
 20
13.2482179178
 30
0.0
 10
16.9378667739
 20
13.2521628866
 30
0.0
 10
16.9310021688
 20
13.2578194038
 30
0.0
 10
16.922749295
 20
13.264598301
 30
0.0
 10
16.9117508245
 20
13.2736399476
 30
0.0
 10
16.898000896
 20
13.2849409361
 30
0.0
 10
16.8815017732
 20
13.2985025821
 30
0.0
 10
16.8650024297
 20
13.3120641006
 30
0.0
 10
16.8485031778
 20
13.3256256689
 30
0.0
 10
16.8320037798
 20
13.3391871658
 30
0.0
 10
16.815504875
 20
13.3527488985
 30
0.0
 10
16.8017542652
 20
13.364049616
 30
0.0
 10
16.7907571847
 20
13.3730918153
 30
0.0
 10
16.7838762523
 20
13.3787394899
 30
0.0
 10
16.7783892716
 20
13.3832661033
 30
0.0
 10
16.774919374
 20
13.3860759024
 30
0.0
 10
16.7722362978
 20
13.3883680254
 30
0.0
 10
16.7692142818
 20
13.390498481
 30
0.0
 10
16.7637683019
 20
13.394151677
 30
0.0
 10
16.7560704813
 20
13.3994097125
 30
0.0
 10
16.7437080575
 20
13.407800671
 30
0.0
 10
16.7282707558
 20
13.4182968699
 30
0.0
 10
16.7035622351
 20
13.4350865804
 30
0.0
 10
16.6726799569
 20
13.4560752736
 30
0.0
 10
16.6417952354
 20
13.4770630061
 30
0.0
 10
16.6170906241
 20
13.4938542535
 30
0.0
 10
16.6016435488
 20
13.5043466101
 30
0.0
 10
16.5893011609
 20
13.5127454454
 30
0.0
 10
16.5815523342
 20
13.5179834288
 30
0.0
 10
16.5761979667
 20
13.5216726406
 30
0.0
 10
16.573029102
 20
13.5237453653
 30
0.0
 10
16.5694487664
 20
13.5256847469
 30
0.0
 10
16.5651142338
 20
13.5281546303
 30
0.0
 10
16.5581002474
 20
13.5320809289
 30
0.0
 10
16.5493597231
 20
13.5369975384
 30
0.0
 10
16.5353598171
 20
13.544859231
 30
0.0
 10
16.5178651039
 20
13.5546880219
 30
0.0
 10
16.4968692357
 20
13.566481854
 30
0.0
 10
16.4688755166
 20
13.5822072136
 30
0.0
 10
16.4198861464
 20
13.6097264756
 30
0.0
 10
16.3778953816
 20
13.6333144547
 30
0.0
 10
16.3499015109
 20
13.6490397652
 30
0.0
  0
SPLINE
  5
377
100
AcDbEntity
  8
03__ASM_ALL_CURVES
100
AcDbSpline
 62
8
  6
PHANTOM
 70
0
 71
3
 72
148
 73
144
 74
0
 42
0.0000001
 43
0.0000001
 44
0.0000000001
 40
0.0
 40
0.0
 40
0.0
 40
0.0
 40
0.03125
 40
0.0625
 40
0.078125
 40
0.09375
 40
0.109375
 40
0.1171875
 40
0.125
 40
0.12890625
 40
0.1328125
 40
0.13671875
 40
0.138671875
 40
0.140625
 40
0.1416015625
 40
0.142578125
 40
0.14453125
 40
0.146484375
 40
0.1484375
 40
0.15234375
 40
0.15625
 40
0.1640625
 40
0.171875
 40
0.1875
 40
0.203125
 40
0.21875
 40
0.234375
 40
0.25
 40
0.2578125
 40
0.265625
 40
0.2734375
 40
0.27734375
 40
0.28125
 40
0.283203125
 40
0.2841796875
 40
0.28515625
 40
0.2856445312
 40
0.2861328125
 40
0.287109375
 40
0.2890625
 40
0.29296875
 40
0.296875
 40
0.3046875
 40
0.3125
 40
0.328125
 40
0.34375
 40
0.375
 40
0.390625
 40
0.3984375
 40
0.40625
 40
0.4140625
 40
0.41796875
 40
0.421875
 40
0.42578125
 40
0.4267578125
 40
0.427734375
 40
0.4287109375
 40
0.4296875
 40
0.431640625
 40
0.43359375
 40
0.4375
 40
0.44140625
 40
0.4453125
 40
0.453125
 40
0.4609375
 40
0.46875
 40
0.484375
 40
0.5
 40
0.515625
 40
0.53125
 40
0.5390625
 40
0.546875
 40
0.5546875
 40
0.55859375
 40
0.5625
 40
0.56640625
 40
0.568359375
 40
0.5693359375
 40
0.5703125
 40
0.5708007812
 40
0.5712890625
 40
0.572265625
 40
0.5732421875
 40
0.57421875
 40
0.578125
 40
0.58203125
 40
0.5859375
 40
0.59375
 40
0.6015625
 40
0.609375
 40
0.625
 40
0.65625
 40
0.671875
 40
0.6875
 40
0.6953125
 40
0.69921875
 40
0.703125
 40
0.70703125
 40
0.7109375
 40
0.712890625
 40
0.7138671875
 40
0.7143554688
 40
0.71484375
 40
0.7158203125
 40
0.716796875
 40
0.71875
 40
0.720703125
 40
0.72265625
 40
0.7265625
 40
0.734375
 40
0.7421875
 40
0.75
 40
0.7578125
 40
0.765625
 40
0.78125
 40
0.796875
 40
0.8125
 40
0.828125
 40
0.8359375
 40
0.84375
 40
0.84765625
 40
0.8515625
 40
0.853515625
 40
0.85546875
 40
0.8564453125
 40
0.8569335938
 40
0.8571777344
 40
0.857421875
 40
0.8583984375
 40
0.859375
 40
0.861328125
 40
0.86328125
 40
0.8671875
 40
0.87109375
 40
0.875
 40
0.8828125
 40
0.890625
 40
0.8984375
 40
0.90625
 40
0.921875
 40
0.9375
 40
0.96875
 40
1.0
 40
1.0
 40
1.0
 40
1.0
 10
16.342483833
 20
13.6528019936
 30
0.0
 10
16.3127578621
 20
13.665430342
 30
0.0
 10
16.25330592
 20
13.6906870384
 30
0.0
 10
16.1789909932
 20
13.7222579105
 30
0.0
 10
16.1195390503
 20
13.747514605
 30
0.0
 10
16.0749500969
 20
13.7664571344
 30
0.0
 10
16.0377926238
 20
13.7822425484
 30
0.0
 10
16.0080666721
 20
13.7948709407
 30
0.0
 10
15.9894878913
 20
13.8027635467
 30
0.0
 10
15.9746250064
 20
13.8090779502
 30
0.0
 10
15.9634774601
 20
13.8138128804
 30
0.0
 10
15.9541890552
 20
13.8177614307
 30
0.0
 10
15.9467556018
 20
13.8209140469
 30
0.0
 10
15.9421159087
 20
13.8228986045
 30
0.0
 10
15.9383899198
 20
13.8244537927
 30
0.0
 10
15.9347158967
 20
13.8261274744
 30
0.0
 10
15.929751417
 20
13.8273714474
 30
0.0
 10
15.9238809972
 20
13.8290624935
 30
0.0
 10
15.916023399
 20
13.8312479671
 30
0.0
 10
15.9062118005
 20
13.8340035217
 30
0.0
 10
15.8905074314
 20
13.8383991574
 30
0.0
 10
15.8708789598
 20
13.8438982394
 30
0.0
 10
15.8394722932
 20
13.8526942347
 30
0.0
 10
15.8002143415
 20
13.8636900987
 30
0.0
 10
15.7531046359
 20
13.8768847639
 30
0.0
 10
15.705994974
 20
13.8900795239
 30
0.0
 10
15.6588853009
 20
13.9032742762
 30
0.0
 10
15.619627241
 20
13.9142698496
 30
0.0
 10
15.5882207962
 20
13.9230664407
 30
0.0
 10
15.5646659525
 20
13.9296635189
 30
0.0
 10
15.5450369486
 20
13.935162246
 30
0.0
 10
15.5293336725
 20
13.9395586216
 30
0.0
 10
15.5195192911
 20
13.9423122908
 30
0.0
 10
15.5126488911
 20
13.9442279669
 30
0.0
 10
15.5087234693
 20
13.9453412454
 30
0.0
 10
15.5062688574
 20
13.9459933597
 30
0.0
 10
15.5043079733
 20
13.9466152431
 30
0.0
 10
15.5023368462
 20
13.9468713066
 30
0.0
 10
15.4988891589
 20
13.9473831799
 30
0.0
 10
15.4919925171
 20
13.9483616631
 30
0.0
 10
15.482140833
 20
13.9497831125
 30
0.0
 10
15.4663777687
 20
13.9520442337
 30
0.0
 10
15.4466740649
 20
13.9548751541
 30
0.0
 10
15.4151480682
 20
13.9594021012
 30
0.0
 10
15.3757405964
 20
13.9650616503
 30
0.0
 10
15.3126886286
 20
13.974116443
 30
0.0
 10
15.2496366616
 20
13.9831713822
 30
0.0
 10
15.1944661967
 20
13.9910943884
 30
0.0
 10
15.1629402056
 20
13.9956218597
 30
0.0
 10
15.1392957439
 20
13.9990173644
 30
0.0
 10
15.1195919252
 20
14.0018472644
 30
0.0
 10
15.103829096
 20
14.0041104832
 30
0.0
 10
15.0920063571
 20
14.0058098132
 30
0.0
 10
15.0831410693
 20
14.007078826
 30
0.0
 10
15.0772281262
 20
14.007933377
 30
0.0
 10
15.0742765683
 20
14.0083453958
 30
0.0
 10
15.0713059063
 20
14.0088167331
 30
0.0
 10
15.0675954331
 20
14.0086676518
 30
0.0
 10
15.062871601
 20
14.0087475278
 30
0.0
 10
15.0553613902
 20
14.0087265345
 30
0.0
 10
15.0459571853
 20
14.0087513437
 30
0.0
 10
15.0346791769
 20
14.0087592632
 30
0.0
 10
15.0196393742
 20
14.0087774556
 30
0.0
 10
15.0008404641
 20
14.0087975772
 30
0.0
 10
14.9782814111
 20
14.0088228441
 30
0.0
 10
14.9482027997
 20
14.0088561417
 30
0.0
 10
14.9106044923
 20
14.0088978982
 30
0.0
 10
14.8654865421
 20
14.008947948
 30
0.0
 10
14.8203685863
 20
14.0089980143
 30
0.0
 10
14.7827702929
 20
14.0090397297
 30
0.0
 10
14.7526916535
 20
14.0090731095
 30
0.0
 10
14.7301326861
 20
14.0090981257
 30
0.0
 10
14.7113335079
 20
14.0091190317
 30
0.0
 10
14.6962942522
 20
14.0091356237
 30
0.0
 10
14.6850145731
 20
14.0091484305
 30
0.0
 10
14.6756155956
 20
14.009157949
 30
0.0
 10
14.6690348294
 20
14.0091668763
 30
0.0
 10
14.6652767055
 20
14.009168442
 30
0.0
 10
14.662922446
 20
14.0091777207
 30
0.0
 10
14.661051497
 20
14.0091661071
 30
0.0
 10
14.659135059
 20
14.0092239995
 30
0.0
 10
14.6570651066
 20
14.008798866
 30
0.0
 10
14.6545051463
 20
14.0084048581
 30
0.0
 10
14.6494243291
 20
14.0075570934
 30
0.0
 10
14.6417866824
 20
14.0063105372
 30
0.0
 10
14.6316125251
 20
14.0046341425
 30
0.0
 10
14.6180437084
 20
14.0024039517
 30
0.0
 10
14.6010838107
 20
13.999614497
 30
0.0
 10
14.5807314528
 20
13.9962678859
 30
0.0
 10
14.5535951431
 20
13.9918054816
 30
0.0
 10
14.5061065247
 20
13.9839963919
 30
0.0
 10
14.4518338388
 20
13.9750716792
 30
0.0
 10
14.3975611778
 20
13.9661469481
 30
0.0
 10
14.3636406851
 20
13.9605690696
 30
0.0
 10
14.3398965019
 20
13.9566643938
 30
0.0
 10
14.3263281439
 20
13.9544334028
 30
0.0
 10
14.3161525892
 20
13.9527594486
 30
0.0
 10
14.3059743061
 20
13.9510882119
 30
0.0
 10
14.2975009031
 20
13.9496870489
 30
0.0
 10
14.2915528656
 20
13.9487228239
 30
0.0
 10
14.2886015988
 20
13.94821805
 30
0.0
 10
14.2868785366
 20
13.9479660861
 30
0.0
 10
14.2855231783
 20
13.9473478803
 30
0.0
 10
14.2837030781
 20
13.9467005248
 30
0.0
 10
14.2808612847
 20
13.9455946689
 30
0.0
 10
14.2772849007
 20
13.9442363953
 30
0.0
 10
14.2730035726
 20
13.9425961754
 30
0.0
 10
14.2672915309
 20
13.9404128053
 30
0.0
 10
14.2572971371
 20
13.9365902351
 30
0.0
 10
14.2430185538
 20
13.9311302952
 30
0.0
 10
14.2258846302
 20
13.9245779922
 30
0.0
 10
14.2087506057
 20
13.9180257898
 30
0.0
 10
14.1916166082
 20
13.9114735604
 30
0.0
 10
14.1687712689
 20
13.902737264
 30
0.0
 10
14.1402145973
 20
13.8918168907
 30
0.0
 10
14.105946593
 20
13.8787124418
 30
0.0
 10
14.0716785781
 20
13.8656080011
 30
0.0
 10
14.0431219332
 20
13.8546876073
 30
0.0
 10
14.0202765405
 20
13.845951352
 30
0.0
 10
14.0059983451
 20
13.8404910564
 30
0.0
 10
13.9945753877
 20
13.8361231314
 30
0.0
 10
13.9874369544
 20
13.8333924676
 30
0.0
 10
13.981724112
 20
13.8312095643
 30
0.0
 10
13.9781583672
 20
13.8298415357
 30
0.0
 10
13.9756527628
 20
13.828891359
 30
0.0
 10
13.97441308
 20
13.8284060807
 30
0.0
 10
13.9736835685
 20
13.828145184
 30
0.0
 10
13.9729180705
 20
13.8274984785
 30
0.0
 10
13.9716321044
 20
13.826635389
 30
0.0
 10
13.969448561
 20
13.8250213022
 30
0.0
 10
13.9666839949
 20
13.823030985
 30
0.0
 10
13.9622803272
 20
13.8198312243
 30
0.0
 10
13.9567690049
 20
13.8158367568
 30
0.0
 10
13.950158302
 20
13.8110411557
 30
0.0
 10
13.9413430242
 20
13.8046478033
 30
0.0
 10
13.9303242725
 20
13.7966558444
 30
0.0
 10
13.9171016224
 20
13.7870656088
 30
0.0
 10
13.9038790118
 20
13.7774753424
 30
0.0
 10
13.8862488506
 20
13.7646883313
 30
0.0
 10
13.8642111539
 20
13.7487045637
 30
0.0
 10
13.8289508364
 20
13.7231305377
 30
0.0
 10
13.7848754405
 20
13.6911630044
 30
0.0
 10
13.7496151235
 20
13.665588978
 30
0.0
 10
13.731984965
 20
13.6528019648
 30
0.0
  0
LINE
  5
378
100
AcDbEntity
  8
03__ASM_ALL_CURVES
100
AcDbLine
 62
8
  6
PHANTOM
 10
13.7319849937
 20
13.6528019936
 11
13.7282597748
 21
13.6490397571
  0
SPLINE
  5
379
100
AcDbEntity
  8
03__ASM_ALL_CURVES
100
AcDbSpline
 62
8
  6
PHANTOM
 70
0
 71
3
 72
11
 73
7
 74
0
 42
0.0000001
 43
0.0000001
 44
0.0000000001
 40
0.0
 40
0.0
 40
0.0
 40
0.0
 40
0.5
 40
0.75
 40
0.875
 40
1.0
 40
1.0
 40
1.0
 40
1.0
 10
13.728259775
 20
13.6490397572
 30
0.0
 10
13.7222259176
 20
13.6428423103
 30
0.0
 10
13.7132239755
 20
13.633496788
 30
0.0
 10
13.7032227679
 20
13.6224316798
 30
0.0
 10
13.6974997394
 20
13.6159934901
 30
0.0
 10
13.6945162055
 20
13.6125626484
 30
0.0
 10
13.693039691
 20
13.610873696
 30
0.0
  0
SPLINE
  5
37A
100
AcDbEntity
  8
03__ASM_ALL_CURVES
100
AcDbSpline
 62
8
  6
PHANTOM
 70
0
 71
3
 72
100
 73
96
 74
0
 42
0.0000001
 43
0.0000001
 44
0.0000000001
 40
0.0
 40
0.0
 40
0.0
 40
0.0
 40
0.0625
 40
0.09375
 40
0.109375
 40
0.125
 40
0.140625
 40
0.1484375
 40
0.15625
 40
0.16015625
 40
0.1640625
 40
0.166015625
 40
0.16796875
 40
0.169921875
 40
0.171875
 40
0.1796875
 40
0.1875
 40
0.1953125
 40
0.203125
 40
0.21875
 40
0.25
 40
0.28125
 40
0.296875
 40
0.3046875
 40
0.3125
 40
0.3203125
 40
0.328125
 40
0.330078125
 40
0.33203125
 40
0.333984375
 40
0.3359375
 40
0.33984375
 40
0.34375
 40
0.3515625
 40
0.359375
 40
0.375
 40
0.390625
 40
0.40625
 40
0.421875
 40
0.4375
 40
0.453125
 40
0.46875
 40
0.4765625
 40
0.484375
 40
0.4921875
 40
0.49609375
 40
0.498046875
 40
0.5
 40
0.501953125
 40
0.50390625
 40
0.5078125
 40
0.515625
 40
0.5234375
 40
0.53125
 40
0.546875
 40
0.5625
 40
0.578125
 40
0.59375
 40
0.609375
 40
0.625
 40
0.640625
 40
0.6484375
 40
0.65625
 40
0.66015625
 40
0.6640625
 40
0.666015625
 40
0.66796875
 40
0.669921875
 40
0.671875
 40
0.6796875
 40
0.6875
 40
0.6953125
 40
0.703125
 40
0.71875
 40
0.75
 40
0.78125
 40
0.796875
 40
0.8046875
 40
0.8125
 40
0.8203125
 40
0.828125
 40
0.830078125
 40
0.83203125
 40
0.8330078125
 40
0.833984375
 40
0.8359375
 40
0.83984375
 40
0.84375
 40
0.8515625
 40
0.859375
 40
0.875
 40
0.890625
 40
0.90625
 40
0.9375
 40
1.0
 40
1.0
 40
1.0
 40
1.0
 10
13.6930396899
 20
13.6108736947
 30
0.0
 10
13.682571016
 20
13.5960578101
 30
0.0
 10
13.6668680476
 20
13.5738339667
 30
0.0
 10
13.648547769
 20
13.5479062073
 30
0.0
 10
13.638079251
 20
13.533090262
 30
0.0
 10
13.6302272669
 20
13.5219785346
 30
0.0
 10
13.6236858438
 20
13.5127180245
 30
0.0
 10
13.6184484504
 20
13.5053112702
 30
0.0
 10
13.6151847683
 20
13.5006782827
 30
0.0
 10
13.6125516332
 20
13.4969805179
 30
0.0
 10
13.6109565531
 20
13.4946497351
 30
0.0
 10
13.6095645259
 20
13.492830184
 30
0.0
 10
13.6088380172
 20
13.491342103
 30
0.0
 10
13.6082004814
 20
13.4898194381
 30
0.0
 10
13.6068796417
 20
13.4867918984
 30
0.0
 10
13.6049176053
 20
13.4822431168
 30
0.0
 10
13.6022905697
 20
13.4761823453
 30
0.0
 10
13.5996664731
 20
13.4701204315
 30
0.0
 10
13.5961666523
 20
13.4620382783
 30
0.0
 10
13.5900424464
 20
13.4478943231
 30
0.0
 10
13.5812933059
 20
13.4276887814
 30
0.0
 10
13.5725443501
 20
13.4074831616
 30
0.0
 10
13.5664198857
 20
13.3933393159
 30
0.0
 10
13.5629204711
 20
13.3852569906
 30
0.0
 10
13.5602951279
 20
13.3791956046
 30
0.0
 10
13.5576727742
 20
13.3731328507
 30
0.0
 10
13.555697627
 20
13.3685896206
 30
0.0
 10
13.5543938979
 20
13.3655548357
 30
0.0
 10
13.553718756
 20
13.3640480946
 30
0.0
 10
13.553134116
 20
13.3624999412
 30
0.0
 10
13.5527852203
 20
13.3602386897
 30
0.0
 10
13.5522016556
 20
13.3574795938
 30
0.0
 10
13.5513503513
 20
13.3530273358
 30
0.0
 10
13.5502580073
 20
13.3474749235
 30
0.0
 10
13.5485260256
 20
13.3385838482
 30
0.0
 10
13.5463556372
 20
13.3274724802
 30
0.0
 10
13.5437534925
 20
13.3141377768
 30
0.0
 10
13.5411507203
 20
13.3008033585
 30
0.0
 10
13.5385481366
 20
13.2874688618
 30
0.0
 10
13.5359454264
 20
13.2741343935
 30
0.0
 10
13.5333430339
 20
13.2607998902
 30
0.0
 10
13.5311734199
 20
13.2496878969
 30
0.0
 10
13.5294398584
 20
13.2407980971
 30
0.0
 10
13.5281338705
 20
13.2341313072
 30
0.0
 10
13.527064049
 20
13.2285738678
 30
0.0
 10
13.526278865
 20
13.2246871557
 30
0.0
 10
13.5258868819
 20
13.2224607195
 30
0.0
 10
13.525433188
 20
13.2208062669
 30
0.0
 10
13.525589974
 20
13.2190930453
 30
0.0
 10
13.5255860797
 20
13.2168292491
 30
0.0
 10
13.5256784784
 20
13.2128580547
 30
0.0
 10
13.5257586065
 20
13.2071899132
 30
0.0
 10
13.5258769625
 20
13.2003860061
 30
0.0
 10
13.5260270148
 20
13.1913148765
 30
0.0
 10
13.5262172421
 20
13.1799757083
 30
0.0
 10
13.5264443707
 20
13.1663688168
 30
0.0
 10
13.5266718172
 20
13.1527618939
 30
0.0
 10
13.5268991361
 20
13.1391549862
 30
0.0
 10
13.5271266478
 20
13.1255480493
 30
0.0
 10
13.5273535158
 20
13.1119412138
 30
0.0
 10
13.5275445573
 20
13.1006018707
 30
0.0
 10
13.5276929487
 20
13.0915310979
 30
0.0
 10
13.5277958055
 20
13.0858602673
 30
0.0
 10
13.5278549321
 20
13.0813272618
 30
0.0
 10
13.5279447273
 20
13.0784857848
 30
0.0
 10
13.5278955347
 20
13.0762317249
 30
0.0
 10
13.5281900218
 20
13.074488824
 30
0.0
 10
13.5285773684
 20
13.0727312519
 30
0.0
 10
13.5293042943
 20
13.0692236547
 30
0.0
 10
13.5304147459
 20
13.0639590891
 30
0.0
 10
13.5318838811
 20
13.05694148
 30
0.0
 10
13.5333560836
 20
13.0499233863
 30
0.0
 10
13.5353179507
 20
13.0405660969
 30
0.0
 10
13.5387517123
 20
13.0241907629
 30
0.0
 10
13.5436568611
 20
13.0007974609
 30
0.0
 10
13.5485619687
 20
12.9774041773
 30
0.0
 10
13.551995788
 20
12.9610288177
 30
0.0
 10
13.5539575646
 20
12.9516715684
 30
0.0
 10
13.5554300447
 20
12.9446533517
 30
0.0
 10
13.5568981372
 20
12.9376362047
 30
0.0
 10
13.5580115087
 20
12.9323703449
 30
0.0
 10
13.558734624
 20
12.9288644367
 30
0.0
 10
13.5590643921
 20
12.9273966999
 30
0.0
 10
13.5592617916
 20
12.926238704
 30
0.0
 10
13.559702075
 20
12.9250214874
 30
0.0
 10
13.5605854206
 20
12.9228638429
 30
0.0
 10
13.5617884637
 20
12.9197958497
 30
0.0
 10
13.5637462371
 20
12.9148790377
 30
0.0
 10
13.5661821873
 20
12.9087357699
 30
0.0
 10
13.5700860044
 20
12.8989050059
 30
0.0
 10
13.5749636155
 20
12.8866170778
 30
0.0
 10
13.5808176734
 20
12.8718713385
 30
0.0
 10
13.5886227613
 20
12.8522104315
 30
0.0
 10
13.6022818164
 20
12.8178038074
 30
0.0
 10
13.613989526
 20
12.7883124279
 30
0.0
 10
13.6217946773
 20
12.7686515055
 30
0.0
  0
SPLINE
  5
37B
100
AcDbEntity
  8
03__ASM_ALL_CURVES
100
AcDbSpline
 62
8
  6
PHANTOM
 70
0
 71
3
 72
62
 73
58
 74
0
 42
0.0000001
 43
0.0000001
 44
0.0000000001
 40
0.0
 40
0.0
 40
0.0
 40
0.0
 40
0.0625
 40
0.09375
 40
0.125
 40
0.140625
 40
0.15625
 40
0.1640625
 40
0.16796875
 40
0.171875
 40
0.1796875
 40
0.1875
 40
0.21875
 40
0.25
 40
0.28125
 40
0.3125
 40
0.328125
 40
0.3359375
 40
0.34375
 40
0.359375
 40
0.375
 40
0.40625
 40
0.4375
 40
0.453125
 40
0.46875
 40
0.484375
 40
0.4921875
 40
0.49609375
 40
0.5
 40
0.50390625
 40
0.5078125
 40
0.515625
 40
0.53125
 40
0.546875
 40
0.5625
 40
0.59375
 40
0.625
 40
0.640625
 40
0.65625
 40
0.6640625
 40
0.671875
 40
0.6875
 40
0.71875
 40
0.75
 40
0.78125
 40
0.796875
 40
0.8125
 40
0.8203125
 40
0.828125
 40
0.83203125
 40
0.8359375
 40
0.84375
 40
0.859375
 40
0.875
 40
0.90625
 40
0.9375
 40
1.0
 40
1.0
 40
1.0
 40
1.0
 10
13.6217946915
 20
12.7686514767
 30
0.0
 10
13.6261182496
 20
12.7604865686
 30
0.0
 10
13.6326040629
 20
12.7482389525
 30
0.0
 10
13.6412499097
 20
12.7319098134
 30
0.0
 10
13.6466575311
 20
12.7217019855
 30
0.0
 10
13.6509745832
 20
12.7135405477
 30
0.0
 10
13.6536933696
 20
12.7084286457
 30
0.0
 10
13.6555551781
 20
12.704872366
 30
0.0
 10
13.6566837521
 20
12.7028057043
 30
0.0
 10
13.6580559558
 20
12.7006090929
 30
0.0
 10
13.6596879351
 20
12.6979077426
 30
0.0
 10
13.6636732398
 20
12.6913879766
 30
0.0
 10
13.6696221858
 20
12.6816232385
 30
0.0
 10
13.6775717305
 20
12.6685971136
 30
0.0
 10
13.6855126984
 20
12.6555650754
 30
0.0
 10
13.6921440806
 20
12.6447301498
 30
0.0
 10
13.6967605916
 20
12.6370955658
 30
0.0
 10
13.6994380651
 20
12.632811362
 30
0.0
 10
13.70226412
 20
12.6288225556
 30
0.0
 10
13.7057458168
 20
12.6237354005
 30
0.0
 10
13.7113449488
 20
12.6156524983
 30
0.0
 10
13.7183342229
 20
12.6055293649
 30
0.0
 10
13.7253265392
 20
12.5954135714
 30
0.0
 10
13.7309208038
 20
12.5873189255
 30
0.0
 10
13.7351134423
 20
12.5812495704
 30
0.0
 10
13.7386173358
 20
12.5761871814
 30
0.0
 10
13.7410503411
 20
12.5726524417
 30
0.0
 10
13.7424714274
 20
12.5706186553
 30
0.0
 10
13.7434504837
 20
12.5691325686
 30
0.0
 10
13.7447611748
 20
12.5674964374
 30
0.0
 10
13.7463930851
 20
12.5653672664
 30
0.0
 10
13.7493028241
 20
12.5616168309
 30
0.0
 10
13.75343142
 20
12.5562718274
 30
0.0
 10
13.7583977796
 20
12.5498523079
 30
0.0
 10
13.7650154598
 20
12.5412951387
 30
0.0
 10
13.7732884434
 20
12.5305960396
 30
0.0
 10
13.7815630597
 20
12.519904753
 30
0.0
 10
13.7881781274
 20
12.5113350839
 30
0.0
 10
13.7923232916
 20
12.5060167341
 30
0.0
 10
13.7956147869
 20
12.50167575
 30
0.0
 10
13.7989962287
 20
12.4976498283
 30
0.0
 10
13.8049555288
 20
12.4907508568
 30
0.0
 10
13.8134470712
 20
12.4808185697
 30
0.0
 10
13.8236458005
 20
12.4689329608
 30
0.0
 10
13.8321441384
 20
12.4590199858
 30
0.0
 10
13.838939817
 20
12.4510929603
 30
0.0
 10
13.843194897
 20
12.4461343337
 30
0.0
 10
13.8465810349
 20
12.4421767593
 30
0.0
 10
13.8487382958
 20
12.4396820759
 30
0.0
 10
13.8503703667
 20
12.4377348761
 30
0.0
 10
13.8523446493
 20
12.4356104479
 30
0.0
 10
13.8559586158
 20
12.4318103686
 30
0.0
 10
13.8610384813
 20
12.4264246396
 30
0.0
 10
13.86921262
 20
12.417783467
 30
0.0
 10
13.8794144149
 20
12.4069902245
 30
0.0
 10
13.895746201
 20
12.38971642
 30
0.0
 10
13.9079930348
 20
12.3767621053
 30
0.0
 10
13.9161580365
 20
12.3681256647
 30
0.0
  0
SPLINE
  5
37C
100
AcDbEntity
  8
03__ASM_ALL_CURVES
100
AcDbSpline
 62
8
  6
PHANTOM
 70
0
 71
3
 72
34
 73
30
 74
0
 42
0.0000001
 43
0.0000001
 44
0.0000000001
 40
0.0
 40
0.0
 40
0.0
 40
0.0
 40
0.0625
 40
0.09375
 40
0.125
 40
0.140625
 40
0.15625
 40
0.1640625
 40
0.171875
 40
0.1875
 40
0.21875
 40
0.25
 40
0.3125
 40
0.375
 40
0.4375
 40
0.5
 40
0.5625
 40
0.625
 40
0.6875
 40
0.75
 40
0.78125
 40
0.8125
 40
0.828125
 40
0.8359375
 40
0.84375
 40
0.859375
 40
0.875
 40
0.9375
 40
1.0
 40
1.0
 40
1.0
 40
1.0
 10
16.5291181593
 20
11.5607151185
 30
0.0
 10
16.5326665138
 20
11.561423081
 30
0.0
 10
16.5379899508
 20
11.5624853038
 30
0.0
 10
16.5450842461
 20
11.5639004845
 30
0.0
 10
16.5495257235
 20
11.5647872984
 30
0.0
 10
16.5530617078
 20
11.5654914464
 30
0.0
 10
16.5553109206
 20
11.5659436335
 30
0.0
 10
16.557020456
 20
11.5662776819
 30
0.0
 10
16.5590579528
 20
11.5667128601
 30
0.0
 10
16.5627758012
 20
11.5675215327
 30
0.0
 10
16.5680084903
 20
11.5686512341
 30
0.0
 10
16.5764194033
 20
11.5704786704
 30
0.0
 10
16.5869575575
 20
11.5727157906
 30
0.0
 10
16.599427765
 20
11.5755969046
 30
0.0
 10
16.611824146
 20
11.578553465
 30
0.0
 10
16.6243229524
 20
11.5814047924
 30
0.0
 10
16.6364858837
 20
11.5846016056
 30
0.0
 10
16.6487518135
 20
11.5876933744
 30
0.0
 10
16.6609416247
 20
11.590859835
 30
0.0
 10
16.6709426196
 20
11.593660297
 30
0.0
 10
16.6789686164
 20
11.5958629499
 30
0.0
 10
16.6840004528
 20
11.5972530274
 30
0.0
 10
16.6874844899
 20
11.5982061512
 30
0.0
 10
16.6895362604
 20
11.5987809341
 30
0.0
 10
16.6918176623
 20
11.5994689625
 30
0.0
 10
16.6945909239
 20
11.6002902893
 30
0.0
 10
16.7013113682
 20
11.6022933402
 30
0.0
 10
16.7113646769
 20
11.6052844247
 30
0.0
 10
16.720312068
 20
11.6079486488
 30
0.0
 10
16.724784374
 20
11.6092800756
 30
0.0
  0
LINE
  5
37D
100
AcDbEntity
  8
03__ASM_ALL_CURVES
100
AcDbLine
 62
8
  6
PHANTOM
 10
17.2334155564
 20
11.9087262576
 11
17.2491854871
 21
11.9264295364
  0
SPLINE
  5
37E
100
AcDbEntity
  8
03__ASM_ALL_CURVES
100
AcDbSpline
 62
8
  6
PHANTOM
 70
0
 71
3
 72
100
 73
96
 74
0
 42
0.0000001
 43
0.0000001
 44
0.0000000001
 40
0.0
 40
0.0
 40
0.0
 40
0.0
 40
0.0625
 40
0.09375
 40
0.109375
 40
0.125
 40
0.140625
 40
0.1484375
 40
0.15625
 40
0.16015625
 40
0.1640625
 40
0.166015625
 40
0.16796875
 40
0.169921875
 40
0.171875
 40
0.1796875
 40
0.1875
 40
0.1953125
 40
0.203125
 40
0.21875
 40
0.25
 40
0.28125
 40
0.296875
 40
0.3046875
 40
0.3125
 40
0.3203125
 40
0.328125
 40
0.330078125
 40
0.33203125
 40
0.333984375
 40
0.3359375
 40
0.33984375
 40
0.34375
 40
0.3515625
 40
0.359375
 40
0.375
 40
0.390625
 40
0.40625
 40
0.421875
 40
0.4375
 40
0.453125
 40
0.46875
 40
0.4765625
 40
0.484375
 40
0.4921875
 40
0.49609375
 40
0.498046875
 40
0.5
 40
0.501953125
 40
0.50390625
 40
0.5078125
 40
0.515625
 40
0.5234375
 40
0.53125
 40
0.546875
 40
0.5625
 40
0.578125
 40
0.59375
 40
0.609375
 40
0.625
 40
0.640625
 40
0.6484375
 40
0.65625
 40
0.66015625
 40
0.6640625
 40
0.666015625
 40
0.66796875
 40
0.669921875
 40
0.671875
 40
0.6796875
 40
0.6875
 40
0.6953125
 40
0.703125
 40
0.71875
 40
0.75
 40
0.78125
 40
0.796875
 40
0.8046875
 40
0.8125
 40
0.8203125
 40
0.828125
 40
0.830078125
 40
0.83203125
 40
0.8330078125
 40
0.833984375
 40
0.8359375
 40
0.83984375
 40
0.84375
 40
0.8515625
 40
0.859375
 40
0.875
 40
0.890625
 40
0.90625
 40
0.9375
 40
1.0
 40
1.0
 40
1.0
 40
1.0
 10
17.2491854866
 20
11.9264295359
 30
0.0
 10
17.2596541522
 20
11.9412454241
 30
0.0
 10
17.275357108
 20
11.9634692729
 30
0.0
 10
17.293677372
 20
11.9893970386
 30
0.0
 10
17.3041458815
 20
12.0042129875
 30
0.0
 10
17.3119978594
 20
12.0153247175
 30
0.0
 10
17.3185392772
 20
12.02458523
 30
0.0
 10
17.3237766665
 20
12.031991986
 30
0.0
 10
17.3270403459
 20
12.0366249746
 30
0.0
 10
17.329673479
 20
12.0403227404
 30
0.0
 10
17.3312685577
 20
12.0426535238
 30
0.0
 10
17.3326605839
 20
12.0444730753
 30
0.0
 10
17.3333870918
 20
12.0459611565
 30
0.0
 10
17.3340246268
 20
12.0474838217
 30
0.0
 10
17.3353454648
 20
12.050511362
 30
0.0
 10
17.3373074988
 20
12.0550601445
 30
0.0
 10
17.3399345311
 20
12.0611209171
 30
0.0
 10
17.3425586244
 20
12.0671828321
 30
0.0
 10
17.346058441
 20
12.0752649868
 30
0.0
 10
17.3521826392
 20
12.0894089447
 30
0.0
 10
17.3609317688
 20
12.1096144901
 30
0.0
 10
17.3696807138
 20
12.1298201137
 30
0.0
 10
17.3758051706
 20
12.1439639621
 30
0.0
 10
17.3793045808
 20
12.1520462889
 30
0.0
 10
17.3819299207
 20
12.158107676
 30
0.0
 10
17.3845522712
 20
12.1641704311
 30
0.0
 10
17.3865274159
 20
12.168713662
 30
0.0
 10
17.3878311434
 20
12.1717484475
 30
0.0
 10
17.3885062844
 20
12.1732551889
 30
0.0
 10
17.3890909236
 20
12.1748033426
 30
0.0
 10
17.3894398182
 20
12.1770645944
 30
0.0
 10
17.3900233815
 20
12.1798236906
 30
0.0
 10
17.3908746835
 20
12.1842759492
 30
0.0
 10
17.3919670247
 20
12.1898283623
 30
0.0
 10
17.3936990017
 20
12.1987194388
 30
0.0
 10
17.3958693845
 20
12.2098308085
 30
0.0
 10
17.3984715223
 20
12.2231655136
 30
0.0
 10
17.4010742876
 20
12.2364999338
 30
0.0
 10
17.4036768644
 20
12.2498344324
 30
0.0
 10
17.4062795678
 20
12.2631689026
 30
0.0
 10
17.4088819535
 20
12.2765034077
 30
0.0
 10
17.4110515617
 20
12.2876154025
 30
0.0
 10
17.4127851187
 20
12.2965052036
 30
0.0
 10
17.4140911032
 20
12.3031719944
 30
0.0
 10
17.4151609217
 20
12.3087294346
 30
0.0
 10
17.4159461038
 20
12.3126161473
 30
0.0
 10
17.4163380857
 20
12.3148425837
 30
0.0
 10
17.4167917788
 20
12.3164970366
 30
0.0
 10
17.416634992
 20
12.3182102583
 30
0.0
 10
17.4166388851
 20
12.3204740548
 30
0.0
 10
17.4165464844
 20
12.3244452496
 30
0.0
 10
17.4164663535
 20
12.3301133916
 30
0.0
 10
17.4163479942
 20
12.3369172994
 30
0.0
 10
17.4161979375
 20
12.3459884298
 30
0.0
 10
17.4160077045
 20
12.3573275991
 30
0.0
 10
17.4157805692
 20
12.3709344919
 30
0.0
 10
17.415553116
 20
12.3845414161
 30
0.0
 10
17.4153257904
 20
12.3981483252
 30
0.0
 10
17.415098272
 20
12.4117552633
 30
0.0
 10
17.4148713973
 20
12.4253621002
 30
0.0
 10
17.4146803502
 20
12.4367014444
 30
0.0
 10
17.4145319543
 20
12.445772218
 30
0.0
 10
17.4144290947
 20
12.4514430492
 30
0.0
 10
17.4143699659
 20
12.4559760552
 30
0.0
 10
17.4142801693
 20
12.4588175324
 30
0.0
 10
17.4143293608
 20
12.4610715925
 30
0.0
 10
17.4140348728
 20
12.4628144936
 30
0.0
 10
17.4136475254
 20
12.4645720657
 30
0.0
 10
17.4129205979
 20
12.4680796631
 30
0.0
 10
17.4118101438
 20
12.473344229
 30
0.0
 10
17.4103410052
 20
12.4803618385
 30
0.0
 10
17.4088687994
 20
12.4873799327
 30
0.0
 10
17.4069069279
 20
12.4967372225
 30
0.0
 10
17.4034731584
 20
12.5131125575
 30
0.0
 10
17.3985679986
 20
12.5365058608
 30
0.0
 10
17.3936628799
 20
12.5598991458
 30
0.0
 10
17.3902290529
 20
12.5762745063
 30
0.0
 10
17.3882672718
 20
12.5856317561
 30
0.0
 10
17.3867947884
 20
12.5926499733
 30
0.0
 10
17.3853266925
 20
12.5996671207
 30
0.0
 10
17.3842133186
 20
12.6049329806
 30
0.0
 10
17.3834902016
 20
12.6084388892
 30
0.0
 10
17.3831604329
 20
12.6099066258
 30
0.0
 10
17.3829630326
 20
12.6110646223
 30
0.0
 10
17.3825227497
 20
12.6122818367
 30
0.0
 10
17.3816394058
 20
12.6144394758
 30
0.0
 10
17.3804363648
 20
12.617507462
 30
0.0
 10
17.3784785949
 20
12.6224242623
 30
0.0
 10
17.3760426491
 20
12.6285675158
 30
0.0
 10
17.3721388389
 20
12.6383982567
 30
0.0
 10
17.3672612365
 20
12.650686156
 30
0.0
 10
17.361407189
 20
12.6654318607
 30
0.0
 10
17.3536021149
 20
12.6850927215
 30
0.0
 10
17.3399430841
 20
12.719499265
 30
0.0
 10
17.3282353952
 20
12.7489905752
 30
0.0
 10
17.3204302578
 20
12.7686514516
 30
0.0
  0
SPLINE
  5
37F
100
AcDbEntity
  8
03__ASM_ALL_CURVES
100
AcDbSpline
 62
8
  6
PHANTOM
 70
0
 71
3
 72
59
 73
55
 74
0
 42
0.0000001
 43
0.0000001
 44
0.0000000001
 40
0.0
 40
0.0
 40
0.0
 40
0.0
 40
0.0625
 40
0.09375
 40
0.125
 40
0.140625
 40
0.15625
 40
0.1640625
 40
0.16796875
 40
0.171875
 40
0.1796875
 40
0.1875
 40
0.21875
 40
0.25
 40
0.28125
 40
0.3125
 40
0.3203125
 40
0.328125
 40
0.33203125
 40
0.3359375
 40
0.34375
 40
0.359375
 40
0.375
 40
0.4375
 40
0.46875
 40
0.484375
 40
0.4921875
 40
0.5
 40
0.5078125
 40
0.515625
 40
0.53125
 40
0.5625
 40
0.59375
 40
0.625
 40
0.640625
 40
0.65625
 40
0.6640625
 40
0.66796875
 40
0.671875
 40
0.6796875
 40
0.6875
 40
0.703125
 40
0.71875
 40
0.75
 40
0.78125
 40
0.8125
 40
0.828125
 40
0.8359375
 40
0.84375
 40
0.859375
 40
0.875
 40
0.90625
 40
0.9375
 40
1.0
 40
1.0
 40
1.0
 40
1.0
 10
17.017922596
 20
12.7686514767
 30
0.0
 10
17.0127135316
 20
12.7782083151
 30
0.0
 10
17.0048994408
 20
12.7925435477
 30
0.0
 10
16.9944826302
 20
12.8116572915
 30
0.0
 10
16.9879680044
 20
12.8236031722
 30
0.0
 10
16.9827656954
 20
12.8331603538
 30
0.0
 10
16.9794928329
 20
12.8391325042
 30
0.0
 10
16.9772447554
 20
12.84331519
 30
0.0
 10
16.9758929777
 20
12.8457018847
 30
0.0
 10
16.9742882347
 20
12.8480757297
 30
0.0
 10
16.9723687725
 20
12.8510474282
 30
0.0
 10
16.9676908812
 20
12.858175888
 30
0.0
 10
16.9607041739
 20
12.8688701211
 30
0.0
 10
16.9513702368
 20
12.8831281007
 30
0.0
 10
16.9420453327
 20
12.8973867789
 30
0.0
 10
16.9350383011
 20
12.9080794401
 30
0.0
 10
16.9303863798
 20
12.9152099083
 30
0.0
 10
16.9284194001
 20
12.9181779321
 30
0.0
 10
16.9269127029
 20
12.9205593595
 30
0.0
 10
16.9251614028
 20
12.9229151569
 30
0.0
 10
16.9219829805
 20
12.9270258934
 30
0.0
 10
16.9175016667
 20
12.9329045922
 30
0.0
 10
16.9066968646
 20
12.9470082161
 30
0.0
 10
16.894117131
 20
12.963465695
 30
0.0
 10
16.8815032338
 20
12.9799180176
 30
0.0
 10
16.8752320093
 20
12.9881499627
 30
0.0
 10
16.8715920916
 20
12.9928447529
 30
0.0
 10
16.869021029
 20
12.9963917283
 30
0.0
 10
16.865842644
 20
12.9998397617
 30
0.0
 10
16.8618166336
 20
13.0044716524
 30
0.0
 10
16.8546724625
 20
13.0125613728
 30
0.0
 10
16.8445177146
 20
13.0241265931
 30
0.0
 10
16.8323116973
 20
13.0380009416
 30
0.0
 10
16.8221394679
 20
13.0495646492
 30
0.0
 10
16.8140131602
 20
13.0588133719
 30
0.0
 10
16.8089058025
 20
13.064598557
 30
0.0
 10
16.805387814
 20
13.068638737
 30
0.0
 10
16.8032880677
 20
13.0709621905
 30
0.0
 10
16.8008512769
 20
13.0733413184
 30
0.0
 10
16.7979206908
 20
13.0762961647
 30
0.0
 10
16.7931672671
 20
13.0810345773
 30
0.0
 10
16.7872475215
 20
13.0869539075
 30
0.0
 10
16.7777638828
 20
13.0964271067
 30
0.0
 10
16.7659115422
 20
13.1082663157
 30
0.0
 10
16.7516962044
 20
13.1224809525
 30
0.0
 10
16.7398222428
 20
13.1343042496
 30
0.0
 10
16.7315656793
 20
13.1426239293
 30
0.0
 10
16.7267613521
 20
13.1473103506
 30
0.0
 10
16.7216319785
 20
13.1517418539
 30
0.0
 10
16.715331557
 20
13.1573685166
 30
0.0
 10
16.7051886843
 20
13.1663223978
 30
0.0
 10
16.6925313992
 20
13.1775314586
 30
0.0
 10
16.672267782
 20
13.1954565751
 30
0.0
 10
16.6570727603
 20
13.2089025232
 30
0.0
 10
16.6469421478
 20
13.2178660196
 30
0.0
  0
SPLINE
  5
380
100
AcDbEntity
  8
03__ASM_ALL_CURVES
100
AcDbSpline
 62
8
  6
PHANTOM
 70
0
 71
3
 72
94
 73
90
 74
0
 42
0.0000001
 43
0.0000001
 44
0.0000000001
 40
0.0
 40
0.0
 40
0.0
 40
0.0
 40
0.0625
 40
0.09375
 40
0.109375
 40
0.125
 40
0.140625
 40
0.1484375
 40
0.15625
 40
0.16015625
 40
0.1640625
 40
0.166015625
 40
0.16796875
 40
0.171875
 40
0.1796875
 40
0.1875
 40
0.203125
 40
0.21875
 40
0.25
 40
0.28125
 40
0.296875
 40
0.3125
 40
0.3203125
 40
0.328125
 40
0.33203125
 40
0.333984375
 40
0.3359375
 40
0.33984375
 40
0.34375
 40
0.3515625
 40
0.359375
 40
0.375
 40
0.390625
 40
0.40625
 40
0.421875
 40
0.4375
 40
0.453125
 40
0.46875
 40
0.4765625
 40
0.484375
 40
0.4921875
 40
0.49609375
 40
0.498046875
 40
0.5
 40
0.501953125
 40
0.50390625
 40
0.5078125
 40
0.515625
 40
0.5234375
 40
0.53125
 40
0.546875
 40
0.5625
 40
0.578125
 40
0.59375
 40
0.609375
 40
0.625
 40
0.640625
 40
0.6484375
 40
0.65625
 40
0.66015625
 40
0.6640625
 40
0.666015625
 40
0.66796875
 40
0.669921875
 40
0.671875
 40
0.6796875
 40
0.6875
 40
0.6953125
 40
0.703125
 40
0.71875
 40
0.75
 40
0.78125
 40
0.796875
 40
0.8125
 40
0.8203125
 40
0.828125
 40
0.830078125
 40
0.83203125
 40
0.833984375
 40
0.8359375
 40
0.83984375
 40
0.84375
 40
0.8515625
 40
0.859375
 40
0.875
 40
0.890625
 40
0.90625
 40
0.9375
 40
1.0
 40
1.0
 40
1.0
 40
1.0
 10
15.6746818166
 20
13.7108692854
 30
0.0
 10
15.6448878843
 20
13.7178126552
 30
0.0
 10
15.6001969782
 20
13.7282276771
 30
0.0
 10
15.5480576145
 20
13.7403786508
 30
0.0
 10
15.5182636541
 20
13.7473219003
 30
0.0
 10
15.4959182909
 20
13.7525297968
 30
0.0
 10
15.4772968141
 20
13.7568682477
 30
0.0
 10
15.4624003969
 20
13.7603422894
 30
0.0
 10
15.4530883959
 20
13.7625060946
 30
0.0
 10
15.4456427808
 20
13.7642542486
 30
0.0
 10
15.4409801772
 20
13.7653078056
 30
0.0
 10
15.4372709237
 20
13.766240068
 30
0.0
 10
15.4334856282
 20
13.7668458946
 30
0.0
 10
15.4268260361
 20
13.7677544478
 30
0.0
 10
15.4173307638
 20
13.769131501
 30
0.0
 10
15.4021280287
 20
13.7712905691
 30
0.0
 10
15.3831281328
 20
13.7740045514
 30
0.0
 10
15.3527263508
 20
13.7783384152
 30
0.0
 10
15.3147246458
 20
13.7837589651
 30
0.0
 10
15.2767232867
 20
13.7891772693
 30
0.0
 10
15.2463209512
 20
13.7935147263
 30
0.0
 10
15.2273224393
 20
13.7962197255
 30
0.0
 10
15.2121168671
 20
13.798397209
 30
0.0
 10
15.2026288172
 20
13.7997273817
 30
0.0
 10
15.1959562529
 20
13.8007201373
 30
0.0
 10
15.192191751
 20
13.801190993
 30
0.0
 10
15.1886095487
 20
13.8012985706
 30
0.0
 10
15.1840693768
 20
13.8015574283
 30
0.0
 10
15.1768399845
 20
13.8019020881
 30
0.0
 10
15.1677913002
 20
13.8023567141
 30
0.0
 10
15.1533200809
 20
13.803070813
 30
0.0
 10
15.1352287659
 20
13.8039680017
 30
0.0
 10
15.1135201704
 20
13.8050426699
 30
0.0
 10
15.0918113105
 20
13.806117867
 30
0.0
 10
15.0701025254
 20
13.8071929069
 30
0.0
 10
15.0483937056
 20
13.8082680466
 30
0.0
 10
15.0266849501
 20
13.809342944
 30
0.0
 10
15.008594135
 20
13.8102394164
 30
0.0
 10
14.9941218959
 20
13.8109549766
 30
0.0
 10
14.9832665889
 20
13.8114960652
 30
0.0
 10
14.9742240867
 20
13.8119329183
 30
0.0
 10
14.9678872959
 20
13.8122662958
 30
0.0
 10
14.9642772638
 20
13.8124137329
 30
0.0
 10
14.9615387771
 20
13.8126456238
 30
0.0
 10
14.9589186455
 20
13.8124137945
 30
0.0
 10
14.955383853
 20
13.8122664395
 30
0.0
 10
14.9492172011
 20
13.8119332056
 30
0.0
 10
14.9403976421
 20
13.8114965577
 30
0.0
 10
14.9298184757
 20
13.8109557154
 30
0.0
 10
14.9157114168
 20
13.8102404835
 30
0.0
 10
14.8980781098
 20
13.8093444216
 30
0.0
 10
14.8769179176
 20
13.8082700165
 30
0.0
 10
14.8557577938
 20
13.8071953699
 30
0.0
 10
14.8345976205
 20
13.8061208204
 30
0.0
 10
14.8134375764
 20
13.8050461236
 30
0.0
 10
14.792277065
 20
13.803971919
 30
0.0
 10
14.7746447557
 20
13.8030752307
 30
0.0
 10
14.7605356615
 20
13.8023612767
 30
0.0
 10
14.7517248693
 20
13.8019073227
 30
0.0
 10
14.7446593072
 20
13.801561869
 30
0.0
 10
14.7402819561
 20
13.801305553
 30
0.0
 10
14.7366916067
 20
13.8011930506
 30
0.0
 10
14.734241075
 20
13.800855267
 30
0.0
 10
14.7318584208
 20
13.8004464739
 30
0.0
 10
14.727058196
 20
13.7996654152
 30
0.0
 10
14.719872524
 20
13.7984784852
 30
0.0
 10
14.7102832461
 20
13.7969046806
 30
0.0
 10
14.7006962102
 20
13.7953285306
 30
0.0
 10
14.6879127142
 20
13.7932278144
 30
0.0
 10
14.6655419542
 20
13.7895511892
 30
0.0
 10
14.6335835874
 20
13.7842989916
 30
0.0
 10
14.6016250919
 20
13.779047006
 30
0.0
 10
14.5760587149
 20
13.7748448093
 30
0.0
 10
14.5600787452
 20
13.772219851
 30
0.0
 10
14.5472970265
 20
13.7701166412
 30
0.0
 10
14.5401026741
 20
13.7689402464
 30
0.0
 10
14.5353138125
 20
13.7681453887
 30
0.0
 10
14.5329061802
 20
13.7677669286
 30
0.0
 10
14.5305498792
 20
13.7673147123
 30
0.0
 10
14.5276523891
 20
13.7663608093
 30
0.0
 10
14.5239468976
 20
13.7652885945
 30
0.0
 10
14.5180648468
 20
13.7635058976
 30
0.0
 10
14.5106962811
 20
13.7613005199
 30
0.0
 10
14.4989155196
 20
13.7577590645
 30
0.0
 10
14.4841864992
 20
13.7533366543
 30
0.0
 10
14.4665129881
 20
13.748027875
 30
0.0
 10
14.4429478483
 20
13.740950161
 30
0.0
 10
14.4017090685
 20
13.7285638529
 30
0.0
 10
14.3663614694
 20
13.7179471232
 30
0.0
 10
14.3427964196
 20
13.7108692799
 30
0.0
  0
SPLINE
  5
381
100
AcDbEntity
  8
03__ASM_ALL_CURVES
100
AcDbSpline
 62
8
  6
PHANTOM
 70
0
 71
3
 72
65
 73
61
 74
0
 42
0.0000001
 43
0.0000001
 44
0.0000000001
 40
0.0
 40
0.0
 40
0.0
 40
0.0
 40
0.0625
 40
0.09375
 40
0.125
 40
0.140625
 40
0.15625
 40
0.1640625
 40
0.16796875
 40
0.171875
 40
0.1796875
 40
0.1875
 40
0.21875
 40
0.25
 40
0.28125
 40
0.3125
 40
0.3203125
 40
0.328125
 40
0.33203125
 40
0.3359375
 40
0.34375
 40
0.359375
 40
0.375
 40
0.40625
 40
0.4375
 40
0.453125
 40
0.46875
 40
0.484375
 40
0.4921875
 40
0.49609375
 40
0.5
 40
0.50390625
 40
0.5078125
 40
0.515625
 40
0.53125
 40
0.5625
 40
0.59375
 40
0.625
 40
0.640625
 40
0.65625
 40
0.6640625
 40
0.66796875
 40
0.671875
 40
0.6796875
 40
0.6875
 40
0.703125
 40
0.71875
 40
0.75
 40
0.78125
 40
0.8125
 40
0.8203125
 40
0.828125
 40
0.83203125
 40
0.8359375
 40
0.84375
 40
0.859375
 40
0.875
 40
0.90625
 40
0.9375
 40
1.0
 40
1.0
 40
1.0
 40
1.0
 10
17.0878271083
 20
12.3194369408
 30
0.0
 10
17.0891445688
 20
12.3282144899
 30
0.0
 10
17.0911202252
 20
12.3413809379
 30
0.0
 10
17.0937565713
 20
12.3589357042
 30
0.0
 10
17.0953998343
 20
12.3699084702
 30
0.0
 10
17.0967245982
 20
12.3786843183
 30
0.0
 10
17.0975294185
 20
12.3841746168
 30
0.0
 10
17.0981392016
 20
12.3880070168
 30
0.0
 10
17.0984150381
 20
12.3902138711
 30
0.0
 10
17.0984173854
 20
12.3924844222
 30
0.0
 10
17.0985138014
 20
12.3953008388
 30
0.0
 10
17.098668242
 20
12.4020781615
 30
0.0
 10
17.0989324861
 20
12.4122365687
 30
0.0
 10
17.0992649499
 20
12.4257856757
 30
0.0
 10
17.0996073493
 20
12.4393326904
 30
0.0
 10
17.0998492385
 20
12.4494958053
 30
0.0
 10
17.1000322437
 20
12.4562671127
 30
0.0
 10
17.1000763948
 20
12.4590945356
 30
0.0
 10
17.1001865837
 20
12.4613423767
 30
0.0
 10
17.100022981
 20
12.4636417706
 30
0.0
 10
17.0996094668
 20
12.4676896626
 30
0.0
 10
17.0990851017
 20
12.4734598685
 30
0.0
 10
17.0982090389
 20
12.4826991804
 30
0.0
 10
17.0971265717
 20
12.4942459391
 30
0.0
 10
17.0960400076
 20
12.5057934944
 30
0.0
 10
17.0951705
 20
12.5150315317
 30
0.0
 10
17.0945215963
 20
12.5219596024
 30
0.0
 10
17.0939701933
 20
12.527734522
 30
0.0
 10
17.0936051643
 20
12.5317739584
 30
0.0
 10
17.0933638517
 20
12.5340869049
 30
0.0
 10
17.0932750545
 20
12.5358083824
 30
0.0
 10
17.0928338705
 20
12.5375804411
 30
0.0
 10
17.092368531
 20
12.5399255441
 30
0.0
 10
17.0914970302
 20
12.5440376798
 30
0.0
 10
17.0897946531
 20
12.5522561057
 30
0.0
 10
17.0873410854
 20
12.5639999302
 30
0.0
 10
17.0844076301
 20
12.5780904437
 30
0.0
 10
17.081955798
 20
12.5898351697
 30
0.0
 10
17.0800064058
 20
12.5992256731
 30
0.0
 10
17.078761495
 20
12.6051066155
 30
0.0
 10
17.0779431518
 20
12.6091994863
 30
0.0
 10
17.0773924703
 20
12.6115754873
 30
0.0
 10
17.0765289052
 20
12.614091692
 30
0.0
 10
17.075556579
 20
12.6171889423
 30
0.0
 10
17.0739409911
 20
12.6221713712
 30
0.0
 10
17.0719419805
 20
12.6283902167
 30
0.0
 10
17.0687322599
 20
12.6383455329
 30
0.0
 10
17.0647229897
 20
12.6507877149
 30
0.0
 10
17.0599149941
 20
12.665720012
 30
0.0
 10
17.0562961547
 20
12.6769165548
 30
0.0
 10
17.053904022
 20
12.6843848586
 30
0.0
 10
17.0528768226
 20
12.6874908265
 30
0.0
 10
17.0521261662
 20
12.6899891876
 30
0.0
 10
17.0511154795
 20
12.6924378615
 30
0.0
 10
17.0492259617
 20
12.6966999551
 30
0.0
 10
17.0465896864
 20
12.7028007053
 30
0.0
 10
17.0423364179
 20
12.712555174
 30
0.0
 10
17.0370318995
 20
12.7247505658
 30
0.0
 10
17.0285378955
 20
12.7442618982
 30
0.0
 10
17.0221689167
 20
12.7588956888
 30
0.0
 10
17.0179225922
 20
12.7686514844
 30
0.0
  0
SPLINE
  5
382
100
AcDbEntity
  8
0
100
AcDbSpline
 62
7
  6
CONTINUOUS
 70
0
 71
3
 72
16
 73
12
 74
0
 42
0.0000001
 43
0.0000001
 44
0.0000000001
 40
0.0
 40
0.0
 40
0.0
 40
0.0
 40
0.1522145719
 40
0.2968333567
 40
0.4332411173
 40
0.5611774909
 40
0.6808182063
 40
0.7928597254
 40
0.898586976
 40
0.9497065434
 40
1.0
 40
1.0
 40
1.0
 40
1.0
 10
15.3727994635
 20
11.2145165708
 30
0.0
 10
15.3957475963
 20
11.2155988186
 30
0.0
 10
15.4404427361
 20
11.2194822404
 30
0.0
 10
15.5049173531
 20
11.2309163102
 30
0.0
 10
15.5644389928
 20
11.2476871268
 30
0.0
 10
15.618239655
 20
11.2695995228
 30
0.0
 10
15.6656283697
 20
11.2964132878
 30
0.0
 10
15.7059661465
 20
11.3278246382
 30
0.0
 10
15.7335457403
 20
11.3579169754
 30
0.0
 10
15.7512514136
 20
11.3837307619
 30
0.0
 10
15.7586721065
 20
11.3971516107
 30
0.0
 10
15.7620109601
 20
11.4039686214
 30
0.0
  0
SPLINE
  5
383
100
AcDbEntity
  8
0
100
AcDbSpline
 62
7
  6
CONTINUOUS
 70
0
 71
3
 72
9
 73
5
 74
0
 42
0.0000001
 43
0.0000001
 44
0.0000000001
 40
0.0
 40
0.0
 40
0.0
 40
0.0
 40
0.2526035375
 40
1.0
 40
1.0
 40
1.0
 40
1.0
 10
14.8568664941
 20
12.9894862709
 30
0.0
 10
14.855216034
 20
12.9892679198
 30
0.0
 10
14.8486691158
 20
12.9885025256
 30
0.0
 10
14.8420827822
 20
12.9881016724
 30
0.0
 10
14.8371592894
 20
12.9879481237
 30
0.0
  0
SPLINE
  5
384
100
AcDbEntity
  8
0
100
AcDbSpline
 62
7
  6
CONTINUOUS
 70
0
 71
3
 72
22
 73
18
 74
0
 42
0.0000001
 43
0.0000001
 44
0.0000000001
 40
0.0
 40
0.0
 40
0.0
 40
0.0
 40
0.0171896518
 40
0.0346656529
 40
0.0719458746
 40
0.1143986214
 40
0.163304432
 40
0.2190172929
 40
0.2812798575
 40
0.3493037321
 40
0.4219921377
 40
0.5758989667
 40
0.731250406
 40
0.8056814621
 40
0.8760326115
 40
0.9411598482
 40
1.0
 40
1.0
 40
1.0
 40
1.0
 10
15.9747489758
 20
11.721835697
 30
0.0
 10
15.9753872503
 20
11.721835697
 30
0.0
 10
15.9766778026
 20
11.7219644121
 30
0.0
 10
15.9792508022
 20
11.7227321614
 30
0.0
 10
15.9823710158
 20
11.7246704041
 30
0.0
 10
15.9856616251
 20
11.7281797447
 30
0.0
 10
15.9886255
 20
11.7327928534
 30
0.0
 10
15.991244105
 20
11.7384245816
 30
0.0
 10
15.9934870541
 20
11.7449673166
 30
0.0
 10
15.9953129609
 20
11.7522877144
 30
0.0
 10
15.9971743387
 20
11.7630758187
 30
0.0
 10
15.9981929194
 20
11.7772596853
 30
0.0
 10
15.9975619066
 20
11.7915289171
 30
0.0
 10
15.9960144426
 20
11.8025724976
 30
0.0
 10
15.9943976683
 20
11.8102049225
 30
0.0
 10
15.9923439339
 20
11.817129913
 30
0.0
 10
15.9906199661
 20
11.8214095999
 30
0.0
 10
15.9896764206
 20
11.8233801653
 30
0.0
  0
SPLINE
  5
385
100
AcDbEntity
  8
0
100
AcDbSpline
 62
7
  6
CONTINUOUS
 70
0
 71
3
 72
12
 73
8
 74
0
 42
0.0000001
 43
0.0000001
 44
0.0000000001
 40
0.0
 40
0.0
 40
0.0
 40
0.0
 40
0.3049863048
 40
0.5671528872
 40
0.7929490582
 40
0.8975449862
 40
1.0
 40
1.0
 40
1.0
 40
1.0
 10
15.9894684596
 20
11.8238091916
 30
0.0
 10
15.9885493878
 20
11.8256820631
 30
0.0
 10
15.9866170484
 20
11.8290670263
 30
0.0
 10
15.9831031605
 20
11.8332477525
 30
0.0
 10
15.9797006509
 20
11.8355941022
 30
0.0
 10
15.976870456
 20
11.8365235427
 30
0.0
 10
15.9754498084
 20
11.836679447
 30
0.0
 10
15.9747489758
 20
11.836679447
 30
0.0
  0
SPLINE
  5
386
100
AcDbEntity
  8
0
100
AcDbSpline
 62
7
  6
CONTINUOUS
 70
0
 71
3
 72
13
 73
9
 74
0
 42
0.0000001
 43
0.0000001
 44
0.0000000001
 40
0.0
 40
0.0
 40
0.0
 40
0.0
 40
0.2710352632
 40
0.5247266119
 40
0.6465297052
 40
0.7658132801
 40
0.8833687251
 40
1.0
 40
1.0
 40
1.0
 40
1.0
 10
14.3159861048
 20
11.6373562631
 30
0.0
 10
14.3053428665
 20
11.6590449024
 30
0.0
 10
14.2876791614
 20
11.702589174
 30
0.0
 10
14.2753211421
 20
11.7592314551
 30
0.0
 10
14.2723119666
 20
11.8032973288
 30
0.0
 10
14.2733649142
 20
11.8353072764
 30
0.0
 10
14.277709399
 20
11.8665705924
 30
0.0
 10
14.2827934592
 20
11.8868663154
 30
0.0
 10
14.2858629125
 20
11.8967990699
 30
0.0
  0
SPLINE
  5
387
100
AcDbEntity
  8
0
100
AcDbSpline
 62
7
  6
CONTINUOUS
 70
0
 71
3
 72
19
 73
15
 74
0
 42
0.0000001
 43
0.0000001
 44
0.0000000001
 40
0.0
 40
0.0
 40
0.0
 40
0.0
 40
0.0484373447
 40
0.0974290652
 40
0.14743812
 40
0.198920795
 40
0.2522669716
 40
0.3077781788
 40
0.4260233697
 40
0.489103371
 40
0.5548377749
 40
0.6940262666
 40
0.8428740286
 40
1.0
 40
1.0
 40
1.0
 40
1.0
 10
14.4687364335
 20
11.8402868777
 30
0.0
 10
14.4715048487
 20
11.8492454728
 30
0.0
 10
14.4782277263
 20
11.8669305198
 30
0.0
 10
14.491658316
 20
11.8921929509
 30
0.0
 10
14.5083954964
 20
11.9161208591
 30
0.0
 10
14.5283365102
 20
11.9385821865
 30
0.0
 10
14.5513758354
 20
11.9594677762
 30
0.0
 10
14.5867940819
 20
11.9856131019
 30
0.0
 10
14.6273861789
 20
12.007495459
 30
0.0
 10
14.6718218415
 20
12.0252488649
 30
0.0
 10
14.7212990624
 20
12.0409981808
 30
0.0
 10
14.7885074396
 20
12.0551223398
 30
0.0
 10
14.8744595848
 20
12.0631479687
 30
0.0
 10
14.9337979606
 20
12.0626673455
 30
0.0
 10
14.964171666
 20
12.0610496782
 30
0.0
  0
SPLINE
  5
388
100
AcDbEntity
  8
0
100
AcDbSpline
 62
7
  6
CONTINUOUS
 70
0
 71
3
 72
20
 73
16
 74
0
 42
0.0000001
 43
0.0000001
 44
0.0000000001
 40
0.0
 40
0.0
 40
0.0
 40
0.0
 40
0.1321719471
 40
0.2681843214
 40
0.4049181283
 40
0.472586585
 40
0.5392564811
 40
0.6045606935
 40
0.6681564665
 40
0.7297340657
 40
0.7890263144
 40
0.8458152488
 40
0.8999432992
 40
0.9513418418
 40
1.0
 40
1.0
 40
1.0
 40
1.0
 10
14.964171666
 20
12.0610496782
 30
0.0
 10
15.0050404961
 20
12.0588730531
 30
0.0
 10
15.0877602571
 20
12.0494174105
 30
0.0
 10
15.210249643
 20
12.0216455696
 30
0.0
 10
15.3102321751
 20
11.9875702166
 30
0.0
 10
15.3872696769
 20
11.9541585979
 30
0.0
 10
15.4425723641
 20
11.9264571689
 30
0.0
 10
15.4951106821
 20
11.896272862
 30
0.0
 10
15.5444339129
 20
11.8638633169
 30
0.0
 10
15.5901182111
 20
11.8295087202
 30
0.0
 10
15.6317716683
 20
11.79350419
 30
0.0
 10
15.6690352426
 20
11.7561587996
 30
0.0
 10
15.7015930982
 20
11.7177882643
 30
0.0
 10
15.729156499
 20
11.6787258613
 30
0.0
 10
15.7444613587
 20
11.651709371
 30
0.0
 10
15.7511311269
 20
11.6381991748
 30
0.0
  0
SPLINE
  5
389
100
AcDbEntity
  8
0
100
AcDbSpline
 62
7
  6
CONTINUOUS
 70
0
 71
3
 72
9
 73
5
 74
0
 42
0.0000001
 43
0.0000001
 44
0.0000000001
 40
0.0
 40
0.0
 40
0.0
 40
0.0
 40
0.2547357326
 40
1.0
 40
1.0
 40
1.0
 40
1.0
 10
15.752183245
 20
11.636051644
 30
0.0
 10
15.7536507904
 20
11.633032977
 30
0.0
 10
15.7592594693
 20
11.6211096134
 30
0.0
 10
15.7642462393
 20
11.6088913618
 30
0.0
 10
15.7675587679
 20
11.5996470581
 30
0.0
  0
SPLINE
  5
38A
100
AcDbEntity
  8
0
100
AcDbSpline
 62
7
  6
CONTINUOUS
 70
0
 71
3
 72
34
 73
30
 74
0
 42
0.0000001
 43
0.0000001
 44
0.0000000001
 40
0.0
 40
0.0
 40
0.0
 40
0.0
 40
0.0215481408
 40
0.0433907094
 40
0.065790956
 40
0.0889903658
 40
0.113182801
 40
0.1385142966
 40
0.1650844154
 40
0.1929474994
 40
0.2221182761
 40
0.2525762053
 40
0.2842697143
 40
0.3171216216
 40
0.3510322735
 40
0.3858831062
 40
0.4578347933
 40
0.5317972498
 40
0.6064481122
 40
0.6804266096
 40
0.752409466
 40
0.7872810539
 40
0.8212154209
 40
0.8540935268
 40
0.8858158138
 40
0.9163034837
 40
0.9455039141
 40
0.9734021845
 40
1.0
 40
1.0
 40
1.0
 40
1.0
 10
15.95784939
 20
11.3801161698
 30
0.0
 10
15.9537496127
 20
11.3668492858
 30
0.0
 10
15.9435379188
 20
11.3406961551
 30
0.0
 10
15.922583899
 20
11.3036873098
 30
0.0
 10
15.8961197462
 20
11.2690486633
 30
0.0
 10
15.8643727128
 20
11.2370304773
 30
0.0
 10
15.827588889
 20
11.2078308554
 30
0.0
 10
15.786036269
 20
11.1816304938
 30
0.0
 10
15.74000552
 20
11.1585869416
 30
0.0
 10
15.6898111306
 20
11.1388362435
 30
0.0
 10
15.6357900027
 20
11.1224993713
 30
0.0
 10
15.5783037145
 20
11.1096779053
 30
0.0
 10
15.5177373223
 20
11.1004496292
 30
0.0
 10
15.4544970793
 20
11.0948740727
 30
0.0
 10
15.3890062933
 20
11.0929861251
 30
0.0
 10
15.2983230664
 20
11.0954266264
 30
0.0
 10
15.1822799263
 20
11.107884683
 30
0.0
 10
15.0429106309
 20
11.1368309474
 30
0.0
 10
14.9056342019
 20
11.1791688602
 30
0.0
 10
14.7741423719
 20
11.233760233
 30
0.0
 10
14.6711978641
 20
11.2888400811
 30
0.0
 10
14.5948435716
 20
11.3379140635
 30
0.0
 10
14.5417466212
 20
11.3763755039
 30
0.0
 10
14.4925801093
 20
11.4166184543
 30
0.0
 10
14.4476745565
 20
11.4583752574
 30
0.0
 10
14.4073331031
 20
11.5013667107
 30
0.0
 10
14.3718267523
 20
11.5453153292
 30
0.0
 10
14.3414063053
 20
11.5899259619
 30
0.0
 10
14.324249387
 20
11.6206380579
 30
0.0
 10
14.3166528446
 20
11.6360026784
 30
0.0
  0
SPLINE
  5
38B
100
AcDbEntity
  8
0
100
AcDbSpline
 62
7
  6
CONTINUOUS
 70
0
 71
3
 72
34
 73
30
 74
0
 42
0.0000001
 43
0.0000001
 44
0.0000000001
 40
0.0
 40
0.0
 40
0.0
 40
0.0
 40
0.0264548368
 40
0.0541906971
 40
0.0832095428
 40
0.1134987043
 40
0.1450091587
 40
0.1776659458
 40
0.2113737709
 40
0.2460184411
 40
0.3175669774
 40
0.3911708191
 40
0.465546468
 40
0.5393682912
 40
0.6113408133
 40
0.6462673095
 40
0.6802980982
 40
0.7133135837
 40
0.7452119223
 40
0.7759114065
 40
0.8053542686
 40
0.8335115546
 40
0.8603863218
 40
0.8860189061
 40
0.9104918028
 40
0.9339316931
 40
0.9565109516
 40
0.9784494926
 40
1.0
 40
1.0
 40
1.0
 40
1.0
 10
16.0147471498
 20
11.9211588809
 30
0.0
 10
16.0072934554
 20
11.9363479131
 30
0.0
 10
15.9904642806
 20
11.9667139441
 30
0.0
 10
15.960627009
 20
12.0108507592
 30
0.0
 10
15.9258039739
 20
12.054355857
 30
0.0
 10
15.8862364839
 20
12.0969429149
 30
0.0
 10
15.8421849275
 20
12.1383437963
 30
0.0
 10
15.7939394317
 20
12.1782872101
 30
0.0
 10
15.7418176972
 20
12.2165138834
 30
0.0
 10
15.6668186703
 20
12.2653766974
 30
0.0
 10
15.5656004872
 20
12.3203995547
 30
0.0
 10
15.4361428009
 20
12.3752619109
 30
0.0
 10
15.3007381558
 20
12.4182445581
 30
0.0
 10
15.1629482624
 20
12.4482164238
 30
0.0
 10
15.0479592535
 20
12.4618420565
 30
0.0
 10
14.9578610866
 20
12.4654166459
 30
0.0
 10
14.8926158505
 20
12.4644545062
 30
0.0
 10
14.8294637711
 20
12.4598807794
 30
0.0
 10
14.768818394
 20
12.4517251028
 30
0.0
 10
14.7110780658
 20
12.4400370458
 30
0.0
 10
14.656621169
 20
12.424886884
 30
0.0
 10
14.6058035817
 20
12.4063686265
 30
0.0
 10
14.5589592145
 20
12.3845913095
 30
0.0
 10
14.5163988135
 20
12.3596830751
 30
0.0
 10
14.4784092568
 20
12.3317912101
 30
0.0
 10
14.4452594219
 20
12.3010802113
 30
0.0
 10
14.4171922427
 20
12.2677364279
 30
0.0
 10
14.3944338872
 20
12.2319865596
 30
0.0
 10
14.382866222
 20
12.2065717463
 30
0.0
 10
14.3780682851
 20
12.1936510619
 30
0.0
  0
SPLINE
  5
38C
100
AcDbEntity
  8
0
100
AcDbSpline
 62
7
  6
CONTINUOUS
 70
0
 71
3
 72
13
 73
9
 74
0
 42
0.0000001
 43
0.0000001
 44
0.0000000001
 40
0.0
 40
0.0
 40
0.0
 40
0.0
 40
0.1164678706
 40
0.2341283314
 40
0.3536756019
 40
0.4757779929
 40
0.7297541379
 40
1.0
 40
1.0
 40
1.0
 40
1.0
 10
16.0491959347
 20
11.6772392408
 30
0.0
 10
16.0515418118
 20
11.6866675758
 30
0.0
 10
16.0553043582
 20
11.7058721206
 30
0.0
 10
16.058083183
 20
11.7352896879
 30
0.0
 10
16.0580074045
 20
11.7653099513
 30
0.0
 10
16.0540656038
 20
11.8065186059
 30
0.0
 10
16.0417099071
 20
11.8592812036
 30
0.0
 10
16.0251102887
 20
11.8999292876
 30
0.0
 10
16.015221869
 20
11.9201888924
 30
0.0
  0
SPLINE
  5
38D
100
AcDbEntity
  8
0
100
AcDbSpline
 62
7
  6
CONTINUOUS
 70
0
 71
3
 72
11
 73
7
 74
0
 42
0.0000001
 43
0.0000001
 44
0.0000000001
 40
0.0
 40
0.0
 40
0.0
 40
0.0
 40
0.2411990649
 40
0.486073566
 40
0.7380306307
 40
1.0
 40
1.0
 40
1.0
 40
1.0
 10
14.292781894
 20
12.2201808934
 30
0.0
 10
14.2975133347
 20
12.2354906587
 30
0.0
 10
14.3094277349
 20
12.2656625859
 30
0.0
 10
14.334161771
 20
12.308195981
 30
0.0
 10
14.3655777345
 20
12.3478241582
 30
0.0
 10
14.3902536895
 20
12.3715793468
 30
0.0
 10
14.4034918225
 20
12.3828777815
 30
0.0
  0
SPLINE
  5
38E
100
AcDbEntity
  8
0
100
AcDbSpline
 62
7
  6
CONTINUOUS
 70
0
 71
3
 72
39
 73
35
 74
0
 42
0.0000001
 43
0.0000001
 44
0.0000000001
 40
0.0
 40
0.0
 40
0.0
 40
0.0
 40
0.0216987746
 40
0.0436792873
 40
0.0662015344
 40
0.0894993466
 40
0.1137637557
 40
0.139140921
 40
0.1657313909
 40
0.1935923292
 40
0.222741095
 40
0.2531599567
 40
0.284800802
 40
0.3175890578
 40
0.3514275459
 40
0.3862004185
 40
0.4217762032
 40
0.4580105108
 40
0.4947490986
 40
0.5318304339
 40
0.5690879838
 40
0.6063527565
 40
0.6434557378
 40
0.6802300812
 40
0.7165136478
 40
0.7521515485
 40
0.7869985263
 40
0.8209217205
 40
0.8538037735
 40
0.8855461918
 40
0.9160720908
 40
0.945329446
 40
0.9733029829
 40
1.0
 40
1.0
 40
1.0
 40
1.0
 10
16.4961010945
 20
11.4548650079
 30
0.0
 10
16.4896552984
 20
11.4340064042
 30
0.0
 10
16.4736161282
 20
11.3928984089
 30
0.0
 10
16.4407303108
 20
11.3347371262
 30
0.0
 10
16.3992450061
 20
11.2803286837
 30
0.0
 10
16.3495328158
 20
11.2300674544
 30
0.0
 10
16.2919934332
 20
11.1842641132
 30
0.0
 10
16.2270597433
 20
11.1431872579
 30
0.0
 10
16.1551895974
 20
11.1070687091
 30
0.0
 10
16.0768709165
 20
11.076113464
 30
0.0
 10
15.9926266413
 20
11.0504969041
 30
0.0
 10
15.9030146044
 20
11.0303670513
 30
0.0
 10
15.8086272639
 20
11.0158433882
 30
0.0
 10
15.7100904306
 20
11.0070125397
 30
0.0
 10
15.6080597693
 20
11.0039250545
 30
0.0
 10
15.5032162139
 20
11.0065969327
 30
0.0
 10
15.3962617643
 20
11.0150082297
 30
0.0
 10
15.2879143809
 20
11.029099383
 30
0.0
 10
15.1789027459
 20
11.0487735978
 30
0.0
 10
15.0699612542
 20
11.0738981436
 30
0.0
 10
14.9618246598
 20
11.1043035679
 30
0.0
 10
14.8552222444
 20
11.1397834529
 30
0.0
 10
14.7508732829
 20
11.1800985942
 30
0.0
 10
14.649482174
 20
11.2249786154
 30
0.0
 10
14.5517322689
 20
11.2741212843
 30
0.0
 10
14.458281575
 20
11.3271966172
 30
0.0
 10
14.3697590291
 20
11.3838506086
 30
0.0
 10
14.2867598687
 20
11.443707107
 30
0.0
 10
14.2098398274
 20
11.5063690213
 30
0.0
 10
14.1395144516
 20
11.5714255967
 30
0.0
 10
14.0762583424
 20
11.6384529335
 30
0.0
 10
14.0204912334
 20
11.7070223388
 30
0.0
 10
13.9726053194
 20
11.7766878959
 30
0.0
 10
13.9455305221
 20
11.824678117
 30
0.0
 10
13.9335153257
 20
11.8487017443
 30
0.0
  0
SPLINE
  5
38F
100
AcDbEntity
  8
0
100
AcDbSpline
 62
7
  6
CONTINUOUS
 70
0
 71
3
 72
15
 73
11
 74
0
 42
0.0000001
 43
0.0000001
 44
0.0000000001
 40
0.0
 40
0.0
 40
0.0
 40
0.0
 40
0.1375742675
 40
0.2705476194
 40
0.3992641013
 40
0.5242397364
 40
0.6460738039
 40
0.7654547629
 40
0.883160255
 40
1.0
 40
1.0
 40
1.0
 40
1.0
 10
13.9308318746
 20
11.8541180965
 30
0.0
 10
13.9223310993
 20
11.8714408553
 30
0.0
 10
13.9068437951
 20
11.906131129
 30
0.0
 10
13.8881191779
 20
11.9589729528
 30
0.0
 10
13.8744009407
 20
12.011515949
 30
0.0
 10
13.8657639542
 20
12.0635521447
 30
0.0
 10
13.8622589459
 20
12.1148777803
 30
0.0
 10
13.8639248345
 20
12.1652831555
 30
0.0
 10
13.8707690215
 20
12.2145406731
 30
0.0
 10
13.8787837323
 20
12.2465246761
 30
0.0
 10
13.8836222235
 20
12.2621820392
 30
0.0
  0
SPLINE
  5
390
100
AcDbEntity
  8
0
100
AcDbSpline
 62
7
  6
CONTINUOUS
 70
0
 71
3
 72
13
 73
9
 74
0
 42
0.0000001
 43
0.0000001
 44
0.0000000001
 40
0.0
 40
0.0
 40
0.0
 40
0.0
 40
0.2714076005
 40
0.5251927615
 40
0.6469448756
 40
0.766118399
 40
0.8835128943
 40
1.0
 40
1.0
 40
1.0
 40
1.0
 10
16.0196089767
 20
11.9356016675
 30
0.0
 10
16.0302218996
 20
11.9139748045
 30
0.0
 10
16.0478288979
 20
11.8705767131
 30
0.0
 10
16.0601494306
 20
11.8141384593
 30
0.0
 10
16.0631471081
 20
11.7702643587
 30
0.0
 10
16.062101037
 20
11.7384180588
 30
0.0
 10
16.0577837379
 20
11.7073224875
 30
0.0
 10
16.0527259886
 20
11.6871390489
 30
0.0
 10
16.0496735153
 20
11.6772603195
 30
0.0
  0
SPLINE
  5
391
100
AcDbEntity
  8
0
100
AcDbSpline
 62
7
  6
CONTINUOUS
 70
0
 71
3
 72
11
 73
7
 74
0
 42
0.0000001
 43
0.0000001
 44
0.0000000001
 40
0.0
 40
0.0
 40
0.0
 40
0.0
 40
0.2622417822
 40
0.5142303875
 40
0.7589852619
 40
1.0
 40
1.0
 40
1.0
 40
1.0
 10
16.134336813
 20
11.8500815191
 30
0.0
 10
16.1390425697
 20
11.8330939257
 30
0.0
 10
16.1462722675
 20
11.7991783877
 30
0.0
 10
16.1500951341
 20
11.7481399655
 30
0.0
 10
16.1465986805
 20
11.6984964378
 30
0.0
 10
16.1393628081
 20
11.6665006196
 30
0.0
 10
16.13457932
 20
11.6510224416
 30
0.0
  0
SPLINE
  5
392
100
AcDbEntity
  8
0
100
AcDbSpline
 62
7
  6
CONTINUOUS
 70
0
 71
3
 72
12
 73
8
 74
0
 42
0.0000001
 43
0.0000001
 44
0.0000000001
 40
0.0
 40
0.0
 40
0.0
 40
0.0
 40
0.2633238538
 40
0.5154972939
 40
0.7597232578
 40
0.8801236926
 40
1.0
 40
1.0
 40
1.0
 40
1.0
 10
15.9922690259
 20
11.4911806032
 30
0.0
 10
16.0065176493
 20
11.5025784548
 30
0.0
 10
16.0330648216
 20
11.5266662349
 30
0.0
 10
16.0668258671
 20
11.567287185
 30
0.0
 10
16.0889480437
 20
11.6040826671
 30
0.0
 10
16.1026763195
 20
11.634751706
 30
0.0
 10
16.1082411802
 20
11.6504673807
 30
0.0
 10
16.1106937868
 20
11.6584036296
 30
0.0
  0
SPLINE
  5
393
100
AcDbEntity
  8
0
100
AcDbSpline
 62
7
  6
CONTINUOUS
 70
0
 71
3
 72
9
 73
5
 74
0
 42
0.0000001
 43
0.0000001
 44
0.0000000001
 40
0.0
 40
0.0
 40
0.0
 40
0.0
 40
0.2513409173
 40
1.0
 40
1.0
 40
1.0
 40
1.0
 10
14.7908387679
 20
13.1593972177
 30
0.0
 10
14.7893804563
 20
13.1585249908
 30
0.0
 10
14.7836097775
 20
13.155002176
 30
0.0
 10
14.777959413
 20
13.1512839469
 30
0.0
 10
14.7737886357
 20
13.1484163185
 30
0.0
  0
SPLINE
  5
394
100
AcDbEntity
  8
0
100
AcDbSpline
 62
7
  6
CONTINUOUS
 70
0
 71
3
 72
9
 73
5
 74
0
 42
0.0000001
 43
0.0000001
 44
0.0000000001
 40
0.0
 40
0.0
 40
0.0
 40
0.0
 40
0.4724123846
 40
1.0
 40
1.0
 40
1.0
 40
1.0
 10
14.7737886357
 20
13.1484163185
 30
0.0
 10
14.7707365624
 20
13.1428332799
 30
0.0
 10
14.7648218803
 20
13.1307056254
 30
0.0
 10
14.7602306463
 20
13.1180127783
 30
0.0
 10
14.7581326295
 20
13.1112235934
 30
0.0
  0
SPLINE
  5
395
100
AcDbEntity
  8
0
100
AcDbSpline
 62
7
  6
CONTINUOUS
 70
0
 71
3
 72
9
 73
5
 74
0
 42
0.0000001
 43
0.0000001
 44
0.0000000001
 40
0.0
 40
0.0
 40
0.0
 40
0.0
 40
0.519637823
 40
1.0
 40
1.0
 40
1.0
 40
1.0
 10
14.9464825061
 20
13.1484163185
 30
0.0
 10
14.9399233169
 20
13.1533150513
 30
0.0
 10
14.9271442654
 20
13.1625364474
 30
0.0
 10
14.9138554913
 20
13.1710286852
 30
0.0
 10
14.907305792
 20
13.1748199469
 30
0.0
  0
SPLINE
  5
396
100
AcDbEntity
  8
0
100
AcDbSpline
 62
7
  6
CONTINUOUS
 70
0
 71
3
 72
9
 73
5
 74
0
 42
0.0000001
 43
0.0000001
 44
0.0000000001
 40
0.0
 40
0.0
 40
0.0
 40
0.0
 40
0.2489585948
 40
1.0
 40
1.0
 40
1.0
 40
1.0
 10
14.8732374106
 20
13.1908138875
 30
0.0
 10
14.8706112744
 20
13.1902603071
 30
0.0
 10
14.8600861126
 20
13.1879304637
 30
0.0
 10
14.8496647514
 20
13.1851083366
 30
0.0
 10
14.8419567673
 20
13.1826305318
 30
0.0
  0
SPLINE
  5
397
100
AcDbEntity
  8
0
100
AcDbSpline
 62
7
  6
CONTINUOUS
 70
0
 71
3
 72
9
 73
5
 74
0
 42
0.0000001
 43
0.0000001
 44
0.0000000001
 40
0.0
 40
0.0
 40
0.0
 40
0.0
 40
0.5336928756
 40
1.0
 40
1.0
 40
1.0
 40
1.0
 10
14.907305792
 20
13.1748199469
 30
0.0
 10
14.9015052135
 20
13.1781775837
 30
0.0
 10
14.8903782075
 20
13.1840434564
 30
0.0
 10
14.8787462685
 20
13.1888275675
 30
0.0
 10
14.8732374106
 20
13.1908138875
 30
0.0
  0
SPLINE
  5
398
100
AcDbEntity
  8
0
100
AcDbSpline
 62
7
  6
CONTINUOUS
 70
0
 71
3
 72
9
 73
5
 74
0
 42
0.0000001
 43
0.0000001
 44
0.0000000001
 40
0.0
 40
0.0
 40
0.0
 40
0.0
 40
0.4835518535
 40
1.0
 40
1.0
 40
1.0
 40
1.0
 10
14.7581326295
 20
13.1112235934
 30
0.0
 10
14.7558109045
 20
13.1037104885
 30
0.0
 10
14.7518100654
 20
13.0879235302
 30
0.0
 10
14.7489115665
 20
13.0719143753
 30
0.0
 10
14.7475849561
 20
13.0636211806
 30
0.0
  0
SPLINE
  5
399
100
AcDbEntity
  8
0
100
AcDbSpline
 62
7
  6
CONTINUOUS
 70
0
 71
3
 72
10
 73
6
 74
0
 42
0.0000001
 43
0.0000001
 44
0.0000000001
 40
0.0
 40
0.0
 40
0.0
 40
0.0
 40
0.211310847
 40
0.4590421321
 40
1.0
 40
1.0
 40
1.0
 40
1.0
 10
14.8740922013
 20
13.3568277467
 30
0.0
 10
14.8742407079
 20
13.3573083145
 30
0.0
 10
14.8744973695
 20
13.3583729124
 30
0.0
 10
14.8748473907
 20
13.3607290476
 30
0.0
 10
14.8749002873
 20
13.3626157231
 30
0.0
 10
14.8748426265
 20
13.3639020927
 30
0.0
  0
SPLINE
  5
39A
100
AcDbEntity
  8
0
100
AcDbSpline
 62
7
  6
CONTINUOUS
 70
0
 71
3
 72
11
 73
7
 74
0
 42
0.0000001
 43
0.0000001
 44
0.0000000001
 40
0.0
 40
0.0
 40
0.0
 40
0.0
 40
0.2714638212
 40
0.5255555234
 40
0.7663247913
 40
1.0
 40
1.0
 40
1.0
 40
1.0
 10
16.2489490858
 20
13.2375446888
 30
0.0
 10
16.2506539799
 20
13.23407048
 30
0.0
 10
16.2534815221
 20
13.2270932661
 30
0.0
 10
16.2558292654
 20
13.216363201
 30
0.0
 10
16.2560561359
 20
13.2059107186
 30
0.0
 10
16.2547638316
 20
13.1992084997
 30
0.0
 10
16.2537799513
 20
13.1960258355
 30
0.0
  0
SPLINE
  5
39B
100
AcDbEntity
  8
0
100
AcDbSpline
 62
7
  6
CONTINUOUS
 70
0
 71
3
 72
11
 73
7
 74
0
 42
0.0000001
 43
0.0000001
 44
0.0000000001
 40
0.0
 40
0.0
 40
0.0
 40
0.0
 40
0.2715597392
 40
0.5255414109
 40
0.7663002031
 40
1.0
 40
1.0
 40
1.0
 40
1.0
 10
17.2295602354
 20
12.0300260813
 30
0.0
 10
17.2335307003
 20
12.0219351244
 30
0.0
 10
17.240117375
 20
12.0056937423
 30
0.0
 10
17.2455760079
 20
11.9807127622
 30
0.0
 10
17.246104163
 20
11.9563828431
 30
0.0
 10
17.24309899
 20
11.9407785827
 30
0.0
 10
17.2408086889
 20
11.9333682917
 30
0.0
  0
SPLINE
  5
39C
100
AcDbEntity
  8
0
100
AcDbSpline
 62
7
  6
CONTINUOUS
 70
0
 71
3
 72
18
 73
14
 74
0
 42
0.0000001
 43
0.0000001
 44
0.0000000001
 40
0.0
 40
0.0
 40
0.0
 40
0.0
 40
0.1296325862
 40
0.2644628696
 40
0.4011310837
 40
0.5361104068
 40
0.6660147321
 40
0.72814723
 40
0.7879514142
 40
0.8451733637
 40
0.899633145
 40
0.9512519236
 40
1.0
 40
1.0
 40
1.0
 40
1.0
 10
16.1032301897
 20
13.7107790848
 30
0.0
 10
16.1235214377
 20
13.7107790848
 30
0.0
 10
16.1649514891
 20
13.707978704
 30
0.0
 10
16.2267876876
 20
13.6963758466
 30
0.0
 10
16.2877498659
 20
13.6776913385
 30
0.0
 10
16.3455320496
 20
13.6526265753
 30
0.0
 10
16.3899058724
 20
13.6268170281
 30
0.0
 10
16.4218680802
 20
13.6036977874
 30
0.0
 10
16.4433952217
 20
13.5856847764
 30
0.0
 10
16.4626272654
 20
13.5669188284
 30
0.0
 10
16.4793822272
 20
13.5475695584
 30
0.0
 10
16.4934930296
 20
13.5278219438
 30
0.0
 10
16.5012692858
 20
13.5141269985
 30
0.0
 10
16.5046308397
 20
13.507276872
 30
0.0
  0
SPLINE
  5
39D
100
AcDbEntity
  8
0
100
AcDbSpline
 62
7
  6
CONTINUOUS
 70
0
 71
3
 72
11
 73
7
 74
0
 42
0.0000001
 43
0.0000001
 44
0.0000000001
 40
0.0
 40
0.0
 40
0.0
 40
0.0
 40
0.2436855219
 40
0.4900337435
 40
0.74137864
 40
1.0
 40
1.0
 40
1.0
 40
1.0
 10
16.3273139333
 20
13.0017523587
 30
0.0
 10
16.3285499373
 20
13.0057520689
 30
0.0
 10
16.3315139334
 20
13.0136558325
 30
0.0
 10
16.3373581545
 20
13.0250027981
 30
0.0
 10
16.3445954341
 20
13.035824979
 30
0.0
 10
16.3502396287
 20
13.042550265
 30
0.0
 10
16.3532636165
 20
13.0458052665
 30
0.0
  0
SPLINE
  5
39E
100
AcDbEntity
  8
0
100
AcDbSpline
 62
7
  6
CONTINUOUS
 70
0
 71
3
 72
11
 73
7
 74
0
 42
0.0000001
 43
0.0000001
 44
0.0000000001
 40
0.0
 40
0.0
 40
0.0
 40
0.0
 40
0.2714638212
 40
0.5255555234
 40
0.7663247913
 40
1.0
 40
1.0
 40
1.0
 40
1.0
 10
14.0614292251
 20
13.2375446888
 30
0.0
 10
14.0631341191
 20
13.23407048
 30
0.0
 10
14.0659616613
 20
13.2270932661
 30
0.0
 10
14.0683094047
 20
13.216363201
 30
0.0
 10
14.0685362751
 20
13.2059107186
 30
0.0
 10
14.0672439708
 20
13.1992084997
 30
0.0
 10
14.0662600905
 20
13.1960258355
 30
0.0
  0
SPLINE
  5
39F
100
AcDbEntity
  8
0
100
AcDbSpline
 62
7
  6
CONTINUOUS
 70
0
 71
3
 72
22
 73
18
 74
0
 42
0.0000001
 43
0.0000001
 44
0.0000000001
 40
0.0
 40
0.0
 40
0.0
 40
0.0
 40
0.0445496171
 40
0.0901124575
 40
0.1376103936
 40
0.1877729523
 40
0.2411105071
 40
0.2978995872
 40
0.3582006762
 40
0.4218893991
 40
0.4886871262
 40
0.558189898
 40
0.6298967045
 40
0.7032352497
 40
0.7775818884
 40
0.8522748381
 40
1.0
 40
1.0
 40
1.0
 40
1.0
 10
17.1591115536
 20
11.6689953827
 30
0.0
 10
17.156892805
 20
11.6618155094
 30
0.0
 10
17.1509039687
 20
11.6477119498
 30
0.0
 10
17.1377217538
 20
11.6284414625
 30
0.0
 10
17.1205917398
 20
11.6112303372
 30
0.0
 10
17.0998411563
 20
11.5962886675
 30
0.0
 10
17.0757955389
 20
11.5837485921
 30
0.0
 10
17.0487845777
 20
11.5737158776
 30
0.0
 10
17.0191557178
 20
11.5662761656
 30
0.0
 10
16.9872835788
 20
11.5614972695
 30
0.0
 10
16.9535728487
 20
11.5594244867
 30
0.0
 10
16.9184564992
 20
11.5600740315
 30
0.0
 10
16.8823896114
 20
11.5634311722
 30
0.0
 10
16.8458448273
 20
11.5694486664
 30
0.0
 10
16.8092997313
 20
11.5780471683
 30
0.0
 10
16.7614198166
 20
11.5927364262
 30
0.0
 10
16.7266726199
 20
11.6072900458
 30
0.0
 10
16.7044271031
 20
11.6185194327
 30
0.0
  0
LINE
  5
3A0
100
AcDbEntity
  8
0
100
AcDbLine
 62
7
  6
CONTINUOUS
 10
16.7044271031
 20
11.6185194327
 11
16.703619298
 21
11.61892809
  0
SPLINE
  5
3A1
100
AcDbEntity
  8
0
100
AcDbSpline
 62
7
  6
CONTINUOUS
 70
0
 71
3
 72
24
 73
20
 74
0
 42
0.0000001
 43
0.0000001
 44
0.0000000001
 40
0.0
 40
0.0
 40
0.0
 40
0.0
 40
0.0214630533
 40
0.0432217971
 40
0.088604363
 40
0.1380008671
 40
0.1923911103
 40
0.2520421982
 40
0.3166560612
 40
0.3855150687
 40
0.457601792
 40
0.5316990126
 40
0.6064759903
 40
0.680563487
 40
0.7526289557
 40
0.8214604852
 40
0.8860340654
 40
0.9456590051
 40
1.0
 40
1.0
 40
1.0
 40
1.0
 10
16.7095442491
 20
11.8027398674
 30
0.0
 10
16.7102008095
 20
11.8048637145
 30
0.0
 10
16.7118359493
 20
11.8090511649
 30
0.0
 10
16.7163716443
 20
11.8170593167
 30
0.0
 10
16.7244785883
 20
11.8262037547
 30
0.0
 10
16.7372688007
 20
11.8350745172
 30
0.0
 10
16.7528684596
 20
11.8418736639
 30
0.0
 10
16.7708616345
 20
11.8464666338
 30
0.0
 10
16.7907848634
 20
11.848761637
 30
0.0
 10
16.8121187974
 20
11.8487062485
 30
0.0
 10
16.8343000236
 20
11.846305319
 30
0.0
 10
16.8567376922
 20
11.8416240809
 30
0.0
 10
16.8788313468
 20
11.8347878194
 30
0.0
 10
16.8999887169
 20
11.8259798475
 30
0.0
 10
16.9196437731
 20
11.8154351622
 30
0.0
 10
16.9372704437
 20
11.8034341457
 30
0.0
 10
16.9524075234
 20
11.7902904921
 30
0.0
 10
16.9646442415
 20
11.7763458413
 30
0.0
 10
16.970944005
 20
11.7662737327
 30
0.0
 10
16.9734235191
 20
11.7612210142
 30
0.0
  0
SPLINE
  5
3A2
100
AcDbEntity
  8
0
100
AcDbSpline
 62
7
  6
CONTINUOUS
 70
0
 71
3
 72
11
 73
7
 74
0
 42
0.0000001
 43
0.0000001
 44
0.0000000001
 40
0.0
 40
0.0
 40
0.0
 40
0.0
 40
0.2714638212
 40
0.5255555234
 40
0.7663247913
 40
1.0
 40
1.0
 40
1.0
 40
1.0
 10
16.9734235191
 20
11.7612210142
 30
0.0
 10
16.9751284132
 20
11.7577468053
 30
0.0
 10
16.9779559553
 20
11.7507695915
 30
0.0
 10
16.9803036987
 20
11.7400395264
 30
0.0
 10
16.9805305691
 20
11.729587044
 30
0.0
 10
16.9792382648
 20
11.722884825
 30
0.0
 10
16.9782543845
 20
11.7197021609
 30
0.0
  0
SPLINE
  5
3A3
100
AcDbEntity
  8
0
100
AcDbSpline
 62
7
  6
CONTINUOUS
 70
0
 71
3
 72
17
 73
13
 74
0
 42
0.0000001
 43
0.0000001
 44
0.0000000001
 40
0.0
 40
0.0
 40
0.0
 40
0.0
 40
0.0496761484
 40
0.0998072904
 40
0.1508303056
 40
0.2031415334
 40
0.3128338176
 40
0.4310931029
 40
0.5590228053
 40
0.6968608288
 40
0.8441957182
 40
1.0
 40
1.0
 40
1.0
 40
1.0
 10
13.701416248
 20
13.6039346616
 30
0.0
 10
13.7026580175
 20
13.6079524189
 30
0.0
 10
13.7056321922
 20
13.6158852324
 30
0.0
 10
13.7114883434
 20
13.6272616694
 30
0.0
 10
13.7187229672
 20
13.6380857573
 30
0.0
 10
13.7303282474
 20
13.6519284809
 30
0.0
 10
13.7483455739
 20
13.6676149951
 30
0.0
 10
13.774329163
 20
13.6831161709
 30
0.0
 10
13.8045437931
 20
13.6954018619
 30
0.0
 10
13.8384535117
 20
13.7042908473
 30
0.0
 10
13.8754654158
 20
13.7096464989
 30
0.0
 10
13.9011471537
 20
13.7107790848
 30
0.0
 10
13.914336589
 20
13.7107790848
 30
0.0
  0
SPLINE
  5
3A4
100
AcDbEntity
  8
0
100
AcDbSpline
 62
7
  6
CONTINUOUS
 70
0
 71
3
 72
18
 73
14
 74
0
 42
0.0000001
 43
0.0000001
 44
0.0000000001
 40
0.0
 40
0.0
 40
0.0
 40
0.0
 40
0.155663834
 40
0.304163314
 40
0.443630063
 40
0.5728658945
 40
0.6335657463
 40
0.691689893
 40
0.800715836
 40
0.8523164849
 40
0.902414217
 40
0.9514710393
 40
1.0
 40
1.0
 40
1.0
 40
1.0
 10
13.7897963016
 20
13.0961788806
 30
0.0
 10
13.7749822505
 20
13.1036893124
 30
0.0
 10
13.7467105467
 20
13.1197542717
 30
0.0
 10
13.7081442397
 20
13.1473600167
 30
0.0
 10
13.6751322626
 20
13.1773873976
 30
0.0
 10
13.6524592937
 20
13.2044288716
 30
0.0
 10
13.6380557995
 20
13.2266738227
 30
0.0
 10
13.6266849602
 20
13.2481833795
 30
0.0
 10
13.6187512812
 20
13.2703604219
 30
0.0
 10
13.6150248488
 20
13.2925822159
 30
0.0
 10
13.6143599156
 20
13.3087005165
 30
0.0
 10
13.6158105386
 20
13.3244371969
 30
0.0
 10
13.6181898322
 20
13.3346147636
 30
0.0
 10
13.619718615
 20
13.3395619067
 30
0.0
  0
SPLINE
  5
3A5
100
AcDbEntity
  8
0
100
AcDbSpline
 62
7
  6
CONTINUOUS
 70
0
 71
3
 72
13
 73
9
 74
0
 42
0.0000001
 43
0.0000001
 44
0.0000000001
 40
0.0
 40
0.0
 40
0.0
 40
0.0
 40
0.2823142366
 40
0.4169723427
 40
0.5462643661
 40
0.669583496
 40
0.7864861519
 40
1.0
 40
1.0
 40
1.0
 40
1.0
 10
13.8860513441
 20
13.0473787783
 30
0.0
 10
13.9052109767
 20
13.0376288653
 30
0.0
 10
13.932718194
 20
13.0215414634
 30
0.0
 10
13.966327376
 20
12.9969869273
 30
0.0
 10
13.9888435261
 20
12.9779007821
 30
0.0
 10
14.0088394844
 20
12.9580495207
 30
0.0
 10
14.0311746039
 20
12.9316676188
 30
0.0
 10
14.0447402908
 20
12.910170086
 30
0.0
 10
14.0515894865
 20
12.895424447
 30
0.0
  0
SPLINE
  5
3A6
100
AcDbEntity
  8
0
100
AcDbSpline
 62
7
  6
CONTINUOUS
 70
0
 71
3
 72
9
 73
5
 74
0
 42
0.0000001
 43
0.0000001
 44
0.0000000001
 40
0.0
 40
0.0
 40
0.0
 40
0.0
 40
0.258776301
 40
1.0
 40
1.0
 40
1.0
 40
1.0
 10
14.0515894865
 20
12.895424447
 30
0.0
 10
14.0527515833
 20
12.8929225679
 30
0.0
 10
14.0570288425
 20
12.8831580425
 30
0.0
 10
14.0604171983
 20
12.8729939832
 30
0.0
 10
14.0622976917
 20
12.8653194446
 30
0.0
  0
SPLINE
  5
3A7
100
AcDbEntity
  8
0
100
AcDbSpline
 62
7
  6
CONTINUOUS
 70
0
 71
3
 72
9
 73
5
 74
0
 42
0.0000001
 43
0.0000001
 44
0.0000000001
 40
0.0
 40
0.0
 40
0.0
 40
0.0
 40
0.2536666041
 40
1.0
 40
1.0
 40
1.0
 40
1.0
 10
14.0622976917
 20
12.8653194446
 30
0.0
 10
14.0625887554
 20
12.864131576
 30
0.0
 10
14.0636770229
 20
12.8594345532
 30
0.0
 10
14.0645245548
 20
12.8546812058
 30
0.0
 10
14.0650087545
 20
12.8511156182
 30
0.0
  0
SPLINE
  5
3A8
100
AcDbEntity
  8
0
100
AcDbSpline
 62
7
  6
CONTINUOUS
 70
0
 71
3
 72
24
 73
20
 74
0
 42
0.0000001
 43
0.0000001
 44
0.0000000001
 40
0.0
 40
0.0
 40
0.0
 40
0.0
 40
0.0214630533
 40
0.0432217971
 40
0.088604363
 40
0.1380008671
 40
0.1923911103
 40
0.2520421982
 40
0.3166560612
 40
0.3855150687
 40
0.457601792
 40
0.5316990126
 40
0.6064759903
 40
0.680563487
 40
0.7526289557
 40
0.8214604852
 40
0.8860340654
 40
0.9456590051
 40
1.0
 40
1.0
 40
1.0
 40
1.0
 10
13.7975499551
 20
13.2790635421
 30
0.0
 10
13.7982065155
 20
13.2811873891
 30
0.0
 10
13.7998416552
 20
13.2853748396
 30
0.0
 10
13.8043773503
 20
13.2933829914
 30
0.0
 10
13.8124842943
 20
13.3025274293
 30
0.0
 10
13.8252745067
 20
13.3113981918
 30
0.0
 10
13.8408741656
 20
13.3181973385
 30
0.0
 10
13.8588673405
 20
13.3227903085
 30
0.0
 10
13.8787905694
 20
13.3250853117
 30
0.0
 10
13.9001245034
 20
13.3250299231
 30
0.0
 10
13.9223057296
 20
13.3226289937
 30
0.0
 10
13.9447433982
 20
13.3179477556
 30
0.0
 10
13.9668370527
 20
13.3111114941
 30
0.0
 10
13.9879944229
 20
13.3023035221
 30
0.0
 10
14.0076494791
 20
13.2917588368
 30
0.0
 10
14.0252761497
 20
13.2797578203
 30
0.0
 10
14.0404132294
 20
13.2666141667
 30
0.0
 10
14.0526499475
 20
13.252669516
 30
0.0
 10
14.058949711
 20
13.2425974073
 30
0.0
 10
14.0614292251
 20
13.2375446888
 30
0.0
  0
SPLINE
  5
3A9
100
AcDbEntity
  8
0
100
AcDbSpline
 62
7
  6
CONTINUOUS
 70
0
 71
3
 72
24
 73
20
 74
0
 42
0.0000001
 43
0.0000001
 44
0.0000000001
 40
0.0
 40
0.0
 40
0.0
 40
0.0
 40
0.0214630533
 40
0.0432217971
 40
0.088604363
 40
0.1380008671
 40
0.1923911103
 40
0.2520421982
 40
0.3166560612
 40
0.3855150687
 40
0.457601792
 40
0.5316990126
 40
0.6064759903
 40
0.680563487
 40
0.7526289557
 40
0.8214604852
 40
0.8860340654
 40
0.9456590051
 40
1.0
 40
1.0
 40
1.0
 40
1.0
 10
15.9850698158
 20
13.2790635421
 30
0.0
 10
15.9857263762
 20
13.2811873891
 30
0.0
 10
15.987361516
 20
13.2853748396
 30
0.0
 10
15.991897211
 20
13.2933829914
 30
0.0
 10
16.000004155
 20
13.3025274293
 30
0.0
 10
16.0127943674
 20
13.3113981918
 30
0.0
 10
16.0283940264
 20
13.3181973385
 30
0.0
 10
16.0463872013
 20
13.3227903085
 30
0.0
 10
16.0663104302
 20
13.3250853117
 30
0.0
 10
16.0876443642
 20
13.3250299231
 30
0.0
 10
16.1098255904
 20
13.3226289937
 30
0.0
 10
16.132263259
 20
13.3179477556
 30
0.0
 10
16.1543569135
 20
13.3111114941
 30
0.0
 10
16.1755142836
 20
13.3023035221
 30
0.0
 10
16.1951693399
 20
13.2917588368
 30
0.0
 10
16.2127960105
 20
13.2797578203
 30
0.0
 10
16.2279330902
 20
13.2666141667
 30
0.0
 10
16.2401698082
 20
13.252669516
 30
0.0
 10
16.2464695717
 20
13.2425974073
 30
0.0
 10
16.2489490858
 20
13.2375446888
 30
0.0
  0
SPLINE
  5
3AA
100
AcDbEntity
  8
0
100
AcDbSpline
 62
7
  6
CONTINUOUS
 70
0
 71
3
 72
9
 73
5
 74
0
 42
0.0000001
 43
0.0000001
 44
0.0000000001
 40
0.0
 40
0.0
 40
0.0
 40
0.0
 40
0.4914996038
 40
1.0
 40
1.0
 40
1.0
 40
1.0
 10
16.4316996777
 20
13.1390849765
 30
0.0
 10
16.428742827
 20
13.131407
 30
0.0
 10
16.4209650906
 20
13.1164151494
 30
0.0
 10
16.4102427993
 20
13.1034001862
 30
0.0
 10
16.4042509843
 20
13.0973539909
 30
0.0
  0
SPLINE
  5
3AB
100
AcDbEntity
  8
0
100
AcDbSpline
 62
7
  6
CONTINUOUS
 70
0
 71
3
 72
14
 73
10
 74
0
 42
0.0000001
 43
0.0000001
 44
0.0000000001
 40
0.0
 40
0.0
 40
0.0
 40
0.0
 40
0.25025815
 40
0.3765897384
 40
0.5026855001
 40
0.6280737792
 40
0.7525937759
 40
0.8764819578
 40
1.0
 40
1.0
 40
1.0
 40
1.0
 10
14.8211197462
 20
13.1217201852
 30
0.0
 10
14.8255631643
 20
13.1217201852
 30
0.0
 10
14.832314864
 20
13.1229787457
 30
0.0
 10
14.8404218698
 20
13.1267743931
 30
0.0
 10
14.8459646741
 20
13.1306157868
 30
0.0
 10
14.8507373784
 20
13.1353325728
 30
0.0
 10
14.8545574855
 20
13.1408083569
 30
0.0
 10
14.857241397
 20
13.1468874565
 30
0.0
 10
14.8581657984
 20
13.1512214883
 30
0.0
 10
14.8583900492
 20
13.1534030976
 30
0.0
  0
SPLINE
  5
3AC
100
AcDbEntity
  8
0
100
AcDbSpline
 62
7
  6
CONTINUOUS
 70
0
 71
3
 72
15
 73
11
 74
0
 42
0.0000001
 43
0.0000001
 44
0.0000000001
 40
0.0
 40
0.0
 40
0.0
 40
0.0
 40
0.1247538658
 40
0.2495403108
 40
0.3743451459
 40
0.4991707303
 40
0.6240320735
 40
0.7489476448
 40
0.8742110056
 40
1.0
 40
1.0
 40
1.0
 40
1.0
 10
14.8583900492
 20
13.1534030976
 30
0.0
 10
14.8586078489
 20
13.1555219484
 30
0.0
 10
14.8585980245
 20
13.1598206352
 30
0.0
 10
14.8571983348
 20
13.1661073803
 30
0.0
 10
14.8544548261
 20
13.1719401923
 30
0.0
 10
14.8504989138
 20
13.1770287357
 30
0.0
 10
14.8455409625
 20
13.1811468669
 30
0.0
 10
14.8398240813
 20
13.1841328077
 30
0.0
 10
14.8336168898
 20
13.1859174324
 30
0.0
 10
14.8293190932
 20
13.1863033579
 30
0.0
 10
14.8271714043
 20
13.1863033579
 30
0.0
  0
SPLINE
  5
3AD
100
AcDbEntity
  8
0
100
AcDbSpline
 62
7
  6
CONTINUOUS
 70
0
 71
3
 72
9
 73
5
 74
0
 42
0.0000001
 43
0.0000001
 44
0.0000000001
 40
0.0
 40
0.0
 40
0.0
 40
0.0
 40
0.2488249559
 40
1.0
 40
1.0
 40
1.0
 40
1.0
 10
14.8271714043
 20
13.1863033579
 30
0.0
 10
14.8263294603
 20
13.1863033579
 30
0.0
 10
14.8229465646
 20
13.1861839061
 30
0.0
 10
14.8195823012
 20
13.1855984299
 30
0.0
 10
14.8171325392
 20
13.1849208699
 30
0.0
  0
SPLINE
  5
3AE
100
AcDbEntity
  8
0
100
AcDbSpline
 62
7
  6
CONTINUOUS
 70
0
 71
3
 72
15
 73
11
 74
0
 42
0.0000001
 43
0.0000001
 44
0.0000000001
 40
0.0
 40
0.0
 40
0.0
 40
0.0
 40
0.126986131
 40
0.2536854268
 40
0.3792727683
 40
0.5038301726
 40
0.6278916208
 40
0.751892954
 40
0.8759180501
 40
1.0
 40
1.0
 40
1.0
 40
1.0
 10
14.8171325392
 20
13.1849208699
 30
0.0
 10
14.8141034387
 20
13.1840830754
 30
0.0
 10
14.8082323816
 20
13.1816672255
 30
0.0
 10
14.8005604834
 20
13.1761117209
 30
0.0
 10
14.7944981107
 20
13.1688893844
 30
0.0
 10
14.7905769595
 20
13.1603663031
 30
0.0
 10
14.7892633706
 20
13.1510966939
 30
0.0
 10
14.7908373116
 20
13.1418654024
 30
0.0
 10
14.7952203535
 20
13.133592771
 30
0.0
 10
14.7997363603
 20
13.129259264
 30
0.0
 10
14.8022493443
 20
13.1274941479
 30
0.0
  0
SPLINE
  5
3AF
100
AcDbEntity
  8
0
100
AcDbSpline
 62
7
  6
CONTINUOUS
 70
0
 71
3
 72
9
 73
5
 74
0
 42
0.0000001
 43
0.0000001
 44
0.0000000001
 40
0.0
 40
0.0
 40
0.0
 40
0.0
 40
0.4985843776
 40
1.0
 40
1.0
 40
1.0
 40
1.0
 10
14.8022493443
 20
13.1274941479
 30
0.0
 10
14.8049649596
 20
13.125586704
 30
0.0
 10
14.8110853063
 20
13.1226523463
 30
0.0
 10
14.8177823313
 20
13.1217201852
 30
0.0
 10
14.8211197462
 20
13.1217201852
 30
0.0
  0
SPLINE
  5
3B0
100
AcDbEntity
  8
0
100
AcDbSpline
 62
7
  6
CONTINUOUS
 70
0
 71
3
 72
13
 73
9
 74
0
 42
0.0000001
 43
0.0000001
 44
0.0000000001
 40
0.0
 40
0.0
 40
0.0
 40
0.0
 40
0.1199366274
 40
0.240388951
 40
0.3618573748
 40
0.4848256429
 40
0.7369148755
 40
1.0
 40
1.0
 40
1.0
 40
1.0
 10
14.3166674272
 20
12.2127997054
 30
0.0
 10
14.314237716
 20
12.2049375427
 30
0.0
 10
14.3100000005
 20
12.1889760793
 30
0.0
 10
14.3055615286
 20
12.1645233812
 30
0.0
 10
14.3030424805
 20
12.1395881284
 30
0.0
 10
14.3022461964
 20
12.1055007389
 30
0.0
 10
14.3062130007
 20
12.0617314162
 30
0.0
 10
14.3143048677
 20
12.027202129
 30
0.0
 10
14.3194988393
 20
12.009914856
 30
0.0
  0
SPLINE
  5
3B1
100
AcDbEntity
  8
0
100
AcDbSpline
 62
7
  6
CONTINUOUS
 70
0
 71
3
 72
22
 73
18
 74
0
 42
0.0000001
 43
0.0000001
 44
0.0000000001
 40
0.0
 40
0.0
 40
0.0
 40
0.0
 40
0.0468607162
 40
0.0943692159
 40
0.1431302664
 40
0.1936706453
 40
0.246418619
 40
0.3016952834
 40
0.3597142261
 40
0.420591985
 40
0.4843560907
 40
0.550955842
 40
0.6202754178
 40
0.6921404866
 40
0.7663290479
 40
0.8425791599
 40
1.0
 40
1.0
 40
1.0
 40
1.0
 10
14.3776876986
 20
12.1939430155
 30
0.0
 10
14.381773613
 20
12.2071662739
 30
0.0
 10
14.3919571152
 20
12.2332341045
 30
0.0
 10
14.4128704254
 20
12.2701242262
 30
0.0
 10
14.4393022525
 20
12.3046607513
 30
0.0
 10
14.4710340993
 20
12.3365987514
 30
0.0
 10
14.5078275578
 20
12.3657346056
 30
0.0
 10
14.5494185336
 20
12.3918823334
 30
0.0
 10
14.5955154568
 20
12.4148831462
 30
0.0
 10
14.645804813
 20
12.434591318
 30
0.0
 10
14.6999460627
 20
12.4508820049
 30
0.0
 10
14.757573104
 20
12.4636535684
 30
0.0
 10
14.8182976547
 20
12.4728202058
 30
0.0
 10
14.8817078255
 20
12.478323879
 30
0.0
 10
14.9473777674
 20
12.480129533
 30
0.0
 10
15.0382994721
 20
12.4775593021
 30
0.0
 10
15.1070677108
 20
12.4700812407
 30
0.0
 10
15.1529929012
 20
12.4628331093
 30
0.0
  0
SPLINE
  5
3B2
100
AcDbEntity
  8
0
100
AcDbSpline
 62
7
  6
CONTINUOUS
 70
0
 71
3
 72
15
 73
11
 74
0
 42
0.0000001
 43
0.0000001
 44
0.0000000001
 40
0.0
 40
0.0
 40
0.0
 40
0.0
 40
0.141994973
 40
0.2807072947
 40
0.4151751925
 40
0.5445476946
 40
0.6681220182
 40
0.7853692242
 40
0.8960099618
 40
1.0
 40
1.0
 40
1.0
 40
1.0
 10
15.5380415052
 20
12.3474272374
 30
0.0
 10
15.5658617137
 20
12.3348286124
 30
0.0
 10
15.6200953478
 20
12.3081890765
 30
0.0
 10
15.6975398921
 20
12.2636077239
 30
0.0
 10
15.7694621293
 20
12.2152726418
 30
0.0
 10
15.835040413
 20
12.1637332064
 30
0.0
 10
15.8935283895
 20
12.1095699719
 30
0.0
 10
15.9442686355
 20
12.0533840713
 30
0.0
 10
15.9866675236
 20
11.9958081968
 30
0.0
 10
16.0097558221
 20
11.9556802855
 30
0.0
 10
16.0196089767
 20
11.9356016675
 30
0.0
  0
SPLINE
  5
3B3
100
AcDbEntity
  8
0
100
AcDbSpline
 62
7
  6
CONTINUOUS
 70
0
 71
3
 72
16
 73
12
 74
0
 42
0.0000001
 43
0.0000001
 44
0.0000000001
 40
0.0
 40
0.0
 40
0.0
 40
0.0
 40
0.2690018922
 40
0.4076864176
 40
0.5426095923
 40
0.669962046
 40
0.7876676422
 40
0.8431140595
 40
0.8966088495
 40
0.9487019941
 40
1.0
 40
1.0
 40
1.0
 40
1.0
 10
14.9104958471
 20
12.3707468926
 30
0.0
 10
14.9005575095
 20
12.3706804769
 30
0.0
 10
14.8853702335
 20
12.3670132835
 30
0.0
 10
14.8678994968
 20
12.3570483247
 30
0.0
 10
14.856622159
 20
12.347264634
 30
0.0
 10
14.8481584616
 20
12.3359197254
 30
0.0
 10
14.8438699925
 20
12.3255076396
 30
0.0
 10
14.8425188392
 20
12.3172116284
 30
0.0
 10
14.8425307446
 20
12.3112323618
 30
0.0
 10
14.8435645996
 20
12.3054986437
 30
0.0
 10
14.8449267096
 20
12.3019019773
 30
0.0
 10
14.8457616522
 20
12.3002005433
 30
0.0
  0
SPLINE
  5
3B4
100
AcDbEntity
  8
0
100
AcDbSpline
 62
7
  6
CONTINUOUS
 70
0
 71
3
 72
15
 73
11
 74
0
 42
0.0000001
 43
0.0000001
 44
0.0000000001
 40
0.0
 40
0.0
 40
0.0
 40
0.0
 40
0.1555120277
 40
0.3077727066
 40
0.4539821529
 40
0.5900654834
 40
0.7121704754
 40
0.8197055902
 40
0.914694861
 40
1.0
 40
1.0
 40
1.0
 40
1.0
 10
14.9628117439
 20
13.1151408306
 30
0.0
 10
14.9625378053
 20
13.1104490053
 30
0.0
 10
14.9618677065
 20
13.101169687
 30
0.0
 10
14.9603064428
 20
13.0875335635
 30
0.0
 10
14.9580932947
 20
13.0745796207
 30
0.0
 10
14.955122925
 20
13.062707423
 30
0.0
 10
14.951336473
 20
13.0522979248
 30
0.0
 10
14.9468948074
 20
13.0435224511
 30
0.0
 10
14.9420189636
 20
13.0362908194
 30
0.0
 10
14.9384130708
 20
13.0321864303
 30
0.0
 10
14.9366080644
 20
13.0303456926
 30
0.0
  0
SPLINE
  5
3B5
100
AcDbEntity
  8
0
100
AcDbSpline
 62
7
  6
CONTINUOUS
 70
0
 71
3
 72
12
 73
8
 74
0
 42
0.0000001
 43
0.0000001
 44
0.0000000001
 40
0.0
 40
0.0
 40
0.0
 40
0.0
 40
0.1138477543
 40
0.229180168
 40
0.4679290622
 40
0.7241196246
 40
1.0
 40
1.0
 40
1.0
 40
1.0
 10
14.9488605218
 20
12.35079412
 30
0.0
 10
14.9481067068
 20
12.3523302333
 30
0.0
 10
14.9463215787
 20
12.3552989163
 30
0.0
 10
14.9417362702
 20
12.3606671057
 30
0.0
 10
14.9341360322
 20
12.3660790721
 30
0.0
 10
14.9230883201
 20
12.3699472973
 30
0.0
 10
14.915054824
 20
12.3707482729
 30
0.0
 10
14.9109084063
 20
12.3707482729
 30
0.0
  0
SPLINE
  5
3B6
100
AcDbEntity
  8
0
100
AcDbSpline
 62
7
  6
CONTINUOUS
 70
0
 71
3
 72
15
 73
11
 74
0
 42
0.0000001
 43
0.0000001
 44
0.0000000001
 40
0.0
 40
0.0
 40
0.0
 40
0.0
 40
0.0769641093
 40
0.1656702513
 40
0.2694879545
 40
0.3907902006
 40
0.5289234135
 40
0.6794337502
 40
0.8375659323
 40
1.0
 40
1.0
 40
1.0
 40
1.0
 10
14.8371592894
 20
12.9879481237
 30
0.0
 10
14.8349579383
 20
12.9880980062
 30
0.0
 10
14.830233697
 20
12.9887104417
 30
0.0
 10
14.8227466885
 20
12.9906954393
 30
0.0
 10
14.8143648776
 20
12.9940167808
 30
0.0
 10
14.8051306937
 20
12.9988677447
 30
0.0
 10
14.7952346554
 20
13.0052274958
 30
0.0
 10
14.7849045725
 20
13.0128094773
 30
0.0
 10
14.7743787284
 20
13.0212759049
 30
0.0
 10
14.7674113588
 20
13.0272707753
 30
0.0
 10
14.7639141939
 20
13.0303456926
 30
0.0
  0
SPLINE
  5
3B7
100
AcDbEntity
  8
0
100
AcDbSpline
 62
7
  6
CONTINUOUS
 70
0
 71
3
 72
14
 73
10
 74
0
 42
0.0000001
 43
0.0000001
 44
0.0000000001
 40
0.0
 40
0.0
 40
0.0
 40
0.0
 40
0.1163484802
 40
0.2336677719
 40
0.3527659327
 40
0.4744552663
 40
0.5994797481
 40
0.7284726481
 40
1.0
 40
1.0
 40
1.0
 40
1.0
 10
16.1677257382
 20
11.549904685
 30
0.0
 10
16.1712703221
 20
11.5613749629
 30
0.0
 10
16.1771471585
 20
11.5848155875
 30
0.0
 10
16.1821880329
 20
11.6209306514
 30
0.0
 10
16.1834423868
 20
11.6579272079
 30
0.0
 10
16.1809144216
 20
11.6956491808
 30
0.0
 10
16.1746137257
 20
11.7339610819
 30
0.0
 10
16.1609993704
 20
11.7865096364
 30
0.0
 10
16.1454709885
 20
11.8250603835
 30
0.0
 10
16.1331898318
 20
11.8502429831
 30
0.0
  0
SPLINE
  5
3B8
100
AcDbEntity
  8
0
100
AcDbSpline
 62
7
  6
CONTINUOUS
 70
0
 71
3
 72
9
 73
5
 74
0
 42
0.0000001
 43
0.0000001
 44
0.0000000001
 40
0.0
 40
0.0
 40
0.0
 40
0.0
 40
0.2405383858
 40
1.0
 40
1.0
 40
1.0
 40
1.0
 10
16.1191513204
 20
11.8772809153
 30
0.0
 10
16.113879121
 20
11.8868539518
 30
0.0
 10
16.0909399622
 20
11.926087507
 30
0.0
 10
16.0641538313
 20
11.963021558
 30
0.0
 10
16.042273007
 20
11.9897029022
 30
0.0
  0
SPLINE
  5
3B9
100
AcDbEntity
  8
0
100
AcDbSpline
 62
7
  6
CONTINUOUS
 70
0
 71
3
 72
33
 73
29
 74
0
 42
0.0000001
 43
0.0000001
 44
0.0000000001
 40
0.0
 40
0.0
 40
0.0
 40
0.0
 40
0.0296354224
 40
0.0604336714
 40
0.0923371427
 40
0.1252706974
 40
0.1938301203
 40
0.2652629999
 40
0.338547844
 40
0.4125749966
 40
0.4862008199
 40
0.5583000149
 40
0.5934536103
 40
0.6278397742
 40
0.6613473435
 40
0.6938772045
 40
0.7253447989
 40
0.7556817605
 40
0.7848397463
 40
0.8127929727
 40
0.8395412459
 40
0.8651146298
 40
0.8895761402
 40
0.9130253591
 40
0.9355995115
 40
0.9574747329
 40
0.9788664706
 40
1.0
 40
1.0
 40
1.0
 40
1.0
 10
16.042273007
 20
11.9897029022
 30
0.0
 10
16.0291116604
 20
12.0057517684
 30
0.0
 10
16.0010883628
 20
12.0375227734
 30
0.0
 10
15.9552246897
 20
12.0831701927
 30
0.0
 10
15.9049553507
 20
12.1274930374
 30
0.0
 10
15.8314684533
 20
12.1852477679
 30
0.0
 10
15.7303374847
 20
12.2522988434
 30
0.0
 10
15.5983217337
 20
12.3226167974
 30
0.0
 10
15.4569988741
 20
12.3822778274
 30
0.0
 10
15.3095780977
 20
12.4299244971
 30
0.0
 10
15.1594074836
 20
12.4644767527
 30
0.0
 10
15.033729178
 20
12.4818591796
 30
0.0
 10
14.9347157549
 20
12.4884250484
 30
0.0
 10
14.8625247649
 20
12.4896571785
 30
0.0
 10
14.7922015153
 20
12.4872312102
 30
0.0
 10
14.7241473523
 20
12.481160758
 30
0.0
 10
14.6587521949
 20
12.471482442
 30
0.0
 10
14.5963903716
 20
12.4582486006
 30
0.0
 10
14.5374181882
 20
12.4415356985
 30
0.0
 10
14.4821722488
 20
12.4214378882
 30
0.0
 10
14.4309693812
 20
12.3980644019
 30
0.0
 10
14.3841017261
 20
12.3715471958
 30
0.0
 10
14.3418400395
 20
12.3420296954
 30
0.0
 10
14.3044332463
 20
12.3096714922
 30
0.0
 10
14.272101856
 20
12.2746549333
 30
0.0
 10
14.2450447048
 20
12.2371671239
 30
0.0
 10
14.2234432274
 20
12.1974360841
 30
0.0
 10
14.2127365535
 20
12.1695336821
 30
0.0
 10
14.2083665849
 20
12.1553924585
 30
0.0
  0
SPLINE
  5
3BA
100
AcDbEntity
  8
0
100
AcDbSpline
 62
7
  6
CONTINUOUS
 70
0
 71
3
 72
17
 73
13
 74
0
 42
0.0000001
 43
0.0000001
 44
0.0000000001
 40
0.0
 40
0.0
 40
0.0
 40
0.0
 40
0.0505309836
 40
0.1018564864
 40
0.1542599931
 40
0.2079961655
 40
0.3202028002
 40
0.4398590682
 40
0.5676782911
 40
0.7038585522
 40
0.8481632759
 40
1.0
 40
1.0
 40
1.0
 40
1.0
 10
15.7620277429
 20
11.4039583335
 30
0.0
 10
15.7586813312
 20
11.3971052239
 30
0.0
 10
15.7512464116
 20
11.3836167673
 30
0.0
 10
15.7380831005
 20
11.3643736793
 30
0.0
 10
15.7228922515
 20
11.346052991
 30
0.0
 10
15.6996807674
 20
11.3226094455
 30
0.0
 10
15.665569001
 20
11.2959357752
 30
0.0
 10
15.618227107
 20
11.2690400226
 30
0.0
 10
15.5645102955
 20
11.2470489054
 30
0.0
 10
15.5051140831
 20
11.2302054463
 30
0.0
 10
15.4407953979
 20
11.2186914126
 30
0.0
 10
15.3962110467
 20
11.2147481477
 30
0.0
 10
15.3733218656
 20
11.2136334481
 30
0.0
  0
SPLINE
  5
3BB
100
AcDbEntity
  8
0
100
AcDbSpline
 62
7
  6
CONTINUOUS
 70
0
 71
3
 72
23
 73
19
 74
0
 42
0.0000001
 43
0.0000001
 44
0.0000000001
 40
0.0
 40
0.0
 40
0.0
 40
0.0
 40
0.0625670157
 40
0.1271407441
 40
0.1933271098
 40
0.2606943228
 40
0.328784347
 40
0.3971237944
 40
0.4652339716
 40
0.5326408399
 40
0.5988855682
 40
0.6635353438
 40
0.7261940567
 40
0.786514618
 40
0.8442131643
 40
0.8990796681
 40
0.9510125451
 40
1.0
 40
1.0
 40
1.0
 40
1.0
 10
15.3733218656
 20
11.2136334481
 30
0.0
 10
15.3520283126
 20
11.2125964553
 30
0.0
 10
15.3086678428
 20
11.2120851675
 30
0.0
 10
15.2428523866
 20
11.2157512418
 30
0.0
 10
15.1757798436
 20
11.2237977895
 30
0.0
 10
15.1081486285
 20
11.2361408465
 30
0.0
 10
15.0406578988
 20
11.2526514817
 30
0.0
 10
14.9740077342
 20
11.273158237
 30
0.0
 10
14.9088893752
 20
11.2974485704
 30
0.0
 10
14.8459784376
 20
11.3252713147
 30
0.0
 10
14.7859266821
 20
11.3563381645
 30
0.0
 10
14.7293554898
 20
11.390328499
 30
0.0
 10
14.6768493339
 20
11.426892972
 30
0.0
 10
14.6289496085
 20
11.4656587728
 30
0.0
 10
14.5861518081
 20
11.5062325922
 30
0.0
 10
14.5488911136
 20
11.5482099332
 30
0.0
 10
14.5175655406
 20
11.5911677222
 30
0.0
 10
14.5003608784
 20
11.6210455775
 30
0.0
 10
14.4929505838
 20
11.6360022539
 30
0.0
  0
SPLINE
  5
3BC
100
AcDbEntity
  8
0
100
AcDbSpline
 62
7
  6
CONTINUOUS
 70
0
 71
3
 72
9
 73
5
 74
0
 42
0.0000001
 43
0.0000001
 44
0.0000000001
 40
0.0
 40
0.0
 40
0.0
 40
0.0
 40
0.2454991834
 40
1.0
 40
1.0
 40
1.0
 40
1.0
 10
15.767905917
 20
11.5996313102
 30
0.0
 10
15.766821223
 20
11.6026883937
 30
0.0
 10
15.7622242196
 20
11.6150770693
 30
0.0
 10
15.75692942
 20
11.6272045403
 30
0.0
 10
15.7525951659
 20
11.6361823758
 30
0.0
  0
SPLINE
  5
3BD
100
AcDbEntity
  8
0
100
AcDbSpline
 62
7
  6
CONTINUOUS
 70
0
 71
3
 72
13
 73
9
 74
0
 42
0.0000001
 43
0.0000001
 44
0.0000000001
 40
0.0
 40
0.0
 40
0.0
 40
0.0
 40
0.2718003105
 40
0.5256706525
 40
0.6473618295
 40
0.7664363416
 40
0.8837135246
 40
1.0
 40
1.0
 40
1.0
 40
1.0
 10
15.5758854663
 20
11.6360511978
 30
0.0
 10
15.5816994492
 20
11.6240480201
 30
0.0
 10
15.5913266819
 20
11.5999893753
 30
0.0
 10
15.5980198395
 20
11.5687448819
 30
0.0
 10
15.5996075136
 20
11.5444897973
 30
0.0
 10
15.5989913697
 20
11.5268997217
 30
0.0
 10
15.5965830573
 20
11.5097336168
 30
0.0
 10
15.5937870661
 20
11.498592304
 30
0.0
 10
15.592102348
 20
11.4931405542
 30
0.0
  0
SPLINE
  5
3BE
100
AcDbEntity
  8
0
100
AcDbSpline
 62
7
  6
CONTINUOUS
 70
0
 71
3
 72
28
 73
24
 74
0
 42
0.0000001
 43
0.0000001
 44
0.0000000001
 40
0.0
 40
0.0
 40
0.0
 40
0.0
 40
0.0212684763
 40
0.042857772
 40
0.0650314481
 40
0.0880414859
 40
0.1120906308
 40
0.1373237093
 40
0.1638366917
 40
0.1916811448
 40
0.2513251865
 40
0.3159888593
 40
0.3849347828
 40
0.4571311487
 40
0.5313497184
 40
0.6062493357
 40
0.6804522777
 40
0.7526183693
 40
0.8215209535
 40
0.8861317822
 40
0.9166011839
 40
0.9457562462
 40
1.0
 40
1.0
 40
1.0
 40
1.0
 10
14.6516099545
 20
11.7837746855
 30
0.0
 10
14.6538860108
 20
11.7911400065
 30
0.0
 10
14.6595643567
 20
11.8056679112
 30
0.0
 10
14.6712271368
 20
11.8262369633
 30
0.0
 10
14.6859871397
 20
11.8455101072
 30
0.0
 10
14.7037263003
 20
11.8633496832
 30
0.0
 10
14.7243187898
 20
11.8796442677
 30
0.0
 10
14.7476233058
 20
11.8942841465
 30
0.0
 10
14.7734789346
 20
11.9071758152
 30
0.0
 10
14.8119992233
 20
11.9222557939
 30
0.0
 10
14.8656644512
 20
11.9359204138
 30
0.0
 10
14.9354262156
 20
11.9439178428
 30
0.0
 10
15.0101771944
 20
11.9436954388
 30
0.0
 10
15.0879122367
 20
11.9352580463
 30
0.0
 10
15.1665555161
 20
11.9188318188
 30
0.0
 10
15.2439933364
 20
11.8948563129
 30
0.0
 10
15.3181436262
 20
11.8639768089
 30
0.0
 10
15.3870178693
 20
11.8270218384
 30
0.0
 10
15.4487642288
 20
11.7849879198
 30
0.0
 10
15.4937781719
 20
11.7459063085
 30
0.0
 10
15.5245621902
 20
11.7129854239
 30
0.0
 10
15.5504463701
 20
11.6808154781
 30
0.0
 10
15.5665875782
 20
11.655006757
 30
0.0
 10
15.5752491826
 20
11.6373562631
 30
0.0
  0
SPLINE
  5
3BF
100
AcDbEntity
  8
0
100
AcDbSpline
 62
7
  6
CONTINUOUS
 70
0
 71
3
 72
13
 73
9
 74
0
 42
0.0000001
 43
0.0000001
 44
0.0000000001
 40
0.0
 40
0.0
 40
0.0
 40
0.0
 40
0.1164877087
 40
0.2338832394
 40
0.353055826
 40
0.4748059186
 40
0.7285960446
 40
1.0
 40
1.0
 40
1.0
 40
1.0
 10
14.4687368773
 20
11.8402867406
 30
0.0
 10
14.466352058
 20
11.8325689638
 30
0.0
 10
14.4623999392
 20
11.8168006904
 30
0.0
 10
14.459028327
 20
11.7925070498
 30
0.0
 10
14.4582101421
 20
11.7676273338
 30
0.0
 10
14.4605525196
 20
11.733350537
 30
0.0
 10
14.4701780636
 20
11.6892582972
 30
0.0
 10
14.483933379
 20
11.6553533771
 30
0.0
 10
14.4922246124
 20
11.6384576199
 30
0.0
  0
SPLINE
  5
3C0
100
AcDbEntity
  8
0
100
AcDbSpline
 62
7
  6
CONTINUOUS
 70
0
 71
3
 72
13
 73
9
 74
0
 42
0.0000001
 43
0.0000001
 44
0.0000000001
 40
0.0
 40
0.0
 40
0.0
 40
0.0
 40
0.2707824293
 40
0.5244142964
 40
0.646254002
 40
0.7656083896
 40
0.8832585748
 40
1.0
 40
1.0
 40
1.0
 40
1.0
 10
14.4918086041
 20
11.6383261908
 30
0.0
 10
14.4835804112
 20
11.6552098096
 30
0.0
 10
14.4699326787
 20
11.6891084872
 30
0.0
 10
14.4604167851
 20
11.7331845728
 30
0.0
 10
14.4581307271
 20
11.7674807549
 30
0.0
 10
14.4589807032
 20
11.7924016996
 30
0.0
 10
14.4623821798
 20
11.8167450471
 30
0.0
 10
14.4663457061
 20
11.832550481
 30
0.0
 10
14.4687364335
 20
11.8402868777
 30
0.0
  0
SPLINE
  5
3C1
100
AcDbEntity
  8
0
100
AcDbSpline
 62
7
  6
CONTINUOUS
 70
0
 71
3
 72
15
 73
11
 74
0
 42
0.0000001
 43
0.0000001
 44
0.0000000001
 40
0.0
 40
0.0
 40
0.0
 40
0.0
 40
0.1419079148
 40
0.274737011
 40
0.398640939
 40
0.515981006
 40
0.6305463023
 40
0.7469314563
 40
0.8692186133
 40
1.0
 40
1.0
 40
1.0
 40
1.0
 10
14.8283953677
 20
13.0913496287
 30
0.0
 10
14.8257365068
 20
13.0913496287
 30
0.0
 10
14.8205725891
 20
13.0917989741
 30
0.0
 10
14.8133573263
 20
13.0939387521
 30
0.0
 10
14.8072187497
 20
13.0974718228
 30
0.0
 10
14.8024615301
 20
13.1022679532
 30
0.0
 10
14.7993571923
 20
13.108117911
 30
0.0
 10
14.7980780384
 20
13.1147051122
 30
0.0
 10
14.798651911
 20
13.1216782881
 30
0.0
 10
14.8001726537
 20
13.1262182251
 30
0.0
 10
14.8011795074
 20
13.1284522012
 30
0.0
  0
SPLINE
  5
3C2
100
AcDbEntity
  8
0
100
AcDbSpline
 62
7
  6
CONTINUOUS
 70
0
 71
3
 72
20
 73
16
 74
0
 42
0.0000001
 43
0.0000001
 44
0.0000000001
 40
0.0
 40
0.0
 40
0.0
 40
0.0
 40
0.0599256109
 40
0.1164166858
 40
0.1702593943
 40
0.2226446018
 40
0.2750713241
 40
0.3290334074
 40
0.3857084817
 40
0.4458036468
 40
0.509512963
 40
0.5765605232
 40
0.7175816423
 40
0.8616113395
 40
1.0
 40
1.0
 40
1.0
 40
1.0
 10
14.8584525099
 20
13.1565297147
 30
0.0
 10
14.8604963706
 20
13.1560391928
 30
0.0
 10
14.8643964603
 20
13.1547362134
 30
0.0
 10
14.8696057373
 20
13.1517276998
 30
0.0
 10
14.873823977
 20
13.147803723
 30
0.0
 10
14.8768859614
 20
13.1430871677
 30
0.0
 10
14.8786726517
 20
13.1377507956
 30
0.0
 10
14.8791222605
 20
13.1319957636
 30
0.0
 10
14.8782425709
 20
13.1260269224
 30
0.0
 10
14.8760826444
 20
13.1200369402
 30
0.0
 10
14.8727213224
 20
13.1142111312
 30
0.0
 10
14.86669942
 20
13.1067803189
 30
0.0
 10
14.8568997761
 20
13.0989885313
 30
0.0
 10
14.8431908135
 20
13.0929150301
 30
0.0
 10
14.8332493683
 20
13.0913496287
 30
0.0
 10
14.8283953677
 20
13.0913496287
 30
0.0
  0
SPLINE
  5
3C3
100
AcDbEntity
  8
0
100
AcDbSpline
 62
7
  6
CONTINUOUS
 70
0
 71
3
 72
13
 73
9
 74
0
 42
0.0000001
 43
0.0000001
 44
0.0000000001
 40
0.0
 40
0.0
 40
0.0
 40
0.0
 40
0.2727333445
 40
0.5279112117
 40
0.649949917
 40
0.7688903436
 40
0.8853451059
 40
1.0
 40
1.0
 40
1.0
 40
1.0
 10
15.9611772941
 20
11.3857394251
 30
0.0
 10
15.9858435997
 20
11.3978508276
 30
0.0
 10
16.0321854557
 20
11.4243498906
 30
0.0
 10
16.0837603226
 20
11.465198709
 30
0.0
 10
16.1186347991
 20
11.5010969256
 30
0.0
 10
16.1413298554
 20
11.5291279147
 30
0.0
 10
16.1608592914
 20
11.5585589591
 30
0.0
 10
16.1717872769
 20
11.5791727902
 30
0.0
 10
16.1766738008
 20
11.5896404773
 30
0.0
  0
SPLINE
  5
3C4
100
AcDbEntity
  8
0
100
AcDbSpline
 62
7
  6
CONTINUOUS
 70
0
 71
3
 72
11
 73
7
 74
0
 42
0.0000001
 43
0.0000001
 44
0.0000000001
 40
0.0
 40
0.0
 40
0.0
 40
0.0
 40
0.2714638212
 40
0.5255555234
 40
0.7663247913
 40
1.0
 40
1.0
 40
1.0
 40
1.0
 10
15.9899006813
 20
13.2375446888
 30
0.0
 10
15.9881957872
 20
13.2410188976
 30
0.0
 10
15.985368245
 20
13.2479961115
 30
0.0
 10
15.9830205017
 20
13.2587261766
 30
0.0
 10
15.9827936312
 20
13.269178659
 30
0.0
 10
15.9840859355
 20
13.2758808779
 30
0.0
 10
15.9850698158
 20
13.2790635421
 30
0.0
  0
SPLINE
  5
3C5
100
AcDbEntity
  8
0
100
AcDbSpline
 62
7
  6
CONTINUOUS
 70
0
 71
3
 72
11
 73
7
 74
0
 42
0.0000001
 43
0.0000001
 44
0.0000000001
 40
0.0
 40
0.0
 40
0.0
 40
0.0
 40
0.2714638212
 40
0.5255555234
 40
0.7663247913
 40
1.0
 40
1.0
 40
1.0
 40
1.0
 10
13.8023808205
 20
13.2375446888
 30
0.0
 10
13.8006759264
 20
13.2410188976
 30
0.0
 10
13.7978483843
 20
13.2479961115
 30
0.0
 10
13.7955006409
 20
13.2587261766
 30
0.0
 10
13.7952737705
 20
13.269178659
 30
0.0
 10
13.7965660748
 20
13.2758808779
 30
0.0
 10
13.7975499551
 20
13.2790635421
 30
0.0
  0
SPLINE
  5
3C6
100
AcDbEntity
  8
0
100
AcDbSpline
 62
7
  6
CONTINUOUS
 70
0
 71
3
 72
9
 73
5
 74
0
 42
0.0000001
 43
0.0000001
 44
0.0000000001
 40
0.0
 40
0.0
 40
0.0
 40
0.0
 40
0.5087288807
 40
1.0
 40
1.0
 40
1.0
 40
1.0
 10
16.0649357781
 20
11.5673877261
 30
0.0
 10
16.0780135897
 20
11.5803785786
 30
0.0
 10
16.1020019145
 20
11.6077273973
 30
0.0
 10
16.1215387482
 20
11.6384485065
 30
0.0
 10
16.1298308041
 20
11.6542000937
 30
0.0
  0
SPLINE
  5
3C7
100
AcDbEntity
  8
0
100
AcDbSpline
 62
7
  6
CONTINUOUS
 70
0
 71
3
 72
9
 73
5
 74
0
 42
0.0000001
 43
0.0000001
 44
0.0000000001
 40
0.0
 40
0.0
 40
0.0
 40
0.0
 40
0.5044341456
 40
1.0
 40
1.0
 40
1.0
 40
1.0
 10
16.1423612272
 20
11.8175347897
 30
0.0
 10
16.1427551303
 20
11.8002659384
 30
0.0
 10
16.1409249211
 20
11.7659106209
 30
0.0
 10
16.1335283408
 20
11.7322952792
 30
0.0
 10
16.128517721
 20
11.7160822209
 30
0.0
  0
SPLINE
  5
3C8
100
AcDbEntity
  8
0
100
AcDbSpline
 62
7
  6
CONTINUOUS
 70
0
 71
3
 72
12
 73
8
 74
0
 42
0.0000001
 43
0.0000001
 44
0.0000000001
 40
0.0
 40
0.0
 40
0.0
 40
0.0
 40
0.2816658951
 40
0.539502881
 40
0.7756497281
 40
0.888581406
 40
1.0
 40
1.0
 40
1.0
 40
1.0
 10
14.8845550918
 20
12.2781861944
 30
0.0
 10
14.880431911
 20
12.2781861944
 30
0.0
 10
14.8725009636
 20
12.278927556
 30
0.0
 10
14.8616209397
 20
12.2825468473
 30
0.0
 10
14.8541698435
 20
12.2876692516
 30
0.0
 10
14.8497269869
 20
12.2927765661
 30
0.0
 10
14.8480172094
 20
12.2956038891
 30
0.0
 10
14.8472988345
 20
12.2970681708
 30
0.0
  0
SPLINE
  5
3C9
100
AcDbEntity
  8
0
100
AcDbSpline
 62
7
  6
CONTINUOUS
 70
0
 71
3
 72
24
 73
20
 74
0
 42
0.0000001
 43
0.0000001
 44
0.0000000001
 40
0.0
 40
0.0
 40
0.0
 40
0.0
 40
0.0214630533
 40
0.0432217971
 40
0.088604363
 40
0.1380008671
 40
0.1923911103
 40
0.2520421982
 40
0.3166560612
 40
0.3855150687
 40
0.457601792
 40
0.5316990126
 40
0.6064759903
 40
0.680563487
 40
0.7526289557
 40
0.8214604852
 40
0.8860340654
 40
0.9456590051
 40
1.0
 40
1.0
 40
1.0
 40
1.0
 10
16.9782543845
 20
11.7197021609
 30
0.0
 10
16.9775978241
 20
11.7175783138
 30
0.0
 10
16.9759626844
 20
11.7133908634
 30
0.0
 10
16.9714269893
 20
11.7053827116
 30
0.0
 10
16.9633200453
 20
11.6962382736
 30
0.0
 10
16.9505298329
 20
11.6873675111
 30
0.0
 10
16.934930174
 20
11.6805683644
 30
0.0
 10
16.9169369991
 20
11.6759753945
 30
0.0
 10
16.8970137702
 20
11.6736803913
 30
0.0
 10
16.8756798362
 20
11.6737357798
 30
0.0
 10
16.85349861
 20
11.6761367093
 30
0.0
 10
16.8310609414
 20
11.6808179474
 30
0.0
 10
16.8089672869
 20
11.6876542089
 30
0.0
 10
16.7878099167
 20
11.6964621809
 30
0.0
 10
16.7681548605
 20
11.7070068661
 30
0.0
 10
16.7505281899
 20
11.7190078826
 30
0.0
 10
16.7353911102
 20
11.7321515362
 30
0.0
 10
16.7231543921
 20
11.746096187
 30
0.0
 10
16.7168546286
 20
11.7561682956
 30
0.0
 10
16.7143751145
 20
11.7612210142
 30
0.0
  0
SPLINE
  5
3CA
100
AcDbEntity
  8
0
100
AcDbSpline
 62
7
  6
CONTINUOUS
 70
0
 71
3
 72
11
 73
7
 74
0
 42
0.0000001
 43
0.0000001
 44
0.0000000001
 40
0.0
 40
0.0
 40
0.0
 40
0.0
 40
0.2472163295
 40
0.5000221529
 40
0.7528489682
 40
1.0
 40
1.0
 40
1.0
 40
1.0
 10
14.863214934
 20
12.990324699
 30
0.0
 10
14.8692657836
 20
12.9911191972
 30
0.0
 10
14.8813829139
 20
12.9938034935
 30
0.0
 10
14.8987225935
 20
13.000692902
 30
0.0
 10
14.9147794011
 20
13.0101929758
 30
0.0
 10
14.9243149835
 20
13.0181347085
 30
0.0
 10
14.9286451529
 20
13.0224328441
 30
0.0
  0
SPLINE
  5
3CB
100
AcDbEntity
  8
0
100
AcDbSpline
 62
7
  6
CONTINUOUS
 70
0
 71
3
 72
13
 73
9
 74
0
 42
0.0000001
 43
0.0000001
 44
0.0000000001
 40
0.0
 40
0.0
 40
0.0
 40
0.0
 40
0.1183522642
 40
0.2373946267
 40
0.3578000918
 40
0.480201001
 40
0.7330396735
 40
1.0
 40
1.0
 40
1.0
 40
1.0
 10
16.13457932
 20
11.6510224416
 30
0.0
 10
16.1316696652
 20
11.6416075226
 30
0.0
 10
16.1249434024
 20
11.6229849298
 30
0.0
 10
16.1122445434
 20
11.5959913568
 30
0.0
 10
16.0969558729
 20
11.5699809557
 30
0.0
 10
16.0729414776
 20
11.5363611422
 30
0.0
 10
16.0363027918
 20
11.4970624459
 30
0.0
 10
16.0020998003
 20
11.4702602816
 30
0.0
 10
15.9837282283
 20
11.4577480091
 30
0.0
  0
SPLINE
  5
3CC
100
AcDbEntity
  8
0
100
AcDbSpline
 62
7
  6
CONTINUOUS
 70
0
 71
3
 72
11
 73
7
 74
0
 42
0.0000001
 43
0.0000001
 44
0.0000000001
 40
0.0
 40
0.0
 40
0.0
 40
0.0
 40
0.2714638212
 40
0.5255555234
 40
0.7663247913
 40
1.0
 40
1.0
 40
1.0
 40
1.0
 10
16.7143751145
 20
11.7612210142
 30
0.0
 10
16.7126702205
 20
11.764695223
 30
0.0
 10
16.7098426783
 20
11.7716724368
 30
0.0
 10
16.707494935
 20
11.7824025019
 30
0.0
 10
16.7072680645
 20
11.7928549843
 30
0.0
 10
16.7085603688
 20
11.7995572033
 30
0.0
 10
16.7095442491
 20
11.8027398674
 30
0.0
  0
SPLINE
  5
3CD
100
AcDbEntity
  8
0
100
AcDbSpline
 62
7
  6
CONTINUOUS
 70
0
 71
3
 72
11
 73
7
 74
0
 42
0.0000001
 43
0.0000001
 44
0.0000000001
 40
0.0
 40
0.0
 40
0.0
 40
0.0
 40
0.2431778904
 40
0.4898300602
 40
0.7416021421
 40
1.0
 40
1.0
 40
1.0
 40
1.0
 10
14.3027234007
 20
12.246884679
 30
0.0
 10
14.3004949293
 20
12.2358244562
 30
0.0
 10
14.2971875028
 20
12.2132905861
 30
0.0
 10
14.2957355675
 20
12.1788566582
 30
0.0
 10
14.2977686358
 20
12.1437474313
 30
0.0
 10
14.3013872393
 20
12.120315655
 30
0.0
 10
14.3037413081
 20
12.1085604097
 30
0.0
  0
SPLINE
  5
3CE
100
AcDbEntity
  8
0
100
AcDbSpline
 62
7
  6
CONTINUOUS
 70
0
 71
3
 72
13
 73
9
 74
0
 42
0.0000001
 43
0.0000001
 44
0.0000000001
 40
0.0
 40
0.0
 40
0.0
 40
0.0
 40
0.2653659082
 40
0.5179180811
 40
0.6405445485
 40
0.7613802558
 40
0.8809993793
 40
1.0
 40
1.0
 40
1.0
 40
1.0
 10
14.3028746563
 20
11.9899925397
 30
0.0
 10
14.2959287314
 20
12.0095222748
 30
0.0
 10
14.2848342371
 20
12.0485845973
 30
0.0
 10
14.2784634964
 20
12.0984329237
 30
0.0
 10
14.2783327497
 20
12.1372170175
 30
0.0
 10
14.2806316996
 20
12.1655206236
 30
0.0
 10
14.2853197882
 20
12.193238264
 30
0.0
 10
14.2900372791
 20
12.2113000023
 30
0.0
 10
14.292781894
 20
12.2201808934
 30
0.0
  0
SPLINE
  5
3CF
100
AcDbEntity
  8
0
100
AcDbSpline
 62
7
  6
CONTINUOUS
 70
0
 71
3
 72
14
 73
10
 74
0
 42
0.0000001
 43
0.0000001
 44
0.0000000001
 40
0.0
 40
0.0
 40
0.0
 40
0.0
 40
0.2738204144
 40
0.4032936088
 40
0.5283852659
 40
0.6497555125
 40
0.7681977364
 40
0.8846154899
 40
1.0
 40
1.0
 40
1.0
 40
1.0
 10
14.5209411992
 20
12.4349004972
 30
0.0
 10
14.4957515833
 20
12.4220344661
 30
0.0
 10
14.4599103302
 20
12.4003070432
 30
0.0
 10
14.4174292131
 20
12.3659387594
 30
0.0
 10
14.389651746
 20
12.3387069899
 30
0.0
 10
14.3655147921
 20
12.3096660438
 30
0.0
 10
14.3451278939
 20
12.2789407846
 30
0.0
 10
14.3285986778
 20
12.2466737417
 30
0.0
 10
14.3201866449
 20
12.2241873399
 30
0.0
 10
14.3166674272
 20
12.2127997054
 30
0.0
  0
LINE
  5
3D0
100
AcDbEntity
  8
0
100
AcDbLine
 62
7
  6
CONTINUOUS
 10
15.0653244433
 20
13.4054648904
 11
15.0766942868
 21
13.3777428676
  0
SPLINE
  5
3D1
100
AcDbEntity
  8
0
100
AcDbSpline
 62
7
  6
CONTINUOUS
 70
0
 71
3
 72
24
 73
20
 74
0
 42
0.0000001
 43
0.0000001
 44
0.0000000001
 40
0.0
 40
0.0
 40
0.0
 40
0.0
 40
0.0214630533
 40
0.0432217971
 40
0.088604363
 40
0.1380008671
 40
0.1923911103
 40
0.2520421982
 40
0.3166560612
 40
0.3855150687
 40
0.457601792
 40
0.5316990126
 40
0.6064759903
 40
0.680563487
 40
0.7526289557
 40
0.8214604852
 40
0.8860340654
 40
0.9456590051
 40
1.0
 40
1.0
 40
1.0
 40
1.0
 10
14.0662600905
 20
13.1960258355
 30
0.0
 10
14.0656035301
 20
13.1939019885
 30
0.0
 10
14.0639683903
 20
13.1897145381
 30
0.0
 10
14.0594326953
 20
13.1817063862
 30
0.0
 10
14.0513257513
 20
13.1725619483
 30
0.0
 10
14.0385355389
 20
13.1636911858
 30
0.0
 10
14.02293588
 20
13.1568920391
 30
0.0
 10
14.0049427051
 20
13.1522990691
 30
0.0
 10
13.9850194762
 20
13.1500040659
 30
0.0
 10
13.9636855422
 20
13.1500594545
 30
0.0
 10
13.941504316
 20
13.1524603839
 30
0.0
 10
13.9190666474
 20
13.157141622
 30
0.0
 10
13.8969729929
 20
13.1639778835
 30
0.0
 10
13.8758156227
 20
13.1727858555
 30
0.0
 10
13.8561605665
 20
13.1833305408
 30
0.0
 10
13.8385338959
 20
13.1953315573
 30
0.0
 10
13.8233968162
 20
13.2084752109
 30
0.0
 10
13.8111600981
 20
13.2224198616
 30
0.0
 10
13.8048603346
 20
13.2324919703
 30
0.0
 10
13.8023808205
 20
13.2375446888
 30
0.0
  0
SPLINE
  5
3D2
100
AcDbEntity
  8
0
100
AcDbSpline
 62
7
  6
CONTINUOUS
 70
0
 71
3
 72
24
 73
20
 74
0
 42
0.0000001
 43
0.0000001
 44
0.0000000001
 40
0.0
 40
0.0
 40
0.0
 40
0.0
 40
0.0214630533
 40
0.0432217971
 40
0.088604363
 40
0.1380008671
 40
0.1923911103
 40
0.2520421982
 40
0.3166560612
 40
0.3855150687
 40
0.457601792
 40
0.5316990126
 40
0.6064759903
 40
0.680563487
 40
0.7526289557
 40
0.8214604852
 40
0.8860340654
 40
0.9456590051
 40
1.0
 40
1.0
 40
1.0
 40
1.0
 10
16.2537799513
 20
13.1960258355
 30
0.0
 10
16.2531233909
 20
13.1939019885
 30
0.0
 10
16.2514882511
 20
13.1897145381
 30
0.0
 10
16.2469525561
 20
13.1817063862
 30
0.0
 10
16.2388456121
 20
13.1725619483
 30
0.0
 10
16.2260553997
 20
13.1636911858
 30
0.0
 10
16.2104557408
 20
13.1568920391
 30
0.0
 10
16.1924625658
 20
13.1522990691
 30
0.0
 10
16.1725393369
 20
13.1500040659
 30
0.0
 10
16.1512054029
 20
13.1500594545
 30
0.0
 10
16.1290241768
 20
13.1524603839
 30
0.0
 10
16.1065865081
 20
13.157141622
 30
0.0
 10
16.0844928536
 20
13.1639778835
 30
0.0
 10
16.0633354835
 20
13.1727858555
 30
0.0
 10
16.0436804272
 20
13.1833305408
 30
0.0
 10
16.0260537566
 20
13.1953315573
 30
0.0
 10
16.0109166769
 20
13.2084752109
 30
0.0
 10
15.9986799589
 20
13.2224198616
 30
0.0
 10
15.9923801954
 20
13.2324919703
 30
0.0
 10
15.9899006813
 20
13.2375446888
 30
0.0
  0
LINE
  5
3D3
100
AcDbEntity
  8
0
100
AcDbLine
 62
7
  6
CONTINUOUS
 10
14.8733879813
 20
13.3963498932
 11
14.8709855803
 21
13.4021883169
  0
SPLINE
  5
3D4
100
AcDbEntity
  8
0
100
AcDbSpline
 62
7
  6
CONTINUOUS
 70
0
 71
3
 72
13
 73
9
 74
0
 42
0.0000001
 43
0.0000001
 44
0.0000000001
 40
0.0
 40
0.0
 40
0.0
 40
0.0
 40
0.3233003769
 40
0.5920150644
 40
0.7073218127
 40
0.8118361097
 40
0.9082059225
 40
1.0
 40
1.0
 40
1.0
 40
1.0
 10
15.9573950949
 20
11.7342774721
 30
0.0
 10
15.9582979654
 20
11.7324376154
 30
0.0
 10
15.9601382264
 20
11.7291546189
 30
0.0
 10
15.9629687091
 20
11.7256280632
 30
0.0
 10
15.9653537409
 20
11.7236363612
 30
0.0
 10
15.9670862757
 20
11.7226077631
 30
0.0
 10
15.9688453559
 20
11.72197888
 30
0.0
 10
15.970042259
 20
11.7218356661
 30
0.0
 10
15.9706241557
 20
11.7218357635
 30
0.0
  0
SPLINE
  5
3D5
100
AcDbEntity
  8
0
100
AcDbSpline
 62
7
  6
CONTINUOUS
 70
0
 71
3
 72
21
 73
17
 74
0
 42
0.0000001
 43
0.0000001
 44
0.0000000001
 40
0.0
 40
0.0
 40
0.0
 40
0.0
 40
0.0334395948
 40
0.0702689309
 40
0.1127008437
 40
0.1618072581
 40
0.2178020551
 40
0.2803054569
 40
0.3485410487
 40
0.4214401488
 40
0.5758299505
 40
0.7317884735
 40
0.8064887651
 40
0.8769559486
 40
0.9418568403
 40
1.0
 40
1.0
 40
1.0
 40
1.0
 10
15.9706241552
 20
11.8366793735
 30
0.0
 10
15.9693683614
 20
11.8366791913
 30
0.0
 10
15.9667114773
 20
11.8361619181
 30
0.0
 10
15.9630135689
 20
11.833983755
 30
0.0
 10
15.9595876989
 20
11.8305368717
 30
0.0
 10
15.9564871565
 20
11.8259149552
 30
0.0
 10
15.9537724301
 20
11.8202168617
 30
0.0
 10
15.9515061696
 20
11.813567065
 30
0.0
 10
15.949740818
 20
11.8061158171
 30
0.0
 10
15.948075387
 20
11.7951331843
 30
0.0
 10
15.9474805528
 20
11.7807072258
 30
0.0
 10
15.9486317174
 20
11.766256593
 30
0.0
 10
15.9505662829
 20
11.7551082284
 30
0.0
 10
15.9524212303
 20
11.7474336478
 30
0.0
 10
15.9546426536
 20
11.7405074736
 30
0.0
 10
15.9564331637
 20
11.7362376817
 30
0.0
 10
15.9573950949
 20
11.7342774721
 30
0.0
  0
SPLINE
  5
3D6
100
AcDbEntity
  8
0
100
AcDbSpline
 62
7
  6
CONTINUOUS
 70
0
 71
3
 72
9
 73
5
 74
0
 42
0.0000001
 43
0.0000001
 44
0.0000000001
 40
0.0
 40
0.0
 40
0.0
 40
0.0
 40
0.4959184891
 40
1.0
 40
1.0
 40
1.0
 40
1.0
 10
14.3344915414
 20
12.270478241
 30
0.0
 10
14.3392853135
 20
12.2859896365
 30
0.0
 10
14.3514589651
 20
12.3165461334
 30
0.0
 10
14.3682441995
 20
12.3448186645
 30
0.0
 10
14.3776830478
 20
12.3583553033
 30
0.0
  0
SPLINE
  5
3D7
100
AcDbEntity
  8
0
100
AcDbSpline
 62
7
  6
CONTINUOUS
 70
0
 71
3
 72
9
 73
5
 74
0
 42
0.0000001
 43
0.0000001
 44
0.0000000001
 40
0.0
 40
0.0
 40
0.0
 40
0.0
 40
0.2420476028
 40
1.0
 40
1.0
 40
1.0
 40
1.0
 10
14.8217865126
 20
13.0377888498
 30
0.0
 10
14.8256133434
 20
13.0377888498
 30
0.0
 10
14.8414177031
 20
13.0386810918
 30
0.0
 10
14.856976838
 20
13.0429276663
 30
0.0
 10
14.8680002727
 20
13.0476272399
 30
0.0
  0
SPLINE
  5
3D8
100
AcDbEntity
  8
0
100
AcDbSpline
 62
7
  6
CONTINUOUS
 70
0
 71
3
 72
9
 73
5
 74
0
 42
0.0000001
 43
0.0000001
 44
0.0000000001
 40
0.0
 40
0.0
 40
0.0
 40
0.0
 40
0.4788352774
 40
1.0
 40
1.0
 40
1.0
 40
1.0
 10
14.7816533375
 20
13.0476272399
 30
0.0
 10
14.7874102841
 20
13.0442948593
 30
0.0
 10
14.8005924346
 20
13.0392614891
 30
0.0
 10
14.8145466264
 20
13.0377888498
 30
0.0
 10
14.8217865126
 20
13.0377888498
 30
0.0
  0
SPLINE
  5
3D9
100
AcDbEntity
  8
0
100
AcDbSpline
 62
7
  6
CONTINUOUS
 70
0
 71
3
 72
15
 73
11
 74
0
 42
0.0000001
 43
0.0000001
 44
0.0000000001
 40
0.0
 40
0.0
 40
0.0
 40
0.0
 40
0.1336304
 40
0.2620519869
 40
0.3861206624
 40
0.507378403
 40
0.6275811982
 40
0.7485994481
 40
0.8722969399
 40
1.0
 40
1.0
 40
1.0
 40
1.0
 10
14.7581326295
 20
13.1112235934
 30
0.0
 10
14.7571646315
 20
13.1080911507
 30
0.0
 10
14.7556873483
 20
13.1018061513
 30
0.0
 10
14.7549434098
 20
13.0923233524
 30
0.0
 10
14.7557474843
 20
13.0831433945
 30
0.0
 10
14.7580934635
 20
13.0744378289
 30
0.0
 10
14.7619386168
 20
13.0663640624
 30
0.0
 10
14.7672185473
 20
13.0590727208
 30
0.0
 10
14.7738278699
 20
13.0527008633
 30
0.0
 10
14.7789416865
 20
13.049196866
 30
0.0
 10
14.7816533375
 20
13.0476272399
 30
0.0
  0
SPLINE
  5
3DA
100
AcDbEntity
  8
0
100
AcDbSpline
 62
7
  6
CONTINUOUS
 70
0
 71
3
 72
10
 73
6
 74
0
 42
0.0000001
 43
0.0000001
 44
0.0000000001
 40
0.0
 40
0.0
 40
0.0
 40
0.0
 40
0.2663449163
 40
0.523278984
 40
1.0
 40
1.0
 40
1.0
 40
1.0
 10
14.7904196015
 20
13.1564435321
 30
0.0
 10
14.7865494697
 20
13.1532918887
 30
0.0
 10
14.7793152799
 20
13.1466163749
 30
0.0
 10
14.7673152313
 20
13.1321968186
 30
0.0
 10
14.7607701726
 20
13.119758686
 30
0.0
 10
14.7581326295
 20
13.1112235934
 30
0.0
  0
SPLINE
  5
3DB
100
AcDbEntity
  8
0
100
AcDbSpline
 62
7
  6
CONTINUOUS
 70
0
 71
3
 72
9
 73
5
 74
0
 42
0.0000001
 43
0.0000001
 44
0.0000000001
 40
0.0
 40
0.0
 40
0.0
 40
0.0
 40
0.2445360866
 40
1.0
 40
1.0
 40
1.0
 40
1.0
 10
14.8671726169
 20
13.184658337
 30
0.0
 10
14.8652294755
 20
13.184658337
 30
0.0
 10
14.8572842152
 20
13.1844293446
 30
0.0
 10
14.8493699829
 20
13.1833157979
 30
0.0
 10
14.843504353
 20
13.1820384854
 30
0.0
  0
SPLINE
  5
3DC
100
AcDbEntity
  8
0
100
AcDbSpline
 62
7
  6
CONTINUOUS
 70
0
 71
3
 72
9
 73
5
 74
0
 42
0.0000001
 43
0.0000001
 44
0.0000000001
 40
0.0
 40
0.0
 40
0.0
 40
0.0
 40
0.4788352774
 40
1.0
 40
1.0
 40
1.0
 40
1.0
 10
14.907305792
 20
13.1748199469
 30
0.0
 10
14.9015488454
 20
13.1781523276
 30
0.0
 10
14.8883666949
 20
13.1831856978
 30
0.0
 10
14.8744125032
 20
13.184658337
 30
0.0
 10
14.8671726169
 20
13.184658337
 30
0.0
  0
SPLINE
  5
3DD
100
AcDbEntity
  8
0
100
AcDbSpline
 62
7
  6
CONTINUOUS
 70
0
 71
3
 72
11
 73
7
 74
0
 42
0.0000001
 43
0.0000001
 44
0.0000000001
 40
0.0
 40
0.0
 40
0.0
 40
0.0
 40
0.2388852899
 40
0.4824543357
 40
0.7350202318
 40
1.0
 40
1.0
 40
1.0
 40
1.0
 10
16.1106937868
 20
11.6584036296
 30
0.0
 10
16.1159457177
 20
11.675398051
 30
0.0
 10
16.1235665755
 20
11.7107203321
 30
0.0
 10
16.1258496249
 20
11.7656453125
 30
0.0
 10
16.119066149
 20
11.822133205
 30
0.0
 10
16.1088623433
 20
11.8594455369
 30
0.0
 10
16.1024437023
 20
11.8781027454
 30
0.0
  0
SPLINE
  5
3DE
100
AcDbEntity
  8
0
100
AcDbSpline
 62
7
  6
CONTINUOUS
 70
0
 71
3
 72
15
 73
11
 74
0
 42
0.0000001
 43
0.0000001
 44
0.0000000001
 40
0.0
 40
0.0
 40
0.0
 40
0.0
 40
0.1336304
 40
0.2620519869
 40
0.3861206624
 40
0.507378403
 40
0.6275811982
 40
0.7485994481
 40
0.8722969399
 40
1.0
 40
1.0
 40
1.0
 40
1.0
 10
14.9308265
 20
13.1112235934
 30
0.0
 10
14.931794498
 20
13.1143560361
 30
0.0
 10
14.9332717812
 20
13.1206410356
 30
0.0
 10
14.9340157197
 20
13.1301238344
 30
0.0
 10
14.9332116452
 20
13.1393037923
 30
0.0
 10
14.930865666
 20
13.148009358
 30
0.0
 10
14.9270205127
 20
13.1560831245
 30
0.0
 10
14.9217405822
 20
13.163374466
 30
0.0
 10
14.9151312596
 20
13.1697463235
 30
0.0
 10
14.910017443
 20
13.1732503208
 30
0.0
 10
14.907305792
 20
13.1748199469
 30
0.0
  0
SPLINE
  5
3DF
100
AcDbEntity
  8
0
100
AcDbSpline
 62
7
  6
CONTINUOUS
 70
0
 71
3
 72
12
 73
8
 74
0
 42
0.0000001
 43
0.0000001
 44
0.0000000001
 40
0.0
 40
0.0
 40
0.0
 40
0.0
 40
0.265928773
 40
0.3972376416
 40
0.5260035961
 40
0.7721597955
 40
1.0
 40
1.0
 40
1.0
 40
1.0
 10
14.8680002727
 20
13.0476272399
 30
0.0
 10
14.8754989414
 20
13.0508241151
 30
0.0
 10
14.886288336
 20
13.0566731126
 30
0.0
 10
14.8992337801
 20
13.066317386
 30
0.0
 10
14.9107180153
 20
13.0767869925
 30
0.0
 10
14.9224299066
 20
13.0912626808
 30
0.0
 10
14.9287644523
 20
13.1045508047
 30
0.0
 10
14.9308265
 20
13.1112235934
 30
0.0
  0
SPLINE
  5
3E0
100
AcDbEntity
  8
0
100
AcDbSpline
 62
7
  6
CONTINUOUS
 70
0
 71
3
 72
17
 73
13
 74
0
 42
0.0000001
 43
0.0000001
 44
0.0000000001
 40
0.0
 40
0.0
 40
0.0
 40
0.0
 40
0.0517754558
 40
0.1040941918
 40
0.1576055611
 40
0.2128498237
 40
0.3296726181
 40
0.4560507159
 40
0.5904008927
 40
0.7291196844
 40
0.8673535573
 40
1.0
 40
1.0
 40
1.0
 40
1.0
 10
14.9503976477
 20
12.34766172
 30
0.0
 10
14.9512453831
 20
12.3459338058
 30
0.0
 10
14.9526339376
 20
12.342294696
 30
0.0
 10
14.9537028278
 20
12.3365037775
 30
0.0
 10
14.9537378227
 20
12.3304857233
 30
0.0
 10
14.9523897077
 20
12.322175385
 30
0.0
 10
14.9480198759
 20
12.3117917052
 30
0.0
 10
14.9393221839
 20
12.3006125461
 30
0.0
 10
14.9277624385
 20
12.2911204001
 30
0.0
 10
14.9141871477
 20
12.2838840278
 30
0.0
 10
14.8995761373
 20
12.2793132079
 30
0.0
 10
14.8894860039
 20
12.2781861944
 30
0.0
 10
14.8845550918
 20
12.2781861944
 30
0.0
  0
SPLINE
  5
3E1
100
AcDbEntity
  8
0
100
AcDbSpline
 62
7
  6
CONTINUOUS
 70
0
 71
3
 72
9
 73
5
 74
0
 42
0.0000001
 43
0.0000001
 44
0.0000000001
 40
0.0
 40
0.0
 40
0.0
 40
0.0
 40
0.4959490655
 40
1.0
 40
1.0
 40
1.0
 40
1.0
 10
14.8208300516
 20
13.0212236116
 30
0.0
 10
14.828203336
 20
13.0262931316
 30
0.0
 10
14.8434496493
 20
13.0359851037
 30
0.0
 10
14.8596346901
 20
13.044060777
 30
0.0
 10
14.8680002727
 20
13.0476272399
 30
0.0
  0
SPLINE
  5
3E2
100
AcDbEntity
  8
0
100
AcDbSpline
 62
7
  6
CONTINUOUS
 70
0
 71
3
 72
9
 73
5
 74
0
 42
0.0000001
 43
0.0000001
 44
0.0000000001
 40
0.0
 40
0.0
 40
0.0
 40
0.0
 40
0.480363993
 40
1.0
 40
1.0
 40
1.0
 40
1.0
 10
14.7816533375
 20
13.0476272399
 30
0.0
 10
14.7882030613
 20
13.043835964
 30
0.0
 10
14.8014917988
 20
13.0353436708
 30
0.0
 10
14.8142708856
 20
13.026122327
 30
0.0
 10
14.8208300516
 20
13.0212236116
 30
0.0
  0
SPLINE
  5
3E3
100
AcDbEntity
  8
0
100
AcDbSpline
 62
7
  6
CONTINUOUS
 70
0
 71
3
 72
9
 73
5
 74
0
 42
0.0000001
 43
0.0000001
 44
0.0000000001
 40
0.0
 40
0.0
 40
0.0
 40
0.0
 40
0.5014598424
 40
1.0
 40
1.0
 40
1.0
 40
1.0
 10
14.8680002727
 20
13.0476272399
 30
0.0
 10
14.8764167859
 20
13.0512154158
 30
0.0
 10
14.8936430225
 20
13.0573648926
 30
0.0
 10
14.9113782341
 20
13.0617449666
 30
0.0
 10
14.9202788266
 20
13.0636211806
 30
0.0
  0
SPLINE
  5
3E4
100
AcDbEntity
  8
0
100
AcDbSpline
 62
7
  6
CONTINUOUS
 70
0
 71
3
 72
13
 73
9
 74
0
 42
0.0000001
 43
0.0000001
 44
0.0000000001
 40
0.0
 40
0.0
 40
0.0
 40
0.0
 40
0.1161502758
 40
0.233809724
 40
0.3535650195
 40
0.4759496789
 40
0.7302964769
 40
1.0
 40
1.0
 40
1.0
 40
1.0
 10
14.2242000951
 20
12.1979414886
 30
0.0
 10
14.2223600708
 20
12.1876294038
 30
0.0
 10
14.2196112488
 20
12.1666884772
 30
0.0
 10
14.2183210797
 20
12.134788997
 30
0.0
 10
14.2198388503
 20
12.1023351256
 30
0.0
 10
14.225671752
 20
12.0578956135
 30
0.0
 10
14.240266083
 20
12.0012041107
 30
0.0
 10
14.2585179389
 20
11.9574372749
 30
0.0
 10
14.2692332987
 20
11.9356016675
 30
0.0
  0
SPLINE
  5
3E5
100
AcDbEntity
  8
0
100
AcDbSpline
 62
7
  6
CONTINUOUS
 70
0
 71
3
 72
9
 73
5
 74
0
 42
0.0000001
 43
0.0000001
 44
0.0000000001
 40
0.0
 40
0.0
 40
0.0
 40
0.0
 40
0.5164481827
 40
1.0
 40
1.0
 40
1.0
 40
1.0
 10
14.9202788266
 20
13.0636211806
 30
0.0
 10
14.9216054371
 20
13.0719143759
 30
0.0
 10
14.9245039346
 20
13.0879235311
 30
0.0
 10
14.9285047751
 20
13.103710489
 30
0.0
 10
14.9308265
 20
13.1112235934
 30
0.0
  0
SPLINE
  5
3E6
100
AcDbEntity
  8
0
100
AcDbSpline
 62
7
  6
CONTINUOUS
 70
0
 71
3
 72
9
 73
5
 74
0
 42
0.0000001
 43
0.0000001
 44
0.0000000001
 40
0.0
 40
0.0
 40
0.0
 40
0.0
 40
0.5275876137
 40
1.0
 40
1.0
 40
1.0
 40
1.0
 10
14.9308265
 20
13.1112235934
 30
0.0
 10
14.9329245168
 20
13.1180127782
 30
0.0
 10
14.9375157524
 20
13.1307056247
 30
0.0
 10
14.9434304329
 20
13.1428332799
 30
0.0
 10
14.9464825061
 20
13.1484163185
 30
0.0
  0
SPLINE
  5
3E7
100
AcDbEntity
  8
0
100
AcDbSpline
 62
7
  6
CONTINUOUS
 70
0
 71
3
 72
9
 73
5
 74
0
 42
0.0000001
 43
0.0000001
 44
0.0000000001
 40
0.0
 40
0.0
 40
0.0
 40
0.0
 40
0.4663064269
 40
1.0
 40
1.0
 40
1.0
 40
1.0
 10
14.7475849561
 20
13.0636211806
 30
0.0
 10
14.7530938063
 20
13.0616348634
 30
0.0
 10
14.7647257791
 20
13.0568508271
 30
0.0
 10
14.7758527508
 20
13.0509848815
 30
0.0
 10
14.7816533375
 20
13.0476272399
 30
0.0
  0
SPLINE
  5
3E8
100
AcDbEntity
  8
0
100
AcDbSpline
 62
7
  6
CONTINUOUS
 70
0
 71
3
 72
15
 73
11
 74
0
 42
0.0000001
 43
0.0000001
 44
0.0000000001
 40
0.0
 40
0.0
 40
0.0
 40
0.0
 40
0.1188190671
 40
0.2401105859
 40
0.3639968102
 40
0.4902440611
 40
0.6181509524
 40
0.7464666317
 40
0.8740133383
 40
1.0
 40
1.0
 40
1.0
 40
1.0
 10
14.935467569
 20
13.029204405
 30
0.0
 10
14.9329438267
 20
13.0266975508
 30
0.0
 10
14.9277162588
 20
13.021756986
 30
0.0
 10
14.9193238945
 20
13.0147918773
 30
0.0
 10
14.9102454718
 20
13.0083506171
 30
0.0
 10
14.9004817672
 20
13.0025955522
 30
0.0
 10
14.8900774156
 20
12.9977675097
 30
0.0
 10
14.8792074497
 20
12.9939906248
 30
0.0
 10
14.8680992378
 20
12.9912354772
 30
0.0
 10
14.8606056849
 20
12.9899809552
 30
0.0
 10
14.8568664941
 20
12.9894862709
 30
0.0
  0
ENDSEC
  0
SECTION
  2
OBJECTS
  0
DICTIONARY
  5
C
100
AcDbDictionary
280
0
281
1
  3
ACAD_GROUP
350
D
  3
ACAD_MLINESTYLE
350
17
  3
ACAD_LAYOUT
350
1A
  3
ACAD_PLOTSETTINGS
350
19
  3
ACAD_PLOTSTYLENAME
350
E
  0
DICTIONARY
  5
D
102
{ACAD_REACTORS
330
C
102
}
100
AcDbDictionary
280
0
281
1
  0
ACDBDICTIONARYWDFLT
  5
E
102
{ACAD_REACTORS
330
C
102
}
100
AcDbDictionary
281
1
  3
Normal
350
F
100
AcDbDictionaryWithDefault
340
F
  0
DICTIONARY
  5
17
102
{ACAD_REACTORS
330
C
102
}
100
AcDbDictionary
280
0
281
1
  3
Standard
350
18
  0
DICTIONARY
  5
19
102
{ACAD_REACTORS
330
C
102
}
100
AcDbDictionary
281
1
  0
DICTIONARY
  5
1A
102
{ACAD_REACTORS
330
C
102
}
100
AcDbDictionary
281
1
  3
Model
350
3E9
  3
Layout1
350
3EA
  0
ACDBPLACEHOLDER
  5
F
102
{ACAD_REACTORS
330
E
102
}
  0
MLINESTYLE
  5
18
102
{ACAD_REACTORS
330
17
102
}
100
AcDbMlineStyle
  2
STANDARD
 70
0
  3

 62
256
 51
90.0
 52
90.0
 71
2
 49
0.5
 62
256
  6
BYLAYER
 49
-0.5
 62
256
  6
BYLAYER
  0
LAYOUT
  5
3E9
102
{ACAD_REACTORS
330
1A
102
}
100
AcDbPlotSettings
  1

  2
none_device
  4
ANSI_C_(22.00_x_17.00_Inches)
  6

 40
0.0
 41
0.0
 42
0.0
 43
0.0
 44
558.8
 45
431.8
 46
0.0
 47
0.0
 48
0.0
 49
0.0
140
0.0
141
0.0
142
1.0
143
1.0
 70
1024
 72
0
 73
0
 74
0
  7

 75
0
147
1.0
148
0.0
149
0.0
100
AcDbLayout
  1
Model
 70
0
 71
0
 10
0.0
 20
0.0
 11
22.0
 21
17.0
 12
0.0
 22
0.0
 32
0.0
 14
0.0
 24
0.0
 34
0.0
 15
0.0
 25
0.0
 35
0.0
146
0.0
 13
0.0
 23
0.0
 33
0.0
 16
1.0
 26
0.0
 36
0.0
 17
0.0
 27
1.0
 37
0.0
 76
0
330
217
345
0
346
0
  0
LAYOUT
  5
3EA
102
{ACAD_REACTORS
330
1A
102
}
100
AcDbPlotSettings
  1

  2
none_device
  4
ANSI_C_(22.00_x_17.00_Inches)
  6

 40
0.0
 41
0.0
 42
0.0
 43
0.0
 44
558.8
 45
431.8
 46
0.0
 47
0.0
 48
0.0
 49
0.0
140
0.0
141
0.0
142
1.0
143
1.0
 70
0
 72
0
 73
0
 74
0
  7

 75
0
147
1.0
148
0.0
149
0.0
100
AcDbLayout
  1
Layout1
 70
0
 71
1
 10
0.0
 20
0.0
 11
22.0
 21
17.0
 12
0.0
 22
0.0
 32
0.0
 14
0.0
 24
0.0
 34
0.0
 15
0.0
 25
0.0
 35
0.0
146
0.0
 13
0.0
 23
0.0
 33
0.0
 16
1.0
 26
0.0
 36
0.0
 17
0.0
 27
1.0
 37
0.0
 76
0
330
218
345
0
346
0
  0
ENDSEC
  0
EOF