999
DXF file: _cgs_temp_output.dxf
999
Pro/ENGINEER 2016360 by Parametric Technology Corporation
  0
SECTION
  2
HEADER
  9
$ACADVER
  1
AC1021
  9
$DWGCODEPAGE
  3
ANSI_1252
  9
$EXTMAX
 10
22.0
 20
17.0
 30
0.0
  9
$EXTMIN
 10
0.0
 20
0.0
 30
0.0
  9
$LIMMIN
 10
0.0
 20
0.0
  9
$LIMMAX
 10
22.0
 20
17.0
  9
$VIEWCTR
 10
11.0
 20
8.5
  9
$VIEWSIZE
 40
17.0
  9
$CLAYER
  8
0
  9
$LTSCALE
 40
1.21
  9
$CELTYPE
  6
BYLAYER
  9
$DIMSCALE
 40
1.0
  9
$DIMASZ
 40
0.1875
  9
$DIMEXO
 40
0.0625
  9
$DIMDLI
 40
0.836
  9
$DIMEXE
 40
0.125
  9
$DIMCEN
 40
0.198
  9
$DIMLFAC
 40
1.0
  9
$DIMBLK
  1
_CLOSED
  9
$DIMALT
 70
0
  9
$DIMALTF
 40
25.4
  9
$DIMTXT
 40
0.15625
  9
$DIMTOL
 70
0
  9
$DIMLIM
 70
0
  9
$DIMTFAC
 40
1.0
  9
$DIMGAP
 40
0.09
  9
$DIMDSEP
 70
46
  9
$AUNITS
 70
0
  9
$PDMODE
 70
3
  9
$PDSIZE
 40
0.3125
  9
$HANDSEED
  5
377
  9
$TILEMODE
 70
1
  9
$MEASUREMENT
 70
0
  9
$INSUNITS
 70
1
  0
ENDSEC
  0
SECTION
  2
CLASSES
  0
CLASS
  1
ACDBDICTIONARYWDFLT
  2
AcDbDictionaryWithDefault
  3
AutoCAD 2000
 90
0
 91
1
280
0
281
0
  0
CLASS
  1
ACDBPLACEHOLDER
  2
AcDbPlaceHolder
  3
AutoCAD 2000
 90
0
 91
1
280
0
281
0
  0
CLASS
  1
LAYOUT
  2
AcDbLayout
  3
AutoCAD 2000
 90
0
 91
0
280
0
281
0
  0
ENDSEC
  0
SECTION
  2
TABLES
  0
TABLE
  2
VPORT
  5
8
100
AcDbSymbolTable
 70
2
  0
VPORT
  5
1F4
100
AcDbSymbolTableRecord
100
AcDbViewportTableRecord
  2
*ACTIVE
 70
0
 10
0.0
 20
0.0
 11
1.0
 21
1.0
 12
11.0
 22
8.5
 13
0.0
 23
0.0
 14
1.0
 24
1.0
 15
0.0
 25
0.0
 16
0.0
 26
0.0
 36
1.0
 17
0.0
 27
0.0
 37
0.0
 40
17.0
 41
1.2941176471
 42
50.0
 43
0.0
 44
0.0
 50
0.0
 51
0.0
 71
0
 72
100
 73
1
 74
1
 75
0
 76
0
 77
0
 78
0
  0
ENDTAB
  0
TABLE
  2
LTYPE
  5
5
100
AcDbSymbolTable
 70
6
  0
LTYPE
  5
14
100
AcDbSymbolTableRecord
100
AcDbLinetypeTableRecord
  2
BYBLOCK
 70
0
  3

 72
65
 73
0
 40
0.0
  0
LTYPE
  5
15
100
AcDbSymbolTableRecord
100
AcDbLinetypeTableRecord
  2
BYLAYER
 70
0
  3

 72
65
 73
0
 40
0.0
  0
LTYPE
  5
16
100
AcDbSymbolTableRecord
100
AcDbLinetypeTableRecord
  2
CONTINUOUS
 70
64
  3
Solid line
 72
65
 73
0
 40
0.0
  0
LTYPE
  5
1F5
100
AcDbSymbolTableRecord
100
AcDbLinetypeTableRecord
  2
CENTER
 70
64
  3
____ _ ____ _ ____ _ ____ _ ____ _ ____ _ ____
 72
65
 73
4
 40
0.6
 49
0.375
 74
0
 49
-0.075
 74
0
 49
0.075
 74
0
 49
-0.075
 74
0
  0
LTYPE
  5
1F6
100
AcDbSymbolTableRecord
100
AcDbLinetypeTableRecord
  2
HIDDEN
 70
64
  3
- - - - - - - - - - - - - - - - - - - -
 72
65
 73
2
 40
0.2
 49
0.1
 74
0
 49
-0.1
 74
0
  0
LTYPE
  5
1F7
100
AcDbSymbolTableRecord
100
AcDbLinetypeTableRecord
  2
PHANTOM
 70
64
  3
_____ _ _ _____ _ _ _____ _ _ _____
 72
65
 73
6
 40
0.8
 49
0.45
 74
0
 49
-0.05
 74
0
 49
0.1
 74
0
 49
-0.05
 74
0
 49
0.1
 74
0
 49
-0.05
 74
0
  0
LTYPE
  5
1F8
100
AcDbSymbolTableRecord
100
AcDbLinetypeTableRecord
  2
DOT
 70
64
  3
. . . . . . . . . . . . . . . . . . . .
 72
65
 73
2
 40
0.2
 49
0.1
 74
0
 49
-0.1
 74
0
  0
LTYPE
  5
1F9
100
AcDbSymbolTableRecord
100
AcDbLinetypeTableRecord
  2
DASHED
 70
64
  3
- - - - - - - - - - - - - - - - - - - -
 72
65
 73
2
 40
0.2
 49
0.1
 74
0
 49
-0.1
 74
0
  0
ENDTAB
  0
TABLE
  2
LAYER
  5
2
100
AcDbSymbolTable
 70
36
  0
LAYER
  5
10
100
AcDbSymbolTableRecord
100
AcDbLayerTableRecord
  2
0
 70
0
 62
7
  6
CONTINUOUS
370
-3
390
F
  0
LAYER
  5
1FA
100
AcDbSymbolTableRecord
100
AcDbLayerTableRecord
  2
DEFAULT_1
 70
0
 62
7
  6
CENTER
370
-3
390
F
  0
LAYER
  5
1FB
100
AcDbSymbolTableRecord
100
AcDbLayerTableRecord
  2
DEFAULT_2
 70
0
 62
8
  6
HIDDEN
370
-3
390
F
  0
LAYER
  5
1FC
100
AcDbSymbolTableRecord
100
AcDbLayerTableRecord
  2
DEFAULT_3
 70
0
 62
7
  6
PHANTOM
370
-3
390
F
  0
LAYER
  5
1FD
100
AcDbSymbolTableRecord
100
AcDbLayerTableRecord
  2
01_ALL_DTM_PLN
 70
0
 62
7
  6
CONTINUOUS
370
-3
390
F
  0
LAYER
  5
1FE
100
AcDbSymbolTableRecord
100
AcDbLayerTableRecord
  2
01__ASM_ALL_DTM_PLN
 70
0
 62
7
  6
CONTINUOUS
370
-3
390
F
  0
LAYER
  5
1FF
100
AcDbSymbolTableRecord
100
AcDbLayerTableRecord
  2
01__ASM_DEF_DTM_PLN
 70
0
 62
7
  6
CONTINUOUS
370
-3
390
F
  0
LAYER
  5
200
100
AcDbSymbolTableRecord
100
AcDbLayerTableRecord
  2
01___PRT_ALL_DTM_PLN
 70
0
 62
7
  6
CONTINUOUS
370
-3
390
F
  0
LAYER
  5
201
100
AcDbSymbolTableRecord
100
AcDbLayerTableRecord
  2
01___PRT_DEF_DTM_PLN
 70
0
 62
7
  6
CONTINUOUS
370
-3
390
F
  0
LAYER
  5
202
100
AcDbSymbolTableRecord
100
AcDbLayerTableRecord
  2
02_ALL_AXES
 70
0
 62
7
  6
CONTINUOUS
370
-3
390
F
  0
LAYER
  5
203
100
AcDbSymbolTableRecord
100
AcDbLayerTableRecord
  2
02__ASM_ALL_AXES
 70
0
 62
7
  6
CONTINUOUS
370
-3
390
F
  0
LAYER
  5
204
100
AcDbSymbolTableRecord
100
AcDbLayerTableRecord
  2
02___PRT_ALL_AXES
 70
0
 62
7
  6
CONTINUOUS
370
-3
390
F
  0
LAYER
  5
205
100
AcDbSymbolTableRecord
100
AcDbLayerTableRecord
  2
03_ALL_CURVES
 70
0
 62
7
  6
CONTINUOUS
370
-3
390
F
  0
LAYER
  5
206
100
AcDbSymbolTableRecord
100
AcDbLayerTableRecord
  2
03__ASM_ALL_CURVES
 70
0
 62
7
  6
CONTINUOUS
370
-3
390
F
  0
LAYER
  5
207
100
AcDbSymbolTableRecord
100
AcDbLayerTableRecord
  2
03___PRT_ALL_CURVES
 70
0
 62
7
  6
CONTINUOUS
370
-3
390
F
  0
LAYER
  5
208
100
AcDbSymbolTableRecord
100
AcDbLayerTableRecord
  2
04_ALL_DTM_PNT
 70
0
 62
7
  6
CONTINUOUS
370
-3
390
F
  0
LAYER
  5
209
100
AcDbSymbolTableRecord
100
AcDbLayerTableRecord
  2
04__ASM_ALL_DTM_PNT
 70
0
 62
7
  6
CONTINUOUS
370
-3
390
F
  0
LAYER
  5
20A
100
AcDbSymbolTableRecord
100
AcDbLayerTableRecord
  2
04___PRT_ALL_DTM_PNT
 70
0
 62
7
  6
CONTINUOUS
370
-3
390
F
  0
LAYER
  5
20B
100
AcDbSymbolTableRecord
100
AcDbLayerTableRecord
  2
05_ALL_DTM_CSYS
 70
0
 62
7
  6
CONTINUOUS
370
-3
390
F
  0
LAYER
  5
20C
100
AcDbSymbolTableRecord
100
AcDbLayerTableRecord
  2
05__ASM_ALL_DTM_CSYS
 70
0
 62
7
  6
CONTINUOUS
370
-3
390
F
  0
LAYER
  5
20D
100
AcDbSymbolTableRecord
100
AcDbLayerTableRecord
  2
05__ASM_DEF_DTM_CSYS
 70
0
 62
7
  6
CONTINUOUS
370
-3
390
F
  0
LAYER
  5
20E
100
AcDbSymbolTableRecord
100
AcDbLayerTableRecord
  2
05___PRT_ALL_DTM_CSYS
 70
0
 62
7
  6
CONTINUOUS
370
-3
390
F
  0
LAYER
  5
20F
100
AcDbSymbolTableRecord
100
AcDbLayerTableRecord
  2
05___PRT_DEF_DTM_CSYS
 70
0
 62
7
  6
CONTINUOUS
370
-3
390
F
  0
LAYER
  5
210
100
AcDbSymbolTableRecord
100
AcDbLayerTableRecord
  2
06_ALL_SURFS
 70
0
 62
7
  6
CONTINUOUS
370
-3
390
F
  0
LAYER
  5
211
100
AcDbSymbolTableRecord
100
AcDbLayerTableRecord
  2
06__ASM_ALL_SURFS
 70
0
 62
7
  6
CONTINUOUS
370
-3
390
F
  0
LAYER
  5
212
100
AcDbSymbolTableRecord
100
AcDbLayerTableRecord
  2
06___PRT_ALL_SURFS
 70
0
 62
7
  6
CONTINUOUS
370
-3
390
F
  0
LAYER
  5
213
100
AcDbSymbolTableRecord
100
AcDbLayerTableRecord
  2
07__ASM_ALL_SKELETONS
 70
0
 62
7
  6
CONTINUOUS
370
-3
390
F
  0
LAYER
  5
214
100
AcDbSymbolTableRecord
100
AcDbLayerTableRecord
  2
NONE
 70
0
 62
7
  6
CONTINUOUS
370
-3
390
F
  0
LAYER
  5
215
100
AcDbSymbolTableRecord
100
AcDbLayerTableRecord
  2
SHELL
 70
0
 62
7
  6
CONTINUOUS
370
-3
390
F
  0
LAYER
  5
216
100
AcDbSymbolTableRecord
100
AcDbLayerTableRecord
  2
_13256
 70
0
 62
7
  6
CONTINUOUS
370
-3
390
F
  0
ENDTAB
  0
TABLE
  2
STYLE
  5
3
100
AcDbSymbolTable
 70
1
  0
STYLE
  5
11
100
AcDbSymbolTableRecord
100
AcDbTextStyleTableRecord
  2
STANDARD
 70
0
 40
0.0
 41
0.8
 50
0.0
 71
0
 42
0.2
  3
txt
  4

  0
STYLE
  5
217
100
AcDbSymbolTableRecord
100
AcDbTextStyleTableRecord
  2
TEXTSTYLE_1
 70
0
 40
0.0
 41
0.8
 50
0.0
 71
0
 42
0.2
  3
gdt
  4

  0
ENDTAB
  0
TABLE
  2
VIEW
  5
6
100
AcDbSymbolTable
 70
0
  0
ENDTAB
  0
TABLE
  2
UCS
  5
7
100
AcDbSymbolTable
 70
0
  0
ENDTAB
  0
TABLE
  2
APPID
  5
9
100
AcDbSymbolTable
 70
1
  0
APPID
  5
218
100
AcDbSymbolTableRecord
100
AcDbRegAppTableRecord
  2
ACAD
 70
0
  0
ENDTAB
  0
TABLE
  2
BLOCK_RECORD
  5
1
100
AcDbSymbolTable
 70
0
  0
BLOCK_RECORD
  5
219
100
AcDbSymbolTableRecord
100
AcDbBlockTableRecord
  2
*Model_Space
  0
BLOCK_RECORD
  5
21A
100
AcDbSymbolTableRecord
100
AcDbBlockTableRecord
  2
*Paper_Space
  0
ENDTAB
  0
TABLE
  2
DIMSTYLE
  5
A
100
AcDbSymbolTable
 70
1
100
AcDbDimStyleTable
 71
0
  0
DIMSTYLE
105
21B
100
AcDbSymbolTableRecord
100
AcDbDimStyleTableRecord
  2
STANDARD
 70
0
  3

  4

 40
1.0
 41
0.1875
 42
0.0625
 43
0.38
 44
0.125
 45
0.0
 46
0.0
 47
0.0001
 48
0.0001
140
0.15625
141
0.09
142
0.0
143
25.4
144
1.0
145
0.0
146
1.0
147
0.09
 71
0.0
 72
0.0
 73
1
 74
1
 75
0
 76
0
 77
0
 78
4
 79
1
170
0
171
3
172
0
173
0
174
0
175
0
176
0
177
0
178
0
270
2
179
4
271
4
272
4
273
2
274
2
275
0
280
0
281
0
282
0
283
1
284
4
285
0
286
0
287
3
288
0
340
11
278
46
  0
ENDTAB
  0
ENDSEC
  0
SECTION
  2
BLOCKS
  0
BLOCK
  5
20
100
AcDbEntity
  8
0
100
AcDbBlockBegin
  2
*Model_Space
 70
0
 10
0.0
 20
0.0
 30
0.0
  3
*Model_Space
  1

  0
ENDBLK
  5
21
100
AcDbEntity
  8
0
100
AcDbBlockEnd
  0
BLOCK
  5
1C
100
AcDbEntity
  8
0
100
AcDbBlockBegin
  2
*Paper_Space
 70
0
 10
0.0
 20
0.0
 30
0.0
  3
*Paper_Space
  1

  0
ENDBLK
  5
1D
100
AcDbEntity
  8
0
100
AcDbBlockEnd
  0
ENDSEC
  0
SECTION
  2
ENTITIES
  0
MTEXT
  5
21C
100
AcDbEntity
  8
0
100
AcDbMText
 62
7
  6
CONTINUOUS
  7
STANDARD
 71
1
 72
1
 10
15.9560215477
 20
0.9479130325
 30
0.0
 11
1.0
 21
0.0
 31
0.0
 44
0.9
  1
SCALE: 1:0.333
 40
0.3
 41
3.36
  0
LINE
  5
21D
100
AcDbEntity
  8
0
100
AcDbLine
 62
7
  6
CONTINUOUS
 10
0.0
 20
0.0
 11
0.0
 21
17.0
  0
LINE
  5
21E
100
AcDbEntity
  8
0
100
AcDbLine
 62
7
  6
CONTINUOUS
 10
0.0
 20
0.0
 11
22.0
 21
0.0
  0
LINE
  5
21F
100
AcDbEntity
  8
0
100
AcDbLine
 62
7
  6
CONTINUOUS
 10
0.0
 20
17.0
 11
22.0
 21
17.0
  0
LINE
  5
220
100
AcDbEntity
  8
0
100
AcDbLine
 62
7
  6
CONTINUOUS
 10
22.0
 20
0.0
 11
22.0
 21
17.0
  0
LINE
  5
221
100
AcDbEntity
  8
0
100
AcDbLine
 62
7
  6
CONTINUOUS
 10
5.8557683382
 20
7.5436179977
 11
4.1068691753
 21
5.7947188347
  0
LINE
  5
222
100
AcDbEntity
  8
0
100
AcDbLine
 62
7
  6
CONTINUOUS
 10
4.1068691753
 20
5.2455209588
 11
5.8557683382
 21
3.4966217958
  0
LINE
  5
223
100
AcDbEntity
  8
0
100
AcDbLine
 62
7
  6
CONTINUOUS
 10
5.0035926203
 20
6.6233243265
 11
5.0271628464
 21
6.6468945526
  0
LINE
  5
224
100
AcDbEntity
  8
0
100
AcDbLine
 62
7
  6
CONTINUOUS
 10
5.0222558548
 20
6.5722196919
 11
5.078267481
 21
6.6282313181
  0
LINE
  5
225
100
AcDbEntity
  8
0
100
AcDbLine
 62
7
  6
CONTINUOUS
 10
5.0322893705
 20
6.5150780634
 11
5.1354091095
 21
6.6181978024
  0
LINE
  5
226
100
AcDbEntity
  8
0
100
AcDbLine
 62
7
  6
CONTINUOUS
 10
5.025454491
 20
6.4787804014
 11
5.1717067715
 21
6.6250326819
  0
LINE
  5
227
100
AcDbEntity
  8
0
100
AcDbLine
 62
7
  6
CONTINUOUS
 10
5.2183747639
 20
6.5768224812
 11
5.2183747639
 21
6.5783646896
  0
LINE
  5
228
100
AcDbEntity
  8
0
100
AcDbLine
 62
7
  6
CONTINUOUS
 10
5.7709922762
 20
7.3117865634
 11
5.7709922762
 21
6.8879734052
  0
LINE
  5
229
100
AcDbEntity
  8
0
100
AcDbLine
 62
7
  6
CONTINUOUS
 10
5.7709922762
 20
4.1522663883
 11
5.7709922762
 21
3.7284532301
  0
LINE
  5
22A
100
AcDbEntity
  8
0
100
AcDbLine
 62
7
  6
CONTINUOUS
 10
4.3387006095
 20
5.1607448968
 11
4.7815899395
 21
5.1607448968
  0
LINE
  5
22B
100
AcDbEntity
  8
0
100
AcDbLine
 62
7
  6
CONTINUOUS
 10
7.4982207846
 20
5.1607448968
 11
7.9220339428
 21
5.1607448968
  0
LINE
  5
22C
100
AcDbEntity
  8
0
100
AcDbLine
 62
7
  6
CONTINUOUS
 10
5.0721224834
 20
6.4321124091
 11
5.025454491
 21
6.4787804014
  0
LINE
  5
22D
100
AcDbEntity
  8
0
100
AcDbLine
 62
7
  6
CONTINUOUS
 10
5.0322893705
 20
6.5150780634
 11
5.0470207618
 21
6.5003466722
  0
LINE
  5
22E
100
AcDbEntity
  8
0
100
AcDbLine
 62
7
  6
CONTINUOUS
 10
5.08384924
 20
6.5666379329
 11
5.0985806313
 21
6.5519065416
  0
LINE
  5
22F
100
AcDbEntity
  8
0
100
AcDbLine
 62
7
  6
CONTINUOUS
 10
5.1051119947
 20
6.5453751782
 11
5.1339359703
 21
6.5165512026
  0
LINE
  5
230
100
AcDbEntity
  8
0
100
AcDbLine
 62
7
  6
CONTINUOUS
 10
5.1501405007
 20
6.6034664111
 11
5.1354091095
 21
6.6181978024
  0
LINE
  5
231
100
AcDbEntity
  8
0
100
AcDbLine
 62
7
  6
CONTINUOUS
 10
5.2183747639
 20
6.5783646896
 11
5.1717067715
 21
6.6250326819
  0
LINE
  5
232
100
AcDbEntity
  8
0
100
AcDbLine
 62
7
  6
CONTINUOUS
 10
6.4897422762
 20
3.7284532301
 11
6.4897422762
 21
4.1522663883
  0
LINE
  5
233
100
AcDbEntity
  8
0
100
AcDbLine
 62
7
  6
CONTINUOUS
 10
6.4897422762
 20
6.8879734052
 11
6.4897422762
 21
7.3117865634
  0
LINE
  5
234
100
AcDbEntity
  8
0
100
AcDbLine
 62
7
  6
CONTINUOUS
 10
7.9220339428
 20
5.8794948968
 11
7.4982207846
 21
5.8794948968
  0
LINE
  5
235
100
AcDbEntity
  8
0
100
AcDbLine
 62
7
  6
CONTINUOUS
 10
4.7801103375
 20
5.8794948968
 11
4.3387006095
 21
5.8794948968
  0
LINE
  5
236
100
AcDbEntity
  8
0
100
AcDbLine
 62
7
  6
CONTINUOUS
 10
5.0736646917
 20
6.4321124091
 11
5.0721224834
 21
6.4321124091
  0
LINE
  5
237
100
AcDbEntity
  8
0
100
AcDbLine
 62
7
  6
CONTINUOUS
 10
6.4049662141
 20
3.4966217958
 11
8.1538653771
 21
5.2455209588
  0
LINE
  5
238
100
AcDbEntity
  8
0
100
AcDbLine
 62
7
  6
CONTINUOUS
 10
8.1538653771
 20
5.7947188347
 11
6.4049662141
 21
7.5436179977
  0
LINE
  5
239
100
AcDbEntity
  8
0
100
AcDbLine
 62
7
  6
CONTINUOUS
 10
3.9198304172
 20
13.1875477814
 11
3.9198304172
 21
13.5375477814
  0
LINE
  5
23A
100
AcDbEntity
  8
0
100
AcDbLine
 62
7
  6
CONTINUOUS
 10
4.047373983
 20
13.204214448
 11
4.047373983
 21
13.5375477814
  0
LINE
  5
23B
100
AcDbEntity
  8
0
100
AcDbLine
 62
7
  6
CONTINUOUS
 10
4.6750387505
 20
12.166714448
 11
4.6750387505
 21
13.1625477814
  0
LINE
  5
23C
100
AcDbEntity
  8
0
100
AcDbLine
 62
7
  6
CONTINUOUS
 10
4.7167054172
 20
11.729214448
 11
4.7167054172
 21
12.141714448
  0
LINE
  5
23D
100
AcDbEntity
  8
0
100
AcDbLine
 62
7
  6
CONTINUOUS
 10
5.0759139172
 20
12.5171462385
 11
5.0759139172
 21
12.4329493242
  0
LINE
  5
23E
100
AcDbEntity
  8
0
100
AcDbLine
 62
7
  6
CONTINUOUS
 10
5.0906453084
 20
12.5171462385
 11
5.0906453084
 21
12.4329493242
  0
LINE
  5
23F
100
AcDbEntity
  8
0
100
AcDbLine
 62
7
  6
CONTINUOUS
 10
7.3583720839
 20
11.6625477814
 11
4.7833720839
 21
11.6625477814
  0
LINE
  5
240
100
AcDbEntity
  8
0
100
AcDbLine
 62
7
  6
CONTINUOUS
 10
5.0243540477
 20
12.3908508671
 11
4.9782643268
 21
12.4284829667
  0
LINE
  5
241
100
AcDbEntity
  8
0
100
AcDbLine
 62
7
  6
CONTINUOUS
 10
4.9782275472
 20
12.5215825657
 11
5.0243540477
 21
12.5592446956
  0
LINE
  5
242
100
AcDbEntity
  8
0
100
AcDbLine
 62
7
  6
CONTINUOUS
 10
5.0759139172
 20
12.5171462385
 11
5.0243540477
 21
12.5592446956
  0
LINE
  5
243
100
AcDbEntity
  8
0
100
AcDbLine
 62
7
  6
CONTINUOUS
 10
5.0906453084
 20
12.5171462385
 11
5.039085439
 21
12.5592446956
  0
LINE
  5
244
100
AcDbEntity
  8
0
100
AcDbLine
 62
7
  6
CONTINUOUS
 10
5.0759139172
 20
12.4329493242
 11
5.0243540477
 21
12.3908508671
  0
LINE
  5
245
100
AcDbEntity
  8
0
100
AcDbLine
 62
7
  6
CONTINUOUS
 10
5.0906453084
 20
12.4329493242
 11
5.039085439
 21
12.3908508671
  0
LINE
  5
246
100
AcDbEntity
  8
0
100
AcDbLine
 62
7
  6
CONTINUOUS
 10
7.4417054172
 20
12.141714448
 11
4.7000387505
 21
12.141714448
  0
LINE
  5
247
100
AcDbEntity
  8
0
100
AcDbLine
 62
7
  6
CONTINUOUS
 10
5.7114970839
 20
13.204214448
 11
5.7114970839
 21
13.1875477814
  0
LINE
  5
248
100
AcDbEntity
  8
0
100
AcDbLine
 62
7
  6
CONTINUOUS
 10
5.7962731459
 20
13.5375477814
 11
5.7962731459
 21
13.204214448
  0
LINE
  5
249
100
AcDbEntity
  8
0
100
AcDbLine
 62
7
  6
CONTINUOUS
 10
5.0456168024
 20
12.3556332944
 11
5.074440778
 21
12.3556332944
  0
LINE
  5
24A
100
AcDbEntity
  8
0
100
AcDbLine
 62
7
  6
CONTINUOUS
 10
5.0243540477
 20
12.3908508671
 11
5.039085439
 21
12.3908508671
  0
LINE
  5
24B
100
AcDbEntity
  8
0
100
AcDbLine
 62
7
  6
CONTINUOUS
 10
5.1475669183
 20
12.4153405379
 11
5.1187429426
 21
12.4153405379
  0
LINE
  5
24C
100
AcDbEntity
  8
0
100
AcDbLine
 62
7
  6
CONTINUOUS
 10
5.0906453084
 20
12.4329493242
 11
5.0759139172
 21
12.4329493242
  0
LINE
  5
24D
100
AcDbEntity
  8
0
100
AcDbLine
 62
7
  6
CONTINUOUS
 10
5.0759139172
 20
12.5171462385
 11
5.0906453084
 21
12.5171462385
  0
LINE
  5
24E
100
AcDbEntity
  8
0
100
AcDbLine
 62
7
  6
CONTINUOUS
 10
5.1187429426
 20
12.5347550249
 11
5.1475669183
 21
12.5347550249
  0
LINE
  5
24F
100
AcDbEntity
  8
0
100
AcDbLine
 62
7
  6
CONTINUOUS
 10
5.0243540477
 20
12.5592446956
 11
5.039085439
 21
12.5592446956
  0
LINE
  5
250
100
AcDbEntity
  8
0
100
AcDbLine
 62
7
  6
CONTINUOUS
 10
5.0456168024
 20
12.5944622683
 11
5.074440778
 21
12.5944622683
  0
LINE
  5
251
100
AcDbEntity
  8
0
100
AcDbLine
 62
7
  6
CONTINUOUS
 10
6.3454710218
 20
13.204214448
 11
6.3454710218
 21
13.5375477814
  0
LINE
  5
252
100
AcDbEntity
  8
0
100
AcDbLine
 62
7
  6
CONTINUOUS
 10
6.4302470839
 20
13.1875477814
 11
6.4302470839
 21
13.204214448
  0
LINE
  5
253
100
AcDbEntity
  8
0
100
AcDbLine
 62
7
  6
CONTINUOUS
 10
6.4052470839
 20
13.1625477814
 11
5.7364970839
 21
13.1625477814
  0
LINE
  5
254
100
AcDbEntity
  8
0
100
AcDbLine
 62
7
  6
CONTINUOUS
 10
3.9448304172
 20
13.1625477814
 11
4.7156805646
 21
13.1625477814
  0
LINE
  5
255
100
AcDbEntity
  8
0
100
AcDbLine
 62
7
  6
CONTINUOUS
 10
7.4517995695
 20
13.1625477814
 11
8.1969137505
 21
13.1625477814
  0
LINE
  5
256
100
AcDbEntity
  8
0
100
AcDbLine
 62
7
  6
CONTINUOUS
 10
8.0943701848
 20
13.204214448
 11
6.3454710218
 21
13.204214448
  0
LINE
  5
257
100
AcDbEntity
  8
0
100
AcDbLine
 62
7
  6
CONTINUOUS
 10
5.7962731459
 20
13.204214448
 11
4.047373983
 21
13.204214448
  0
LINE
  5
258
100
AcDbEntity
  8
03__ASM_ALL_CURVES
100
AcDbLine
 62
8
  6
PHANTOM
 10
8.2219137505
 20
13.5375477814
 11
3.9198304172
 21
13.5375477814
  0
LINE
  5
259
100
AcDbEntity
  8
0
100
AcDbLine
 62
7
  6
CONTINUOUS
 10
3.9198313397
 20
13.5375477814
 11
8.2219137505
 21
13.5375477814
  0
LINE
  5
25A
100
AcDbEntity
  8
0
100
AcDbLine
 62
7
  6
CONTINUOUS
 10
7.4250387505
 20
11.729214448
 11
7.4250387505
 21
12.141714448
  0
LINE
  5
25B
100
AcDbEntity
  8
0
100
AcDbLine
 62
7
  6
CONTINUOUS
 10
7.4667054172
 20
13.1375477814
 11
7.4667054172
 21
12.166714448
  0
LINE
  5
25C
100
AcDbEntity
  8
0
100
AcDbLine
 62
7
  6
CONTINUOUS
 10
8.0943701848
 20
13.5375477814
 11
8.0943701848
 21
13.204214448
  0
LINE
  5
25D
100
AcDbEntity
  8
0
100
AcDbLine
 62
7
  6
CONTINUOUS
 10
8.2219137505
 20
13.1875477814
 11
8.2219137505
 21
13.5375477814
  0
LINE
  5
25E
100
AcDbEntity
  8
0
100
AcDbLine
 62
7
  6
CONTINUOUS
 10
16.1478552569
 20
3.3095830378
 11
16.4978552569
 21
3.3095830378
  0
LINE
  5
25F
100
AcDbEntity
  8
0
100
AcDbLine
 62
7
  6
CONTINUOUS
 10
16.4978552569
 20
3.4371266035
 11
16.1645219236
 21
3.4371266035
  0
LINE
  5
260
100
AcDbEntity
  8
0
100
AcDbLine
 62
7
  6
CONTINUOUS
 10
15.1270219236
 20
4.0647913711
 11
16.0978552569
 21
4.0647913711
  0
LINE
  5
261
100
AcDbEntity
  8
0
100
AcDbLine
 62
7
  6
CONTINUOUS
 10
15.1020219236
 20
4.1064580378
 11
14.6895219236
 21
4.1064580378
  0
LINE
  5
262
100
AcDbEntity
  8
0
100
AcDbLine
 62
7
  6
CONTINUOUS
 10
14.6228552569
 20
4.1731357488
 11
14.6228552569
 21
6.7481136601
  0
LINE
  5
263
100
AcDbEntity
  8
0
100
AcDbLine
 62
7
  6
CONTINUOUS
 10
15.1020219236
 20
4.0897914371
 11
15.1020219236
 21
6.8314580378
  0
LINE
  5
264
100
AcDbEntity
  8
0
100
AcDbLine
 62
7
  6
CONTINUOUS
 10
16.1478552569
 20
5.1012497044
 11
16.1645219236
 21
5.1012497044
  0
LINE
  5
265
100
AcDbEntity
  8
0
100
AcDbLine
 62
7
  6
CONTINUOUS
 10
16.1645219236
 20
5.1860257665
 11
16.4978552569
 21
5.1860257665
  0
LINE
  5
266
100
AcDbEntity
  8
0
100
AcDbLine
 62
7
  6
CONTINUOUS
 10
16.4978552569
 20
5.7352236424
 11
16.1645219236
 21
5.7352236424
  0
LINE
  5
267
100
AcDbEntity
  8
0
100
AcDbLine
 62
7
  6
CONTINUOUS
 10
16.1645219236
 20
5.8199997044
 11
16.1478552569
 21
5.8199997044
  0
LINE
  5
268
100
AcDbEntity
  8
0
100
AcDbLine
 62
7
  6
CONTINUOUS
 10
16.1228552569
 20
3.3345830928
 11
16.1228552569
 21
4.0796972188
  0
LINE
  5
269
100
AcDbEntity
  8
0
100
AcDbLine
 62
7
  6
CONTINUOUS
 10
16.1228552569
 20
5.1262497044
 11
16.1228552569
 21
5.7949997044
  0
LINE
  5
26A
100
AcDbEntity
  8
0
100
AcDbLine
 62
7
  6
CONTINUOUS
 10
16.1228552569
 20
6.84155219
 11
16.1228552569
 21
7.5866663161
  0
LINE
  5
26B
100
AcDbEntity
  8
0
100
AcDbLine
 62
7
  6
CONTINUOUS
 10
16.1645219236
 20
3.4371266035
 11
16.1645219236
 21
5.1860257665
  0
LINE
  5
26C
100
AcDbEntity
  8
0
100
AcDbLine
 62
7
  6
CONTINUOUS
 10
16.1645219236
 20
5.7352236424
 11
16.1645219236
 21
7.4841228053
  0
LINE
  5
26D
100
AcDbEntity
  8
0
100
AcDbLine
 62
7
  6
CONTINUOUS
 10
16.4978552569
 20
7.6116654537
 11
16.4978552569
 21
3.3095839552
  0
LINE
  5
26E
100
AcDbEntity
  8
03__ASM_ALL_CURVES
100
AcDbLine
 62
8
  6
PHANTOM
 10
16.4978552569
 20
3.3095830378
 11
16.4978552569
 21
7.6116663711
  0
LINE
  5
26F
100
AcDbEntity
  8
0
100
AcDbLine
 62
7
  6
CONTINUOUS
 10
15.1020219236
 20
6.8147913711
 11
14.6895219236
 21
6.8147913711
  0
LINE
  5
270
100
AcDbEntity
  8
0
100
AcDbLine
 62
7
  6
CONTINUOUS
 10
15.1270219236
 20
6.8564580378
 11
16.0978552569
 21
6.8564580378
  0
LINE
  5
271
100
AcDbEntity
  8
0
100
AcDbLine
 62
7
  6
CONTINUOUS
 10
16.1645219236
 20
7.4841228053
 11
16.4978552569
 21
7.4841228053
  0
LINE
  5
272
100
AcDbEntity
  8
0
100
AcDbLine
 62
7
  6
CONTINUOUS
 10
16.1478552569
 20
7.6116663711
 11
16.4978552569
 21
7.6116663711
  0
LINE
  5
273
100
AcDbEntity
  8
0
100
AcDbLine
 62
7
  6
CONTINUOUS
 10
13.3928006085
 20
12.8159434588
 11
13.4775238216
 21
13.0901078771
  0
LINE
  5
274
100
AcDbEntity
  8
0
100
AcDbLine
 62
7
  6
CONTINUOUS
 10
13.4428943492
 20
12.8935878203
 11
13.5235831237
 21
13.1546967901
  0
LINE
  5
275
100
AcDbEntity
  8
0
100
AcDbLine
 62
7
  6
CONTINUOUS
 10
13.5235831237
 20
13.1546967901
 11
14.6009384599
 21
14.2418299433
  0
LINE
  5
276
100
AcDbEntity
  8
0
100
AcDbLine
 62
7
  6
CONTINUOUS
 10
14.5202496854
 20
13.9807209734
 11
13.4428943492
 21
12.8935878203
  0
LINE
  5
277
100
AcDbEntity
  8
0
100
AcDbLine
 62
7
  6
CONTINUOUS
 10
13.8973049453
 20
12.7139044991
 11
13.8973483523
 21
12.6968011863
  0
LINE
  5
278
100
AcDbEntity
  8
0
100
AcDbLine
 62
7
  6
CONTINUOUS
 10
13.8963540124
 20
12.7615790135
 11
13.8888257575
 21
12.7372175716
  0
LINE
  5
279
100
AcDbEntity
  8
0
100
AcDbLine
 62
7
  6
CONTINUOUS
 10
13.9727307265
 20
12.8672715379
 11
13.9523494891
 21
12.8013178293
  0
LINE
  5
27A
100
AcDbEntity
  8
0
100
AcDbLine
 62
7
  6
CONTINUOUS
 10
13.8056716217
 20
12.3223088371
 11
13.9181409587
 21
12.686259745
  0
LINE
  5
27B
100
AcDbEntity
  8
0
100
AcDbLine
 62
7
  6
CONTINUOUS
 10
13.9771122644
 20
12.8770909603
 11
14.0507637741
 21
13.1154273331
  0
LINE
  5
27C
100
AcDbEntity
  8
0
100
AcDbLine
 62
7
  6
CONTINUOUS
 10
13.9907929275
 20
12.8581143583
 11
13.9704116901
 21
12.7921606496
  0
LINE
  5
27D
100
AcDbEntity
  8
0
100
AcDbLine
 62
7
  6
CONTINUOUS
 10
13.8394291655
 20
12.2904236905
 11
13.7395768071
 21
11.9673013403
  0
LINE
  5
27E
100
AcDbEntity
  8
0
100
AcDbLine
 62
7
  6
CONTINUOUS
 10
13.9415758675
 20
12.8533435204
 11
13.9511594795
 21
12.8681982634
  0
LINE
  5
27F
100
AcDbEntity
  8
0
100
AcDbLine
 62
7
  6
CONTINUOUS
 10
14.496501545
 20
13.9296613186
 11
14.5005359837
 21
13.9427167671
  0
LINE
  5
280
100
AcDbEntity
  8
0
100
AcDbLine
 62
7
  6
CONTINUOUS
 10
14.6009384599
 20
14.2418299433
 11
14.5202496854
 21
13.9807209734
  0
LINE
  5
281
100
AcDbEntity
  8
0
100
AcDbLine
 62
7
  6
CONTINUOUS
 10
13.9523494891
 20
12.8013178293
 11
13.9103970045
 21
12.7362908461
  0
LINE
  5
282
100
AcDbEntity
  8
0
100
AcDbLine
 62
7
  6
CONTINUOUS
 10
13.9704116901
 20
12.7921606496
 11
13.9284592055
 21
12.7271336665
  0
LINE
  5
283
100
AcDbEntity
  8
0
100
AcDbLine
 62
7
  6
CONTINUOUS
 10
13.9822517109
 20
12.8814588783
 11
13.9869707164
 21
12.8849009042
  0
LINE
  5
284
100
AcDbEntity
  8
0
100
AcDbLine
 62
7
  6
CONTINUOUS
 10
14.056522035
 20
12.8514366451
 11
14.0541472088
 21
12.8594831942
  0
LINE
  5
285
100
AcDbEntity
  8
0
100
AcDbLine
 62
7
  6
CONTINUOUS
 10
15.0260944269
 20
13.9807209734
 11
15.1067832014
 21
14.2418299433
  0
LINE
  5
286
100
AcDbEntity
  8
0
100
AcDbLine
 62
7
  6
CONTINUOUS
 10
13.7399993273
 20
12.4865081488
 11
13.8406450125
 21
12.4354827714
  0
LINE
  5
287
100
AcDbEntity
  8
0
100
AcDbLine
 62
7
  6
CONTINUOUS
 10
13.8973483523
 20
12.6968011863
 11
13.9326895113
 21
12.6788839157
  0
LINE
  5
288
100
AcDbEntity
  8
0
100
AcDbLine
 62
7
  6
CONTINUOUS
 10
13.9279423405
 20
12.6954868335
 11
13.9632834995
 21
12.6775695629
  0
LINE
  5
289
100
AcDbEntity
  8
0
100
AcDbLine
 62
7
  6
CONTINUOUS
 10
13.8888257575
 20
12.7372175716
 11
13.9068879585
 21
12.728060392
  0
LINE
  5
28A
100
AcDbEntity
  8
0
100
AcDbLine
 62
7
  6
CONTINUOUS
 10
13.9103970045
 20
12.7362908461
 11
13.9284592055
 21
12.7271336665
  0
LINE
  5
28B
100
AcDbEntity
  8
0
100
AcDbLine
 62
7
  6
CONTINUOUS
 10
13.9704116901
 20
12.7921606496
 11
13.9523494891
 21
12.8013178293
  0
LINE
  5
28C
100
AcDbEntity
  8
0
100
AcDbLine
 62
7
  6
CONTINUOUS
 10
14.0227837135
 20
12.7697957911
 11
13.9874425545
 21
12.7877130617
  0
LINE
  5
28D
100
AcDbEntity
  8
0
100
AcDbLine
 62
7
  6
CONTINUOUS
 10
13.9727307265
 20
12.8672715379
 11
13.9907929275
 21
12.8581143583
  0
LWPOLYLINE
  5
28E
100
AcDbEntity
  8
0
100
AcDbPolyline
 62
7
  6
CONTINUOUS
 90
3
 70
0
 10
14.6379876619
 20
13.5505760612
 10
14.6382011557
 20
13.5500797963
 10
14.6383582404
 20
13.549559698
  0
LINE
  5
28F
100
AcDbEntity
  8
0
100
AcDbLine
 62
7
  6
CONTINUOUS
 10
14.0163487804
 20
12.8812536428
 11
14.0516899394
 21
12.8633363722
  0
LINE
  5
290
100
AcDbEntity
  8
0
100
AcDbLine
 62
7
  6
CONTINUOUS
 10
14.6379851285
 20
13.5505812545
 11
14.5094328497
 21
13.8125432267
  0
LINE
  5
291
100
AcDbEntity
  8
0
100
AcDbLine
 62
7
  6
CONTINUOUS
 10
17.1386219104
 20
12.4769881015
 11
16.7530323016
 21
12.4769881015
  0
LINE
  5
292
100
AcDbEntity
  8
0
100
AcDbLine
 62
7
  6
CONTINUOUS
 10
13.8534711296
 20
12.4769881015
 11
13.8381533485
 21
12.4769881015
  0
LINE
  5
293
100
AcDbEntity
  8
0
100
AcDbLine
 62
7
  6
CONTINUOUS
 10
13.9284592055
 20
12.7271336665
 11
13.9068879585
 21
12.728060392
  0
LINE
  5
294
100
AcDbEntity
  8
0
100
AcDbLine
 62
7
  6
CONTINUOUS
 10
13.8888257575
 20
12.7372175716
 11
13.9103970045
 21
12.7362908461
  0
LINE
  5
295
100
AcDbEntity
  8
0
100
AcDbLine
 62
7
  6
CONTINUOUS
 10
13.9511594795
 20
12.8681982634
 11
13.9727307265
 21
12.8672715379
  0
LINE
  5
296
100
AcDbEntity
  8
0
100
AcDbLine
 62
7
  6
CONTINUOUS
 10
15.302109252
 20
13.5773802042
 11
15.1748966443
 21
13.836612243
  0
LINE
  5
297
100
AcDbEntity
  8
0
100
AcDbLine
 62
7
  6
CONTINUOUS
 10
13.9984949838
 20
12.9462854655
 11
13.6305649923
 21
12.9462854655
  0
LINE
  5
298
100
AcDbEntity
  8
0
100
AcDbLine
 62
7
  6
CONTINUOUS
 10
16.5469204743
 20
12.9462854655
 11
16.9310335541
 21
12.9462854655
  0
LWPOLYLINE
  5
299
100
AcDbEntity
  8
0
100
AcDbPolyline
 62
7
  6
CONTINUOUS
 90
7
 70
0
 10
16.7370378195
 20
12.4701963005
 10
16.7383893862
 20
12.4715569282
 10
16.7404695554
 20
12.4731861275
 10
16.7432806849
 20
12.4747995586
 10
16.7467265593
 20
12.4761028336
 10
16.7506588329
 20
12.4768635734
 10
16.7530323516
 20
12.476987995
  0
LWPOLYLINE
  5
29A
100
AcDbEntity
  8
0
100
AcDbPolyline
 62
7
  6
CONTINUOUS
 90
4
 70
0
 10
16.7360745557
 20
12.4689542085
 10
16.7360552684
 20
12.4689208436
 10
16.7363023079
 20
12.4692842748
 10
16.7370378195
 20
12.4701963005
  0
LINE
  5
29B
100
AcDbEntity
  8
0
100
AcDbLine
 62
7
  6
CONTINUOUS
 10
17.1704246936
 20
12.8935878203
 11
15.0260944269
 21
13.9807209734
  0
LINE
  5
29C
100
AcDbEntity
  8
0
100
AcDbLine
 62
7
  6
CONTINUOUS
 10
16.4270272853
 20
11.4907953928
 11
16.3271749269
 21
11.1676730426
  0
LINE
  5
29D
100
AcDbEntity
  8
0
100
AcDbLine
 62
7
  6
CONTINUOUS
 10
16.4728881452
 20
11.4980765917
 11
16.7179802977
 21
12.2911950877
  0
LINE
  5
29E
100
AcDbEntity
  8
0
100
AcDbLine
 62
7
  6
CONTINUOUS
 10
16.5542596804
 20
11.7613949758
 11
17.2980224144
 21
12.5119079209
  0
LINE
  5
29F
100
AcDbEntity
  8
0
100
AcDbLine
 62
7
  6
CONTINUOUS
 10
15.1067832014
 20
14.2418299433
 11
17.251113468
 21
13.1546967901
  0
LINE
  5
2A0
100
AcDbEntity
  8
0
100
AcDbLine
 62
7
  6
CONTINUOUS
 10
17.251113468
 20
13.1546967901
 11
17.1704246936
 21
12.8935878203
  0
LINE
  5
2A1
100
AcDbEntity
  8
0
100
AcDbLine
 62
7
  6
CONTINUOUS
 10
17.3799779021
 20
12.6037344105
 11
17.4647011153
 21
12.8778988289
  0
ARC
  5
2A2
100
AcDbEntity
  8
0
100
AcDbCircle
 62
7
  6
CONTINUOUS
 10
5.7459922762
 20
4.1522663883
 40
0.025
100
AcDbArc
 50
0.0
 51
74.3043200429
  0
ARC
  5
2A3
100
AcDbEntity
  8
0
100
AcDbCircle
 62
7
  6
CONTINUOUS
 10
4.3387006095
 20
5.5201198968
 40
0.359375
100
AcDbArc
 50
90.0
 51
270.0
  0
CIRCLE
  5
2A4
100
AcDbEntity
  8
0
100
AcDbCircle
 62
7
  6
CONTINUOUS
 10
4.3405032363
 20
5.5201198968
 40
0.1458333333
  0
ARC
  5
2A5
100
AcDbEntity
  8
0
100
AcDbCircle
 62
7
  6
CONTINUOUS
 10
4.9978125891
 20
6.5384759833
 40
0.0416666667
100
AcDbArc
 50
325.8369362645
 51
54.0811816562
  0
ARC
  5
2A6
100
AcDbEntity
  8
0
100
AcDbCircle
 62
7
  6
CONTINUOUS
 10
5.1120111896
 20
6.6526745838
 40
0.0416666667
100
AcDbArc
 50
215.9188183438
 51
304.1630637355
  0
ARC
  5
2A7
100
AcDbEntity
  8
0
100
AcDbCircle
 62
7
  6
CONTINUOUS
 10
5.0248058238
 20
6.6021111231
 40
0.03
100
AcDbArc
 50
135.0
 51
265.1240345935
  0
ARC
  5
2A8
100
AcDbEntity
  8
0
100
AcDbCircle
 62
7
  6
CONTINUOUS
 10
5.0483760498
 20
6.6256813491
 40
0.03
100
AcDbArc
 50
4.8759654065
 51
135.0
  0
ARC
  5
2A9
100
AcDbEntity
  8
0
100
AcDbCircle
 62
7
  6
CONTINUOUS
 10
5.7459922762
 20
6.8879734052
 40
0.025
100
AcDbArc
 50
304.9981748585
 51
360.0
  0
ARC
  5
2AA
100
AcDbEntity
  8
0
100
AcDbCircle
 62
7
  6
CONTINUOUS
 10
6.1303672762
 20
3.7284532301
 40
0.359375
100
AcDbArc
 50
180.0
 51
360.0
  0
CIRCLE
  5
2AB
100
AcDbEntity
  8
0
100
AcDbCircle
 62
7
  6
CONTINUOUS
 10
6.1303672762
 20
3.7302558569
 40
0.1458333333
  0
ARC
  5
2AC
100
AcDbEntity
  8
0
100
AcDbCircle
 62
7
  6
CONTINUOUS
 10
7.4982207846
 20
5.1357448968
 40
0.025
100
AcDbArc
 50
90.0
 51
145.0018251415
  0
ARC
  5
2AD
100
AcDbEntity
  8
0
100
AcDbCircle
 62
7
  6
CONTINUOUS
 10
6.5147422762
 20
4.1522663883
 40
0.025
100
AcDbArc
 50
124.9981748585
 51
180.0
  0
CIRCLE
  5
2AE
100
AcDbEntity
  8
03__ASM_ALL_CURVES
100
AcDbCircle
 62
8
  6
PHANTOM
 10
6.1303672762
 20
5.5201198968
 40
2.1510416667
  0
ARC
  5
2AF
100
AcDbEntity
  8
03__ASM_ALL_CURVES
100
AcDbCircle
 62
8
  6
PHANTOM
 10
6.1303672762
 20
5.5201198968
 40
1.7898640399
100
AcDbArc
 50
20.2421858314
 51
69.7771960295
  0
ARC
  5
2B0
100
AcDbEntity
  8
03__ASM_ALL_CURVES
100
AcDbCircle
 62
8
  6
PHANTOM
 10
6.1303672762
 20
5.5201198968
 40
1.7898640399
100
AcDbArc
 50
85.3424632613
 51
94.6575367387
  0
ARC
  5
2B1
100
AcDbEntity
  8
03__ASM_ALL_CURVES
100
AcDbCircle
 62
8
  6
PHANTOM
 10
6.1303672762
 20
5.5201198968
 40
1.7898640399
100
AcDbArc
 50
110.2228039705
 51
159.7578141686
  0
ARC
  5
2B2
100
AcDbEntity
  8
03__ASM_ALL_CURVES
100
AcDbCircle
 62
8
  6
PHANTOM
 10
6.1303672762
 20
5.5201198968
 40
1.7898640399
100
AcDbArc
 50
175.338866692
 51
184.6609328597
  0
ARC
  5
2B3
100
AcDbEntity
  8
03__ASM_ALL_CURVES
100
AcDbCircle
 62
8
  6
PHANTOM
 10
6.1303672762
 20
5.5201198968
 40
1.7898640399
100
AcDbArc
 50
200.2421858314
 51
249.7771960295
  0
ARC
  5
2B4
100
AcDbEntity
  8
03__ASM_ALL_CURVES
100
AcDbCircle
 62
8
  6
PHANTOM
 10
6.1303672762
 20
5.5201198968
 40
1.7898640399
100
AcDbArc
 50
265.3424632613
 51
274.6575367387
  0
ARC
  5
2B5
100
AcDbEntity
  8
03__ASM_ALL_CURVES
100
AcDbCircle
 62
8
  6
PHANTOM
 10
6.1303672762
 20
5.5201198968
 40
1.7898640399
100
AcDbArc
 50
290.2228039705
 51
339.7578141686
  0
ARC
  5
2B6
100
AcDbEntity
  8
03__ASM_ALL_CURVES
100
AcDbCircle
 62
8
  6
PHANTOM
 10
6.1303672762
 20
5.5201198968
 40
1.7898640399
100
AcDbArc
 50
355.338866692
 51
4.6609328597
  0
CIRCLE
  5
2B7
100
AcDbEntity
  8
0
100
AcDbCircle
 62
7
  6
CONTINUOUS
 10
6.1303672762
 20
5.5201198968
 40
1.3958333333
  0
CIRCLE
  5
2B8
100
AcDbEntity
  8
0
100
AcDbCircle
 62
7
  6
CONTINUOUS
 10
6.1303672762
 20
5.5201198968
 40
1.3541666667
  0
ARC
  5
2B9
100
AcDbEntity
  8
0
100
AcDbCircle
 62
7
  6
CONTINUOUS
 10
6.1303672762
 20
7.3117865634
 40
0.359375
100
AcDbArc
 50
0.0
 51
180.0
  0
CIRCLE
  5
2BA
100
AcDbEntity
  8
0
100
AcDbCircle
 62
7
  6
CONTINUOUS
 10
6.1303672762
 20
7.3099839366
 40
0.1458333333
  0
ARC
  5
2BB
100
AcDbEntity
  8
0
100
AcDbCircle
 62
7
  6
CONTINUOUS
 10
6.5147422762
 20
6.8879734052
 40
0.025
100
AcDbArc
 50
180.0
 51
235.0018251415
  0
ARC
  5
2BC
100
AcDbEntity
  8
0
100
AcDbCircle
 62
7
  6
CONTINUOUS
 10
7.9220339428
 20
5.5201198968
 40
0.359375
100
AcDbArc
 50
270.0
 51
90.0
  0
CIRCLE
  5
2BD
100
AcDbEntity
  8
0
100
AcDbCircle
 62
7
  6
CONTINUOUS
 10
7.920231316
 20
5.5201198968
 40
0.1458333333
  0
ARC
  5
2BE
100
AcDbEntity
  8
0
100
AcDbCircle
 62
7
  6
CONTINUOUS
 10
7.4982207846
 20
5.9044948968
 40
0.025
100
AcDbArc
 50
214.9981748585
 51
270.0
  0
ARC
  5
2BF
100
AcDbEntity
  8
0
100
AcDbCircle
 62
7
  6
CONTINUOUS
 10
5.3492443977
 20
12.4921831296
 40
0.3845102874
100
AcDbArc
 50
189.4299443996
 51
191.5279154722
  0
ARC
  5
2C0
100
AcDbEntity
  8
0
100
AcDbCircle
 62
7
  6
CONTINUOUS
 10
5.3469934679
 20
12.4583331856
 40
0.3822206811
100
AcDbArc
 50
168.4664522341
 51
170.5590991993
  0
ARC
  5
2C1
100
AcDbEntity
  8
0
100
AcDbCircle
 62
7
  6
CONTINUOUS
 10
4.7833720839
 20
11.729214448
 40
0.0666666667
100
AcDbArc
 50
180.0
 51
270.0
  0
ARC
  5
2C2
100
AcDbEntity
  8
0
100
AcDbCircle
 62
7
  6
CONTINUOUS
 10
7.3583720839
 20
11.729214448
 40
0.0666666667
100
AcDbArc
 50
270.0
 51
360.0
  0
ARC
  5
2C3
100
AcDbEntity
  8
0
100
AcDbCircle
 62
7
  6
CONTINUOUS
 10
8.1969137505
 20
13.1875477814
 40
0.025
100
AcDbArc
 50
270.0
 51
360.0
  0
ARC
  5
2C4
100
AcDbEntity
  8
0
100
AcDbCircle
 62
7
  6
CONTINUOUS
 10
7.4917054172
 20
13.1375477814
 40
0.025
100
AcDbArc
 50
90.0
 51
180.0
  0
ARC
  5
2C5
100
AcDbEntity
  8
0
100
AcDbCircle
 62
7
  6
CONTINUOUS
 10
3.9448304172
 20
13.1875477814
 40
0.025
100
AcDbArc
 50
180.0
 51
270.0
  0
ARC
  5
2C6
100
AcDbEntity
  8
0
100
AcDbCircle
 62
7
  6
CONTINUOUS
 10
5.7364970839
 20
13.1875477814
 40
0.025
100
AcDbArc
 50
180.0
 51
270.0
  0
ARC
  5
2C7
100
AcDbEntity
  8
0
100
AcDbCircle
 62
7
  6
CONTINUOUS
 10
6.4052470839
 20
13.1875477814
 40
0.025
100
AcDbArc
 50
270.0
 51
360.0
  0
ARC
  5
2C8
100
AcDbEntity
  8
0
100
AcDbCircle
 62
7
  6
CONTINUOUS
 10
4.7000387505
 20
12.166714448
 40
0.025
100
AcDbArc
 50
180.0
 51
270.0
  0
ARC
  5
2C9
100
AcDbEntity
  8
0
100
AcDbCircle
 62
7
  6
CONTINUOUS
 10
7.4417054172
 20
12.166714448
 40
0.025
100
AcDbArc
 50
270.0
 51
360.0
  0
ARC
  5
2CA
100
AcDbEntity
  8
0
100
AcDbCircle
 62
7
  6
CONTINUOUS
 10
14.6895219236
 20
6.7481247044
 40
0.0666666667
100
AcDbArc
 50
90.0
 51
180.0
  0
ARC
  5
2CB
100
AcDbEntity
  8
0
100
AcDbCircle
 62
7
  6
CONTINUOUS
 10
14.6895219236
 20
4.1731247044
 40
0.0666666667
100
AcDbArc
 50
180.0
 51
270.0
  0
ARC
  5
2CC
100
AcDbEntity
  8
0
100
AcDbCircle
 62
7
  6
CONTINUOUS
 10
16.1378667506
 20
6.8352539784
 40
0.0266551733
100
AcDbArc
 50
345.2737679637
 51
0.0088581848
  0
ARC
  5
2CD
100
AcDbEntity
  8
0
100
AcDbCircle
 62
7
  6
CONTINUOUS
 10
16.1478552569
 20
7.5866663711
 40
0.025
100
AcDbArc
 50
90.0
 51
180.0
  0
ARC
  5
2CE
100
AcDbEntity
  8
0
100
AcDbCircle
 62
7
  6
CONTINUOUS
 10
16.0978552569
 20
6.8814580378
 40
0.025
100
AcDbArc
 50
270.0
 51
360.0
  0
ARC
  5
2CF
100
AcDbEntity
  8
0
100
AcDbCircle
 62
7
  6
CONTINUOUS
 10
16.1478552569
 20
3.3345830378
 40
0.025
100
AcDbArc
 50
180.0
 51
270.0
  0
ARC
  5
2D0
100
AcDbEntity
  8
0
100
AcDbCircle
 62
7
  6
CONTINUOUS
 10
16.0978552569
 20
4.0397913711
 40
0.025
100
AcDbArc
 50
0.0
 51
90.0
  0
ARC
  5
2D1
100
AcDbEntity
  8
0
100
AcDbCircle
 62
7
  6
CONTINUOUS
 10
15.1270219236
 20
6.8314580378
 40
0.025
100
AcDbArc
 50
90.0
 51
180.0
  0
ARC
  5
2D2
100
AcDbEntity
  8
0
100
AcDbCircle
 62
7
  6
CONTINUOUS
 10
15.1270219236
 20
4.0897913711
 40
0.025
100
AcDbArc
 50
180.0
 51
270.0
  0
ARC
  5
2D3
100
AcDbEntity
  8
0
100
AcDbCircle
 62
7
  6
CONTINUOUS
 10
16.1478552569
 20
5.7949997044
 40
0.025
100
AcDbArc
 50
90.0
 51
180.0
  0
ARC
  5
2D4
100
AcDbEntity
  8
0
100
AcDbCircle
 62
7
  6
CONTINUOUS
 10
16.1478552569
 20
5.1262497044
 40
0.025
100
AcDbArc
 50
180.0
 51
270.0
  0
ARC
  5
2D5
100
AcDbEntity
  8
0
100
AcDbCircle
 62
7
  6
CONTINUOUS
 10
16.7565810957
 20
11.9080037214
 40
1.0598576617
100
AcDbArc
 50
101.7657196096
 51
103.2018675014
  0
ARC
  5
2D6
100
AcDbEntity
  8
0
100
AcDbCircle
 62
7
  6
CONTINUOUS
 10
14.078239565
 20
12.7723931941
 40
0.1457424122
100
AcDbArc
 50
137.9650346165
 51
139.2722818588
  0
ARC
  5
2D7
100
AcDbEntity
  8
0
100
AcDbCircle
 62
7
  6
CONTINUOUS
 10
14.0250454201
 20
12.7849967913
 40
0.1067900128
100
AcDbArc
 50
138.1983791635
 51
139.3497127995
  0
ARC
  5
2D8
100
AcDbEntity
  8
0
100
AcDbCircle
 62
7
  6
CONTINUOUS
 10
13.9982528449
 20
12.7368852285
 40
0.1045813057
100
AcDbArc
 50
166.7681498147
 51
168.118669528
  0
ARC
  5
2D9
100
AcDbEntity
  8
0
100
AcDbCircle
 62
7
  6
CONTINUOUS
 10
14.0177752068
 20
12.7914586219
 40
0.0970632286
100
AcDbArc
 50
137.6809785434
 51
138.1812791228
  0
ARC
  5
2DA
100
AcDbEntity
  8
0
100
AcDbCircle
 62
7
  6
CONTINUOUS
 10
13.9204414058
 20
12.8066078407
 40
0.0876596778
100
AcDbArc
 50
158.0615958687
 51
159.139745314
  0
ARC
  5
2DB
100
AcDbEntity
  8
0
100
AcDbCircle
 62
7
  6
CONTINUOUS
 10
14.591678634
 20
13.5789775974
 40
0.0532636289
100
AcDbArc
 50
323.6136917526
 51
327.8058141717
  0
ARC
  5
2DC
100
AcDbEntity
  8
0
100
AcDbCircle
 62
7
  6
CONTINUOUS
 10
14.5943610187
 20
13.5772678984
 40
0.0500827601
100
AcDbArc
 50
327.8260396147
 51
328.5819936647
  0
ARC
  5
2DD
100
AcDbEntity
  8
0
100
AcDbCircle
 62
7
  6
CONTINUOUS
 10
14.5953195339
 20
13.5766827244
 40
0.0489597376
100
AcDbArc
 50
328.581674333
 51
329.4284210894
  0
ARC
  5
2DE
100
AcDbEntity
  8
0
100
AcDbCircle
 62
7
  6
CONTINUOUS
 10
16.7852936766
 20
12.4612750333
 40
0.0486762229
100
AcDbArc
 50
168.7720140583
 51
170.8553616019
  0
ARC
  5
2DF
100
AcDbEntity
  8
0
100
AcDbCircle
 62
7
  6
CONTINUOUS
 10
13.9297203392
 20
12.8881649427
 40
0.0370709469
100
AcDbArc
 50
234.5514643165
 51
236.220987689
  0
ARC
  5
2E0
100
AcDbEntity
  8
0
100
AcDbCircle
 62
7
  6
CONTINUOUS
 10
13.8608505282
 20
12.7523266343
 40
0.0370581282
100
AcDbArc
 50
70.011826321
 51
71.7094496798
  0
ARC
  5
2E1
100
AcDbEntity
  8
0
100
AcDbCircle
 62
7
  6
CONTINUOUS
 10
13.8791014541
 20
12.8450938278
 40
0.0319598381
100
AcDbArc
 50
21.587576237
 51
23.8870363921
  0
ARC
  5
2E2
100
AcDbEntity
  8
0
100
AcDbCircle
 62
7
  6
CONTINUOUS
 10
13.8656762329
 20
12.8185826175
 40
0.0319392159
100
AcDbArc
 50
282.3146882221
 51
284.6439687496
  0
ARC
  5
2E3
100
AcDbEntity
  8
0
100
AcDbCircle
 62
7
  6
CONTINUOUS
 10
13.8656923917
 20
12.8185102855
 40
0.0318651019
100
AcDbArc
 50
281.5757260014
 51
282.3140409586
  0
ARC
  5
2E4
100
AcDbEntity
  8
0
100
AcDbCircle
 62
7
  6
CONTINUOUS
 10
13.8791911422
 20
12.8451330306
 40
0.0318619576
100
AcDbArc
 50
23.8878869233
 51
24.652626069
  0
SPLINE
  5
2E5
100
AcDbEntity
  8
0
100
AcDbSpline
 62
7
  6
CONTINUOUS
 70
0
 71
3
 72
16
 73
12
 74
0
 42
0.0000001
 43
0.0000001
 44
0.0000000001
 40
0.0
 40
0.0
 40
0.0
 40
0.0
 40
0.1258191942
 40
0.2513849914
 40
0.3766855805
 40
0.5017040917
 40
0.6265074042
 40
0.7511301327
 40
0.8133800485
 40
0.8756038069
 40
1.0
 40
1.0
 40
1.0
 40
1.0
 10
5.0319858545
 20
6.472249038
 30
0.0
 10
5.0329753695
 20
6.4742280681
 30
0.0
 10
5.0350126568
 20
6.4781523355
 30
0.0
 10
5.0382384756
 20
6.4839391296
 30
0.0
 10
5.0416376179
 20
6.4896101363
 30
0.0
 10
5.0452617188
 20
6.4951247675
 30
0.0
 10
5.0491044106
 20
6.5004740479
 30
0.0
 10
5.0524724037
 20
6.5048006408
 30
0.0
 10
5.0552912221
 20
6.508154444
 30
0.0
 10
5.0581983728
 20
6.5114265176
 30
0.0
 10
5.0604706955
 20
6.5137966058
 30
0.0
 10
5.0620175612
 20
6.5153434715
 30
0.0
  0
SPLINE
  5
2E6
100
AcDbEntity
  8
0
100
AcDbSpline
 62
7
  6
CONTINUOUS
 70
0
 71
3
 72
9
 73
5
 74
0
 42
0.0000001
 43
0.0000001
 44
0.0000000001
 40
0.0
 40
0.0
 40
0.0
 40
0.0
 40
0.238854547
 40
1.0
 40
1.0
 40
1.0
 40
1.0
 10
6.5072920496
 20
6.8640984716
 30
0.0
 10
6.5067016334
 20
6.8642640624
 30
0.0
 10
6.5042659589
 20
6.8650870978
 30
0.0
 10
6.5020043249
 20
6.866373562
 30
0.0
 10
6.5004035176
 20
6.8674941473
 30
0.0
  0
SPLINE
  5
2E7
100
AcDbEntity
  8
0
100
AcDbSpline
 62
7
  6
CONTINUOUS
 70
0
 71
3
 72
16
 73
12
 74
0
 42
0.0000001
 43
0.0000001
 44
0.0000000001
 40
0.0
 40
0.0
 40
0.0
 40
0.0
 40
0.1243962375
 40
0.1866202295
 40
0.2488702589
 40
0.3734926663
 40
0.4982957621
 40
0.6233141588
 40
0.7486146822
 40
0.8741806187
 40
1.0
 40
1.0
 40
1.0
 40
1.0
 10
5.0620175612
 20
6.5153434715
 30
0.0
 10
5.0635644256
 20
6.5168903359
 30
0.0
 10
5.0659347817
 20
6.5191623888
 30
0.0
 10
5.0692070821
 20
6.5220692812
 30
0.0
 10
5.0725608624
 20
6.5248881155
 30
0.0
 10
5.0768872237
 20
6.5282563804
 30
0.0
 10
5.0822363396
 20
6.5320992719
 30
0.0
 10
5.08775082
 20
6.5357235769
 30
0.0
 10
5.0934217862
 20
6.5391227762
 30
0.0
 10
5.0992086523
 20
6.5423484624
 30
0.0
 10
5.103132964
 20
6.5443856629
 30
0.0
 10
5.1051119947
 20
6.5453751782
 30
0.0
  0
SPLINE
  5
2E8
100
AcDbEntity
  8
0
100
AcDbSpline
 62
7
  6
CONTINUOUS
 70
0
 71
3
 72
11
 73
7
 74
0
 42
0.0000001
 43
0.0000001
 44
0.0000000001
 40
0.0
 40
0.0
 40
0.0
 40
0.0
 40
0.2528337534
 40
0.5037951633
 40
0.7527901265
 40
1.0
 40
1.0
 40
1.0
 40
1.0
 10
5.2070621106
 20
6.5896773428
 30
0.0
 10
5.2061609922
 20
6.5863143233
 30
0.0
 10
5.2041752955
 20
6.5796615649
 30
0.0
 10
5.200509661
 20
6.569953495
 30
0.0
 10
5.1960381762
 20
6.5606704551
 30
0.0
 10
5.1924269817
 20
6.5548484665
 30
0.0
 10
5.190458833
 20
6.5520708708
 30
0.0
  0
SPLINE
  5
2E9
100
AcDbEntity
  8
0
100
AcDbSpline
 62
7
  6
CONTINUOUS
 70
0
 71
3
 72
10
 73
6
 74
0
 42
0.0000001
 43
0.0000001
 44
0.0000000001
 40
0.0
 40
0.0
 40
0.0
 40
0.0
 40
0.2525060748
 40
0.6281537151
 40
1.0
 40
1.0
 40
1.0
 40
1.0
 10
5.1339359703
 20
6.5165512026
 30
0.0
 10
5.1331591304
 20
6.5136519965
 30
0.0
 10
5.1310499208
 20
6.5064856926
 30
0.0
 10
5.1268553504
 20
6.4953436252
 30
0.0
 10
5.1227590663
 20
6.4874234136
 30
0.0
 10
5.1204440859
 20
6.4836580871
 30
0.0
  0
SPLINE
  5
2EA
100
AcDbEntity
  8
0
100
AcDbSpline
 62
7
  6
CONTINUOUS
 70
0
 71
3
 72
10
 73
6
 74
0
 42
0.0000001
 43
0.0000001
 44
0.0000000001
 40
0.0
 40
0.0
 40
0.0
 40
0.0
 40
0.2475764849
 40
0.6219158657
 40
1.0
 40
1.0
 40
1.0
 40
1.0
 10
5.1668290859
 20
6.530043087
 30
0.0
 10
5.1643219442
 20
6.5285016579
 30
0.0
 10
5.1578308137
 20
6.5249379805
 30
0.0
 10
5.1468383199
 20
6.5203452891
 30
0.0
 10
5.1382773323
 20
6.517714467
 30
0.0
 10
5.1339359703
 20
6.5165512026
 30
0.0
  0
SPLINE
  5
2EB
100
AcDbEntity
  8
0
100
AcDbSpline
 62
7
  6
CONTINUOUS
 70
0
 71
3
 72
16
 73
12
 74
0
 42
0.0000001
 43
0.0000001
 44
0.0000000001
 40
0.0
 40
0.0
 40
0.0
 40
0.0
 40
0.1258191942
 40
0.2513849914
 40
0.3766855805
 40
0.5017040917
 40
0.6265074042
 40
0.7511301327
 40
0.8133800485
 40
0.8756038069
 40
1.0
 40
1.0
 40
1.0
 40
1.0
 10
5.1051119947
 20
6.5453751782
 30
0.0
 10
5.1061015097
 20
6.5473542083
 30
0.0
 10
5.108138797
 20
6.5512784757
 30
0.0
 10
5.1113646159
 20
6.5570652698
 30
0.0
 10
5.1147637581
 20
6.5627362765
 30
0.0
 10
5.1183878591
 20
6.5682509077
 30
0.0
 10
5.1222305508
 20
6.5736001881
 30
0.0
 10
5.1255985439
 20
6.577926781
 30
0.0
 10
5.1284173623
 20
6.5812805843
 30
0.0
 10
5.131324513
 20
6.5845526579
 30
0.0
 10
5.1335968357
 20
6.5869227461
 30
0.0
 10
5.1351437014
 20
6.5884696118
 30
0.0
  0
SPLINE
  5
2EC
100
AcDbEntity
  8
0
100
AcDbSpline
 62
7
  6
CONTINUOUS
 70
0
 71
3
 72
15
 73
11
 74
0
 42
0.0000001
 43
0.0000001
 44
0.0000000001
 40
0.0
 40
0.0
 40
0.0
 40
0.0
 40
0.153628483
 40
0.2848663086
 40
0.3977790665
 40
0.499955882
 40
0.602114928
 40
0.7150323246
 40
0.8463374958
 40
1.0
 40
1.0
 40
1.0
 40
1.0
 10
4.7801103375
 20
5.8794948968
 30
0.0
 10
4.7802248515
 20
5.8794948968
 30
0.0
 10
4.780437593
 20
5.8794842044
 30
0.0
 10
4.7807294819
 20
5.8794237604
 30
0.0
 10
4.7809672544
 20
5.8793156073
 30
0.0
 10
4.7811456477
 20
5.8791535027
 30
0.0
 10
4.7812568097
 20
5.8789395873
 30
0.0
 10
4.7813002298
 20
5.8786819335
 30
0.0
 10
4.7812834774
 20
5.8783842501
 30
0.0
 10
4.7812391671
 20
5.878175832
 30
0.0
 10
4.7812097948
 20
5.8780651228
 30
0.0
  0
SPLINE
  5
2ED
100
AcDbEntity
  8
0
100
AcDbSpline
 62
7
  6
CONTINUOUS
 70
0
 71
3
 72
9
 73
5
 74
0
 42
0.0000001
 43
0.0000001
 44
0.0000000001
 40
0.0
 40
0.0
 40
0.0
 40
0.0
 40
0.2388506594
 40
1.0
 40
1.0
 40
1.0
 40
1.0
 10
5.7534425028
 20
6.8640984716
 30
0.0
 10
5.7540329103
 20
6.8642640556
 30
0.0
 10
5.7564685721
 20
6.8650871265
 30
0.0
 10
5.7587302222
 20
6.8663735531
 30
0.0
 10
5.7603310347
 20
6.8674941473
 30
0.0
  0
SPLINE
  5
2EE
100
AcDbEntity
  8
0
100
AcDbSpline
 62
7
  6
CONTINUOUS
 70
0
 71
3
 72
11
 73
7
 74
0
 42
0.0000001
 43
0.0000001
 44
0.0000000001
 40
0.0
 40
0.0
 40
0.0
 40
0.0
 40
0.2472098693
 40
0.4962046626
 40
0.747165949
 40
1.0
 40
1.0
 40
1.0
 40
1.0
 10
5.0984163021
 20
6.4600283399
 30
0.0
 10
5.0956387065
 20
6.4580601912
 30
0.0
 10
5.0898167201
 20
6.4544489978
 30
0.0
 10
5.0805336836
 20
6.4499775154
 30
0.0
 10
5.0708256149
 20
6.4463118774
 30
0.0
 10
5.0641728536
 20
6.4443261818
 30
0.0
 10
5.0608098301
 20
6.4434250623
 30
0.0
  0
SPLINE
  5
2EF
100
AcDbEntity
  8
0
100
AcDbSpline
 62
7
  6
CONTINUOUS
 70
0
 71
3
 72
9
 73
5
 74
0
 42
0.0000001
 43
0.0000001
 44
0.0000000001
 40
0.0
 40
0.0
 40
0.0
 40
0.0
 40
0.2388506594
 40
1.0
 40
1.0
 40
1.0
 40
1.0
 10
7.474345851
 20
5.8970446701
 30
0.0
 10
7.474511435
 20
5.8964542626
 30
0.0
 10
7.4753345059
 20
5.8940186008
 30
0.0
 10
7.4766209325
 20
5.8917569507
 30
0.0
 10
7.4777415267
 20
5.8901561382
 30
0.0
  0
SPLINE
  5
2F0
100
AcDbEntity
  8
0
100
AcDbSpline
 62
7
  6
CONTINUOUS
 70
0
 71
3
 72
16
 73
12
 74
0
 42
0.0000001
 43
0.0000001
 44
0.0000000001
 40
0.0
 40
0.0
 40
0.0
 40
0.0
 40
0.1243962375
 40
0.1866202295
 40
0.2488702589
 40
0.3734926663
 40
0.4982957621
 40
0.6233141588
 40
0.7486146822
 40
0.8741806187
 40
1.0
 40
1.0
 40
1.0
 40
1.0
 10
5.1351437014
 20
6.5884696118
 30
0.0
 10
5.1366905658
 20
6.5900164762
 30
0.0
 10
5.139060922
 20
6.592288529
 30
0.0
 10
5.1423332224
 20
6.5951954214
 30
0.0
 10
5.1456870026
 20
6.5980142558
 30
0.0
 10
5.150013364
 20
6.6013825207
 30
0.0
 10
5.1553624799
 20
6.6052254121
 30
0.0
 10
5.1608769602
 20
6.6088497171
 30
0.0
 10
5.1665479265
 20
6.6122489165
 30
0.0
 10
5.1723347926
 20
6.6154746026
 30
0.0
 10
5.1762591042
 20
6.6175118031
 30
0.0
 10
5.1782381349
 20
6.6185013185
 30
0.0
  0
SPLINE
  5
2F1
100
AcDbEntity
  8
0
100
AcDbSpline
 62
7
  6
CONTINUOUS
 70
0
 71
3
 72
9
 73
5
 74
0
 42
0.0000001
 43
0.0000001
 44
0.0000000001
 40
0.0
 40
0.0
 40
0.0
 40
0.0
 40
0.2388506594
 40
1.0
 40
1.0
 40
1.0
 40
1.0
 10
6.5072920496
 20
4.1761413219
 30
0.0
 10
6.506701642
 20
4.1759757379
 30
0.0
 10
6.5042659802
 20
4.175152667
 30
0.0
 10
6.5020043302
 20
4.1738662405
 30
0.0
 10
6.5004035176
 20
4.1727456462
 30
0.0
  0
SPLINE
  5
2F2
100
AcDbEntity
  8
0
100
AcDbSpline
 62
7
  6
CONTINUOUS
 70
0
 71
3
 72
9
 73
5
 74
0
 42
0.0000001
 43
0.0000001
 44
0.0000000001
 40
0.0
 40
0.0
 40
0.0
 40
0.0
 40
0.238854547
 40
1.0
 40
1.0
 40
1.0
 40
1.0
 10
7.474345851
 20
5.1431951234
 30
0.0
 10
7.4745114418
 20
5.1437855395
 30
0.0
 10
7.4753344772
 20
5.146221214
 30
0.0
 10
7.4766209414
 20
5.148482848
 30
0.0
 10
7.4777415267
 20
5.1500836553
 30
0.0
  0
SPLINE
  5
2F3
100
AcDbEntity
  8
0
100
AcDbSpline
 62
7
  6
CONTINUOUS
 70
0
 71
3
 72
23
 73
19
 74
0
 42
0.0000001
 43
0.0000001
 44
0.0000000001
 40
0.0
 40
0.0
 40
0.0
 40
0.0
 40
0.0636313937
 40
0.1270464067
 40
0.1901036232
 40
0.2527866773
 40
0.3151859781
 40
0.3774102309
 40
0.4395738418
 40
0.5017313125
 40
0.5639028478
 40
0.6260863561
 40
0.6882657247
 40
0.7504332952
 40
0.8126155161
 40
0.8748630308
 40
0.9372899291
 40
1.0
 40
1.0
 40
1.0
 40
1.0
 10
4.9353106315
 20
12.4750477814
 30
0.0
 10
4.9353106315
 20
12.4725624607
 30
0.0
 10
4.9356564053
 20
12.4675932466
 30
0.0
 10
4.9372095619
 20
12.46030792
 30
0.0
 10
4.9397874445
 20
12.4533550409
 30
0.0
 10
4.9433691954
 20
12.4469046655
 30
0.0
 10
4.9479164624
 20
12.4411314853
 30
0.0
 10
4.953357281
 20
12.4362165155
 30
0.0
 10
4.9595735021
 20
12.4323401479
 30
0.0
 10
4.9663932129
 20
12.4296633743
 30
0.0
 10
4.9735953987
 20
12.4283081912
 30
0.0
 10
4.9809252707
 20
12.4283397129
 30
0.0
 10
4.9881162796
 20
12.4297564338
 30
0.0
 10
4.9949144536
 20
12.4324911439
 30
0.0
 10
5.0011002653
 20
12.4364192644
 30
0.0
 10
5.0065042319
 20
12.441379093
 30
0.0
 10
5.0110086631
 20
12.4471877083
 30
0.0
 10
5.0133615938
 20
12.4514980931
 30
0.0
 10
5.0143696455
 20
12.4537303736
 30
0.0
  0
SPLINE
  5
2F4
100
AcDbEntity
  8
0
100
AcDbSpline
 62
7
  6
CONTINUOUS
 70
0
 71
3
 72
23
 73
19
 74
0
 42
0.0000001
 43
0.0000001
 44
0.0000000001
 40
0.0
 40
0.0
 40
0.0
 40
0.0
 40
0.0627034753
 40
0.1251139409
 40
0.1873428553
 40
0.2495084728
 40
0.3116601676
 40
0.3738314641
 40
0.4360133749
 40
0.4981883109
 40
0.5603566435
 40
0.6225337039
 40
0.6847753344
 40
0.7471871275
 40
0.8098826811
 40
0.8729486041
 40
0.9363683165
 40
1.0
 40
1.0
 40
1.0
 40
1.0
 10
5.0143696455
 20
12.4963651891
 30
0.0
 10
5.0133617006
 20
12.4985972331
 30
0.0
 10
5.0110092806
 20
12.5029068599
 30
0.0
 10
5.0065060321
 20
12.5087142994
 30
0.0
 10
5.0011040742
 20
12.513673252
 30
0.0
 10
4.9949206197
 20
12.5176013227
 30
0.0
 10
4.9881244006
 20
12.5203365356
 30
0.0
 10
4.9809347577
 20
12.5217548904
 30
0.0
 10
4.9736051515
 20
12.5217881017
 30
0.0
 10
4.9664020973
 20
12.5204347897
 30
0.0
 10
4.9595808869
 20
12.5177588511
 30
0.0
 10
4.9533623722
 20
12.513883051
 30
0.0
 10
4.9479197712
 20
12.5089674771
 30
0.0
 10
4.9433707857
 20
12.5031935351
 30
0.0
 10
4.9397881775
 20
12.4967421036
 30
0.0
 10
4.9372096968
 20
12.489788369
 30
0.0
 10
4.9356564315
 20
12.4825025129
 30
0.0
 10
4.9353106315
 20
12.4775331114
 30
0.0
 10
4.9353106315
 20
12.4750477814
 30
0.0
  0
SPLINE
  5
2F5
100
AcDbEntity
  8
0
100
AcDbSpline
 62
7
  6
CONTINUOUS
 70
0
 71
3
 72
15
 73
11
 74
0
 42
0.0000001
 43
0.0000001
 44
0.0000000001
 40
0.0
 40
0.0
 40
0.0
 40
0.0
 40
0.112317245
 40
0.2276946197
 40
0.3463498198
 40
0.4689113683
 40
0.5954416016
 40
0.7258218261
 40
0.8606950047
 40
1.0
 40
1.0
 40
1.0
 40
1.0
 10
4.9724906621
 20
12.4153405379
 30
0.0
 10
4.9734950687
 20
12.4141103961
 30
0.0
 10
4.9755626901
 20
12.4116421287
 30
0.0
 10
4.9787924761
 20
12.4079604645
 30
0.0
 10
4.9822041284
 20
12.404247159
 30
0.0
 10
4.9858295156
 20
12.4005187167
 30
0.0
 10
4.9896701146
 20
12.3967711967
 30
0.0
 10
4.9937225449
 20
12.3929933843
 30
0.0
 10
4.9980178295
 20
12.3892143815
 30
0.0
 10
5.0009966468
 20
12.3867326629
 30
0.0
 10
5.0025223689
 20
12.3854869161
 30
0.0
  0
SPLINE
  5
2F6
100
AcDbEntity
  8
0
100
AcDbSpline
 62
7
  6
CONTINUOUS
 70
0
 71
3
 72
15
 73
11
 74
0
 42
0.0000001
 43
0.0000001
 44
0.0000000001
 40
0.0
 40
0.0
 40
0.0
 40
0.0
 40
0.1157138299
 40
0.2347162407
 40
0.3568083694
 40
0.4813389779
 40
0.6081812563
 40
0.7371776539
 40
0.8678607379
 40
1.0
 40
1.0
 40
1.0
 40
1.0
 10
5.0025223689
 20
12.3854869161
 30
0.0
 10
5.0040898458
 20
12.3842070766
 30
0.0
 10
5.0072964195
 20
12.381643882
 30
0.0
 10
5.0122638521
 20
12.3778665763
 30
0.0
 10
5.0174394045
 20
12.3741112447
 30
0.0
 10
5.0227866333
 20
12.3703606959
 30
0.0
 10
5.0282969071
 20
12.3666338801
 30
0.0
 10
5.0339572218
 20
12.3629386566
 30
0.0
 10
5.0397398434
 20
12.3592624148
 30
0.0
 10
5.0436461011
 20
12.3568400975
 30
0.0
 10
5.0456168024
 20
12.3556332944
 30
0.0
  0
SPLINE
  5
2F7
100
AcDbEntity
  8
0
100
AcDbSpline
 62
7
  6
CONTINUOUS
 70
0
 71
3
 72
15
 73
11
 74
0
 42
0.0000001
 43
0.0000001
 44
0.0000000001
 40
0.0
 40
0.0
 40
0.0
 40
0.0
 40
0.1321386292
 40
0.2628209872
 40
0.3918180066
 40
0.5186621805
 40
0.6431954292
 40
0.7652907151
 40
0.8842906872
 40
1.0
 40
1.0
 40
1.0
 40
1.0
 10
5.0456168024
 20
12.5944622683
 30
0.0
 10
5.0436461101
 20
12.5932554707
 30
0.0
 10
5.0397398914
 20
12.5908331334
 30
0.0
 10
5.0339573116
 20
12.5871568474
 30
0.0
 10
5.0282969557
 20
12.583461628
 30
0.0
 10
5.0227865479
 20
12.5797348466
 30
0.0
 10
5.0174391511
 20
12.5759843015
 30
0.0
 10
5.0122634327
 20
12.5722290956
 30
0.0
 10
5.0072961092
 20
12.5684517479
 30
0.0
 10
5.004089785
 20
12.5658884365
 30
0.0
 10
5.0025223689
 20
12.5646086466
 30
0.0
  0
SPLINE
  5
2F8
100
AcDbEntity
  8
0
100
AcDbSpline
 62
7
  6
CONTINUOUS
 70
0
 71
3
 72
15
 73
11
 74
0
 42
0.0000001
 43
0.0000001
 44
0.0000000001
 40
0.0
 40
0.0
 40
0.0
 40
0.0
 40
0.1392989235
 40
0.2741692009
 40
0.4045535927
 40
0.5310878526
 40
0.6536526967
 40
0.7723087613
 40
0.8876843129
 40
1.0
 40
1.0
 40
1.0
 40
1.0
 10
5.0025223689
 20
12.5646086466
 30
0.0
 10
5.0009967138
 20
12.5633629545
 30
0.0
 10
4.9980181472
 20
12.5608811328
 30
0.0
 10
4.9937230078
 20
12.5571020774
 30
0.0
 10
4.9896703703
 20
12.5533243816
 30
0.0
 10
4.985829568
 20
12.5495768388
 30
0.0
 10
4.9822040056
 20
12.5458484075
 30
0.0
 10
4.9787923007
 20
12.5421351062
 30
0.0
 10
4.9755625999
 20
12.5384534157
 30
0.0
 10
4.9734950544
 20
12.5359851492
 30
0.0
 10
4.9724906621
 20
12.5347550249
 30
0.0
  0
SPLINE
  5
2F9
100
AcDbEntity
  8
0
100
AcDbSpline
 62
7
  6
CONTINUOUS
 70
0
 71
3
 72
9
 73
5
 74
0
 42
0.0000001
 43
0.0000001
 44
0.0000000001
 40
0.0
 40
0.0
 40
0.0
 40
0.0
 40
0.5107789742
 40
1.0
 40
1.0
 40
1.0
 40
1.0
 10
5.074440778
 20
12.5944622683
 30
0.0
 10
5.0801815493
 20
12.5914906265
 30
0.0
 10
5.0913265865
 20
12.585488088
 30
0.0
 10
5.1021646483
 20
12.5789334735
 30
0.0
 10
5.1073338936
 20
12.5755256714
 30
0.0
  0
SPLINE
  5
2FA
100
AcDbEntity
  8
0
100
AcDbSpline
 62
7
  6
CONTINUOUS
 70
0
 71
3
 72
15
 73
11
 74
0
 42
0.0000001
 43
0.0000001
 44
0.0000000001
 40
0.0
 40
0.0
 40
0.0
 40
0.0
 40
0.122132055
 40
0.2463529781
 40
0.372546071
 40
0.5000000005
 40
0.6274539315
 40
0.7536470221
 40
0.8778679449
 40
1.0
 40
1.0
 40
1.0
 40
1.0
 10
5.1475669183
 20
12.4153405379
 30
0.0
 10
5.1492238864
 20
12.4200271516
 30
0.0
 10
5.1523057116
 20
12.429576324
 30
0.0
 10
5.1559443784
 20
12.4443118115
 30
0.0
 10
5.1583243031
 20
12.4595297072
 30
0.0
 10
5.1591585858
 20
12.4750477815
 30
0.0
 10
5.1583243031
 20
12.4905658557
 30
0.0
 10
5.1559443784
 20
12.5057837514
 30
0.0
 10
5.1523057116
 20
12.5205192388
 30
0.0
 10
5.1492238864
 20
12.5300684112
 30
0.0
 10
5.1475669183
 20
12.5347550249
 30
0.0
  0
SPLINE
  5
2FB
100
AcDbEntity
  8
0
100
AcDbSpline
 62
7
  6
CONTINUOUS
 70
0
 71
3
 72
11
 73
7
 74
0
 42
0.0000001
 43
0.0000001
 44
0.0000000001
 40
0.0
 40
0.0
 40
0.0
 40
0.0
 40
0.2840059646
 40
0.5428294781
 40
0.7801432256
 40
1.0
 40
1.0
 40
1.0
 40
1.0
 10
5.1309636407
 20
12.5568860625
 30
0.0
 10
5.1328376378
 20
12.555041303
 30
0.0
 10
5.1362942145
 20
12.5513841442
 30
0.0
 10
5.1408218187
 20
12.5457457461
 30
0.0
 10
5.1445409905
 20
12.540249351
 30
0.0
 10
5.1466311165
 20
12.5365628551
 30
0.0
 10
5.1475669183
 20
12.5347550249
 30
0.0
  0
SPLINE
  5
2FC
100
AcDbEntity
  8
0
100
AcDbSpline
 62
7
  6
CONTINUOUS
 70
0
 71
3
 72
11
 73
7
 74
0
 42
0.0000001
 43
0.0000001
 44
0.0000000001
 40
0.0
 40
0.0
 40
0.0
 40
0.0
 40
0.2198565332
 40
0.4571703459
 40
0.7159940321
 40
1.0
 40
1.0
 40
1.0
 40
1.0
 10
5.1475669183
 20
12.4153405379
 30
0.0
 10
5.1466311175
 20
12.4135327097
 30
0.0
 10
5.1445409913
 20
12.4098462158
 30
0.0
 10
5.1408218215
 20
12.4043498194
 30
0.0
 10
5.1362942155
 20
12.3987114199
 30
0.0
 10
5.1328376379
 20
12.3950542597
 30
0.0
 10
5.1309636407
 20
12.3932095003
 30
0.0
  0
SPLINE
  5
2FD
100
AcDbEntity
  8
0
100
AcDbSpline
 62
7
  6
CONTINUOUS
 70
0
 71
3
 72
9
 73
5
 74
0
 42
0.0000001
 43
0.0000001
 44
0.0000000001
 40
0.0
 40
0.0
 40
0.0
 40
0.0
 40
0.4892207759
 40
1.0
 40
1.0
 40
1.0
 40
1.0
 10
5.1073338936
 20
12.3745698913
 30
0.0
 10
5.1021646509
 20
12.3711620909
 30
0.0
 10
5.0913265893
 20
12.3646074762
 30
0.0
 10
5.0801815521
 20
12.3586049377
 30
0.0
 10
5.074440778
 20
12.3556332944
 30
0.0
  0
SPLINE
  5
2FE
100
AcDbEntity
  8
0
100
AcDbSpline
 62
7
  6
CONTINUOUS
 70
0
 71
3
 72
9
 73
5
 74
0
 42
0.0000001
 43
0.0000001
 44
0.0000000001
 40
0.0
 40
0.0
 40
0.0
 40
0.0
 40
0.2421497118
 40
1.0
 40
1.0
 40
1.0
 40
1.0
 10
5.0143696205
 20
12.4537303962
 30
0.0
 10
5.015095839
 20
12.4553384377
 30
0.0
 10
5.0176974801
 20
12.4621550218
 30
0.0
 10
5.0187722887
 20
12.4695257059
 30
0.0
 10
5.0187722887
 20
12.4750477814
 30
0.0
  0
SPLINE
  5
2FF
100
AcDbEntity
  8
0
100
AcDbSpline
 62
7
  6
CONTINUOUS
 70
0
 71
3
 72
9
 73
5
 74
0
 42
0.0000001
 43
0.0000001
 44
0.0000000001
 40
0.0
 40
0.0
 40
0.0
 40
0.0
 40
0.4842371469
 40
1.0
 40
1.0
 40
1.0
 40
1.0
 10
4.998574113
 20
12.4119000957
 30
0.0
 10
4.9957705658
 20
12.4141891824
 30
0.0
 10
4.9904761776
 20
12.4195419294
 30
0.0
 10
4.9862425402
 20
12.4257487923
 30
0.0
 10
4.9843234588
 20
12.4290921647
 30
0.0
  0
SPLINE
  5
300
100
AcDbEntity
  8
0
100
AcDbSpline
 62
7
  6
CONTINUOUS
 70
0
 71
3
 72
13
 73
9
 74
0
 42
0.0000001
 43
0.0000001
 44
0.0000000001
 40
0.0
 40
0.0
 40
0.0
 40
0.0
 40
0.1366552967
 40
0.2713592853
 40
0.4026460174
 40
0.5301002273
 40
0.772801846
 40
1.0
 40
1.0
 40
1.0
 40
1.0
 10
7.4387255923
 20
13.2033388651
 30
0.0
 10
7.4375597103
 20
13.2030323155
 30
0.0
 10
7.4352866203
 20
13.2022589825
 30
0.0
 10
7.4320586627
 20
13.2007642065
 30
0.0
 10
7.4290686852
 20
13.1989889861
 30
0.0
 10
7.4255115776
 20
13.1963478275
 30
0.0
 10
7.4217471616
 20
13.1926219526
 30
0.0
 10
7.4192816386
 20
13.1892639136
 30
0.0
 10
7.4182463344
 20
13.1875477814
 30
0.0
  0
SPLINE
  5
301
100
AcDbEntity
  8
0
100
AcDbSpline
 62
7
  6
CONTINUOUS
 70
0
 71
3
 72
15
 73
11
 74
0
 42
0.0000001
 43
0.0000001
 44
0.0000000001
 40
0.0
 40
0.0
 40
0.0
 40
0.0
 40
0.112317245
 40
0.2276946197
 40
0.3463498198
 40
0.4689113683
 40
0.5954416016
 40
0.7258218261
 40
0.8606950047
 40
1.0
 40
1.0
 40
1.0
 40
1.0
 10
5.0456168024
 20
12.3556332944
 30
0.0
 10
5.0466212089
 20
12.3568634362
 30
0.0
 10
5.0486888304
 20
12.3593317035
 30
0.0
 10
5.0519186164
 20
12.3630133678
 30
0.0
 10
5.0553302687
 20
12.3667266732
 30
0.0
 10
5.0589556559
 20
12.3704551156
 30
0.0
 10
5.0627962549
 20
12.3742026356
 30
0.0
 10
5.0668486851
 20
12.377980448
 30
0.0
 10
5.0711439697
 20
12.3817594508
 30
0.0
 10
5.0741227871
 20
12.3842411693
 30
0.0
 10
5.0756485091
 20
12.3854869161
 30
0.0
  0
SPLINE
  5
302
100
AcDbEntity
  8
0
100
AcDbSpline
 62
7
  6
CONTINUOUS
 70
0
 71
3
 72
15
 73
11
 74
0
 42
0.0000001
 43
0.0000001
 44
0.0000000001
 40
0.0
 40
0.0
 40
0.0
 40
0.0
 40
0.1312658062
 40
0.2573771378
 40
0.3796893943
 40
0.5
 40
0.6203106057
 40
0.7426228622
 40
0.8687341938
 40
1.0
 40
1.0
 40
1.0
 40
1.0
 10
5.0501339824
 20
12.4119000957
 30
0.0
 10
5.0482299593
 20
12.4103454673
 30
0.0
 10
5.0442677447
 20
12.4075620394
 30
0.0
 10
5.037838413
 20
12.4044511564
 30
0.0
 10
5.0311596589
 20
12.4025567286
 30
0.0
 10
5.0243540477
 20
12.4019202209
 30
0.0
 10
5.0175484365
 20
12.4025567286
 30
0.0
 10
5.0108696824
 20
12.4044511564
 30
0.0
 10
5.0044403507
 20
12.4075620394
 30
0.0
 10
5.0004781361
 20
12.4103454673
 30
0.0
 10
4.998574113
 20
12.4119000957
 30
0.0
  0
SPLINE
  5
303
100
AcDbEntity
  8
0
100
AcDbSpline
 62
7
  6
CONTINUOUS
 70
0
 71
3
 72
15
 73
11
 74
0
 42
0.0000001
 43
0.0000001
 44
0.0000000001
 40
0.0
 40
0.0
 40
0.0
 40
0.0
 40
0.1157138299
 40
0.2347162407
 40
0.3568083694
 40
0.4813389779
 40
0.6081812563
 40
0.7371776539
 40
0.8678607379
 40
1.0
 40
1.0
 40
1.0
 40
1.0
 10
5.0756485091
 20
12.3854869161
 30
0.0
 10
5.077215986
 20
12.3867667557
 30
0.0
 10
5.0804225598
 20
12.3893299503
 30
0.0
 10
5.0853899923
 20
12.393107256
 30
0.0
 10
5.0905655447
 20
12.3968625876
 30
0.0
 10
5.0959127735
 20
12.4006131364
 30
0.0
 10
5.1014230473
 20
12.4043399522
 30
0.0
 10
5.107083362
 20
12.4080351757
 30
0.0
 10
5.1128659836
 20
12.4117114175
 30
0.0
 10
5.1167722414
 20
12.4141337348
 30
0.0
 10
5.1187429426
 20
12.4153405379
 30
0.0
  0
SPLINE
  5
304
100
AcDbEntity
  8
0
100
AcDbSpline
 62
7
  6
CONTINUOUS
 70
0
 71
3
 72
15
 73
11
 74
0
 42
0.0000001
 43
0.0000001
 44
0.0000000001
 40
0.0
 40
0.0
 40
0.0
 40
0.0
 40
0.1237121711
 40
0.2478515311
 40
0.3723891162
 40
0.4973382558
 40
0.622659344
 40
0.7482556017
 40
0.8740673833
 40
1.0
 40
1.0
 40
1.0
 40
1.0
 10
5.1187429426
 20
12.4153405379
 30
0.0
 10
5.1182467244
 20
12.4177715006
 30
0.0
 10
5.1173010475
 20
12.422651848
 30
0.0
 10
5.1160209967
 20
12.4300101425
 30
0.0
 10
5.114885344
 20
12.4374174724
 30
0.0
 10
5.1139409748
 20
12.4448757613
 30
0.0
 10
5.1131888275
 20
12.4523769728
 30
0.0
 10
5.1126129364
 20
12.4599113805
 30
0.0
 10
5.1122754161
 20
12.4674729223
 30
0.0
 10
5.1122115792
 20
12.4725221587
 30
0.0
 10
5.1122115792
 20
12.4750477814
 30
0.0
  0
SPLINE
  5
305
100
AcDbEntity
  8
0
100
AcDbSpline
 62
7
  6
CONTINUOUS
 70
0
 71
3
 72
15
 73
11
 74
0
 42
0.0000001
 43
0.0000001
 44
0.0000000001
 40
0.0
 40
0.0
 40
0.0
 40
0.0
 40
0.1259324456
 40
0.2517443406
 40
0.3773406369
 40
0.5026619668
 40
0.6276114377
 40
0.752149047
 40
0.8762880868
 40
1.0
 40
1.0
 40
1.0
 40
1.0
 10
5.1122115792
 20
12.4750477814
 30
0.0
 10
5.1122115792
 20
12.4775733996
 30
0.0
 10
5.1122758016
 20
12.4826226303
 30
0.0
 10
5.112613505
 20
12.4901841525
 30
0.0
 10
5.1131890617
 20
12.4977185893
 30
0.0
 10
5.1139410353
 20
12.5052198285
 30
0.0
 10
5.1148852233
 20
12.5126781494
 30
0.0
 10
5.1160208258
 20
12.520085486
 30
0.0
 10
5.1173009813
 20
12.5274437485
 30
0.0
 10
5.1182467257
 20
12.5323240683
 30
0.0
 10
5.1187429426
 20
12.5347550249
 30
0.0
  0
SPLINE
  5
306
100
AcDbEntity
  8
0
100
AcDbSpline
 62
7
  6
CONTINUOUS
 70
0
 71
3
 72
16
 73
12
 74
0
 42
0.0000001
 43
0.0000001
 44
0.0000000001
 40
0.0
 40
0.0
 40
0.0
 40
0.0
 40
0.1249714216
 40
0.2499478551
 40
0.3749483246
 40
0.4999403469
 40
0.6249292426
 40
0.749942726
 40
0.8124931984
 40
0.8750180348
 40
1.0
 40
1.0
 40
1.0
 40
1.0
 10
4.7206151452
 20
13.1875477814
 30
0.0
 10
4.7201654907
 20
13.1887768104
 30
0.0
 10
4.719095756
 20
13.1911802774
 30
0.0
 10
4.7168850944
 20
13.194447858
 30
0.0
 10
4.7141920793
 20
13.197326019
 30
0.0
 10
4.7110993857
 20
13.1997694538
 30
0.0
 10
4.7076812643
 20
13.2017303298
 30
0.0
 10
4.7046243472
 20
13.2029350058
 30
0.0
 10
4.7020939796
 20
13.2036192152
 30
0.0
 10
4.699516503
 20
13.2040964376
 30
0.0
 10
4.6975475016
 20
13.204214448
 30
0.0
 10
4.6962386889
 20
13.204214448
 30
0.0
  0
SPLINE
  5
307
100
AcDbEntity
  8
0
100
AcDbSpline
 62
7
  6
CONTINUOUS
 70
0
 71
3
 72
15
 73
11
 74
0
 42
0.0000001
 43
0.0000001
 44
0.0000000001
 40
0.0
 40
0.0
 40
0.0
 40
0.0
 40
0.1321386292
 40
0.2628209872
 40
0.3918180066
 40
0.5186621805
 40
0.6431954292
 40
0.7652907151
 40
0.8842906872
 40
1.0
 40
1.0
 40
1.0
 40
1.0
 10
5.1187429426
 20
12.5347550249
 30
0.0
 10
5.1167722504
 20
12.5359618225
 30
0.0
 10
5.1128660316
 20
12.5383841598
 30
0.0
 10
5.1070834518
 20
12.5420604458
 30
0.0
 10
5.1014230959
 20
12.5457556652
 30
0.0
 10
5.0959126882
 20
12.5494824465
 30
0.0
 10
5.0905652913
 20
12.5532329917
 30
0.0
 10
5.0853895729
 20
12.5569881976
 30
0.0
 10
5.0804222495
 20
12.5607655453
 30
0.0
 10
5.0772159252
 20
12.5633288567
 30
0.0
 10
5.0756485091
 20
12.5646086466
 30
0.0
  0
SPLINE
  5
308
100
AcDbEntity
  8
0
100
AcDbSpline
 62
7
  6
CONTINUOUS
 70
0
 71
3
 72
14
 73
10
 74
0
 42
0.0000001
 43
0.0000001
 44
0.0000000001
 40
0.0
 40
0.0
 40
0.0
 40
0.0
 40
0.3044232889
 40
0.4472698721
 40
0.5820898731
 40
0.7070640204
 40
0.819974634
 40
0.9182901162
 40
1.0
 40
1.0
 40
1.0
 40
1.0
 10
6.4409083253
 20
13.1875477814
 30
0.0
 10
6.4397366674
 20
13.1889075999
 30
0.0
 10
6.4380340741
 20
13.1909224919
 30
0.0
 10
6.4359100028
 20
13.1936188653
 30
0.0
 10
6.4344905816
 20
13.1955222534
 30
0.0
 10
6.4332236897
 20
13.1973181683
 30
0.0
 10
6.4321340427
 20
13.1989749389
 30
0.0
 10
6.4312542171
 20
13.2004617728
 30
0.0
 10
6.4307839454
 20
13.2014164917
 30
0.0
 10
6.4306060474
 20
13.2018642279
 30
0.0
  0
LINE
  5
309
100
AcDbEntity
  8
0
100
AcDbLine
 62
7
  6
CONTINUOUS
 10
6.4477968573
 20
13.179214448
 11
6.4409083253
 21
13.1875477814
  0
SPLINE
  5
30A
100
AcDbEntity
  8
0
100
AcDbSpline
 62
7
  6
CONTINUOUS
 70
0
 71
3
 72
11
 73
7
 74
0
 42
0.0000001
 43
0.0000001
 44
0.0000000001
 40
0.0
 40
0.0
 40
0.0
 40
0.0
 40
0.2669422871
 40
0.5232216592
 40
0.7676615213
 40
1.0
 40
1.0
 40
1.0
 40
1.0
 10
4.9737820281
 20
12.4285099208
 30
0.0
 10
4.9753449699
 20
12.4241235338
 30
0.0
 10
4.978893151
 20
12.4156877108
 30
0.0
 10
4.9855709281
 20
12.4040393147
 30
0.0
 10
4.9933756678
 20
12.3938600855
 30
0.0
 10
4.9993830107
 20
12.3880501913
 30
0.0
 10
5.0025223689
 20
12.3854869161
 30
0.0
  0
SPLINE
  5
30B
100
AcDbEntity
  8
0
100
AcDbSpline
 62
7
  6
CONTINUOUS
 70
0
 71
3
 72
15
 73
11
 74
0
 42
0.0000001
 43
0.0000001
 44
0.0000000001
 40
0.0
 40
0.0
 40
0.0
 40
0.0
 40
0.1392989235
 40
0.2741692009
 40
0.4045535927
 40
0.5310878526
 40
0.6536526967
 40
0.7723087613
 40
0.8876843129
 40
1.0
 40
1.0
 40
1.0
 40
1.0
 10
5.0756485091
 20
12.5646086466
 30
0.0
 10
5.0741228541
 20
12.5658543387
 30
0.0
 10
5.0711442874
 20
12.5683361603
 30
0.0
 10
5.066849148
 20
12.5721152158
 30
0.0
 10
5.0627965105
 20
12.5758929116
 30
0.0
 10
5.0589557083
 20
12.5796404544
 30
0.0
 10
5.0553301458
 20
12.5833688857
 30
0.0
 10
5.0519184409
 20
12.587082187
 30
0.0
 10
5.0486887401
 20
12.5907638774
 30
0.0
 10
5.0466211947
 20
12.593232144
 30
0.0
 10
5.0456168024
 20
12.5944622683
 30
0.0
  0
SPLINE
  5
30C
100
AcDbEntity
  8
0
100
AcDbSpline
 62
7
  6
CONTINUOUS
 70
0
 71
3
 72
14
 73
10
 74
0
 42
0.0000001
 43
0.0000001
 44
0.0000000001
 40
0.0
 40
0.0
 40
0.0
 40
0.0
 40
0.269599703
 40
0.4017108628
 40
0.5305730595
 40
0.6553331758
 40
0.7753493757
 40
0.8902627932
 40
1.0
 40
1.0
 40
1.0
 40
1.0
 10
5.0759139172
 20
12.4750477814
 30
0.0
 10
5.0759139172
 20
12.46872977
 30
0.0
 10
5.0750503566
 20
12.4592821781
 30
0.0
 10
5.0721568326
 20
12.4471754309
 30
0.0
 10
5.069187802
 20
12.4386194855
 30
0.0
 10
5.0654553552
 20
12.4306799481
 30
0.0
 10
5.061020298
 20
12.4234883093
 30
0.0
 10
5.0559559348
 20
12.4171692861
 30
0.0
 10
5.0521259879
 20
12.4135265613
 30
0.0
 10
5.0501339824
 20
12.4119000957
 30
0.0
  0
SPLINE
  5
30D
100
AcDbEntity
  8
0
100
AcDbSpline
 62
7
  6
CONTINUOUS
 70
0
 71
3
 72
14
 73
10
 74
0
 42
0.0000001
 43
0.0000001
 44
0.0000000001
 40
0.0
 40
0.0
 40
0.0
 40
0.0
 40
0.1097372068
 40
0.2246506243
 40
0.3446668242
 40
0.4694269405
 40
0.5982891372
 40
0.730400297
 40
1.0
 40
1.0
 40
1.0
 40
1.0
 10
5.0501339824
 20
12.5381954671
 30
0.0
 10
5.0521259879
 20
12.5365690014
 30
0.0
 10
5.0559559348
 20
12.5329262766
 30
0.0
 10
5.061020298
 20
12.5266072534
 30
0.0
 10
5.0654553552
 20
12.5194156147
 30
0.0
 10
5.069187802
 20
12.5114760772
 30
0.0
 10
5.0721568326
 20
12.5029201318
 30
0.0
 10
5.0750503566
 20
12.4908133847
 30
0.0
 10
5.0759139172
 20
12.4813657927
 30
0.0
 10
5.0759139172
 20
12.4750477814
 30
0.0
  0
SPLINE
  5
30E
100
AcDbEntity
  8
0
100
AcDbSpline
 62
7
  6
CONTINUOUS
 70
0
 71
3
 72
11
 73
7
 74
0
 42
0.0000001
 43
0.0000001
 44
0.0000000001
 40
0.0
 40
0.0
 40
0.0
 40
0.0
 40
0.2323253747
 40
0.476762387
 40
0.7330474332
 40
1.0
 40
1.0
 40
1.0
 40
1.0
 10
5.0025223689
 20
12.5646086466
 30
0.0
 10
4.9993800511
 20
12.5620429549
 30
0.0
 10
4.9933673142
 20
12.5562269267
 30
0.0
 10
4.9855568925
 20
12.5460360545
 30
0.0
 10
4.9788757858
 20
12.5343737802
 30
0.0
 10
4.9753271719
 20
12.5259278804
 30
0.0
 10
4.9737644529
 20
12.5215362845
 30
0.0
  0
SPLINE
  5
30F
100
AcDbEntity
  8
0
100
AcDbSpline
 62
7
  6
CONTINUOUS
 70
0
 71
3
 72
15
 73
11
 74
0
 42
0.0000001
 43
0.0000001
 44
0.0000000001
 40
0.0
 40
0.0
 40
0.0
 40
0.0
 40
0.1312712794
 40
0.2573740503
 40
0.3796904152
 40
0.5
 40
0.6203095848
 40
0.7426259497
 40
0.8687287206
 40
1.0
 40
1.0
 40
1.0
 40
1.0
 10
5.0756485091
 20
12.5646086466
 30
0.0
 10
5.0729479615
 20
12.5668136345
 30
0.0
 10
5.0673285925
 20
12.5707614232
 30
0.0
 10
5.0582098536
 20
12.5751732077
 30
0.0
 10
5.0487377773
 20
12.5778604351
 30
0.0
 10
5.039085439
 20
12.5787628762
 30
0.0
 10
5.0294331007
 20
12.5778604351
 30
0.0
 10
5.0199610243
 20
12.5751732077
 30
0.0
 10
5.0108422854
 20
12.5707614232
 30
0.0
 10
5.0052229165
 20
12.5668136345
 30
0.0
 10
5.0025223689
 20
12.5646086466
 30
0.0
  0
SPLINE
  5
310
100
AcDbEntity
  8
0
100
AcDbSpline
 62
7
  6
CONTINUOUS
 70
0
 71
3
 72
14
 73
10
 74
0
 42
0.0000001
 43
0.0000001
 44
0.0000000001
 40
0.0
 40
0.0
 40
0.0
 40
0.0
 40
0.269596452
 40
0.4017121349
 40
0.5305732369
 40
0.6553327001
 40
0.7753521299
 40
0.8902584827
 40
1.0
 40
1.0
 40
1.0
 40
1.0
 10
5.1122115792
 20
12.4750477814
 30
0.0
 10
5.1122115792
 20
12.4840083639
 30
0.0
 10
5.1109866898
 20
12.4974076721
 30
0.0
 10
5.1068832298
 20
12.5145784974
 30
0.0
 10
5.1026720803
 20
12.5267132076
 30
0.0
 10
5.0973786379
 20
12.5379738285
 30
0.0
 10
5.0910882589
 20
12.5481732396
 30
0.0
 10
5.0839058117
 20
12.5571355541
 30
0.0
 10
5.0784738357
 20
12.5623017771
 30
0.0
 10
5.0756485091
 20
12.5646086466
 30
0.0
  0
SPLINE
  5
311
100
AcDbEntity
  8
0
100
AcDbSpline
 62
7
  6
CONTINUOUS
 70
0
 71
3
 72
14
 73
10
 74
0
 42
0.0000001
 43
0.0000001
 44
0.0000000001
 40
0.0
 40
0.0
 40
0.0
 40
0.0
 40
0.1097415173
 40
0.2246478701
 40
0.3446672999
 40
0.4694267631
 40
0.5982878651
 40
0.730403548
 40
1.0
 40
1.0
 40
1.0
 40
1.0
 10
5.0756485091
 20
12.3854869161
 30
0.0
 10
5.0784738357
 20
12.3877937856
 30
0.0
 10
5.0839058117
 20
12.3929600087
 30
0.0
 10
5.0910882589
 20
12.4019223231
 30
0.0
 10
5.0973786379
 20
12.4121217342
 30
0.0
 10
5.1026720803
 20
12.4233823551
 30
0.0
 10
5.1068832298
 20
12.4355170653
 30
0.0
 10
5.1109866898
 20
12.4526878906
 30
0.0
 10
5.1122115792
 20
12.4660871989
 30
0.0
 10
5.1122115792
 20
12.4750477814
 30
0.0
  0
SPLINE
  5
312
100
AcDbEntity
  8
0
100
AcDbSpline
 62
7
  6
CONTINUOUS
 70
0
 71
3
 72
14
 73
10
 74
0
 42
0.0000001
 43
0.0000001
 44
0.0000000001
 40
0.0
 40
0.0
 40
0.0
 40
0.0
 40
0.0817940073
 40
0.180165692
 40
0.2930993601
 40
0.4180741629
 40
0.5528731236
 40
0.6956838448
 40
1.0
 40
1.0
 40
1.0
 40
1.0
 10
5.7111346177
 20
13.2018561415
 30
0.0
 10
5.7109560885
 20
13.2014083845
 30
0.0
 10
5.7104850374
 20
13.2004537588
 30
0.0
 10
5.709604614
 20
13.1989671717
 30
0.0
 10
5.7085149233
 20
13.1973110697
 30
0.0
 10
5.7072484368
 20
13.1955162079
 30
0.0
 10
5.7058299356
 20
13.1936140448
 30
0.0
 10
5.7037076879
 20
13.1909196695
 30
0.0
 10
5.7020064971
 20
13.1889064355
 30
0.0
 10
5.7008358424
 20
13.1875477814
 30
0.0
  0
SPLINE
  5
313
100
AcDbEntity
  8
0
100
AcDbSpline
 62
7
  6
CONTINUOUS
 70
0
 71
3
 72
9
 73
5
 74
0
 42
0.0000001
 43
0.0000001
 44
0.0000000001
 40
0.0
 40
0.0
 40
0.0
 40
0.0
 40
0.256914736
 40
1.0
 40
1.0
 40
1.0
 40
1.0
 10
5.0187722887
 20
12.4750477814
 30
0.0
 10
5.0187722887
 20
12.4769194797
 30
0.0
 10
5.0184089882
 20
12.4841963231
 30
0.0
 10
5.0165977987
 20
12.4914313853
 30
0.0
 10
5.0143696205
 20
12.4963651665
 30
0.0
  0
SPLINE
  5
314
100
AcDbEntity
  8
0
100
AcDbSpline
 62
7
  6
CONTINUOUS
 70
0
 71
3
 72
15
 73
11
 74
0
 42
0.0000001
 43
0.0000001
 44
0.0000000001
 40
0.0
 40
0.0
 40
0.0
 40
0.0
 40
0.1312712794
 40
0.2573740503
 40
0.3796904152
 40
0.5
 40
0.6203095848
 40
0.7426259497
 40
0.8687287206
 40
1.0
 40
1.0
 40
1.0
 40
1.0
 10
5.0025223689
 20
12.3854869161
 30
0.0
 10
5.0052229165
 20
12.3832819282
 30
0.0
 10
5.0108422854
 20
12.3793341395
 30
0.0
 10
5.0199610243
 20
12.3749223551
 30
0.0
 10
5.0294331007
 20
12.3722351276
 30
0.0
 10
5.039085439
 20
12.3713326866
 30
0.0
 10
5.0487377773
 20
12.3722351276
 30
0.0
 10
5.0582098536
 20
12.3749223551
 30
0.0
 10
5.0673285925
 20
12.3793341395
 30
0.0
 10
5.0729479615
 20
12.3832819282
 30
0.0
 10
5.0756485091
 20
12.3854869161
 30
0.0
  0
SPLINE
  5
315
100
AcDbEntity
  8
0
100
AcDbSpline
 62
7
  6
CONTINUOUS
 70
0
 71
3
 72
18
 73
14
 74
0
 42
0.0000001
 43
0.0000001
 44
0.0000000001
 40
0.0
 40
0.0
 40
0.0
 40
0.0
 40
0.1943400723
 40
0.3728688532
 40
0.5322233628
 40
0.6703242976
 40
0.7855381944
 40
0.8343635526
 40
0.8773909763
 40
0.9146925711
 40
0.9465796073
 40
0.9743144695
 40
1.0
 40
1.0
 40
1.0
 40
1.0
 10
4.7217146025
 20
13.179214448
 30
0.0
 10
4.7216026718
 20
13.1780211741
 30
0.0
 10
4.7213459808
 20
13.1757349797
 30
0.0
 10
4.7207986954
 20
13.1724968577
 30
0.0
 10
4.720135055
 20
13.1696351159
 30
0.0
 10
4.7193812048
 20
13.1672020025
 30
0.0
 10
4.7186610352
 20
13.1654778212
 30
0.0
 10
4.7180388757
 20
13.1643610882
 30
0.0
 10
4.7175881659
 20
13.1637026014
 30
0.0
 10
4.7171294114
 20
13.1631814886
 30
0.0
 10
4.7166577109
 20
13.1628064344
 30
0.0
 10
4.7161703019
 20
13.1625917998
 30
0.0
 10
4.7158389695
 20
13.1625477814
 30
0.0
 10
4.7156805646
 20
13.1625477814
 30
0.0
  0
SPLINE
  5
316
100
AcDbEntity
  8
0
100
AcDbSpline
 62
7
  6
CONTINUOUS
 70
0
 71
3
 72
9
 73
5
 74
0
 42
0.0000001
 43
0.0000001
 44
0.0000000001
 40
0.0
 40
0.0
 40
0.0
 40
0.0
 40
0.5073089573
 40
1.0
 40
1.0
 40
1.0
 40
1.0
 10
4.7206151452
 20
13.1875477814
 30
0.0
 10
4.7211065762
 20
13.1862045658
 30
0.0
 10
4.7217931053
 20
13.183442977
 30
0.0
 10
4.7218443303
 20
13.1805974548
 30
0.0
 10
4.7217146025
 20
13.179214448
 30
0.0
  0
LINE
  5
317
100
AcDbEntity
  8
0
100
AcDbLine
 62
7
  6
CONTINUOUS
 10
5.6939473105
 20
13.179214448
 11
5.7008358424
 21
13.1875477814
  0
SPLINE
  5
318
100
AcDbEntity
  8
0
100
AcDbSpline
 62
7
  6
CONTINUOUS
 70
0
 71
3
 72
10
 73
6
 74
0
 42
0.0000001
 43
0.0000001
 44
0.0000000001
 40
0.0
 40
0.0
 40
0.0
 40
0.0
 40
0.2482223576
 40
0.497363072
 40
1.0
 40
1.0
 40
1.0
 40
1.0
 10
7.4148506587
 20
13.179214448
 30
0.0
 10
7.41501237
 20
13.1799440202
 30
0.0
 10
7.4154073238
 20
13.1813909244
 30
0.0
 10
7.4164376479
 20
13.1842218248
 30
0.0
 10
7.4174646028
 20
13.1862521462
 30
0.0
 10
7.4182463344
 20
13.1875477814
 30
0.0
  0
SPLINE
  5
319
100
AcDbEntity
  8
0
100
AcDbSpline
 62
7
  6
CONTINUOUS
 70
0
 71
3
 72
15
 73
11
 74
0
 42
0.0000001
 43
0.0000001
 44
0.0000000001
 40
0.0
 40
0.0
 40
0.0
 40
0.0
 40
0.1312658062
 40
0.2573771378
 40
0.3796893943
 40
0.5
 40
0.6203106057
 40
0.7426228622
 40
0.8687341938
 40
1.0
 40
1.0
 40
1.0
 40
1.0
 10
4.998574113
 20
12.5381954671
 30
0.0
 10
5.0004781361
 20
12.5397500954
 30
0.0
 10
5.0044403507
 20
12.5425335233
 30
0.0
 10
5.0108696824
 20
12.5456444063
 30
0.0
 10
5.0175484365
 20
12.5475388341
 30
0.0
 10
5.0243540477
 20
12.5481753418
 30
0.0
 10
5.0311596589
 20
12.5475388341
 30
0.0
 10
5.037838413
 20
12.5456444063
 30
0.0
 10
5.0442677447
 20
12.5425335233
 30
0.0
 10
5.0482299593
 20
12.5397500954
 30
0.0
 10
5.0501339824
 20
12.5381954671
 30
0.0
  0
SPLINE
  5
31A
100
AcDbEntity
  8
0
100
AcDbSpline
 62
7
  6
CONTINUOUS
 70
0
 71
3
 72
9
 73
5
 74
0
 42
0.0000001
 43
0.0000001
 44
0.0000000001
 40
0.0
 40
0.0
 40
0.0
 40
0.0
 40
0.5157384893
 40
1.0
 40
1.0
 40
1.0
 40
1.0
 10
4.9843433622
 20
12.5210380515
 30
0.0
 10
4.9862607464
 20
12.5243742953
 30
0.0
 10
4.9904895664
 20
12.5305681704
 30
0.0
 10
4.9957754031
 20
12.53591033
 30
0.0
 10
4.998574113
 20
12.5381954671
 30
0.0
  0
SPLINE
  5
31B
100
AcDbEntity
  8
0
100
AcDbSpline
 62
7
  6
CONTINUOUS
 70
0
 71
3
 72
14
 73
10
 74
0
 42
0.0000001
 43
0.0000001
 44
0.0000000001
 40
0.0
 40
0.0
 40
0.0
 40
0.0
 40
0.0817940073
 40
0.180165692
 40
0.2930993601
 40
0.4180741629
 40
0.5528731236
 40
0.6956838448
 40
1.0
 40
1.0
 40
1.0
 40
1.0
 10
16.162163617
 20
5.8203621706
 30
0.0
 10
16.1617158601
 20
5.8205406998
 30
0.0
 10
16.1607612343
 20
5.8210117509
 30
0.0
 10
16.1592746473
 20
5.8218921743
 30
0.0
 10
16.1576185453
 20
5.822981865
 30
0.0
 10
16.1558236835
 20
5.8242483515
 30
0.0
 10
16.1539215203
 20
5.8256668527
 30
0.0
 10
16.1512271451
 20
5.8277891004
 30
0.0
 10
16.1492139111
 20
5.8294902912
 30
0.0
 10
16.1478552569
 20
5.8306609459
 30
0.0
  0
SPLINE
  5
31C
100
AcDbEntity
  8
0
100
AcDbSpline
 62
7
  6
CONTINUOUS
 70
0
 71
3
 72
14
 73
10
 74
0
 42
0.0000001
 43
0.0000001
 44
0.0000000001
 40
0.0
 40
0.0
 40
0.0
 40
0.0
 40
0.3044232889
 40
0.4472698721
 40
0.5820898731
 40
0.7070640204
 40
0.819974634
 40
0.9182901162
 40
1.0
 40
1.0
 40
1.0
 40
1.0
 10
16.1478552569
 20
5.090588463
 30
0.0
 10
16.1492150754
 20
5.0917601209
 30
0.0
 10
16.1512299675
 20
5.0934627142
 30
0.0
 10
16.1539263408
 20
5.0955867855
 30
0.0
 10
16.1558297289
 20
5.0970062067
 30
0.0
 10
16.1576256438
 20
5.0982730986
 30
0.0
 10
16.1592824145
 20
5.0993627456
 30
0.0
 10
16.1607692483
 20
5.1002425712
 30
0.0
 10
16.1617239673
 20
5.1007128429
 30
0.0
 10
16.1621717035
 20
5.1008907409
 30
0.0
  0
SPLINE
  5
31D
100
AcDbEntity
  8
0
100
AcDbSpline
 62
7
  6
CONTINUOUS
 70
0
 71
3
 72
13
 73
9
 74
0
 42
0.0000001
 43
0.0000001
 44
0.0000000001
 40
0.0
 40
0.0
 40
0.0
 40
0.0
 40
0.2271981488
 40
0.4699015193
 40
0.5973585336
 40
0.728644095
 40
0.8633454361
 40
1.0
 40
1.0
 40
1.0
 40
1.0
 10
16.1478552569
 20
6.807998955
 30
0.0
 10
16.1495713653
 20
6.8090342448
 30
0.0
 10
16.1529292726
 20
6.8114999257
 30
0.0
 10
16.1566546902
 20
6.8152647201
 30
0.0
 10
16.159295821
 20
6.8188217943
 30
0.0
 10
16.16107104
 20
6.8218117158
 30
0.0
 10
16.1625658301
 20
6.8250395318
 30
0.0
 10
16.163339797
 20
6.8273123534
 30
0.0
 10
16.1636463407
 20
6.8284782129
 30
0.0
  0
SPLINE
  5
31E
100
AcDbEntity
  8
0
100
AcDbSpline
 62
7
  6
CONTINUOUS
 70
0
 71
3
 72
11
 73
7
 74
0
 42
0.0000001
 43
0.0000001
 44
0.0000000001
 40
0.0
 40
0.0
 40
0.0
 40
0.0
 40
0.2481242
 40
0.4971733437
 40
0.7478977088
 40
1.0
 40
1.0
 40
1.0
 40
1.0
 10
16.1395219236
 20
6.8046032793
 30
0.0
 10
16.1402515073
 20
6.8047648801
 30
0.0
 10
16.141698266
 20
6.8051598506
 30
0.0
 10
16.1438167664
 20
6.8059313593
 30
0.0
 10
16.1458792166
 20
6.8068716663
 30
0.0
 10
16.1472051734
 20
6.8076067208
 30
0.0
 10
16.1478552569
 20
6.807998955
 30
0.0
  0
SPLINE
  5
31F
100
AcDbEntity
  8
0
100
AcDbSpline
 62
7
  6
CONTINUOUS
 70
0
 71
3
 72
10
 73
6
 74
0
 42
0.0000001
 43
0.0000001
 44
0.0000000001
 40
0.0
 40
0.0
 40
0.0
 40
0.0
 40
0.2482223576
 40
0.497363072
 40
1.0
 40
1.0
 40
1.0
 40
1.0
 10
16.1395219236
 20
4.1166461296
 30
0.0
 10
16.1402514958
 20
4.1164844183
 30
0.0
 10
16.1416984
 20
4.1160894645
 30
0.0
 10
16.1445293003
 20
4.1150591404
 30
0.0
 10
16.1465596218
 20
4.1140321855
 30
0.0
 10
16.1478552569
 20
4.1132504539
 30
0.0
  0
LINE
  5
320
100
AcDbEntity
  8
0
100
AcDbLine
 62
7
  6
CONTINUOUS
 10
16.1395219236
 20
5.8375494778
 11
16.1478552569
 21
5.8306609459
  0
SPLINE
  5
321
100
AcDbEntity
  8
0
100
AcDbSpline
 62
7
  6
CONTINUOUS
 70
0
 71
3
 72
13
 73
9
 74
0
 42
0.0000001
 43
0.0000001
 44
0.0000000001
 40
0.0
 40
0.0
 40
0.0
 40
0.0
 40
0.1366552967
 40
0.2713592853
 40
0.4026460174
 40
0.5301002273
 40
0.772801846
 40
1.0
 40
1.0
 40
1.0
 40
1.0
 10
16.1636463407
 20
4.092771196
 30
0.0
 10
16.1633397911
 20
4.093937078
 30
0.0
 10
16.162566458
 20
4.096210168
 30
0.0
 10
16.1610716821
 20
4.0994381256
 30
0.0
 10
16.1592964617
 20
4.1024281031
 30
0.0
 10
16.156655303
 20
4.1059852107
 30
0.0
 10
16.1529294282
 20
4.1097496267
 30
0.0
 10
16.1495713892
 20
4.1122151497
 30
0.0
 10
16.1478552569
 20
4.1132504539
 30
0.0
  0
LINE
  5
322
100
AcDbEntity
  8
0
100
AcDbLine
 62
7
  6
CONTINUOUS
 10
16.1395219236
 20
5.083699931
 11
16.1478552569
 21
5.090588463
  0
SPLINE
  5
323
100
AcDbEntity
  8
0
100
AcDbSpline
 62
7
  6
CONTINUOUS
 70
0
 71
3
 72
15
 73
11
 74
0
 42
0.0000001
 43
0.0000001
 44
0.0000000001
 40
0.0
 40
0.0
 40
0.0
 40
0.0
 40
0.1381135693
 40
0.2714886176
 40
0.4004247433
 40
0.5254201892
 40
0.6471125695
 40
0.7662285629
 40
0.8835680977
 40
1.0
 40
1.0
 40
1.0
 40
1.0
 10
16.3804983214
 20
11.8906095417
 30
0.0
 10
16.3888605043
 20
11.8735692047
 30
0.0
 10
16.4040880391
 20
11.8394594025
 30
0.0
 10
16.4224971874
 20
11.7875346475
 30
0.0
 10
16.4359690053
 20
11.735966753
 30
0.0
 10
16.4444441284
 20
11.6849671419
 30
0.0
 10
16.4478799574
 20
11.6347288318
 30
0.0
 10
16.4462582377
 20
11.5854451028
 30
0.0
 10
16.4395794745
 20
11.5373201832
 30
0.0
 10
16.431750477
 20
11.5060841872
 30
0.0
 10
16.4270262672
 20
11.4907957074
 30
0.0
  0
SPLINE
  5
324
100
AcDbEntity
  8
0
100
AcDbSpline
 62
7
  6
CONTINUOUS
 70
0
 71
3
 72
14
 73
10
 74
0
 42
0.0000001
 43
0.0000001
 44
0.0000000001
 40
0.0
 40
0.0
 40
0.0
 40
0.0
 40
0.119017747
 40
0.2385483724
 40
0.3593131056
 40
0.48188278
 40
0.6067628594
 40
0.7344968885
 40
1.0
 40
1.0
 40
1.0
 40
1.0
 10
13.7395768071
 20
11.9673013403
 30
0.0
 10
13.7343961999
 20
11.9505368895
 30
0.0
 10
13.7258213501
 20
11.9163465503
 30
0.0
 10
13.7184849461
 20
11.8637883174
 30
0.0
 10
13.7166733172
 20
11.810226051
 30
0.0
 10
13.7203086319
 20
11.7559754748
 30
0.0
 10
13.7293241518
 20
11.7013156394
 30
0.0
 10
13.748568155
 20
11.6273138313
 30
0.0
 10
13.7704169605
 20
11.5732574584
 30
0.0
 10
13.7876610603
 20
11.5381176775
 30
0.0
  0
SPLINE
  5
325
100
AcDbEntity
  8
0
100
AcDbSpline
 62
7
  6
CONTINUOUS
 70
0
 71
3
 72
40
 73
36
 74
0
 42
0.0000001
 43
0.0000001
 44
0.0000000001
 40
0.0
 40
0.0
 40
0.0
 40
0.0
 40
0.0270606636
 40
0.0552336297
 40
0.0845282579
 40
0.1149566279
 40
0.1464931306
 40
0.1790787749
 40
0.2126315479
 40
0.2470506557
 40
0.2822160173
 40
0.3179940763
 40
0.3542399882
 40
0.3908005558
 40
0.4275174945
 40
0.4642295048
 40
0.5007757431
 40
0.5369977606
 40
0.5727432242
 40
0.607867404
 40
0.6422377974
 40
0.6757356655
 40
0.7082599355
 40
0.7397312196
 40
0.770093702
 40
0.7993211301
 40
0.8274174699
 40
0.8544225668
 40
0.8804105753
 40
0.905493201
 40
0.929814318
 40
0.9535444069
 40
0.9652479122
 40
0.9768733581
 40
1.0
 40
1.0
 40
1.0
 40
1.0
 10
13.7876610603
 20
11.5381176775
 30
0.0
 10
13.7996045081
 20
11.5137794897
 30
0.0
 10
13.8264823318
 20
11.4652991793
 30
0.0
 10
13.8740190384
 20
11.3951002652
 30
0.0
 10
13.9292121433
 20
11.3263688048
 30
0.0
 10
13.9916507839
 20
11.2594762935
 30
0.0
 10
14.0609197689
 20
11.1947635103
 30
0.0
 10
14.1365731103
 20
11.1325997258
 30
0.0
 10
14.2181138351
 20
11.0733407231
 30
0.0
 10
14.3050146595
 20
11.0173445627
 30
0.0
 10
14.3967075571
 20
10.9649525957
 30
0.0
 10
14.492591033
 20
10.9164940328
 30
0.0
 10
14.5920343583
 20
10.872281145
 30
0.0
 10
14.6943774748
 20
10.8325948256
 30
0.0
 10
14.7989439156
 20
10.7977008227
 30
0.0
 10
14.9050380869
 20
10.7678246764
 30
0.0
 10
15.0119571668
 20
10.743167841
 30
0.0
 10
15.1189945951
 20
10.7238981168
 30
0.0
 10
15.2254450798
 20
10.7101440009
 30
0.0
 10
15.3306139913
 20
10.7020107788
 30
0.0
 10
15.4338194705
 20
10.6995581334
 30
0.0
 10
15.5344009204
 20
10.7028241616
 30
0.0
 10
15.6317224016
 20
10.7118120501
 30
0.0
 10
15.72517716
 20
10.7264985239
 30
0.0
 10
15.8141892517
 20
10.7468442882
 30
0.0
 10
15.8982140374
 20
10.7727841136
 30
0.0
 10
15.9767319537
 20
10.8042490794
 30
0.0
 10
16.049239329
 20
10.8411540996
 30
0.0
 10
16.1152360862
 20
10.8833979499
 30
0.0
 10
16.1742061333
 20
10.9308540401
 30
0.0
 10
16.2256002501
 20
10.983327033
 30
0.0
 10
16.2618141831
 20
11.0312336981
 30
0.0
 10
16.286295203
 20
11.0715660722
 30
0.0
 10
16.3076506245
 20
11.1129483847
 30
0.0
 10
16.320334206
 20
11.1455364617
 30
0.0
 10
16.3271749269
 20
11.1676730426
 30
0.0
  0
SPLINE
  5
326
100
AcDbEntity
  8
0
100
AcDbSpline
 62
7
  6
CONTINUOUS
 70
0
 71
3
 72
43
 73
39
 74
0
 42
0.0000001
 43
0.0000001
 44
0.0000000001
 40
0.0
 40
0.0
 40
0.0
 40
0.0
 40
0.0107125705
 40
0.0214626116
 40
0.0322869219
 40
0.0432208933
 40
0.0655384547
 40
0.0886694694
 40
0.1006084005
 40
0.1128199361
 40
0.1253208073
 40
0.1381251025
 40
0.1646761681
 40
0.19253489
 40
0.2217135457
 40
0.2521900679
 40
0.283910756
 40
0.3167965396
 40
0.3507462167
 40
0.3856395451
 40
0.4213417244
 40
0.4577048374
 40
0.4945717093
 40
0.5317778503
 40
0.5691540075
 40
0.6065288174
 40
0.6437307444
 40
0.680590882
 40
0.7169445937
 40
0.7526349976
 40
0.7875144664
 40
0.8214477506
 40
0.854315873
 40
0.8860176102
 40
0.9164729139
 40
0.9456302694
 40
0.973473537
 40
1.0
 40
1.0
 40
1.0
 40
1.0
 10
13.8394301835
 20
12.2904233759
 30
0.0
 10
13.8425865871
 20
12.3006381239
 30
0.0
 10
13.8496528192
 20
12.3208824291
 30
0.0
 10
13.8624483005
 20
12.350484302
 30
0.0
 10
13.8774239583
 20
12.3792968618
 30
0.0
 10
13.900406465
 20
12.4168397434
 30
0.0
 10
13.9347046493
 20
12.4616775087
 30
0.0
 10
13.9751677774
 20
12.5024261136
 30
0.0
 10
14.0112539697
 20
12.5328631708
 30
0.0
 10
14.0405234157
 20
12.5548345852
 30
0.0
 10
14.0716565087
 20
12.5756666972
 30
0.0
 10
14.1161182283
 20
12.6021916527
 30
0.0
 10
14.1762281027
 20
12.6322140052
 30
0.0
 10
14.2539782319
 20
12.6627158496
 30
0.0
 10
14.3376879065
 20
12.6879440616
 30
0.0
 10
14.4267892242
 20
12.7077264036
 30
0.0
 10
14.5206815606
 20
12.7219414827
 30
0.0
 10
14.6187307824
 20
12.7304951388
 30
0.0
 10
14.7202736398
 20
12.7333285607
 30
0.0
 10
14.8246221893
 20
12.7304294844
 30
0.0
 10
14.9310680908
 20
12.721812224
 30
0.0
 10
15.0388886287
 20
12.7075393319
 30
0.0
 10
15.1473509202
 20
12.6877080574
 30
0.0
 10
15.2557163609
 20
12.6624496596
 30
0.0
 10
15.3632488973
 20
12.6319414968
 30
0.0
 10
15.4692153935
 20
12.5963863403
 30
0.0
 10
15.5728954481
 20
12.5560283601
 30
0.0
 10
15.673584207
 20
12.5111435321
 30
0.0
 10
15.7705949046
 20
12.4620327685
 30
0.0
 10
15.8632704596
 20
12.4090350536
 30
0.0
 10
15.9509789977
 20
12.3525062421
 30
0.0
 10
16.0331258399
 20
12.2928306855
 30
0.0
 10
16.1091555082
 20
12.2304134525
 30
0.0
 10
16.1785474277
 20
12.1656701724
 30
0.0
 10
16.2408372268
 20
12.0990434313
 30
0.0
 10
16.2956029314
 20
12.0309655629
 30
0.0
 10
16.3424540381
 20
11.9619022721
 30
0.0
 10
16.3688354817
 20
11.9143759103
 30
0.0
 10
16.3804983214
 20
11.8906095417
 30
0.0
  0
SPLINE
  5
327
100
AcDbEntity
  8
03__ASM_ALL_CURVES
100
AcDbSpline
 62
8
  6
PHANTOM
 70
0
 71
3
 72
116
 73
112
 74
0
 42
0.0000001
 43
0.0000001
 44
0.0000000001
 40
0.0
 40
0.0
 40
0.0
 40
0.0
 40
0.03125
 40
0.0625
 40
0.078125
 40
0.09375
 40
0.109375
 40
0.125
 40
0.140625
 40
0.1484375
 40
0.15234375
 40
0.15625
 40
0.16015625
 40
0.1640625
 40
0.1650390625
 40
0.166015625
 40
0.1669921875
 40
0.16796875
 40
0.169921875
 40
0.171875
 40
0.17578125
 40
0.1796875
 40
0.1875
 40
0.1953125
 40
0.203125
 40
0.21875
 40
0.25
 40
0.28125
 40
0.296875
 40
0.3046875
 40
0.3125
 40
0.3203125
 40
0.32421875
 40
0.328125
 40
0.330078125
 40
0.33203125
 40
0.3330078125
 40
0.333984375
 40
0.3359375
 40
0.33984375
 40
0.34375
 40
0.3515625
 40
0.359375
 40
0.375
 40
0.390625
 40
0.40625
 40
0.421875
 40
0.4375
 40
0.453125
 40
0.46875
 40
0.4765625
 40
0.484375
 40
0.48828125
 40
0.4921875
 40
0.49609375
 40
0.498046875
 40
0.4990234375
 40
0.5
 40
0.5009765625
 40
0.501953125
 40
0.50390625
 40
0.5078125
 40
0.51171875
 40
0.515625
 40
0.5234375
 40
0.53125
 40
0.546875
 40
0.5625
 40
0.578125
 40
0.59375
 40
0.609375
 40
0.625
 40
0.640625
 40
0.6484375
 40
0.65625
 40
0.66015625
 40
0.6640625
 40
0.666015625
 40
0.6669921875
 40
0.66796875
 40
0.669921875
 40
0.671875
 40
0.67578125
 40
0.6796875
 40
0.6875
 40
0.6953125
 40
0.703125
 40
0.71875
 40
0.75
 40
0.78125
 40
0.796875
 40
0.8046875
 40
0.8125
 40
0.8203125
 40
0.82421875
 40
0.828125
 40
0.830078125
 40
0.83203125
 40
0.8330078125
 40
0.833984375
 40
0.8359375
 40
0.83984375
 40
0.84375
 40
0.8515625
 40
0.859375
 40
0.875
 40
0.890625
 40
0.90625
 40
0.9375
 40
0.96875
 40
1.0
 40
1.0
 40
1.0
 40
1.0
 10
16.8289637434
 20
13.3689499022
 30
0.0
 10
16.818445008
 20
13.3780094101
 30
0.0
 10
16.7974075374
 20
13.3961284259
 30
0.0
 10
16.7711106992
 20
13.4187771958
 30
0.0
 10
16.7500732284
 20
13.4368962116
 30
0.0
 10
16.7342951261
 20
13.4504854738
 30
0.0
 10
16.7185170205
 20
13.4640747345
 30
0.0
 10
16.7027389275
 20
13.4776640008
 30
0.0
 10
16.6895904775
 20
13.488988372
 30
0.0
 10
16.6803866391
 20
13.496915466
 30
0.0
 10
16.6751271833
 20
13.5014451807
 30
0.0
 10
16.6711829284
 20
13.5048426168
 30
0.0
 10
16.6672373856
 20
13.5082394792
 30
0.0
 10
16.6642818392
 20
13.5107887344
 30
0.0
 10
16.6623058596
 20
13.5124857365
 30
0.0
 10
16.661327897
 20
13.5133387042
 30
0.0
 10
16.6603109488
 20
13.5141743055
 30
0.0
 10
16.6587695179
 20
13.5152058074
 30
0.0
 10
16.6569062441
 20
13.5165234783
 30
0.0
 10
16.653889511
 20
13.5186159399
 30
0.0
 10
16.6501307482
 20
13.5212369309
 30
0.0
 10
16.644109935
 20
13.5254274907
 30
0.0
 10
16.6365862491
 20
13.5306667286
 30
0.0
 10
16.6275568285
 20
13.5369533697
 30
0.0
 10
16.615517949
 20
13.5453357129
 30
0.0
 10
16.594449747
 20
13.5600047406
 30
0.0
 10
16.5643524076
 20
13.5809605372
 30
0.0
 10
16.5342550104
 20
13.6019163021
 30
0.0
 10
16.5131868892
 20
13.6165853741
 30
0.0
 10
16.5011478826
 20
13.6249676477
 30
0.0
 10
16.4921188521
 20
13.6312545023
 30
0.0
 10
16.4845939454
 20
13.6364930719
 30
0.0
 10
16.4785756229
 20
13.6406849952
 30
0.0
 10
16.4748105214
 20
13.6433025161
 30
0.0
 10
16.4718067993
 20
13.6454021006
 30
0.0
 10
16.4699104003
 20
13.6467016373
 30
0.0
 10
16.4684369658
 20
13.6477703633
 30
0.0
 10
16.4668040506
 20
13.6487328654
 30
0.0
 10
16.4638723634
 20
13.6503678984
 30
0.0
 10
16.4597228929
 20
13.652729406
 30
0.0
 10
16.4530621384
 20
13.65649343
 30
0.0
 10
16.4447435918
 20
13.6612033865
 30
0.0
 10
16.4314297832
 20
13.6687365634
 30
0.0
 10
16.4147889411
 20
13.6781539795
 30
0.0
 10
16.3948193224
 20
13.6894544736
 30
0.0
 10
16.3748498669
 20
13.7007550765
 30
0.0
 10
16.3548803663
 20
13.7120556494
 30
0.0
 10
16.3349108831
 20
13.7233562336
 30
0.0
 10
16.3149413756
 20
13.7346568025
 30
0.0
 10
16.2983001857
 20
13.744073985
 30
0.0
 10
16.2849870867
 20
13.7516076383
 30
0.0
 10
16.2766667344
 20
13.7563163824
 30
0.0
 10
16.2700096863
 20
13.7600828951
 30
0.0
 10
16.2650189981
 20
13.7629091007
 30
0.0
 10
16.2608534177
 20
13.7652600697
 30
0.0
 10
16.2579506082
 20
13.7669139949
 30
0.0
 10
16.2562714104
 20
13.7678462182
 30
0.0
 10
16.2550696185
 20
13.7685816599
 30
0.0
 10
16.2536476254
 20
13.769178443
 30
0.0
 10
16.2518284433
 20
13.7700225196
 30
0.0
 10
16.248609088
 20
13.771477119
 30
0.0
 10
16.2440287186
 20
13.7735668995
 30
0.0
 10
16.2385242671
 20
13.7760695934
 30
0.0
 10
16.2311877954
 20
13.7794082798
 30
0.0
 10
16.2220162482
 20
13.7835810348
 30
0.0
 10
16.2073423078
 20
13.7902577798
 30
0.0
 10
16.1889996987
 20
13.7986035953
 30
0.0
 10
16.1669886467
 20
13.8086186243
 30
0.0
 10
16.1449775727
 20
13.8186336368
 30
0.0
 10
16.1229665077
 20
13.8286486649
 30
0.0
 10
16.1009554287
 20
13.8386636471
 30
0.0
 10
16.0789443966
 20
13.8486787973
 30
0.0
 10
16.0606017252
 20
13.8570242342
 30
0.0
 10
16.0459279118
 20
13.8637017515
 30
0.0
 10
16.0367560415
 20
13.8678725412
 30
0.0
 10
16.029420233
 20
13.8712152616
 30
0.0
 10
16.0248315017
 20
13.8732905695
 30
0.0
 10
16.0216271077
 20
13.8747711271
 30
0.0
 10
16.01978395
 20
13.8755735985
 30
0.0
 10
16.0178953026
 20
13.876211967
 30
0.0
 10
16.015550069
 20
13.8770661162
 30
0.0
 10
16.0117889908
 20
13.878401354
 30
0.0
 10
16.0070906234
 20
13.8800811531
 30
0.0
 10
15.9995715699
 20
13.8827628224
 30
0.0
 10
15.9901733245
 20
13.8861169707
 30
0.0
 10
15.9788951855
 20
13.8901410664
 30
0.0
 10
15.9638577521
 20
13.8955068351
 30
0.0
 10
15.9375422034
 20
13.904896786
 30
0.0
 10
15.899948587
 20
13.9183110835
 30
0.0
 10
15.8623549492
 20
13.9317253285
 30
0.0
 10
15.8360394303
 20
13.941115353
 30
0.0
 10
15.8210019502
 20
13.9464810062
 30
0.0
 10
15.8097239545
 20
13.9505054561
 30
0.0
 10
15.8003252603
 20
13.9538584957
 30
0.0
 10
15.7928071226
 20
13.9565424271
 30
0.0
 10
15.7881064246
 20
13.9582164692
 30
0.0
 10
15.7843501303
 20
13.959563524
 30
0.0
 10
15.7819927171
 20
13.960387588
 30
0.0
 10
15.7801290708
 20
13.9610877126
 30
0.0
 10
15.7781840708
 20
13.9616386198
 30
0.0
 10
15.7747425285
 20
13.9625333898
 30
0.0
 10
15.7698457575
 20
13.963847799
 30
0.0
 10
15.7619999047
 20
13.9659306423
 30
0.0
 10
15.7521963616
 20
13.9685411168
 30
0.0
 10
15.736508584
 20
13.9727140082
 30
0.0
 10
15.7168995855
 20
13.9779314496
 30
0.0
 10
15.6933684775
 20
13.9841918111
 30
0.0
 10
15.6619937751
 20
13.9925391583
 30
0.0
 10
15.62277536
 20
14.0029732741
 30
0.0
 10
15.5757132779
 20
14.0154942425
 30
0.0
 10
15.5443385534
 20
14.0238415491
 30
0.0
 10
15.5286511915
 20
14.0280152032
 30
0.0
  0
SPLINE
  5
328
100
AcDbEntity
  8
03__ASM_ALL_CURVES
100
AcDbSpline
 62
8
  6
PHANTOM
 70
0
 71
3
 72
136
 73
132
 74
0
 42
0.0000001
 43
0.0000001
 44
0.0000000001
 40
0.0
 40
0.0
 40
0.0
 40
0.0
 40
0.03125
 40
0.0625
 40
0.078125
 40
0.09375
 40
0.109375
 40
0.125
 40
0.140625
 40
0.1484375
 40
0.15234375
 40
0.15625
 40
0.16015625
 40
0.1640625
 40
0.1650390625
 40
0.166015625
 40
0.1665039062
 40
0.1669921875
 40
0.16796875
 40
0.169921875
 40
0.171875
 40
0.17578125
 40
0.1796875
 40
0.1875
 40
0.1953125
 40
0.203125
 40
0.21875
 40
0.25
 40
0.265625
 40
0.28125
 40
0.296875
 40
0.3046875
 40
0.3125
 40
0.3203125
 40
0.32421875
 40
0.328125
 40
0.330078125
 40
0.33203125
 40
0.3330078125
 40
0.3334960938
 40
0.333984375
 40
0.3349609375
 40
0.3359375
 40
0.33984375
 40
0.34375
 40
0.34765625
 40
0.3515625
 40
0.359375
 40
0.375
 40
0.390625
 40
0.40625
 40
0.421875
 40
0.4375
 40
0.453125
 40
0.4609375
 40
0.46875
 40
0.4765625
 40
0.484375
 40
0.48828125
 40
0.4921875
 40
0.494140625
 40
0.49609375
 40
0.498046875
 40
0.4990234375
 40
0.4995117188
 40
0.5
 40
0.5004882812
 40
0.5009765625
 40
0.501953125
 40
0.50390625
 40
0.505859375
 40
0.5078125
 40
0.51171875
 40
0.515625
 40
0.5234375
 40
0.53125
 40
0.5390625
 40
0.546875
 40
0.5625
 40
0.578125
 40
0.59375
 40
0.609375
 40
0.625
 40
0.640625
 40
0.6484375
 40
0.65234375
 40
0.65625
 40
0.66015625
 40
0.6640625
 40
0.6650390625
 40
0.666015625
 40
0.6665039062
 40
0.6669921875
 40
0.66796875
 40
0.669921875
 40
0.671875
 40
0.67578125
 40
0.6796875
 40
0.6875
 40
0.6953125
 40
0.703125
 40
0.71875
 40
0.734375
 40
0.75
 40
0.765625
 40
0.78125
 40
0.796875
 40
0.8046875
 40
0.8125
 40
0.8203125
 40
0.82421875
 40
0.828125
 40
0.830078125
 40
0.83203125
 40
0.8330078125
 40
0.8334960938
 40
0.833984375
 40
0.8349609375
 40
0.8359375
 40
0.83984375
 40
0.84375
 40
0.84765625
 40
0.8515625
 40
0.859375
 40
0.875
 40
0.890625
 40
0.90625
 40
0.921875
 40
0.9375
 40
0.96875
 40
1.0
 40
1.0
 40
1.0
 40
1.0
 10
14.3889205148
 20
14.0280151963
 30
0.0
 10
14.3775044509
 20
14.0239197036
 30
0.0
 10
14.3546723229
 20
14.0157287182
 30
0.0
 10
14.3261321631
 20
14.0054899863
 30
0.0
 10
14.3033000348
 20
13.9972990011
 30
0.0
 10
14.2861759398
 20
13.9911557613
 30
0.0
 10
14.2690518401
 20
13.9850125251
 30
0.0
 10
14.2519277582
 20
13.9788692752
 30
0.0
 10
14.2376576345
 20
13.9737499431
 30
0.0
 10
14.2276686566
 20
13.9701663266
 30
0.0
 10
14.2219604995
 20
13.968118677
 30
0.0
 10
14.2176798598
 20
13.96658257
 30
0.0
 10
14.2133973926
 20
13.9650478767
 30
0.0
 10
14.210190666
 20
13.9638928929
 30
0.0
 10
14.2080448796
 20
13.9631290683
 30
0.0
 10
14.2071626598
 20
13.9628016348
 30
0.0
 10
14.206429222
 20
13.9625610873
 30
0.0
 10
14.2057969457
 20
13.9622422815
 30
0.0
 10
14.2047374641
 20
13.9616480107
 30
0.0
 10
14.2031993958
 20
13.9608180235
 30
0.0
 10
14.2007521911
 20
13.9594794421
 30
0.0
 10
14.1976884928
 20
13.9578098454
 30
0.0
 10
14.1927891982
 20
13.9551364619
 30
0.0
 10
14.18666418
 20
13.9517954286
 30
0.0
 10
14.1793145434
 20
13.9477858908
 30
0.0
 10
14.1695148935
 20
13.9424399442
 30
0.0
 10
14.1523655689
 20
13.9330844893
 30
0.0
 10
14.1327663145
 20
13.9223925612
 30
0.0
 10
14.1131670673
 20
13.9117006272
 30
0.0
 10
14.0984676364
 20
13.903681674
 30
0.0
 10
14.0862180925
 20
13.8969992244
 30
0.0
 10
14.0764184988
 20
13.8916532387
 30
0.0
 10
14.0690686902
 20
13.8876438207
 30
0.0
 10
14.0629442104
 20
13.8843024124
 30
0.0
 10
14.0580438174
 20
13.881629794
 30
0.0
 10
14.0549829142
 20
13.8799582502
 30
0.0
 10
14.0525299722
 20
13.8786236655
 30
0.0
 10
14.0510065108
 20
13.877783503
 30
0.0
 10
14.0499207935
 20
13.8772075083
 30
0.0
 10
14.0493305713
 20
13.8768594072
 30
0.0
 10
14.0488540508
 20
13.8764398889
 30
0.0
 10
14.0482195365
 20
13.8759399017
 30
0.0
 10
14.0467286888
 20
13.8747198414
 30
0.0
 10
14.0444789825
 20
13.8728981894
 30
0.0
 10
14.0414870528
 20
13.870464497
 30
0.0
 10
14.0384930691
 20
13.8680320948
 30
0.0
 10
14.0345018073
 20
13.8647884418
 30
0.0
 10
14.0275167653
 20
13.8591122587
 30
0.0
 10
14.0175383085
 20
13.8510033161
 30
0.0
 10
14.0055640854
 20
13.841272632
 30
0.0
 10
13.9935898824
 20
13.8315419353
 30
0.0
 10
13.981615674
 20
13.821811242
 30
0.0
 10
13.9696414672
 20
13.8120805477
 30
0.0
 10
13.9596629606
 20
13.8039716363
 30
0.0
 10
13.9516801568
 20
13.7974845063
 30
0.0
 10
13.9456930501
 20
13.7926191612
 30
0.0
 10
13.9397059579
 20
13.7877538069
 30
0.0
 10
13.9347166695
 20
13.7836993739
 30
0.0
 10
13.9307253392
 20
13.7804557626
 30
0.0
 10
13.9282305292
 20
13.7784286533
 30
0.0
 10
13.9262352046
 20
13.7768066274
 30
0.0
 10
13.9247372781
 20
13.7755910348
 30
0.0
 10
13.9234935648
 20
13.7745750925
 30
0.0
 10
13.922614019
 20
13.7738697193
 30
0.0
 10
13.9221253906
 20
13.7734576138
 30
0.0
 10
13.9217195678
 20
13.7731739865
 30
0.0
 10
13.9214641665
 20
13.7727930697
 30
0.0
 10
13.9210711628
 20
13.7723191163
 30
0.0
 10
13.9204078524
 20
13.7714738865
 30
0.0
 10
13.9194474854
 20
13.7702746818
 30
0.0
 10
13.9183005156
 20
13.7688320978
 30
0.0
 10
13.9167693118
 20
13.7669098883
 30
0.0
 10
13.9148559612
 20
13.7645067034
 30
0.0
 10
13.9117942347
 20
13.7606618439
 30
0.0
 10
13.907967202
 20
13.7558556885
 30
0.0
 10
13.9033747089
 20
13.7500883367
 30
0.0
 10
13.8987822303
 20
13.7443209756
 30
0.0
 10
13.8926589204
 20
13.7366311641
 30
0.0
 10
13.8850047849
 20
13.7270188986
 30
0.0
 10
13.875819821
 20
13.7154841806
 30
0.0
 10
13.8666348591
 20
13.7039494619
 30
0.0
 10
13.8574498905
 20
13.6924147453
 30
0.0
 10
13.8482649469
 20
13.6808800212
 30
0.0
 10
13.8406107492
 20
13.6712677744
 30
0.0
 10
13.8352529639
 20
13.6645391559
 30
0.0
 10
13.8321911333
 20
13.6606943025
 30
0.0
 10
13.8298954335
 20
13.6578104613
 30
0.0
 10
13.8275971607
 20
13.6549273887
 30
0.0
 10
13.8258806701
 20
13.6527629292
 30
0.0
 10
13.8247251238
 20
13.6513233079
 30
0.0
 10
13.824260341
 20
13.6507184782
 30
0.0
 10
13.8238495692
 20
13.6502462491
 30
0.0
 10
13.8235812236
 20
13.6497314716
 30
0.0
 10
13.8231777935
 20
13.6488108418
 30
0.0
 10
13.8225669383
 20
13.647505971
 30
0.0
 10
13.8216088649
 20
13.6454124134
 30
0.0
 10
13.8204046665
 20
13.6427974401
 30
0.0
 10
13.8184816415
 20
13.6386123798
 30
0.0
 10
13.8160765934
 20
13.6333814329
 30
0.0
 10
13.813191078
 20
13.6271041345
 30
0.0
 10
13.8093435347
 20
13.61873446
 30
0.0
 10
13.8045341706
 20
13.6082723474
 30
0.0
 10
13.7987629056
 20
13.5957178207
 30
0.0
 10
13.7929916487
 20
13.5831632915
 30
0.0
 10
13.7872203878
 20
13.5706087637
 30
0.0
 10
13.7814491346
 20
13.558054233
 30
0.0
 10
13.7766397346
 20
13.5475921326
 30
0.0
 10
13.7727922643
 20
13.5392224332
 30
0.0
 10
13.7699065258
 20
13.5329452107
 30
0.0
 10
13.7675021756
 20
13.5277140264
 30
0.0
 10
13.7655777268
 20
13.5235294503
 30
0.0
 10
13.764377152
 20
13.5209132447
 30
0.0
 10
13.7634116407
 20
13.5188222167
 30
0.0
 10
13.7628197218
 20
13.5175109058
 30
0.0
 10
13.7623822798
 20
13.5166018431
 30
0.0
 10
13.7621684531
 20
13.5160685244
 30
0.0
 10
13.7620907482
 20
13.5154830235
 30
0.0
 10
13.7619470901
 20
13.5147689834
 30
0.0
 10
13.7616406044
 20
13.5130406074
 30
0.0
 10
13.7611647921
 20
13.5104542091
 30
0.0
 10
13.7605395685
 20
13.507002154
 30
0.0
 10
13.7599118858
 20
13.5035510415
 30
0.0
 10
13.7590758334
 20
13.4989492294
 30
0.0
 10
13.7576123419
 20
13.4908962114
 30
0.0
 10
13.7555218488
 20
13.4793918198
 30
0.0
 10
13.7530131675
 20
13.4655865843
 30
0.0
 10
13.7505045102
 20
13.4517813396
 30
0.0
 10
13.7479958464
 20
13.4379760974
 30
0.0
 10
13.7446509637
 20
13.4195691069
 30
0.0
 10
13.7404698595
 20
13.3965603691
 30
0.0
 10
13.7371249763
 20
13.3781533787
 30
0.0
 10
13.7354525347
 20
13.3689498835
 30
0.0
  0
SPLINE
  5
329
100
AcDbEntity
  8
03__ASM_ALL_CURVES
100
AcDbSpline
 62
8
  6
PHANTOM
 70
0
 71
3
 72
71
 73
67
 74
0
 42
0.0000001
 43
0.0000001
 44
0.0000000001
 40
0.0
 40
0.0
 40
0.0
 40
0.0
 40
0.0625
 40
0.09375
 40
0.125
 40
0.140625
 40
0.15625
 40
0.1640625
 40
0.16796875
 40
0.171875
 40
0.1796875
 40
0.1875
 40
0.203125
 40
0.21875
 40
0.25
 40
0.28125
 40
0.296875
 40
0.3125
 40
0.3203125
 40
0.328125
 40
0.33203125
 40
0.3359375
 40
0.34375
 40
0.359375
 40
0.375
 40
0.390625
 40
0.40625
 40
0.4375
 40
0.453125
 40
0.46875
 40
0.484375
 40
0.4921875
 40
0.49609375
 40
0.5
 40
0.50390625
 40
0.5078125
 40
0.515625
 40
0.53125
 40
0.546875
 40
0.5625
 40
0.59375
 40
0.609375
 40
0.625
 40
0.640625
 40
0.65625
 40
0.6640625
 40
0.66796875
 40
0.671875
 40
0.6796875
 40
0.6875
 40
0.703125
 40
0.71875
 40
0.75
 40
0.78125
 40
0.796875
 40
0.8125
 40
0.8203125
 40
0.828125
 40
0.83203125
 40
0.8359375
 40
0.84375
 40
0.859375
 40
0.875
 40
0.90625
 40
0.9375
 40
1.0
 40
1.0
 40
1.0
 40
1.0
 10
16.8607971512
 20
12.0706920249
 30
0.0
 10
16.8677933843
 20
12.0753036678
 30
0.0
 10
16.8782876455
 20
12.082221456
 30
0.0
 10
16.8922803473
 20
12.0914438781
 30
0.0
 10
16.9010250495
 20
12.097210591
 30
0.0
 10
16.9080224902
 20
12.1018178074
 30
0.0
 10
16.9123920616
 20
12.1047113529
 30
0.0
 10
16.9154584354
 20
12.1067087069
 30
0.0
 10
16.9171986426
 20
12.1078940606
 30
0.0
 10
16.9188936201
 20
12.1092452012
 30
0.0
 10
16.9210278286
 20
12.1108773619
 30
0.0
 10
16.924433907
 20
12.1135205422
 30
0.0
 10
16.9286944731
 20
12.1168136529
 30
0.0
 10
16.9355096934
 20
12.1220887178
 30
0.0
 10
16.9440294875
 20
12.1286803501
 30
0.0
 10
16.9525483134
 20
12.1352731677
 30
0.0
 10
16.9593650829
 20
12.140546336
 30
0.0
 10
16.963621776
 20
12.143844188
 30
0.0
 10
16.967035794
 20
12.1464776487
 30
0.0
 10
16.9691497903
 20
12.148134553
 30
0.0
 10
16.9708862574
 20
12.1494349024
 30
0.0
 10
16.9724574565
 20
12.1508271549
 30
0.0
 10
16.9751302691
 20
12.1533062961
 30
0.0
 10
16.9789887237
 20
12.1568255992
 30
0.0
 10
16.9836016552
 20
12.1610583352
 30
0.0
 10
16.9882192015
 20
12.1652885055
 30
0.0
 10
16.9943742696
 20
12.1709296535
 30
0.0
 10
17.0005300704
 20
12.176570407
 30
0.0
 10
17.0066849181
 20
12.1822116534
 30
0.0
 10
17.0113031806
 20
12.186441504
 30
0.0
 10
17.0151450407
 20
12.1899697879
 30
0.0
 10
17.0178474654
 20
12.1924329035
 30
0.0
 10
17.0193712198
 20
12.1938508324
 30
0.0
 10
17.020571751
 20
12.1948848855
 30
0.0
 10
17.0215516648
 20
12.196031296
 30
0.0
 10
17.0229351703
 20
12.1975206519
 30
0.0
 10
17.0253204505
 20
12.2001452847
 30
0.0
 10
17.0287467403
 20
12.2038852129
 30
0.0
 10
17.0328502574
 20
12.2083772164
 30
0.0
 10
17.038324451
 20
12.2143651106
 30
0.0
 10
17.0437976814
 20
12.2203534879
 30
0.0
 10
17.049271673
 20
12.2263414989
 30
0.0
 10
17.0533758465
 20
12.2308331229
 30
0.0
 10
17.0574849203
 20
12.2353224668
 30
0.0
 10
17.060893914
 20
12.2390706742
 30
0.0
 10
17.0633100582
 20
12.2416805332
 30
0.0
 10
17.0646441133
 20
12.2431935598
 30
0.0
 10
17.0658026516
 20
12.2447882405
 30
0.0
 10
17.0673109212
 20
12.246753633
 30
0.0
 10
17.069690567
 20
12.2499138859
 30
0.0
 10
17.0726766285
 20
12.2538588489
 30
0.0
 10
17.0774478712
 20
12.2601738004
 30
0.0
 10
17.0834143256
 20
12.2680663218
 30
0.0
 10
17.0893792454
 20
12.2759597514
 30
0.0
 10
17.0941529435
 20
12.2822732498
 30
0.0
 10
17.0971328664
 20
12.2862218455
 30
0.0
 10
17.0995250965
 20
12.2893746512
 30
0.0
 10
17.1010013299
 20
12.2913590024
 30
0.0
 10
17.1022256286
 20
12.2929147668
 30
0.0
 10
17.103291808
 20
12.2945863193
 30
0.0
 10
17.105084169
 20
12.2975653247
 30
0.0
 10
17.1076830089
 20
12.3017929826
 30
0.0
 10
17.1118197348
 20
12.308572919
 30
0.0
 10
17.116997979
 20
12.3170424671
 30
0.0
 10
17.1252790507
 20
12.3305967601
 30
0.0
 10
17.1314907813
 20
12.3407618012
 30
0.0
 10
17.135631729
 20
12.3475386462
 30
0.0
  0
SPLINE
  5
32A
100
AcDbEntity
  8
03__ASM_ALL_CURVES
100
AcDbSpline
 62
8
  6
PHANTOM
 70
0
 71
3
 72
187
 73
183
 74
0
 42
0.0000001
 43
0.0000001
 44
0.0000000001
 40
0.0
 40
0.0
 40
0.0
 40
0.0
 40
0.03125
 40
0.046875
 40
0.0625
 40
0.078125
 40
0.09375
 40
0.1015625
 40
0.109375
 40
0.1171875
 40
0.12109375
 40
0.125
 40
0.12890625
 40
0.1328125
 40
0.13671875
 40
0.138671875
 40
0.1396484375
 40
0.140625
 40
0.1416015625
 40
0.1420898438
 40
0.142578125
 40
0.1428222656
 40
0.1430664062
 40
0.1435546875
 40
0.14453125
 40
0.1455078125
 40
0.146484375
 40
0.1484375
 40
0.150390625
 40
0.15234375
 40
0.15625
 40
0.1640625
 40
0.171875
 40
0.1796875
 40
0.1875
 40
0.203125
 40
0.21875
 40
0.234375
 40
0.2421875
 40
0.25
 40
0.2578125
 40
0.265625
 40
0.26953125
 40
0.2734375
 40
0.27734375
 40
0.279296875
 40
0.28125
 40
0.2822265625
 40
0.283203125
 40
0.2841796875
 40
0.28515625
 40
0.2854003906
 40
0.2856445312
 40
0.2861328125
 40
0.2866210938
 40
0.287109375
 40
0.2890625
 40
0.291015625
 40
0.29296875
 40
0.296875
 40
0.30078125
 40
0.3046875
 40
0.3125
 40
0.3203125
 40
0.328125
 40
0.34375
 40
0.359375
 40
0.375
 40
0.3828125
 40
0.390625
 40
0.3984375
 40
0.40625
 40
0.4140625
 40
0.41796875
 40
0.421875
 40
0.423828125
 40
0.42578125
 40
0.4267578125
 40
0.427734375
 40
0.4287109375
 40
0.4291992188
 40
0.4296875
 40
0.4306640625
 40
0.431640625
 40
0.43359375
 40
0.435546875
 40
0.4375
 40
0.44140625
 40
0.4453125
 40
0.44921875
 40
0.453125
 40
0.4609375
 40
0.46875
 40
0.484375
 40
0.5
 40
0.515625
 40
0.53125
 40
0.5390625
 40
0.546875
 40
0.55078125
 40
0.5546875
 40
0.55859375
 40
0.5625
 40
0.564453125
 40
0.56640625
 40
0.568359375
 40
0.5693359375
 40
0.5703125
 40
0.5708007812
 40
0.5712890625
 40
0.572265625
 40
0.5732421875
 40
0.57421875
 40
0.576171875
 40
0.578125
 40
0.58203125
 40
0.5859375
 40
0.59375
 40
0.6015625
 40
0.609375
 40
0.6171875
 40
0.625
 40
0.65625
 40
0.671875
 40
0.6875
 40
0.6953125
 40
0.69921875
 40
0.703125
 40
0.70703125
 40
0.708984375
 40
0.7109375
 40
0.712890625
 40
0.7133789062
 40
0.7138671875
 40
0.7143554688
 40
0.7145996094
 40
0.71484375
 40
0.7158203125
 40
0.716796875
 40
0.71875
 40
0.720703125
 40
0.72265625
 40
0.7265625
 40
0.73046875
 40
0.734375
 40
0.7421875
 40
0.75
 40
0.7578125
 40
0.765625
 40
0.78125
 40
0.796875
 40
0.8125
 40
0.828125
 40
0.8359375
 40
0.84375
 40
0.84765625
 40
0.849609375
 40
0.8515625
 40
0.853515625
 40
0.85546875
 40
0.8564453125
 40
0.8569335938
 40
0.8571777344
 40
0.857421875
 40
0.8579101562
 40
0.8583984375
 40
0.859375
 40
0.8603515625
 40
0.861328125
 40
0.86328125
 40
0.8671875
 40
0.87109375
 40
0.875
 40
0.8828125
 40
0.890625
 40
0.8984375
 40
0.90625
 40
0.921875
 40
0.9375
 40
0.953125
 40
0.96875
 40
1.0
 40
1.0
 40
1.0
 40
1.0
 10
17.4523530441
 20
12.984003353
 30
0.0
 10
17.4381630324
 20
13.0056037837
 30
0.0
 10
17.4168780149
 20
13.0380044296
 30
0.0
 10
17.3884979915
 20
13.0812052909
 30
0.0
 10
17.3672129739
 20
13.1136059368
 30
0.0
 10
17.3459279564
 20
13.1460065828
 30
0.0
 10
17.3281904418
 20
13.1730071211
 30
0.0
 10
17.3140004301
 20
13.1946075517
 30
0.0
 10
17.3033579212
 20
13.2108078747
 30
0.0
 10
17.2944891645
 20
13.2243081439
 30
0.0
 10
17.2873941573
 20
13.235108359
 30
0.0
 10
17.2820729072
 20
13.2432085212
 30
0.0
 10
17.2767516367
 20
13.25130868
 30
0.0
 10
17.2714304424
 20
13.2594088515
 30
0.0
 10
17.266995877
 20
13.2661589551
 30
0.0
 10
17.2638921451
 20
13.2708841045
 30
0.0
 10
17.2621178599
 20
13.2735840699
 30
0.0
 10
17.2607891856
 20
13.275609382
 30
0.0
 10
17.2596754603
 20
13.277296065
 30
0.0
 10
17.2587990523
 20
13.2786478275
 30
0.0
 10
17.2582181151
 20
13.2794871773
 30
0.0
 10
17.2578293595
 20
13.2801712574
 30
0.0
 10
17.257163173
 20
13.2808093378
 30
0.0
 10
17.2560458009
 20
13.2819340126
 30
0.0
 10
17.2544242225
 20
13.2835364905
 30
0.0
 10
17.2524891716
 20
13.2854612619
 30
0.0
 10
17.2499053161
 20
13.2880269958
 30
0.0
 10
17.2466767963
 20
13.2912343785
 30
0.0
 10
17.2428020163
 20
13.2950831457
 30
0.0
 10
17.2376358369
 20
13.3002148673
 30
0.0
 10
17.2285949327
 20
13.3091953652
 30
0.0
 10
17.2156794025
 20
13.3220246557
 30
0.0
 10
17.200180746
 20
13.337419801
 30
0.0
 10
17.1846820949
 20
13.3528149472
 30
0.0
 10
17.1640172249
 20
13.3733418085
 30
0.0
 10
17.138186138
 20
13.3990003852
 30
0.0
 10
17.1071888335
 20
13.4297906772
 30
0.0
 10
17.0813577464
 20
13.4554492539
 30
0.0
 10
17.0606928768
 20
13.4759761152
 30
0.0
 10
17.0451942245
 20
13.4913712612
 30
0.0
 10
17.0296955726
 20
13.5067664074
 30
0.0
 10
17.0167800278
 20
13.5195956952
 30
0.0
 10
17.0064475957
 20
13.5298591269
 30
0.0
 10
16.9986982613
 20
13.5375566967
 30
0.0
 10
16.9922405153
 20
13.5439713508
 30
0.0
 10
16.9870742454
 20
13.549103046
 30
0.0
 10
16.983845493
 20
13.5523104193
 30
0.0
 10
16.9812621103
 20
13.5548761717
 30
0.0
 10
16.9793256158
 20
13.5568008866
 30
0.0
 10
16.9773851418
 20
13.5587240721
 30
0.0
 10
16.9759409429
 20
13.5601707491
 30
0.0
 10
16.9749607928
 20
13.5611285319
 30
0.0
 10
16.9743486697
 20
13.5617829308
 30
0.0
 10
16.9732823641
 20
13.562485186
 30
0.0
 10
16.9720730546
 20
13.5633548945
 30
0.0
 10
16.9696182951
 20
13.5650804216
 30
0.0
 10
16.9659513325
 20
13.5676745451
 30
0.0
 10
16.9610533875
 20
13.5711300475
 30
0.0
 10
16.9545258199
 20
13.5757385469
 30
0.0
 10
16.9463653222
 20
13.5814987722
 30
0.0
 10
16.9365731693
 20
13.5884112133
 30
0.0
 10
16.9235168103
 20
13.5976277418
 30
0.0
 10
16.9071964147
 20
13.6091484229
 30
0.0
 10
16.8876119173
 20
13.6229732315
 30
0.0
 10
16.8614992619
 20
13.6414063126
 30
0.0
 10
16.8288584401
 20
13.664447663
 30
0.0
 10
16.7896894549
 20
13.6920972837
 30
0.0
 10
16.7570486342
 20
13.7151386347
 30
0.0
 10
16.7309359763
 20
13.7335717145
 30
0.0
 10
16.7113514867
 20
13.7473965271
 30
0.0
 10
16.6917669826
 20
13.7612213292
 30
0.0
 10
16.6721825326
 20
13.7750461706
 30
0.0
 10
16.6558619893
 20
13.7865667496
 30
0.0
 10
16.6428059316
 20
13.7957834863
 30
0.0
 10
16.6346450373
 20
13.8015433242
 30
0.0
 10
16.6281182874
 20
13.8061526201
 30
0.0
 10
16.6240345839
 20
13.8090301772
 30
0.0
 10
16.6207778934
 20
13.8113396734
 30
0.0
 10
16.6183072492
 20
13.8130513957
 30
0.0
 10
16.6163378535
 20
13.8145427261
 30
0.0
 10
16.6143949222
 20
13.8154693074
 30
0.0
 10
16.6125161561
 20
13.8164424273
 30
0.0
 10
16.6101457283
 20
13.8176428922
 30
0.0
 10
16.6063653229
 20
13.8195725421
 30
0.0
 10
16.6016356032
 20
13.8219815489
 30
0.0
 10
16.5959617428
 20
13.824873665
 30
0.0
 10
16.5883959658
 20
13.8287293629
 30
0.0
 10
16.5789389606
 20
13.833549142
 30
0.0
 10
16.5675904618
 20
13.8393328097
 30
0.0
 10
16.5562419878
 20
13.8451164954
 30
0.0
 10
16.5411106804
 20
13.8528280701
 30
0.0
 10
16.5221965491
 20
13.8624675406
 30
0.0
 10
16.4919339374
 20
13.8778906921
 30
0.0
 10
16.4541056734
 20
13.897169632
 30
0.0
 10
16.4087117563
 20
13.9203043596
 30
0.0
 10
16.3633178393
 20
13.9434390874
 30
0.0
 10
16.325489575
 20
13.962718027
 30
0.0
 10
16.2952269638
 20
13.9781411791
 30
0.0
 10
16.2763128312
 20
13.9877806482
 30
0.0
 10
16.2611815266
 20
13.9954922257
 30
0.0
 10
16.249833044
 20
14.0012759029
 30
0.0
 10
16.2384845773
 20
14.0070596026
 30
0.0
 10
16.2290274724
 20
14.0118792821
 30
0.0
 10
16.2214618987
 20
14.0157351831
 30
0.0
 10
16.2157874173
 20
14.0186266789
 30
0.0
 10
16.2110596408
 20
14.0210376263
 30
0.0
 10
16.2072752709
 20
14.0229633171
 30
0.0
 10
16.2049149326
 20
14.0241738577
 30
0.0
 10
16.2030154561
 20
14.0251262958
 30
0.0
 10
16.2011568889
 20
14.0261371244
 30
0.0
 10
16.1985408668
 20
14.0269827238
 30
0.0
 10
16.1954700952
 20
14.0280951496
 30
0.0
 10
16.1913518231
 20
14.0295442572
 30
0.0
 10
16.1862121697
 20
14.0313673267
 30
0.0
 10
16.1779841492
 20
14.0342777077
 30
0.0
 10
16.1677006901
 20
14.0379179199
 30
0.0
 10
16.15124628
 20
14.0437410098
 30
0.0
 10
16.1306785678
 20
14.0510203009
 30
0.0
 10
16.1059971844
 20
14.0597552665
 30
0.0
 10
16.0813158354
 20
14.0684902813
 30
0.0
 10
16.0566344773
 20
14.0772252829
 30
0.0
 10
16.0072717657
 20
14.0946952929
 30
0.0
 10
15.9496819342
 20
14.1150769703
 30
0.0
 10
15.8838649836
 20
14.1383703121
 30
0.0
 10
15.8427293919
 20
14.1529286612
 30
0.0
 10
15.8139344728
 20
14.1631194845
 30
0.0
 10
15.7974802409
 20
14.1689428451
 30
0.0
 10
15.7851395455
 20
14.1733102726
 30
0.0
 10
15.7748557013
 20
14.1769500915
 30
0.0
 10
15.7666284719
 20
14.1798612827
 30
0.0
 10
15.7604584707
 20
14.1820464903
 30
0.0
 10
15.7558297651
 20
14.1836802025
 30
0.0
 10
15.7527458377
 20
14.1847774328
 30
0.0
 10
15.7512005229
 20
14.1853116015
 30
0.0
 10
15.749923618
 20
14.1858035487
 30
0.0
 10
15.7488574163
 20
14.1860044982
 30
0.0
 10
15.7472696041
 20
14.1863554579
 30
0.0
 10
15.7448830726
 20
14.186861147
 30
0.0
 10
15.7406439367
 20
14.1877756131
 30
0.0
 10
15.7353437861
 20
14.1889133904
 30
0.0
 10
15.7289841323
 20
14.190280994
 30
0.0
 10
15.7205044098
 20
14.1921036723
 30
0.0
 10
15.7099048198
 20
14.1943822922
 30
0.0
 10
15.6971852848
 20
14.1971165197
 30
0.0
 10
15.6802259142
 20
14.200762197
 30
0.0
 10
15.6590266977
 20
14.2053192797
 30
0.0
 10
15.6335876394
 20
14.2107877849
 30
0.0
 10
15.6081485807
 20
14.2162562885
 30
0.0
 10
15.5742298358
 20
14.2235476272
 30
0.0
 10
15.5318314047
 20
14.2326618002
 30
0.0
 10
15.4809532874
 20
14.2435988087
 30
0.0
 10
15.4300751701
 20
14.2545358143
 30
0.0
 10
15.3876767389
 20
14.2636499944
 30
0.0
 10
15.3537579943
 20
14.270941319
 30
0.0
 10
15.332558778
 20
14.2754984412
 30
0.0
 10
15.3177193286
 20
14.2786883378
 30
0.0
 10
15.30923964
 20
14.2805112751
 30
0.0
 10
15.3028798824
 20
14.2818780859
 30
0.0
 10
15.2965200913
 20
14.2832463958
 30
0.0
 10
15.2912203697
 20
14.2843819836
 30
0.0
 10
15.2875103601
 20
14.2851860472
 30
0.0
 10
15.2856556347
 20
14.2855755768
 30
0.0
 10
15.2845953419
 20
14.28581829
 30
0.0
 10
15.2835395633
 20
14.2858589506
 30
0.0
 10
15.2822182943
 20
14.2859789594
 30
0.0
 10
15.2801051279
 20
14.2861323071
 30
0.0
 10
15.2774633734
 20
14.2863372579
 30
0.0
 10
15.2742933949
 20
14.286577521
 30
0.0
 10
15.2700667127
 20
14.2868998522
 30
0.0
 10
15.2626700394
 20
14.2874630092
 30
0.0
 10
15.2521033525
 20
14.2882680016
 30
0.0
 10
15.2394233328
 20
14.289233786
 30
0.0
 10
15.2225166383
 20
14.2905215706
 30
0.0
 10
15.2013832707
 20
14.2921312766
 30
0.0
 10
15.1760232294
 20
14.2940629345
 30
0.0
 10
15.1506631881
 20
14.2959945895
 30
0.0
 10
15.1168497997
 20
14.2985701305
 30
0.0
 10
15.0745830642
 20
14.3017895565
 30
0.0
 10
15.0238629817
 20
14.3056528677
 30
0.0
 10
14.9731428991
 20
14.309516179
 30
0.0
 10
14.9055161223
 20
14.3146672606
 30
0.0
 10
14.8547960397
 20
14.3185305718
 30
0.0
 10
14.8209826513
 20
14.3211061127
 30
0.0
  0
LINE
  5
32B
100
AcDbEntity
  8
03__ASM_ALL_CURVES
100
AcDbLine
 62
8
  6
PHANTOM
 10
14.8209827442
 20
14.3211061125
 11
14.7980817947
 21
14.3210636682
  0
SPLINE
  5
32C
100
AcDbEntity
  8
03__ASM_ALL_CURVES
100
AcDbSpline
 62
8
  6
PHANTOM
 70
0
 71
3
 72
206
 73
202
 74
0
 42
0.0000001
 43
0.0000001
 44
0.0000000001
 40
0.0
 40
0.0
 40
0.0
 40
0.0
 40
0.03125
 40
0.046875
 40
0.0625
 40
0.078125
 40
0.09375
 40
0.1015625
 40
0.109375
 40
0.1171875
 40
0.12109375
 40
0.125
 40
0.12890625
 40
0.1328125
 40
0.13671875
 40
0.138671875
 40
0.1396484375
 40
0.140625
 40
0.1416015625
 40
0.1420898438
 40
0.142578125
 40
0.1428222656
 40
0.1430664062
 40
0.1435546875
 40
0.14453125
 40
0.146484375
 40
0.1484375
 40
0.150390625
 40
0.15234375
 40
0.15625
 40
0.1640625
 40
0.171875
 40
0.1796875
 40
0.1875
 40
0.203125
 40
0.21875
 40
0.234375
 40
0.2421875
 40
0.25
 40
0.2578125
 40
0.265625
 40
0.26953125
 40
0.2734375
 40
0.27734375
 40
0.279296875
 40
0.28125
 40
0.2822265625
 40
0.283203125
 40
0.2841796875
 40
0.28515625
 40
0.2854003906
 40
0.2856445312
 40
0.2861328125
 40
0.2866210938
 40
0.287109375
 40
0.2880859375
 40
0.2890625
 40
0.291015625
 40
0.29296875
 40
0.296875
 40
0.30078125
 40
0.3046875
 40
0.3125
 40
0.3203125
 40
0.328125
 40
0.34375
 40
0.359375
 40
0.375
 40
0.3828125
 40
0.390625
 40
0.3984375
 40
0.40625
 40
0.4140625
 40
0.41796875
 40
0.421875
 40
0.423828125
 40
0.42578125
 40
0.4267578125
 40
0.427734375
 40
0.4282226562
 40
0.4284667969
 40
0.4285888672
 40
0.4287109375
 40
0.4289550781
 40
0.4291992188
 40
0.4296875
 40
0.4306640625
 40
0.431640625
 40
0.43359375
 40
0.435546875
 40
0.4375
 40
0.44140625
 40
0.4453125
 40
0.44921875
 40
0.453125
 40
0.4609375
 40
0.46875
 40
0.4765625
 40
0.484375
 40
0.5
 40
0.515625
 40
0.5234375
 40
0.53125
 40
0.5390625
 40
0.546875
 40
0.55078125
 40
0.5546875
 40
0.55859375
 40
0.5625
 40
0.564453125
 40
0.56640625
 40
0.568359375
 40
0.5693359375
 40
0.5703125
 40
0.5708007812
 40
0.5710449219
 40
0.5712890625
 40
0.5714111328
 40
0.5715332031
 40
0.5717773438
 40
0.572265625
 40
0.5732421875
 40
0.57421875
 40
0.576171875
 40
0.578125
 40
0.58203125
 40
0.5859375
 40
0.59375
 40
0.6015625
 40
0.609375
 40
0.6171875
 40
0.625
 40
0.640625
 40
0.65625
 40
0.671875
 40
0.6796875
 40
0.6875
 40
0.6953125
 40
0.69921875
 40
0.703125
 40
0.70703125
 40
0.708984375
 40
0.7109375
 40
0.7119140625
 40
0.712890625
 40
0.7133789062
 40
0.7138671875
 40
0.7143554688
 40
0.7145996094
 40
0.71484375
 40
0.7153320312
 40
0.7158203125
 40
0.716796875
 40
0.7177734375
 40
0.71875
 40
0.720703125
 40
0.72265625
 40
0.7265625
 40
0.73046875
 40
0.734375
 40
0.7421875
 40
0.75
 40
0.7578125
 40
0.765625
 40
0.78125
 40
0.796875
 40
0.8125
 40
0.8203125
 40
0.828125
 40
0.8359375
 40
0.84375
 40
0.84765625
 40
0.849609375
 40
0.8515625
 40
0.853515625
 40
0.8544921875
 40
0.85546875
 40
0.8564453125
 40
0.8569335938
 40
0.8571777344
 40
0.857421875
 40
0.8579101562
 40
0.8583984375
 40
0.859375
 40
0.8603515625
 40
0.861328125
 40
0.86328125
 40
0.865234375
 40
0.8671875
 40
0.87109375
 40
0.875
 40
0.87890625
 40
0.8828125
 40
0.890625
 40
0.8984375
 40
0.90625
 40
0.921875
 40
0.9375
 40
0.953125
 40
0.96875
 40
1.0
 40
1.0
 40
1.0
 40
1.0
 10
14.7980817951
 20
14.3210636682
 30
0.0
 10
14.7682935176
 20
14.3186108042
 30
0.0
 10
14.7236111014
 20
14.3149315082
 30
0.0
 10
14.6640345465
 20
14.3100257802
 30
0.0
 10
14.6193521303
 20
14.3063464842
 30
0.0
 10
14.5746697141
 20
14.3026671882
 30
0.0
 10
14.5374343673
 20
14.2996011081
 30
0.0
 10
14.5076460898
 20
14.2971482442
 30
0.0
 10
14.4853048819
 20
14.295308596
 30
0.0
 10
14.4666872081
 20
14.2937755565
 30
0.0
 10
14.4517930701
 20
14.2925491236
 30
0.0
 10
14.4406224636
 20
14.2916293025
 30
0.0
 10
14.4294518687
 20
14.2907094675
 30
0.0
 10
14.4182812306
 20
14.2897896846
 30
0.0
 10
14.4089724999
 20
14.2890230367
 30
0.0
 10
14.402456125
 20
14.2884867008
 30
0.0
 10
14.3987328935
 20
14.2881797274
 30
0.0
 10
14.395939311
 20
14.287950894
 30
0.0
 10
14.3936150173
 20
14.2877557505
 30
0.0
 10
14.3917473018
 20
14.2876096148
 30
0.0
 10
14.390598835
 20
14.2874955567
 30
0.0
 10
14.3896368787
 20
14.2874563515
 30
0.0
 10
14.3888325698
 20
14.2872271597
 30
0.0
 10
14.3873975509
 20
14.2868591893
 30
0.0
 10
14.3845470221
 20
14.2860997374
 30
0.0
 10
14.380464637
 20
14.2850270998
 30
0.0
 10
14.3755701478
 20
14.2837346647
 30
0.0
 10
14.3706744889
 20
14.2824436394
 30
0.0
 10
14.3641473517
 20
14.2807217805
 30
0.0
 10
14.3527246715
 20
14.2777087566
 30
0.0
 10
14.3364066563
 20
14.2734043169
 30
0.0
 10
14.3168249954
 20
14.2682390407
 30
0.0
 10
14.297243346
 20
14.2630737507
 30
0.0
 10
14.2711344761
 20
14.2561867022
 30
0.0
 10
14.23849839
 20
14.2475778899
 30
0.0
 10
14.1993350862
 20
14.2372473158
 30
0.0
 10
14.1666989998
 20
14.228638504
 30
0.0
 10
14.1405901306
 20
14.2217514545
 30
0.0
 10
14.1210084789
 20
14.2165861673
 30
0.0
 10
14.1014268266
 20
14.2114208806
 30
0.0
 10
14.0851087846
 20
14.2071164737
 30
0.0
 10
14.0720543476
 20
14.203672951
 30
0.0
 10
14.0622635291
 20
14.2010903012
 30
0.0
 10
14.0541044844
 20
14.1989381177
 30
0.0
 10
14.0475773142
 20
14.1972163157
 30
0.0
 10
14.0434976834
 20
14.196140315
 30
0.0
 10
14.0402343211
 20
14.195279227
 30
0.0
 10
14.0377858621
 20
14.194634198
 30
0.0
 10
14.0353409809
 20
14.1939861645
 30
0.0
 10
14.0334972896
 20
14.1935085628
 30
0.0
 10
14.0322837614
 20
14.1931770615
 30
0.0
 10
14.0314376022
 20
14.1929872506
 30
0.0
 10
14.0306506563
 20
14.1925226128
 30
0.0
 10
14.0296430717
 20
14.1920181634
 30
0.0
 10
14.0283217173
 20
14.1913270119
 30
0.0
 10
14.0266624601
 20
14.1904694248
 30
0.0
 10
14.0240118758
 20
14.1890937356
 30
0.0
 10
14.020697198
 20
14.1873753395
 30
0.0
 10
14.0153945225
 20
14.1846252264
 30
0.0
 10
14.0087659006
 20
14.1811878181
 30
0.0
 10
14.0008116731
 20
14.1770628284
 30
0.0
 10
13.9902059949
 20
14.171562877
 30
0.0
 10
13.9769489115
 20
14.1646879258
 30
0.0
 10
13.9610404052
 20
14.1564379894
 30
0.0
 10
13.9398290657
 20
14.1454380725
 30
0.0
 10
13.9133148906
 20
14.1316881769
 30
0.0
 10
13.8814978807
 20
14.115188302
 30
0.0
 10
13.8549837057
 20
14.1014384063
 30
0.0
 10
13.8337723659
 20
14.0904384897
 30
0.0
 10
13.8178638606
 20
14.0821885524
 30
0.0
 10
13.801955357
 20
14.0739386142
 30
0.0
 10
13.7860468468
 20
14.0656886799
 30
0.0
 10
13.7727897755
 20
14.0588137222
 30
0.0
 10
13.7621840727
 20
14.053313784
 30
0.0
 10
13.7555556125
 20
14.0498762589
 30
0.0
 10
13.7502526059
 20
14.0471263847
 30
0.0
 10
13.746938771
 20
14.0454073806
 30
0.0
 10
13.7442864566
 20
14.0440329394
 30
0.0
 10
13.742631604
 20
14.0431721748
 30
0.0
 10
13.7414675078
 20
14.0425731244
 30
0.0
 10
13.7408932622
 20
14.0422688285
 30
0.0
 10
13.7405525604
 20
14.0421026257
 30
0.0
 10
13.7403379778
 20
14.0418593081
 30
0.0
 10
13.7400265722
 20
14.0415815617
 30
0.0
 10
13.7395524203
 20
14.0411224334
 30
0.0
 10
13.7387114287
 20
14.0403258229
 30
0.0
 10
13.7375158692
 20
14.0391842265
 30
0.0
 10
13.7355997005
 20
14.0373596739
 30
0.0
 10
13.7332056128
 20
14.0350782965
 30
0.0
 10
13.7303322267
 20
14.0323409375
 30
0.0
 10
13.7265012133
 20
14.0286910228
 30
0.0
 10
13.7217123888
 20
14.0241286647
 30
0.0
 10
13.7159658242
 20
14.0186538199
 30
0.0
 10
13.7102192529
 20
14.0131789791
 30
0.0
 10
13.7025571602
 20
14.0058791899
 30
0.0
 10
13.6929795436
 20
13.996754454
 30
0.0
 10
13.6814864039
 20
13.9858047707
 30
0.0
 10
13.6699932642
 20
13.9748550874
 30
0.0
 10
13.6546690779
 20
13.9602555097
 30
0.0
 10
13.635513845
 20
13.9420060376
 30
0.0
 10
13.6163586122
 20
13.9237565654
 30
0.0
 10
13.6010344259
 20
13.9091569877
 30
0.0
 10
13.5895412862
 20
13.8982073044
 30
0.0
 10
13.5780481464
 20
13.8872576212
 30
0.0
 10
13.5684705302
 20
13.878132885
 30
0.0
 10
13.5608084365
 20
13.8708330964
 30
0.0
 10
13.5550618682
 20
13.865358254
 30
0.0
 10
13.5493152925
 20
13.859883415
 30
0.0
 10
13.5445265025
 20
13.8553210389
 30
0.0
 10
13.5406954188
 20
13.8516711609
 30
0.0
 10
13.5378222473
 20
13.8489336899
 30
0.0
 10
13.5354274884
 20
13.8466526627
 30
0.0
 10
13.5335126889
 20
13.8448273956
 30
0.0
 10
13.5323136448
 20
13.8436876178
 30
0.0
 10
13.5314789118
 20
13.8428877409
 30
0.0
 10
13.5309947278
 20
13.8424338484
 30
0.0
 10
13.5307090024
 20
13.8421426994
 30
0.0
 10
13.5304416853
 20
13.8419269041
 30
0.0
 10
13.5303158039
 20
13.8416485862
 30
0.0
 10
13.5300708591
 20
13.8411724274
 30
0.0
 10
13.5295984696
 20
13.8402123739
 30
0.0
 10
13.5289144969
 20
13.8388449051
 30
0.0
 10
13.5278252431
 20
13.8366546993
 30
0.0
 10
13.5264619288
 20
13.8339177145
 30
0.0
 10
13.5242816023
 20
13.8295381072
 30
0.0
 10
13.5215558598
 20
13.8240637458
 30
0.0
 10
13.5171948587
 20
13.8153046849
 30
0.0
 10
13.5117435432
 20
13.8043558873
 30
0.0
 10
13.505201992
 20
13.7912173179
 30
0.0
 10
13.4986604335
 20
13.7780787518
 30
0.0
 10
13.492118877
 20
13.7649401848
 30
0.0
 10
13.4833968009
 20
13.7474220958
 30
0.0
 10
13.4724942061
 20
13.7255244844
 30
0.0
 10
13.4594110921
 20
13.6992473508
 30
0.0
 10
13.4485084975
 20
13.6773497394
 30
0.0
 10
13.4397864209
 20
13.6598316505
 30
0.0
 10
13.4332448658
 20
13.6466930831
 30
0.0
 10
13.4277935626
 20
13.6357442792
 30
0.0
 10
13.4234325364
 20
13.6269852311
 30
0.0
 10
13.4201617221
 20
13.6204159585
 30
0.0
 10
13.4174361854
 20
13.614941522
 30
0.0
 10
13.4152554378
 20
13.6105620683
 30
0.0
 10
13.4138931953
 20
13.6078246925
 30
0.0
 10
13.4128017414
 20
13.6056352894
 30
0.0
 10
13.4121233701
 20
13.6042657771
 30
0.0
 10
13.4115719983
 20
13.6031727678
 30
0.0
 10
13.4111822214
 20
13.6023458903
 30
0.0
 10
13.4107818486
 20
13.6016794771
 30
0.0
 10
13.4107718219
 20
13.6010533321
 30
0.0
 10
13.4107076095
 20
13.6004434312
 30
0.0
 10
13.4106458972
 20
13.599675493
 30
0.0
 10
13.4105367882
 20
13.5984499005
 30
0.0
 10
13.4104039595
 20
13.5969168434
 30
0.0
 10
13.4102430424
 20
13.5950776313
 30
0.0
 10
13.4100290181
 20
13.5926251891
 30
0.0
 10
13.4097613055
 20
13.5895596909
 30
0.0
 10
13.4093330673
 20
13.5846548634
 30
0.0
 10
13.4087977346
 20
13.5785238394
 30
0.0
 10
13.4081553503
 20
13.5711666061
 30
0.0
 10
13.4072988326
 20
13.5613569633
 30
0.0
 10
13.4062281873
 20
13.5490949092
 30
0.0
 10
13.4049434122
 20
13.5343804446
 30
0.0
 10
13.4036586373
 20
13.5196659799
 30
0.0
 10
13.4019456041
 20
13.5000466937
 30
0.0
 10
13.3998043125
 20
13.4755225859
 30
0.0
 10
13.3972347626
 20
13.4460936566
 30
0.0
 10
13.3950934712
 20
13.4215695488
 30
0.0
 10
13.3933804376
 20
13.4019502627
 30
0.0
 10
13.3920956639
 20
13.3872357977
 30
0.0
 10
13.3908108842
 20
13.372521334
 30
0.0
 10
13.3897402533
 20
13.3602592771
 30
0.0
 10
13.3889907747
 20
13.3516758449
 30
0.0
 10
13.3885625589
 20
13.3467710145
 30
0.0
 10
13.3882412347
 20
13.3430924254
 30
0.0
 10
13.3879739815
 20
13.3400268272
 30
0.0
 10
13.3877590194
 20
13.3375745893
 30
0.0
 10
13.3876009661
 20
13.3357347533
 30
0.0
 10
13.3874591774
 20
13.3342036482
 30
0.0
 10
13.3873797023
 20
13.3331277701
 30
0.0
 10
13.3873034078
 20
13.3325193914
 30
0.0
 10
13.3875365269
 20
13.3318467968
 30
0.0
 10
13.3877219822
 20
13.3310280412
 30
0.0
 10
13.3880779226
 20
13.3297057433
 30
0.0
 10
13.3885025327
 20
13.3280570872
 30
0.0
 10
13.3890207606
 20
13.3260768951
 30
0.0
 10
13.3897086935
 20
13.3234372695
 30
0.0
 10
13.3905696519
 20
13.3201375211
 30
0.0
 10
13.3916023558
 20
13.3161779157
 30
0.0
 10
13.3929794502
 20
13.3108984094
 30
0.0
 10
13.3947007648
 20
13.3042990376
 30
0.0
 10
13.3967663651
 20
13.2963797868
 30
0.0
 10
13.3988319594
 20
13.2884605372
 30
0.0
 10
13.4015860872
 20
13.2779015373
 30
0.0
 10
13.4050287462
 20
13.2647027876
 30
0.0
 10
13.4091599373
 20
13.2488642879
 30
0.0
 10
13.4146681921
 20
13.2277462883
 30
0.0
 10
13.4215535105
 20
13.2013487887
 30
0.0
 10
13.4298158926
 20
13.1696717893
 30
0.0
 10
13.4380782747
 20
13.1379947899
 30
0.0
 10
13.4490947842
 20
13.0957587907
 30
0.0
 10
13.4573571664
 20
13.0640817913
 30
0.0
 10
13.4628654211
 20
13.0429637917
 30
0.0
  0
SPLINE
  5
32D
100
AcDbEntity
  8
03__ASM_ALL_CURVES
100
AcDbSpline
 62
8
  6
PHANTOM
 70
0
 71
3
 72
187
 73
183
 74
0
 42
0.0000001
 43
0.0000001
 44
0.0000000001
 40
0.0
 40
0.0
 40
0.0
 40
0.0
 40
0.03125
 40
0.046875
 40
0.0625
 40
0.078125
 40
0.09375
 40
0.109375
 40
0.125
 40
0.1328125
 40
0.140625
 40
0.1484375
 40
0.15234375
 40
0.15625
 40
0.16015625
 40
0.162109375
 40
0.1640625
 40
0.1650390625
 40
0.166015625
 40
0.1665039062
 40
0.1667480469
 40
0.1669921875
 40
0.1674804688
 40
0.16796875
 40
0.1689453125
 40
0.169921875
 40
0.171875
 40
0.173828125
 40
0.17578125
 40
0.1796875
 40
0.1875
 40
0.1953125
 40
0.203125
 40
0.2109375
 40
0.21875
 40
0.234375
 40
0.25
 40
0.265625
 40
0.28125
 40
0.2890625
 40
0.296875
 40
0.3046875
 40
0.3125
 40
0.31640625
 40
0.3203125
 40
0.32421875
 40
0.326171875
 40
0.328125
 40
0.330078125
 40
0.3310546875
 40
0.33203125
 40
0.3325195312
 40
0.3330078125
 40
0.3332519531
 40
0.3334960938
 40
0.3337402344
 40
0.333984375
 40
0.3349609375
 40
0.3359375
 40
0.3369140625
 40
0.337890625
 40
0.33984375
 40
0.34375
 40
0.34765625
 40
0.3515625
 40
0.35546875
 40
0.359375
 40
0.3671875
 40
0.375
 40
0.390625
 40
0.40625
 40
0.421875
 40
0.4375
 40
0.4453125
 40
0.453125
 40
0.4609375
 40
0.46875
 40
0.4765625
 40
0.48046875
 40
0.484375
 40
0.48828125
 40
0.4921875
 40
0.494140625
 40
0.49609375
 40
0.4970703125
 40
0.498046875
 40
0.4990234375
 40
0.4995117188
 40
0.4997558594
 40
0.5
 40
0.5002441406
 40
0.5004882812
 40
0.5009765625
 40
0.501953125
 40
0.5029296875
 40
0.50390625
 40
0.505859375
 40
0.5078125
 40
0.51171875
 40
0.515625
 40
0.51953125
 40
0.5234375
 40
0.53125
 40
0.5390625
 40
0.546875
 40
0.5546875
 40
0.5625
 40
0.578125
 40
0.59375
 40
0.609375
 40
0.625
 40
0.6328125
 40
0.640625
 40
0.64453125
 40
0.6484375
 40
0.65234375
 40
0.65625
 40
0.66015625
 40
0.662109375
 40
0.6630859375
 40
0.6640625
 40
0.6650390625
 40
0.666015625
 40
0.6662597656
 40
0.6665039062
 40
0.6667480469
 40
0.6669921875
 40
0.6674804688
 40
0.66796875
 40
0.6689453125
 40
0.669921875
 40
0.671875
 40
0.673828125
 40
0.67578125
 40
0.6796875
 40
0.68359375
 40
0.6875
 40
0.6953125
 40
0.703125
 40
0.7109375
 40
0.71875
 40
0.734375
 40
0.75
 40
0.765625
 40
0.78125
 40
0.7890625
 40
0.796875
 40
0.8046875
 40
0.8125
 40
0.81640625
 40
0.8203125
 40
0.82421875
 40
0.826171875
 40
0.828125
 40
0.830078125
 40
0.8310546875
 40
0.83203125
 40
0.8325195312
 40
0.8330078125
 40
0.8332519531
 40
0.8334960938
 40
0.8337402344
 40
0.833984375
 40
0.8349609375
 40
0.8359375
 40
0.8369140625
 40
0.837890625
 40
0.83984375
 40
0.84375
 40
0.84765625
 40
0.8515625
 40
0.85546875
 40
0.859375
 40
0.8671875
 40
0.875
 40
0.890625
 40
0.90625
 40
0.921875
 40
0.9375
 40
0.953125
 40
0.96875
 40
1.0
 40
1.0
 40
1.0
 40
1.0
 10
16.5283924506
 20
11.6766622147
 30
0.0
 10
16.5516668947
 20
11.6825777217
 30
0.0
 10
16.5865785608
 20
11.6914509822
 30
0.0
 10
16.633127449
 20
11.7032819962
 30
0.0
 10
16.6680391152
 20
11.7121552568
 30
0.0
 10
16.7029507814
 20
11.7210285173
 30
0.0
 10
16.7378624474
 20
11.7299017779
 30
0.0
 10
16.7727741139
 20
11.7387750381
 30
0.0
 10
16.8018671681
 20
11.7461694227
 30
0.0
 10
16.825141614
 20
11.752084928
 30
0.0
 10
16.8425974417
 20
11.7565215634
 30
0.0
 10
16.8571439861
 20
11.7602187394
 30
0.0
 10
16.8687811738
 20
11.7631765253
 30
0.0
 10
16.8775091952
 20
11.7653947415
 30
0.0
 10
16.8847821308
 20
11.7672436468
 30
0.0
 10
16.8906014115
 20
11.7687218925
 30
0.0
 10
16.894236339
 20
11.7696477965
 30
0.0
 10
16.897149143
 20
11.7703839382
 30
0.0
 10
16.8989585522
 20
11.7708544804
 30
0.0
 10
16.9002473709
 20
11.7711629095
 30
0.0
 10
16.9009490542
 20
11.7713719336
 30
0.0
 10
16.901519699
 20
11.7717044402
 30
0.0
 10
16.9022778723
 20
11.7720777933
 30
0.0
 10
16.9034658756
 20
11.7726987864
 30
0.0
 10
16.9049594651
 20
11.7734669375
 30
0.0
 10
16.90734441
 20
11.774700501
 30
0.0
 10
16.9103272374
 20
11.7762409039
 30
0.0
 10
16.9139059257
 20
11.7780900514
 30
0.0
 10
16.9186777558
 20
11.7805553498
 30
0.0
 10
16.927028344
 20
11.7848697299
 30
0.0
 10
16.9389578156
 20
11.7910330737
 30
0.0
 10
16.9532731558
 20
11.7984291103
 30
0.0
 10
16.967588503
 20
11.8058251405
 30
0.0
 10
16.9819038483
 20
11.8132211725
 30
0.0
 10
17.0009909759
 20
11.8230825477
 30
0.0
 10
17.0248498853
 20
11.8354092671
 30
0.0
 10
17.0534805767
 20
11.8502013302
 30
0.0
 10
17.082111268
 20
11.8649933933
 30
0.0
 10
17.1059701775
 20
11.8773201126
 30
0.0
 10
17.1250573051
 20
11.8871814879
 30
0.0
 10
17.1393726506
 20
11.8945775196
 30
0.0
 10
17.1536879968
 20
11.9019735508
 30
0.0
 10
17.1656174499
 20
11.9081369114
 30
0.0
 10
17.1751610169
 20
11.9130675972
 30
0.0
 10
17.1823186799
 20
11.9167656189
 30
0.0
 10
17.1882834381
 20
11.91984728
 30
0.0
 10
17.1930551572
 20
11.9223126621
 30
0.0
 10
17.1966341854
 20
11.9241615533
 30
0.0
 10
17.199615949
 20
11.9257027581
 30
0.0
 10
17.2020030642
 20
11.9269346857
 30
0.0
 10
17.2034911304
 20
11.927707
 30
0.0
 10
17.2046904713
 20
11.9283194475
 30
0.0
 10
17.2054197798
 20
11.9287145571
 30
0.0
 10
17.2060496755
 20
11.9290024041
 30
0.0
 10
17.2063949185
 20
11.9292956134
 30
0.0
 10
17.2067045237
 20
11.9296104903
 30
0.0
 10
17.2073420663
 20
11.9302290983
 30
0.0
 10
17.2082906804
 20
11.9311616916
 30
0.0
 10
17.2095599001
 20
11.9324024737
 30
0.0
 10
17.2108279425
 20
11.9336439715
 30
0.0
 10
17.2125190765
 20
11.9352990522
 30
0.0
 10
17.2154783695
 20
11.9381955599
 30
0.0
 10
17.219706031
 20
11.9423333672
 30
0.0
 10
17.224779182
 20
11.9472987619
 30
0.0
 10
17.2298523444
 20
11.9522641497
 30
0.0
 10
17.2349255038
 20
11.9572295394
 30
0.0
 10
17.2416897174
 20
11.9638500583
 30
0.0
 10
17.250144984
 20
11.9721257071
 30
0.0
 10
17.2636734107
 20
11.9853667451
 30
0.0
 10
17.2805839441
 20
12.0019180427
 30
0.0
 10
17.3008765841
 20
12.0217795998
 30
0.0
 10
17.3211692242
 20
12.0416411568
 30
0.0
 10
17.3380797576
 20
12.0581924544
 30
0.0
 10
17.3516081843
 20
12.0714334925
 30
0.0
 10
17.3617545043
 20
12.081364271
 30
0.0
 10
17.3719008244
 20
12.0912950495
 30
0.0
 10
17.3820471442
 20
12.1012258281
 30
0.0
 10
17.3905024117
 20
12.1095014766
 30
0.0
 10
17.3972666234
 20
12.1161219963
 30
0.0
 10
17.4023397885
 20
12.1210873834
 30
0.0
 10
17.4074129294
 20
12.1260527809
 30
0.0
 10
17.4116406222
 20
12.1301905796
 30
0.0
 10
17.4150226076
 20
12.1335008915
 30
0.0
 10
17.4171367328
 20
12.1355696704
 30
0.0
 10
17.418827153
 20
12.1372250737
 30
0.0
 10
17.4200973773
 20
12.1384655854
 30
0.0
 10
17.4211482336
 20
12.139502656
 30
0.0
 10
17.4218988733
 20
12.140222108
 30
0.0
 10
17.4223043261
 20
12.1406433686
 30
0.0
 10
17.4226745713
 20
12.1409307348
 30
0.0
 10
17.4227919359
 20
12.1413273452
 30
0.0
 10
17.4230366297
 20
12.1418180535
 30
0.0
 10
17.4234237462
 20
12.1426945471
 30
0.0
 10
17.4239982561
 20
12.1439373988
 30
0.0
 10
17.4246784712
 20
12.1454327938
 30
0.0
 10
17.4255886369
 20
12.1474252661
 30
0.0
 10
17.4267252442
 20
12.1499163317
 30
0.0
 10
17.4285444305
 20
12.153901771
 30
0.0
 10
17.4308182024
 20
12.1588836613
 30
0.0
 10
17.4335468192
 20
12.1648618906
 30
0.0
 10
17.4362754118
 20
12.1708401304
 30
0.0
 10
17.4399135437
 20
12.1788111131
 30
0.0
 10
17.4444612056
 20
12.1887748426
 30
0.0
 10
17.4499184012
 20
12.2007313176
 30
0.0
 10
17.4553755965
 20
12.2126877927
 30
0.0
 10
17.4608327919
 20
12.2246442678
 30
0.0
 10
17.4681090523
 20
12.2405862346
 30
0.0
 10
17.4772043779
 20
12.2605136931
 30
0.0
 10
17.4881187686
 20
12.2844266433
 30
0.0
 10
17.4990331592
 20
12.3083395935
 30
0.0
 10
17.5081284848
 20
12.3282670519
 30
0.0
 10
17.5154047452
 20
12.3442090188
 30
0.0
 10
17.5199524081
 20
12.354172748
 30
0.0
 10
17.5235905381
 20
12.3621437314
 30
0.0
 10
17.5263191365
 20
12.3681219688
 30
0.0
 10
17.5290477313
 20
12.3741002071
 30
0.0
 10
17.5317763398
 20
12.3800784416
 30
0.0
 10
17.5340501376
 20
12.3850603158
 30
0.0
 10
17.5356418795
 20
12.388547604
 30
0.0
 10
17.536551316
 20
12.3905403771
 30
0.0
 10
17.5372337605
 20
12.3920348526
 30
0.0
 10
17.5379148018
 20
12.3935297271
 30
0.0
 10
17.5384295167
 20
12.3946497644
 30
0.0
 10
17.538766542
 20
12.3953981954
 30
0.0
 10
17.5389459793
 20
12.3957693047
 30
0.0
 10
17.5390829416
 20
12.3961524911
 30
0.0
 10
17.5390634537
 20
12.396720871
 30
0.0
 10
17.539108294
 20
12.3974116701
 30
0.0
 10
17.5391413663
 20
12.3985279444
 30
0.0
 10
17.539195948
 20
12.3999195224
 30
0.0
 10
17.5392758781
 20
12.4021481513
 30
0.0
 10
17.5393783299
 20
12.4049332155
 30
0.0
 10
17.5395001852
 20
12.4082756016
 30
0.0
 10
17.5396630385
 20
12.4127320084
 30
0.0
 10
17.539866475
 20
12.4183025539
 30
0.0
 10
17.5401106545
 20
12.4249871927
 30
0.0
 10
17.5404362076
 20
12.43390005
 30
0.0
 10
17.5408431558
 20
12.4450411197
 30
0.0
 10
17.5413314907
 20
12.4584104042
 30
0.0
 10
17.5418198264
 20
12.4717796884
 30
0.0
 10
17.5424709404
 20
12.4896054008
 30
0.0
 10
17.5432848329
 20
12.5118875413
 30
0.0
 10
17.5442615039
 20
12.5386261098
 30
0.0
 10
17.545238175
 20
12.5653646784
 30
0.0
 10
17.5460520675
 20
12.5876468189
 30
0.0
 10
17.5467031816
 20
12.6054725312
 30
0.0
 10
17.5471915169
 20
12.6188418155
 30
0.0
 10
17.5476798531
 20
12.6322110997
 30
0.0
 10
17.5480867974
 20
12.6433521703
 30
0.0
 10
17.5484123583
 20
12.6522650258
 30
0.0
 10
17.5486565142
 20
12.6589496699
 30
0.0
 10
17.5488600246
 20
12.664520199
 30
0.0
 10
17.5490227271
 20
12.6689766394
 30
0.0
 10
17.5491450429
 20
12.6723189226
 30
0.0
 10
17.5492460539
 20
12.6751043087
 30
0.0
 10
17.5493289234
 20
12.677332281
 30
0.0
 10
17.5493760246
 20
12.67872553
 30
0.0
 10
17.5494244518
 20
12.6798383743
 30
0.0
 10
17.5494301992
 20
12.6805379059
 30
0.0
 10
17.5494909577
 20
12.6810883604
 30
0.0
 10
17.5493827565
 20
12.6815263115
 30
0.0
 10
17.5492314661
 20
12.6819712988
 30
0.0
 10
17.5489510505
 20
12.682857654
 30
0.0
 10
17.5485211175
 20
12.6841887071
 30
0.0
 10
17.5479531944
 20
12.6859625755
 30
0.0
 10
17.547383848
 20
12.6877366764
 30
0.0
 10
17.546625216
 20
12.6901020633
 30
0.0
 10
17.5452973786
 20
12.6942415279
 30
0.0
 10
17.543400589
 20
12.7001550292
 30
0.0
 10
17.5411243895
 20
12.7072512391
 30
0.0
 10
17.538848204
 20
12.7143474468
 30
0.0
 10
17.5365720148
 20
12.721443655
 30
0.0
 10
17.5335370971
 20
12.7309052659
 30
0.0
 10
17.5297434496
 20
12.7427322795
 30
0.0
 10
17.5236736138
 20
12.7616555012
 30
0.0
 10
17.5160863189
 20
12.7853095283
 30
0.0
 10
17.5069815652
 20
12.8136943609
 30
0.0
 10
17.4978768114
 20
12.8420791935
 30
0.0
 10
17.4887720576
 20
12.8704640261
 30
0.0
 10
17.4796673038
 20
12.8988488587
 30
0.0
 10
17.4675276321
 20
12.9366953022
 30
0.0
 10
17.4584228783
 20
12.9650801348
 30
0.0
 10
17.4523530424
 20
12.9840033565
 30
0.0
  0
SPLINE
  5
32E
100
AcDbEntity
  8
0
100
AcDbSpline
 62
7
  6
CONTINUOUS
 70
0
 71
3
 72
22
 73
18
 74
0
 42
0.0000001
 43
0.0000001
 44
0.0000000001
 40
0.0
 40
0.0
 40
0.0
 40
0.0
 40
0.1177960976
 40
0.1769709088
 40
0.2374527713
 40
0.2992463361
 40
0.3619776223
 40
0.4252829468
 40
0.4889203566
 40
0.5527509872
 40
0.6166929419
 40
0.6806906024
 40
0.7447052683
 40
0.80869785
 40
0.8726327109
 40
0.9364394539
 40
1.0
 40
1.0
 40
1.0
 40
1.0
 10
13.8369122209
 20
12.8331524646
 30
0.0
 10
13.8360913712
 20
12.8304961941
 30
0.0
 10
13.8350918366
 20
12.826418968
 30
0.0
 10
13.8345035106
 20
12.8208374989
 30
0.0
 10
13.8345147767
 20
12.8165452247
 30
0.0
 10
13.8350587054
 20
12.8122008095
 30
0.0
 10
13.8361869317
 20
12.8078995331
 30
0.0
 10
13.8379140429
 20
12.8037534674
 30
0.0
 10
13.8402243847
 20
12.7998707732
 30
0.0
 10
13.8430787704
 20
12.7963486611
 30
0.0
 10
13.8464205543
 20
12.7932721804
 30
0.0
 10
13.8501790825
 20
12.7907135841
 30
0.0
 10
13.8542724362
 20
12.788731526
 30
0.0
 10
13.8586099011
 20
12.7873691329
 30
0.0
 10
13.8630949103
 20
12.786654642
 30
0.0
 10
13.8676247281
 20
12.7865971036
 30
0.0
 10
13.8706168987
 20
12.7869922865
 30
0.0
 10
13.8720865353
 20
12.7872933087
 30
0.0
  0
SPLINE
  5
32F
100
AcDbEntity
  8
0
100
AcDbSpline
 62
7
  6
CONTINUOUS
 70
0
 71
3
 72
25
 73
21
 74
0
 42
0.0000001
 43
0.0000001
 44
0.0000000001
 40
0.0
 40
0.0
 40
0.0
 40
0.0
 40
0.0633746834
 40
0.0952174268
 40
0.1271001032
 40
0.1908640103
 40
0.2546687375
 40
0.2866033928
 40
0.3185232147
 40
0.3821938713
 40
0.4456217939
 40
0.5085260977
 40
0.5703836967
 40
0.6305662316
 40
0.6892382735
 40
0.7480987648
 40
0.8089655805
 40
0.8721510768
 40
0.9364369325
 40
1.0
 40
1.0
 40
1.0
 40
1.0
 10
13.9081489898
 20
12.8584231549
 30
0.0
 10
13.9073200451
 20
12.8602293337
 30
0.0
 10
13.9058134328
 20
12.8628343853
 30
0.0
 10
13.9033430917
 20
12.8659678112
 30
0.0
 10
13.9005739204
 20
12.8688591042
 30
0.0
 10
13.896603457
 20
12.8719527576
 30
0.0
 10
13.8921077546
 20
12.8742207664
 30
0.0
 10
13.8883044558
 20
12.8754874297
 30
0.0
 10
13.8844007197
 20
12.876379538
 30
0.0
 10
13.8793964171
 20
12.8767787865
 30
0.0
 10
13.8734407185
 20
12.876108738
 30
0.0
 10
13.8677693831
 20
12.8743597284
 30
0.0
 10
13.8625941287
 20
12.8716789566
 30
0.0
 10
13.8580348428
 20
12.86827719
 30
0.0
 10
13.8540576793
 20
12.8643540814
 30
0.0
 10
13.8505127913
 20
12.8600160204
 30
0.0
 10
13.8472574856
 20
12.8552873137
 30
0.0
 10
13.8442404933
 20
12.8502055409
 30
0.0
 10
13.8414962375
 20
12.8448769447
 30
0.0
 10
13.839874136
 20
12.8412072521
 30
0.0
 10
13.8391295124
 20
12.8393583385
 30
0.0
  0
LINE
  5
330
100
AcDbEntity
  8
0
100
AcDbLine
 62
7
  6
CONTINUOUS
 10
13.8385276696
 20
12.8378225638
 11
13.8369122209
 21
12.8331524646
  0
SPLINE
  5
331
100
AcDbEntity
  8
0
100
AcDbSpline
 62
7
  6
CONTINUOUS
 70
0
 71
3
 72
29
 73
25
 74
0
 42
0.0000001
 43
0.0000001
 44
0.0000000001
 40
0.0
 40
0.0
 40
0.0
 40
0.0
 40
0.0014402165
 40
0.0033613905
 40
0.0060937465
 40
0.0096408732
 40
0.0140069416
 40
0.0252143864
 40
0.0396911923
 40
0.0573006935
 40
0.0779013345
 40
0.1012814835
 40
0.1271764844
 40
0.1553319166
 40
0.185487958
 40
0.2173857597
 40
0.2854534504
 40
0.3579825901
 40
0.4337171763
 40
0.5117829332
 40
0.5914841639
 40
0.672344984
 40
0.835868212
 40
1.0
 40
1.0
 40
1.0
 40
1.0
 10
13.8967232673
 20
12.7583905594
 30
0.0
 10
13.896722035
 20
12.7583718769
 30
0.0
 10
13.8967250484
 20
12.7584761299
 30
0.0
 10
13.8967236552
 20
12.7585220539
 30
0.0
 10
13.8967228149
 20
12.7586429112
 30
0.0
 10
13.8967187652
 20
12.7587756579
 30
0.0
 10
13.89670837
 20
12.7590267242
 30
0.0
 10
13.8966824948
 20
12.7594148081
 30
0.0
 10
13.8966284816
 20
12.7599759101
 30
0.0
 10
13.8965405444
 20
12.7606550367
 30
0.0
 10
13.896410452
 20
12.7614453475
 30
0.0
 10
13.8962312973
 20
12.7623360738
 30
0.0
 10
13.8959970179
 20
12.7633153021
 30
0.0
 10
13.8957013379
 20
12.7643696005
 30
0.0
 10
13.8953411723
 20
12.7654859862
 30
0.0
 10
13.8947592111
 20
12.7670747532
 30
0.0
 10
13.8938566032
 20
12.7691305296
 30
0.0
 10
13.8925191779
 20
12.7716081194
 30
0.0
 10
13.890905699
 20
12.7740728446
 30
0.0
 10
13.889034141
 20
12.7764673951
 30
0.0
 10
13.8869182962
 20
12.7787414968
 30
0.0
 10
13.8837932724
 20
12.7815738322
 30
0.0
 10
13.8794083414
 20
12.7846183983
 30
0.0
 10
13.8755231963
 20
12.7864231483
 30
0.0
 10
13.8735179664
 20
12.7871524993
 30
0.0
  0
SPLINE
  5
332
100
AcDbEntity
  8
0
100
AcDbSpline
 62
7
  6
CONTINUOUS
 70
0
 71
3
 72
18
 73
14
 74
0
 42
0.0000001
 43
0.0000001
 44
0.0000000001
 40
0.0
 40
0.0
 40
0.0
 40
0.0
 40
0.1608990582
 40
0.32127914
 40
0.4788013681
 40
0.6301292754
 40
0.7694721743
 40
0.8317277917
 40
0.8867713756
 40
0.9326022391
 40
0.9674347659
 40
0.9900233636
 40
1.0
 40
1.0
 40
1.0
 40
1.0
 10
13.9091092195
 20
12.8573520095
 30
0.0
 10
13.9108460522
 20
12.8561901987
 30
0.0
 10
13.9145176354
 20
12.8541592643
 30
0.0
 10
13.9204128794
 20
12.8520949637
 30
0.0
 10
13.9264486982
 20
12.8510648005
 30
0.0
 10
13.9322952485
 20
12.8510495147
 30
0.0
 10
13.9368418868
 20
12.8517836016
 30
0.0
 10
13.9400454908
 20
12.8527134632
 30
0.0
 10
13.9420315104
 20
12.8534571257
 30
0.0
 10
13.9436336162
 20
12.8541948496
 30
0.0
 10
13.9448130157
 20
12.8548351412
 30
0.0
 10
13.9455545236
 20
12.8553008883
 30
0.0
 10
13.9459023477
 20
12.8555419163
 30
0.0
 10
13.9460055035
 20
12.8556203147
 30
0.0
  0
SPLINE
  5
333
100
AcDbEntity
  8
0
100
AcDbSpline
 62
7
  6
CONTINUOUS
 70
0
 71
3
 72
11
 73
7
 74
0
 42
0.0000001
 43
0.0000001
 44
0.0000000001
 40
0.0
 40
0.0
 40
0.0
 40
0.0
 40
0.2851242927
 40
0.547365063
 40
0.7858386767
 40
1.0
 40
1.0
 40
1.0
 40
1.0
 10
13.8995363782
 20
12.7316127569
 30
0.0
 10
13.8991785587
 20
12.7299516631
 30
0.0
 10
13.8985475703
 20
12.7267502762
 30
0.0
 10
13.8978382518
 20
12.72211939
 30
0.0
 10
13.8974078108
 20
12.7178789199
 30
0.0
 10
13.897302204
 20
12.7151808242
 30
0.0
 10
13.8973049682
 20
12.7139045344
 30
0.0
  0
SPLINE
  5
334
100
AcDbEntity
  8
0
100
AcDbSpline
 62
7
  6
CONTINUOUS
 70
0
 71
3
 72
14
 73
10
 74
0
 42
0.0000001
 43
0.0000001
 44
0.0000000001
 40
0.0
 40
0.0
 40
0.0
 40
0.0
 40
0.306420573
 40
0.4480470088
 40
0.5799360059
 40
0.7017479783
 40
0.8134418791
 40
0.9129128955
 40
1.0
 40
1.0
 40
1.0
 40
1.0
 10
14.0163487804
 20
12.8812536428
 30
0.0
 10
14.0140015829
 20
12.8818926851
 30
0.0
 10
14.010559857
 20
12.8827925955
 30
0.0
 10
14.0060827338
 20
12.8838668823
 30
0.0
 10
14.0030166813
 20
12.8845384329
 30
0.0
 10
14.0001689138
 20
12.885091968
 30
0.0
 10
13.9975619192
 20
12.885532109
 30
0.0
 10
13.9952124299
 20
12.8858327819
 30
0.0
 10
13.9937343994
 20
12.8859411049
 30
0.0
 10
13.9930436629
 20
12.8859707798
 30
0.0
  0
SPLINE
  5
335
100
AcDbEntity
  8
0
100
AcDbSpline
 62
7
  6
CONTINUOUS
 70
0
 71
3
 72
11
 73
7
 74
0
 42
0.0000001
 43
0.0000001
 44
0.0000000001
 40
0.0
 40
0.0
 40
0.0
 40
0.0
 40
0.3311112539
 40
0.6013020254
 40
0.8198817343
 40
1.0
 40
1.0
 40
1.0
 40
1.0
 10
13.9930436629
 20
12.8859707798
 30
0.0
 10
13.9923529303
 20
12.8860004544
 30
0.0
 10
13.9910960794
 20
12.8860211103
 30
0.0
 10
13.9893860764
 20
12.885852001
 30
0.0
 10
13.9880315913
 20
12.8854919799
 30
0.0
 10
13.9872731275
 20
12.8851225938
 30
0.0
 10
13.986968564
 20
12.8849019439
 30
0.0
  0
SPLINE
  5
336
100
AcDbEntity
  8
0
100
AcDbSpline
 62
7
  6
CONTINUOUS
 70
0
 71
3
 72
11
 73
7
 74
0
 42
0.0000001
 43
0.0000001
 44
0.0000000001
 40
0.0
 40
0.0
 40
0.0
 40
0.0
 40
0.2009716314
 40
0.4392635715
 40
0.7077680571
 40
1.0
 40
1.0
 40
1.0
 40
1.0
 10
13.9569054921
 20
12.6718688413
 30
0.0
 10
13.9552477225
 20
12.672196425
 30
0.0
 10
13.9516519121
 20
12.673050267
 30
0.0
 10
13.9459206879
 20
12.6746551276
 30
0.0
 10
13.9395000096
 20
12.6766352436
 30
0.0
 10
13.9350196909
 20
12.6781042115
 30
0.0
 10
13.9326895113
 20
12.6788839157
 30
0.0
  0
SPLINE
  5
337
100
AcDbEntity
  8
0
100
AcDbSpline
 62
7
  6
CONTINUOUS
 70
0
 71
3
 72
19
 73
15
 74
0
 42
0.0000001
 43
0.0000001
 44
0.0000000001
 40
0.0
 40
0.0
 40
0.0
 40
0.0
 40
0.1490362539
 40
0.2908757794
 40
0.4249287899
 40
0.5511718004
 40
0.6115847775
 40
0.67034225
 40
0.7276249409
 40
0.7836437605
 40
0.8386368973
 40
0.8928598362
 40
0.9465499253
 40
1.0
 40
1.0
 40
1.0
 40
1.0
 10
17.1386219104
 20
12.4769881015
 30
0.0
 10
17.1530887471
 20
12.4769881015
 30
0.0
 10
17.1813459877
 20
12.4782564161
 30
0.0
 10
17.2222305212
 20
12.4842733682
 30
0.0
 10
17.260039786
 20
12.4943454458
 30
0.0
 10
17.2889190466
 20
12.5062819301
 30
0.0
 10
17.3097462136
 20
12.5178927807
 30
0.0
 10
17.3239825916
 20
12.5274551905
 30
0.0
 10
17.3369794252
 20
12.5379822707
 30
0.0
 10
17.3486514828
 20
12.5494499795
 30
0.0
 10
17.3589071739
 20
12.5618201113
 30
0.0
 10
17.3676505867
 20
12.5750349703
 30
0.0
 10
17.3747960446
 20
12.5890095921
 30
0.0
 10
17.3784460529
 20
12.5987773447
 30
0.0
 10
17.3799779021
 20
12.6037344105
 30
0.0
  0
SPLINE
  5
338
100
AcDbEntity
  8
0
100
AcDbSpline
 62
7
  6
CONTINUOUS
 70
0
 71
3
 72
14
 73
10
 74
0
 42
0.0000001
 43
0.0000001
 44
0.0000000001
 40
0.0
 40
0.0
 40
0.0
 40
0.0
 40
0.1198742616
 40
0.2401836129
 40
0.361542451
 40
0.4843951392
 40
0.609234545
 40
0.7365375622
 40
1.0
 40
1.0
 40
1.0
 40
1.0
 10
14.496501545
 20
13.9296613186
 30
0.0
 10
14.4950779086
 20
13.9250544297
 30
0.0
 10
14.4927205273
 20
13.9156625648
 30
0.0
 10
14.4907030902
 20
13.9012343753
 30
0.0
 10
14.490195925
 20
13.8865542887
 30
0.0
 10
14.4911837942
 20
13.8717185954
 30
0.0
 10
14.4936327272
 20
13.8568113169
 30
0.0
 10
14.4988470684
 20
13.8367159284
 30
0.0
 10
14.5047641729
 20
13.8220569898
 30
0.0
 10
14.5094328497
 20
13.8125432267
 30
0.0
  0
SPLINE
  5
339
100
AcDbEntity
  8
0
100
AcDbSpline
 62
7
  6
CONTINUOUS
 70
0
 71
3
 72
29
 73
25
 74
0
 42
0.0000001
 43
0.0000001
 44
0.0000000001
 40
0.0
 40
0.0
 40
0.0
 40
0.0
 40
0.0214558549
 40
0.0432079549
 40
0.0655328871
 40
0.0886716227
 40
0.1128201128
 40
0.1381253183
 40
0.1646851159
 40
0.192552983
 40
0.2217416012
 40
0.2522279613
 40
0.3168234671
 40
0.3856623453
 40
0.4577278594
 40
0.5318037505
 40
0.6065583722
 40
0.6806231662
 40
0.752667656
 40
0.8214763121
 40
0.8860346402
 40
0.9165003337
 40
0.945666949
 40
1.0
 40
1.0
 40
1.0
 40
1.0
 10
14.6950219778
 20
13.8459099824
 30
0.0
 10
14.6957025485
 20
13.8481125158
 30
0.0
 10
14.6973985495
 20
13.8524545251
 30
0.0
 10
14.7008810902
 20
13.858599436
 30
0.0
 10
14.705282301
 20
13.8643526217
 30
0.0
 10
14.7105658428
 20
13.8696733295
 30
0.0
 10
14.7166920704
 20
13.8745276705
 30
0.0
 10
14.7236170582
 20
13.8788846925
 30
0.0
 10
14.7312923371
 20
13.8827179789
 30
0.0
 10
14.7396657026
 20
13.8860032035
 30
0.0
 10
14.7486807643
 20
13.8887198342
 30
0.0
 10
14.7617253503
 20
13.8916158184
 30
0.0
 10
14.7792744136
 20
13.8936360616
 30
0.0
 10
14.8013964712
 20
13.893578628
 30
0.0
 10
14.8244002956
 20
13.8910890901
 30
0.0
 10
14.8476691008
 20
13.8862343765
 30
0.0
 10
14.8705812355
 20
13.8791445498
 30
0.0
 10
14.8925220975
 20
13.8700099076
 30
0.0
 10
14.9129052547
 20
13.8590742976
 30
0.0
 10
14.9311844524
 20
13.8466300916
 30
0.0
 10
14.9445146785
 20
13.8350547703
 30
0.0
 10
14.9536358605
 20
13.8252989388
 30
0.0
 10
14.9613143253
 20
13.8157540442
 30
0.0
 10
14.9661037637
 20
13.8080937882
 30
0.0
 10
14.9686755244
 20
13.8028530909
 30
0.0
  0
SPLINE
  5
33A
100
AcDbEntity
  8
0
100
AcDbSpline
 62
7
  6
CONTINUOUS
 70
0
 71
3
 72
14
 73
10
 74
0
 42
0.0000001
 43
0.0000001
 44
0.0000000001
 40
0.0
 40
0.0
 40
0.0
 40
0.0
 40
0.271343435
 40
0.4002873435
 40
0.5253138534
 40
0.6470397134
 40
0.7661800009
 40
0.8835428441
 40
1.0
 40
1.0
 40
1.0
 40
1.0
 10
17.4523530441
 20
12.984003353
 30
0.0
 10
17.4567120349
 20
12.9751206638
 30
0.0
 10
17.4622276157
 20
12.9615171488
 30
0.0
 10
17.4670737893
 20
12.9429644305
 30
0.0
 10
17.4693229934
 20
12.9294292002
 30
0.0
 10
17.4702354929
 20
12.9160966379
 30
0.0
 10
17.4698051117
 20
12.9030172028
 30
0.0
 10
17.4680319586
 20
12.8902458279
 30
0.0
 10
17.4659549133
 20
12.8819561541
 30
0.0
 10
17.4647010712
 20
12.8778988425
 30
0.0
  0
SPLINE
  5
33B
100
AcDbEntity
  8
0
100
AcDbSpline
 62
7
  6
CONTINUOUS
 70
0
 71
3
 72
15
 73
11
 74
0
 42
0.0000001
 43
0.0000001
 44
0.0000000001
 40
0.0
 40
0.0
 40
0.0
 40
0.0
 40
0.1419934913
 40
0.280754904
 40
0.4152984727
 40
0.5447421794
 40
0.6683560273
 40
0.7855968754
 40
0.8961518737
 40
1.0
 40
1.0
 40
1.0
 40
1.0
 10
17.251113468
 20
13.1546967901
 30
0.0
 10
17.2627354911
 20
13.149521807
 30
0.0
 10
17.2853983583
 20
13.1385582284
 30
0.0
 10
17.317770725
 20
13.1201572342
 30
0.0
 10
17.3478457255
 20
13.1001598348
 30
0.0
 10
17.3752710329
 20
13.0787984193
 30
0.0
 10
17.3997276673
 20
13.0563201307
 30
0.0
 10
17.4209314891
 20
13.0329799771
 30
0.0
 10
17.4386319364
 20
13.0090481636
 30
0.0
 10
17.4482540518
 20
12.9923562212
 30
0.0
 10
17.4523530441
 20
12.984003353
 30
0.0
  0
SPLINE
  5
33C
100
AcDbEntity
  8
0
100
AcDbSpline
 62
7
  6
CONTINUOUS
 70
0
 71
3
 72
23
 73
19
 74
0
 42
0.0000001
 43
0.0000001
 44
0.0000000001
 40
0.0
 40
0.0
 40
0.0
 40
0.0
 40
0.0440098311
 40
0.0904878753
 40
0.1399299003
 40
0.192619743
 40
0.2486537654
 40
0.3079675114
 40
0.3703642542
 40
0.4355397174
 40
0.5031037258
 40
0.5725989741
 40
0.6435176532
 40
0.7153166939
 40
0.7874316033
 40
0.8592912487
 40
0.9303287477
 40
1.0
 40
1.0
 40
1.0
 40
1.0
 10
14.6009384599
 20
14.2418299433
 30
0.0
 10
14.6057455686
 20
14.248153151
 30
0.0
 10
14.6168140957
 20
14.2602853909
 30
0.0
 10
14.6366457509
 20
14.2760644522
 30
0.0
 10
14.6598368175
 20
14.2896964239
 30
0.0
 10
14.6861028017
 20
14.3010370183
 30
0.0
 10
14.7151395952
 20
14.3099740287
 30
0.0
 10
14.7466120613
 20
14.3164132507
 30
0.0
 10
14.7801573255
 20
14.3202859238
 30
0.0
 10
14.8153870673
 20
14.3215498585
 30
0.0
 10
14.8518919533
 20
14.3201917243
 30
0.0
 10
14.8892464956
 20
14.3162279238
 30
0.0
 10
14.9270143157
 20
14.3097050004
 30
0.0
 10
14.9647535373
 20
14.3006992729
 30
0.0
 10
15.0020221838
 20
14.2893163443
 30
0.0
 10
15.0383841024
 20
14.2756891241
 30
0.0
 10
15.0734116695
 20
14.2599785139
 30
0.0
 10
15.0958783646
 20
14.2480910095
 30
0.0
 10
15.1067832014
 20
14.2418299433
 30
0.0
  0
SPLINE
  5
33D
100
AcDbEntity
  8
0
100
AcDbSpline
 62
7
  6
CONTINUOUS
 70
0
 71
3
 72
29
 73
25
 74
0
 42
0.0000001
 43
0.0000001
 44
0.0000000001
 40
0.0
 40
0.0
 40
0.0
 40
0.0
 40
0.0214558549
 40
0.0432079549
 40
0.0655328871
 40
0.0886716227
 40
0.1128201128
 40
0.1381253183
 40
0.1646851159
 40
0.192552983
 40
0.2217416012
 40
0.2522279613
 40
0.3168234671
 40
0.3856623453
 40
0.4577278594
 40
0.5318037505
 40
0.6065583722
 40
0.6806231662
 40
0.752667656
 40
0.8214763121
 40
0.8860346402
 40
0.9165003337
 40
0.945666949
 40
1.0
 40
1.0
 40
1.0
 40
1.0
 10
16.8895793972
 20
12.7333126533
 30
0.0
 10
16.890259968
 20
12.7355151868
 30
0.0
 10
16.891955969
 20
12.7398571961
 30
0.0
 10
16.8954385097
 20
12.7460021069
 30
0.0
 10
16.8998397205
 20
12.7517552927
 30
0.0
 10
16.9051232623
 20
12.7570760005
 30
0.0
 10
16.9112494899
 20
12.7619303415
 30
0.0
 10
16.9181744776
 20
12.7662873635
 30
0.0
 10
16.9258497565
 20
12.7701206498
 30
0.0
 10
16.9342231221
 20
12.7734058745
 30
0.0
 10
16.9432381838
 20
12.7761225051
 30
0.0
 10
16.9562827698
 20
12.7790184894
 30
0.0
 10
16.9738318331
 20
12.7810387326
 30
0.0
 10
16.9959538907
 20
12.780981299
 30
0.0
 10
17.0189577151
 20
12.778491761
 30
0.0
 10
17.0422265202
 20
12.7736370475
 30
0.0
 10
17.0651386549
 20
12.7665472207
 30
0.0
 10
17.0870795169
 20
12.7574125785
 30
0.0
 10
17.1074626741
 20
12.7464769686
 30
0.0
 10
17.1257418719
 20
12.7340327626
 30
0.0
 10
17.139072098
 20
12.7224574412
 30
0.0
 10
17.14819328
 20
12.7127016098
 30
0.0
 10
17.1558717447
 20
12.7031567151
 30
0.0
 10
17.1606611832
 20
12.6954964592
 30
0.0
 10
17.1632329439
 20
12.6902557619
 30
0.0
  0
SPLINE
  5
33E
100
AcDbEntity
  8
0
100
AcDbSpline
 62
7
  6
CONTINUOUS
 70
0
 71
3
 72
13
 73
9
 74
0
 42
0.0000001
 43
0.0000001
 44
0.0000000001
 40
0.0
 40
0.0
 40
0.0
 40
0.0
 40
0.1197528861
 40
0.2400427387
 40
0.3613925126
 40
0.4842999371
 40
0.7364780243
 40
1.0
 40
1.0
 40
1.0
 40
1.0
 10
13.4775238878
 20
13.0901078567
 30
0.0
 10
13.4784728475
 20
13.0931785854
 30
0.0
 10
13.4806282392
 20
13.0992588117
 30
0.0
 10
13.4846077491
 20
13.1081151907
 30
0.0
 10
13.489327732
 20
13.116697668
 30
0.0
 10
13.4966525945
 20
13.1278414603
 30
0.0
 10
13.5077020832
 20
13.1410307688
 30
0.0
 10
13.5180358669
 20
13.1503093574
 30
0.0
 10
13.5235831237
 20
13.1546967901
 30
0.0
  0
SPLINE
  5
33F
100
AcDbEntity
  8
0
100
AcDbSpline
 62
7
  6
CONTINUOUS
 70
0
 71
3
 72
26
 73
22
 74
0
 42
0.0000001
 43
0.0000001
 44
0.0000000001
 40
0.0
 40
0.0
 40
0.0
 40
0.0
 40
0.023584518
 40
0.0472609096
 40
0.0711530219
 40
0.0953528915
 40
0.1199631934
 40
0.1450812051
 40
0.197135639
 40
0.2521207622
 40
0.3103485918
 40
0.3718784878
 40
0.4365390531
 40
0.5039645966
 40
0.5736360451
 40
0.6449206033
 40
0.7171091346
 40
0.7894513439
 40
0.8611905841
 40
0.9315947219
 40
1.0
 40
1.0
 40
1.0
 40
1.0
 10
13.3928006085
 20
12.8159434588
 30
0.0
 10
13.391342467
 20
12.8112249114
 30
0.0
 10
13.388939917
 20
12.8015999202
 30
0.0
 10
13.3869302341
 20
12.7868083282
 30
0.0
 10
13.3865045058
 20
12.7717575923
 30
0.0
 10
13.3876458861
 20
12.7565506003
 30
0.0
 10
13.3903161976
 20
12.7412773106
 30
0.0
 10
13.3959193805
 20
12.7206865433
 30
0.0
 10
13.4066819038
 20
12.6950436338
 30
0.0
 10
13.4247631377
 20
12.6654096148
 30
0.0
 10
13.4477601406
 20
12.6368311347
 30
0.0
 10
13.4752651533
 20
12.6096208367
 30
0.0
 10
13.5068429237
 20
12.5840941354
 30
0.0
 10
13.5420073047
 20
12.5605802814
 30
0.0
 10
13.5802154132
 20
12.5394052537
 30
0.0
 10
13.6208706752
 20
12.5208790863
 30
0.0
 10
13.6633321189
 20
12.5052832772
 30
0.0
 10
13.7069264595
 20
12.492861102
 30
0.0
 10
13.7509642643
 20
12.4838110594
 30
0.0
 10
13.7947493088
 20
12.4782819811
 30
0.0
 10
13.823828956
 20
12.4769881015
 30
0.0
 10
13.8381533485
 20
12.4769881015
 30
0.0
  0
SPLINE
  5
340
100
AcDbEntity
  8
0
100
AcDbSpline
 62
7
  6
CONTINUOUS
 70
0
 71
3
 72
29
 73
25
 74
0
 42
0.0000001
 43
0.0000001
 44
0.0000000001
 40
0.0
 40
0.0
 40
0.0
 40
0.0
 40
0.0214558549
 40
0.0432079549
 40
0.0655328871
 40
0.0886716227
 40
0.1128201128
 40
0.1381253183
 40
0.1646851159
 40
0.192552983
 40
0.2217416012
 40
0.2522279613
 40
0.3168234671
 40
0.3856623453
 40
0.4577278594
 40
0.5318037505
 40
0.6065583722
 40
0.6806231662
 40
0.752667656
 40
0.8214763121
 40
0.8860346402
 40
0.9165003337
 40
0.945666949
 40
1.0
 40
1.0
 40
1.0
 40
1.0
 10
13.5924314938
 20
12.7333126533
 30
0.0
 10
13.5931120646
 20
12.7355151868
 30
0.0
 10
13.5948080656
 20
12.7398571961
 30
0.0
 10
13.5982906063
 20
12.7460021069
 30
0.0
 10
13.6026918171
 20
12.7517552927
 30
0.0
 10
13.6079753589
 20
12.7570760005
 30
0.0
 10
13.6141015865
 20
12.7619303415
 30
0.0
 10
13.6210265742
 20
12.7662873635
 30
0.0
 10
13.6287018531
 20
12.7701206498
 30
0.0
 10
13.6370752187
 20
12.7734058745
 30
0.0
 10
13.6460902804
 20
12.7761225051
 30
0.0
 10
13.6591348664
 20
12.7790184894
 30
0.0
 10
13.6766839297
 20
12.7810387326
 30
0.0
 10
13.6988059873
 20
12.780981299
 30
0.0
 10
13.7218098117
 20
12.778491761
 30
0.0
 10
13.7450786168
 20
12.7736370475
 30
0.0
 10
13.7679907515
 20
12.7665472207
 30
0.0
 10
13.7899316135
 20
12.7574125785
 30
0.0
 10
13.8103147707
 20
12.7464769686
 30
0.0
 10
13.8285939685
 20
12.7340327626
 30
0.0
 10
13.8419241946
 20
12.7224574412
 30
0.0
 10
13.8510453766
 20
12.7127016098
 30
0.0
 10
13.8587238413
 20
12.7031567151
 30
0.0
 10
13.8635132798
 20
12.6954964592
 30
0.0
 10
13.8660850405
 20
12.6902557619
 30
0.0
  0
SPLINE
  5
341
100
AcDbEntity
  8
0
100
AcDbSpline
 62
7
  6
CONTINUOUS
 70
0
 71
3
 72
13
 73
9
 74
0
 42
0.0000001
 43
0.0000001
 44
0.0000000001
 40
0.0
 40
0.0
 40
0.0
 40
0.0
 40
0.2714078112
 40
0.5251930288
 40
0.6469450451
 40
0.7661184609
 40
0.8835128954
 40
1.0
 40
1.0
 40
1.0
 40
1.0
 10
13.8660850405
 20
12.6902557619
 30
0.0
 10
13.8678538623
 20
12.6866512819
 30
0.0
 10
13.8707883626
 20
12.6794182626
 30
0.0
 10
13.8728417836
 20
12.6700118842
 30
0.0
 10
13.8733413964
 20
12.6626995363
 30
0.0
 10
13.8731670505
 20
12.6573918236
 30
0.0
 10
13.8724475002
 20
12.652209231
 30
0.0
 10
13.8716045427
 20
12.6488453254
 30
0.0
 10
13.8710957972
 20
12.6471988705
 30
0.0
  0
SPLINE
  5
342
100
AcDbEntity
  8
0
100
AcDbSpline
 62
7
  6
CONTINUOUS
 70
0
 71
3
 72
11
 73
7
 74
0
 42
0.0000001
 43
0.0000001
 44
0.0000000001
 40
0.0
 40
0.0
 40
0.0
 40
0.0
 40
0.2462199379
 40
0.4939752508
 40
0.7447653751
 40
1.0
 40
1.0
 40
1.0
 40
1.0
 10
13.8056716217
 20
12.3223088371
 30
0.0
 10
13.8008059323
 20
12.3065634605
 30
0.0
 10
13.7926886697
 20
12.274439786
 30
0.0
 10
13.785534305
 20
12.225021818
 30
0.0
 10
13.7833963396
 20
12.1745333396
 30
0.0
 10
13.7852871448
 20
12.1406559568
 30
0.0
 10
13.7870277705
 20
12.1236614483
 30
0.0
  0
SPLINE
  5
343
100
AcDbEntity
  8
0
100
AcDbSpline
 62
7
  6
CONTINUOUS
 70
0
 71
3
 72
11
 73
7
 74
0
 42
0.0000001
 43
0.0000001
 44
0.0000000001
 40
0.0
 40
0.0
 40
0.0
 40
0.0
 40
0.2552391965
 40
0.506030098
 40
0.7537832043
 40
1.0
 40
1.0
 40
1.0
 40
1.0
 10
16.3761516039
 20
11.3234737776
 30
0.0
 10
16.3871839562
 20
11.3365277322
 30
0.0
 10
16.4078713517
 20
11.3634416095
 30
0.0
 10
16.4346072423
 20
11.4063507642
 30
0.0
 10
16.4565933446
 20
11.4512080043
 30
0.0
 10
16.4680203097
 20
11.4823242702
 30
0.0
 10
16.4728881452
 20
11.4980765917
 30
0.0
  0
SPLINE
  5
344
100
AcDbEntity
  8
0
100
AcDbSpline
 62
7
  6
CONTINUOUS
 70
0
 71
3
 72
11
 73
7
 74
0
 42
0.0000001
 43
0.0000001
 44
0.0000000001
 40
0.0
 40
0.0
 40
0.0
 40
0.0
 40
0.1964097641
 40
0.4294244372
 40
0.6980459872
 40
1.0
 40
1.0
 40
1.0
 40
1.0
 10
14.0541472196
 20
12.8594831892
 30
0.0
 10
14.0540620563
 20
12.8597718055
 30
0.0
 10
14.0538030014
 20
12.8603809805
 30
0.0
 10
14.0532583657
 20
12.861302961
 30
0.0
 10
14.0525412412
 20
12.8623052448
 30
0.0
 10
14.0519894015
 20
12.8629837499
 30
0.0
 10
14.0516899394
 20
12.8633363722
 30
0.0
  0
SPLINE
  5
345
100
AcDbEntity
  8
0
100
AcDbSpline
 62
7
  6
CONTINUOUS
 70
0
 71
3
 72
13
 73
9
 74
0
 42
0.0000001
 43
0.0000001
 44
0.0000000001
 40
0.0
 40
0.0
 40
0.0
 40
0.0
 40
0.2714078112
 40
0.5251930288
 40
0.6469450451
 40
0.7661184609
 40
0.8835128954
 40
1.0
 40
1.0
 40
1.0
 40
1.0
 10
17.1632329439
 20
12.6902557619
 30
0.0
 10
17.1650017657
 20
12.6866512819
 30
0.0
 10
17.167936266
 20
12.6794182626
 30
0.0
 10
17.169989687
 20
12.6700118842
 30
0.0
 10
17.1704892998
 20
12.6626995363
 30
0.0
 10
17.1703149539
 20
12.6573918236
 30
0.0
 10
17.1695954036
 20
12.652209231
 30
0.0
 10
17.1687524461
 20
12.6488453254
 30
0.0
 10
17.1682437006
 20
12.6471988705
 30
0.0
  0
SPLINE
  5
346
100
AcDbEntity
  8
0
100
AcDbSpline
 62
7
  6
CONTINUOUS
 70
0
 71
3
 72
11
 73
7
 74
0
 42
0.0000001
 43
0.0000001
 44
0.0000000001
 40
0.0
 40
0.0
 40
0.0
 40
0.0
 40
0.2155531852
 40
0.4544359556
 40
0.7161658131
 40
1.0
 40
1.0
 40
1.0
 40
1.0
 10
13.9822516659
 20
12.8814587594
 30
0.0
 10
13.9812751656
 20
12.880746503
 30
0.0
 10
13.9792749893
 20
12.8791640663
 30
0.0
 10
13.976278674
 20
12.8764878579
 30
0.0
 10
13.9731451506
 20
12.8733988709
 30
0.0
 10
13.9710571955
 20
12.8711619293
 30
0.0
 10
13.9699913788
 20
12.8699799805
 30
0.0
  0
SPLINE
  5
347
100
AcDbEntity
  8
0
100
AcDbSpline
 62
7
  6
CONTINUOUS
 70
0
 71
3
 72
13
 73
9
 74
0
 42
0.0000001
 43
0.0000001
 44
0.0000000001
 40
0.0
 40
0.0
 40
0.0
 40
0.0
 40
0.2714078112
 40
0.5251930288
 40
0.6469450451
 40
0.7661184609
 40
0.8835128954
 40
1.0
 40
1.0
 40
1.0
 40
1.0
 10
14.9686755244
 20
13.8028530909
 30
0.0
 10
14.9704443463
 20
13.799248611
 30
0.0
 10
14.9733788466
 20
13.7920155916
 30
0.0
 10
14.9754322676
 20
13.7826092133
 30
0.0
 10
14.9759318803
 20
13.7752968654
 30
0.0
 10
14.9757575344
 20
13.7699891526
 30
0.0
 10
14.9750379841
 20
13.7648065601
 30
0.0
 10
14.9741950267
 20
13.7614426544
 30
0.0
 10
14.9736862811
 20
13.7597961995
 30
0.0
  0
SPLINE
  5
348
100
AcDbEntity
  8
0
100
AcDbSpline
 62
7
  6
CONTINUOUS
 70
0
 71
3
 72
18
 73
14
 74
0
 42
0.0000001
 43
0.0000001
 44
0.0000000001
 40
0.0
 40
0.0
 40
0.0
 40
0.0
 40
0.1180173172
 40
0.2360917097
 40
0.2954568888
 40
0.3552290624
 40
0.4155901045
 40
0.4767251968
 40
0.538786114
 40
0.60186599
 40
0.731064882
 40
0.8640408513
 40
1.0
 40
1.0
 40
1.0
 40
1.0
 10
14.0227837135
 20
12.7697957911
 30
0.0
 10
14.0259196971
 20
12.7724118432
 30
0.0
 10
14.0319678848
 20
12.7779262768
 30
0.0
 10
14.0386849042
 20
12.7856788132
 30
0.0
 10
14.0433376248
 20
12.7924508142
 30
0.0
 10
14.0464283164
 20
12.7978473985
 30
0.0
 10
14.0490639449
 20
12.8035484752
 30
0.0
 10
14.0512070959
 20
12.8095368244
 30
0.0
 10
14.052835629
 20
12.8157821302
 30
0.0
 10
14.0543355108
 20
12.8244636281
 30
0.0
 10
14.0549452046
 20
12.8357432502
 30
0.0
 10
14.0540214561
 20
12.8495116883
 30
0.0
 10
14.0525718548
 20
12.858715023
 30
0.0
 10
14.0516899394
 20
12.8633363722
 30
0.0
  0
SPLINE
  5
349
100
AcDbEntity
  8
0
100
AcDbSpline
 62
7
  6
CONTINUOUS
 70
0
 71
3
 72
11
 73
7
 74
0
 42
0.0000001
 43
0.0000001
 44
0.0000000001
 40
0.0
 40
0.0
 40
0.0
 40
0.0
 40
0.2486387139
 40
0.4978472197
 40
0.7480834552
 40
1.0
 40
1.0
 40
1.0
 40
1.0
 10
14.0227837135
 20
12.7697957911
 30
0.0
 10
14.022557262
 20
12.7663273827
 30
0.0
 10
14.021898623
 20
12.7593934088
 30
0.0
 10
14.0201556507
 20
12.7490707742
 30
0.0
 10
14.0175003922
 20
12.738892867
 30
0.0
 10
14.0150295865
 20
12.732304205
 30
0.0
 10
14.0136054517
 20
12.729083396
 30
0.0
  0
SPLINE
  5
34A
100
AcDbEntity
  8
0
100
AcDbSpline
 62
7
  6
CONTINUOUS
 70
0
 71
3
 72
14
 73
10
 74
0
 42
0.0000001
 43
0.0000001
 44
0.0000000001
 40
0.0
 40
0.0
 40
0.0
 40
0.0
 40
0.3233404323
 40
0.4686228783
 40
0.6017029412
 40
0.7218193644
 40
0.8283874463
 40
0.9211142892
 40
1.0
 40
1.0
 40
1.0
 40
1.0
 10
13.994048388
 20
12.7007897987
 30
0.0
 10
13.9913684011
 20
12.6973007649
 30
0.0
 10
13.9873712709
 20
12.6923274722
 30
0.0
 10
13.9819517852
 20
12.6861893759
 30
0.0
 10
13.9782210082
 20
12.6822532427
 30
0.0
 10
13.9747050451
 20
12.6788449121
 30
0.0
 10
13.9714273303
 20
12.6759867808
 30
0.0
 10
13.9684093111
 20
12.6736973736
 30
0.0
 10
13.9664229711
 20
12.672458603
 30
0.0
 10
13.9654743408
 20
12.6719564204
 30
0.0
  0
SPLINE
  5
34B
100
AcDbEntity
  8
0
100
AcDbSpline
 62
7
  6
CONTINUOUS
 70
0
 71
3
 72
14
 73
10
 74
0
 42
0.0000001
 43
0.0000001
 44
0.0000000001
 40
0.0
 40
0.0
 40
0.0
 40
0.0
 40
0.3499789651
 40
0.4987607719
 40
0.6289405795
 40
0.740607676
 40
0.8355343833
 40
0.9187638003
 40
1.0
 40
1.0
 40
1.0
 40
1.0
 10
13.9632834995
 20
12.6775695629
 30
0.0
 10
13.9637713475
 20
12.6769951128
 30
0.0
 10
13.9644418196
 20
12.6761525453
 30
0.0
 10
13.9651724288
 20
12.6750106575
 30
0.0
 10
13.9655585469
 20
12.6742613842
 30
0.0
 10
13.9658025185
 20
12.6735752406
 30
0.0
 10
13.9658910302
 20
12.6729510108
 30
0.0
 10
13.9657962728
 20
12.6723882292
 30
0.0
 10
13.9655959006
 20
12.6720822201
 30
0.0
 10
13.9654743408
 20
12.6719564204
 30
0.0
  0
SPLINE
  5
34C
100
AcDbEntity
  8
0
100
AcDbSpline
 62
7
  6
CONTINUOUS
 70
0
 71
3
 72
10
 73
6
 74
0
 42
0.0000001
 43
0.0000001
 44
0.0000000001
 40
0.0
 40
0.0
 40
0.0
 40
0.0
 40
0.496179288
 40
0.7473546099
 40
1.0
 40
1.0
 40
1.0
 40
1.0
 10
13.994048388
 20
12.7007897987
 30
0.0
 10
13.9895447624
 20
12.696258527
 30
0.0
 10
13.9821590012
 20
12.690017661
 30
0.0
 10
13.9715923612
 20
12.6826580843
 30
0.0
 10
13.9660815015
 20
12.6792288225
 30
0.0
 10
13.9632834995
 20
12.6775695629
 30
0.0
  0
SPLINE
  5
34D
100
AcDbEntity
  8
0
100
AcDbSpline
 62
7
  6
CONTINUOUS
 70
0
 71
3
 72
19
 73
15
 74
0
 42
0.0000001
 43
0.0000001
 44
0.0000000001
 40
0.0
 40
0.0
 40
0.0
 40
0.0
 40
0.0270575816
 40
0.061226586
 40
0.1027987805
 40
0.1515765964
 40
0.2070780935
 40
0.2686290703
 40
0.3354085527
 40
0.4064839195
 40
0.557379549
 40
0.7125858937
 40
0.8630271984
 40
1.0
 40
1.0
 40
1.0
 40
1.0
 10
13.8737508843
 20
12.7876810164
 30
0.0
 10
13.8743049156
 20
12.7878257584
 30
0.0
 10
13.8755013011
 20
12.7883625814
 30
0.0
 10
13.8772993656
 20
12.7895955223
 30
0.0
 10
13.8792870169
 20
12.791333339
 30
0.0
 10
13.8814341954
 20
12.793554101
 30
0.0
 10
13.8837104829
 20
12.7962277961
 30
0.0
 10
13.8860801807
 20
12.7993149829
 30
0.0
 10
13.8885067057
 20
12.802769022
 30
0.0
 10
13.8918337104
 20
12.8078961608
 30
0.0
 10
13.8958413056
 20
12.8148059674
 30
0.0
 10
13.9002008073
 20
12.8234343509
 30
0.0
 10
13.9039342069
 20
12.8320309956
 30
0.0
 10
13.9059926803
 20
12.837762053
 30
0.0
 10
13.9068485403
 20
12.840531617
 30
0.0
  0
SPLINE
  5
34E
100
AcDbEntity
  8
0
100
AcDbSpline
 62
7
  6
CONTINUOUS
 70
0
 71
3
 72
11
 73
7
 74
0
 42
0.0000001
 43
0.0000001
 44
0.0000000001
 40
0.0
 40
0.0
 40
0.0
 40
0.0
 40
0.1943001438
 40
0.4220553876
 40
0.6895690377
 40
1.0
 40
1.0
 40
1.0
 40
1.0
 10
13.9930436629
 20
12.8859707798
 30
0.0
 10
13.9922745956
 20
12.8860038198
 30
0.0
 10
13.9905914311
 20
12.8858150925
 30
0.0
 10
13.9879917264
 20
12.8849353666
 30
0.0
 10
13.9851501606
 20
12.8834611862
 30
0.0
 10
13.9832452954
 20
12.8821835097
 30
0.0
 10
13.9822516659
 20
12.8814587594
 30
0.0
  0
SPLINE
  5
34F
100
AcDbEntity
  8
0
100
AcDbSpline
 62
7
  6
CONTINUOUS
 70
0
 71
3
 72
29
 73
25
 74
0
 42
0.0000001
 43
0.0000001
 44
0.0000000001
 40
0.0
 40
0.0
 40
0.0
 40
0.0
 40
0.0214558549
 40
0.0432079549
 40
0.0655328871
 40
0.0886716227
 40
0.1128201128
 40
0.1381253183
 40
0.1646851159
 40
0.192552983
 40
0.2217416012
 40
0.2522279613
 40
0.3168234671
 40
0.3856623453
 40
0.4577278594
 40
0.5318037505
 40
0.6065583722
 40
0.6806231662
 40
0.752667656
 40
0.8214763121
 40
0.8860346402
 40
0.9165003337
 40
0.945666949
 40
1.0
 40
1.0
 40
1.0
 40
1.0
 10
13.8710957972
 20
12.6471988705
 30
0.0
 10
13.8704152264
 20
12.644996337
 30
0.0
 10
13.8687192254
 20
12.6406543277
 30
0.0
 10
13.8652366847
 20
12.6345094169
 30
0.0
 10
13.8608354739
 20
12.6287562312
 30
0.0
 10
13.8555519321
 20
12.6234355234
 30
0.0
 10
13.8494257045
 20
12.6185811823
 30
0.0
 10
13.8425007168
 20
12.6142241603
 30
0.0
 10
13.8348254378
 20
12.610390874
 30
0.0
 10
13.8264520723
 20
12.6071056494
 30
0.0
 10
13.8174370106
 20
12.6043890187
 30
0.0
 10
13.8043924246
 20
12.6014930344
 30
0.0
 10
13.7868433613
 20
12.5994727912
 30
0.0
 10
13.7647213037
 20
12.5995302248
 30
0.0
 10
13.7417174793
 20
12.6020197628
 30
0.0
 10
13.7184486742
 20
12.6068744763
 30
0.0
 10
13.6955365395
 20
12.6139643031
 30
0.0
 10
13.6735956775
 20
12.6230989453
 30
0.0
 10
13.6532125203
 20
12.6340345553
 30
0.0
 10
13.6349333225
 20
12.6464787612
 30
0.0
 10
13.6216030964
 20
12.6580540826
 30
0.0
 10
13.6124819144
 20
12.667809914
 30
0.0
 10
13.6048034497
 20
12.6773548087
 30
0.0
 10
13.6000140112
 20
12.6850150646
 30
0.0
 10
13.5974422505
 20
12.6902557619
 30
0.0
  0
SPLINE
  5
350
100
AcDbEntity
  8
0
100
AcDbSpline
 62
7
  6
CONTINUOUS
 70
0
 71
3
 72
13
 73
9
 74
0
 42
0.0000001
 43
0.0000001
 44
0.0000000001
 40
0.0
 40
0.0
 40
0.0
 40
0.0
 40
0.2714078112
 40
0.5251930288
 40
0.6469450451
 40
0.7661184609
 40
0.8835128954
 40
1.0
 40
1.0
 40
1.0
 40
1.0
 10
13.5974422505
 20
12.6902557619
 30
0.0
 10
13.5956734287
 20
12.6938602419
 30
0.0
 10
13.5927389284
 20
12.7010932613
 30
0.0
 10
13.5906855073
 20
12.7104996396
 30
0.0
 10
13.5901858946
 20
12.7178119875
 30
0.0
 10
13.5903602405
 20
12.7231197002
 30
0.0
 10
13.5910797908
 20
12.7283022928
 30
0.0
 10
13.5919227483
 20
12.7316661985
 30
0.0
 10
13.5924314938
 20
12.7333126533
 30
0.0
  0
SPLINE
  5
351
100
AcDbEntity
  8
0
100
AcDbSpline
 62
7
  6
CONTINUOUS
 70
0
 71
3
 72
21
 73
17
 74
0
 42
0.0000001
 43
0.0000001
 44
0.0000000001
 40
0.0
 40
0.0
 40
0.0
 40
0.0
 40
0.2049253893
 40
0.3880798274
 40
0.470728122
 40
0.5471007291
 40
0.6170187509
 40
0.6803931887
 40
0.7372254963
 40
0.78766062
 40
0.8320277808
 40
0.8709480163
 40
0.905442258
 40
0.9370642341
 40
0.9678529955
 40
1.0
 40
1.0
 40
1.0
 40
1.0
 10
13.9938875441
 20
12.8385433128
 30
0.0
 10
13.9949292549
 20
12.8419142902
 30
0.0
 10
13.9967648919
 20
12.8483418105
 30
0.0
 10
13.9985643558
 20
12.8562502856
 30
0.0
 10
13.9995556714
 20
12.8620590135
 30
0.0
 10
14.0000576144
 20
12.865969973
 30
0.0
 10
14.0003420429
 20
12.8695703162
 30
0.0
 10
14.0004083328
 20
12.8728453561
 30
0.0
 10
14.0002559234
 20
12.8757825189
 30
0.0
 10
13.9998856174
 20
12.8783713762
 30
0.0
 10
13.9992966194
 20
12.8806038763
 30
0.0
 10
13.9984872503
 20
12.8824740056
 30
0.0
 10
13.9974502716
 20
12.8839735375
 30
0.0
 10
13.9961780702
 20
12.8850842944
 30
0.0
 10
13.9946810039
 20
12.8857770138
 30
0.0
 10
13.9935966379
 20
12.8859470233
 30
0.0
 10
13.9930436629
 20
12.8859707798
 30
0.0
  0
SPLINE
  5
352
100
AcDbEntity
  8
0
100
AcDbSpline
 62
7
  6
CONTINUOUS
 70
0
 71
3
 72
15
 73
11
 74
0
 42
0.0000001
 43
0.0000001
 44
0.0000000001
 40
0.0
 40
0.0
 40
0.0
 40
0.0
 40
0.123568237
 40
0.2517050808
 40
0.3823513538
 40
0.5133973513
 40
0.6427253833
 40
0.7682522354
 40
0.8879719892
 40
1.0
 40
1.0
 40
1.0
 40
1.0
 10
13.9496843242
 20
12.7456599082
 30
0.0
 10
13.9519875395
 20
12.7492299267
 30
0.0
 10
13.9565448017
 20
12.7565893021
 30
0.0
 10
13.9630947536
 20
12.7679897117
 30
0.0
 10
13.9694066637
 20
12.7798159402
 30
0.0
 10
13.9753725644
 20
12.79186608
 30
0.0
 10
13.9808907476
 20
12.8039345071
 30
0.0
 10
13.9858674849
 20
12.815815287
 30
0.0
 10
13.9902184549
 20
12.8273053426
 30
0.0
 10
13.9927503295
 20
12.8348632852
 30
0.0
 10
13.9938875441
 20
12.8385433128
 30
0.0
  0
SPLINE
  5
353
100
AcDbEntity
  8
0
100
AcDbSpline
 62
7
  6
CONTINUOUS
 70
0
 71
3
 72
19
 73
15
 74
0
 42
0.0000001
 43
0.0000001
 44
0.0000000001
 40
0.0
 40
0.0
 40
0.0
 40
0.0
 40
0.0279538613
 40
0.0596400902
 40
0.0957647709
 40
0.1367495801
 40
0.1828220796
 40
0.2340592301
 40
0.2904463148
 40
0.3518892531
 40
0.4892999617
 40
0.6446489149
 40
0.8157426648
 40
1.0
 40
1.0
 40
1.0
 40
1.0
 10
13.9046372231
 20
12.7002039705
 30
0.0
 10
13.9052471234
 20
12.7001777685
 30
0.0
 10
13.9065568625
 20
12.7002830193
 30
0.0
 10
13.9085830129
 20
12.7008324725
 30
0.0
 10
13.910771688
 20
12.701772852
 30
0.0
 10
13.9131169407
 20
12.7030986527
 30
0.0
 10
13.9156122695
 20
12.7048050975
 30
0.0
 10
13.9182488117
 20
12.7068856118
 30
0.0
 10
13.921015912
 20
12.7093324197
 30
0.0
 10
13.9250153136
 20
12.713217327
 30
0.0
 10
13.9302288135
 20
12.7189411087
 30
0.0
 10
13.9365969406
 20
12.7268242772
 30
0.0
 10
13.9431811654
 20
12.7358306022
 30
0.0
 10
13.9475028996
 20
12.7422786672
 30
0.0
 10
13.9496843242
 20
12.7456599082
 30
0.0
  0
SPLINE
  5
354
100
AcDbEntity
  8
0
100
AcDbSpline
 62
7
  6
CONTINUOUS
 70
0
 71
3
 72
29
 73
25
 74
0
 42
0.0000001
 43
0.0000001
 44
0.0000000001
 40
0.0
 40
0.0
 40
0.0
 40
0.0
 40
0.0214558549
 40
0.0432079549
 40
0.0655328871
 40
0.0886716227
 40
0.1128201128
 40
0.1381253183
 40
0.1646851159
 40
0.192552983
 40
0.2217416012
 40
0.2522279613
 40
0.3168234671
 40
0.3856623453
 40
0.4577278594
 40
0.5318037505
 40
0.6065583722
 40
0.6806231662
 40
0.752667656
 40
0.8214763121
 40
0.8860346402
 40
0.9165003337
 40
0.945666949
 40
1.0
 40
1.0
 40
1.0
 40
1.0
 10
14.9736862811
 20
13.7597961995
 30
0.0
 10
14.9730057104
 20
13.7575936661
 30
0.0
 10
14.9713097094
 20
13.7532516568
 30
0.0
 10
14.9678271687
 20
13.7471067459
 30
0.0
 10
14.9634259579
 20
13.7413535602
 30
0.0
 10
14.9581424161
 20
13.7360328524
 30
0.0
 10
14.9520161885
 20
13.7311785114
 30
0.0
 10
14.9450912008
 20
13.7268214893
 30
0.0
 10
14.9374159218
 20
13.722988203
 30
0.0
 10
14.9290425563
 20
13.7197029784
 30
0.0
 10
14.9200274946
 20
13.7169863477
 30
0.0
 10
14.9069829086
 20
13.7140903635
 30
0.0
 10
14.8894338453
 20
13.7120701202
 30
0.0
 10
14.8673117877
 20
13.7121275539
 30
0.0
 10
14.8443079633
 20
13.7146170918
 30
0.0
 10
14.8210391582
 20
13.7194718054
 30
0.0
 10
14.7981270235
 20
13.7265616321
 30
0.0
 10
14.7761861614
 20
13.7356962743
 30
0.0
 10
14.7558030043
 20
13.7466318843
 30
0.0
 10
14.7375238065
 20
13.7590760903
 30
0.0
 10
14.7241935804
 20
13.7706514116
 30
0.0
 10
14.7150723984
 20
13.7804072431
 30
0.0
 10
14.7073939336
 20
13.7899521377
 30
0.0
 10
14.7026044952
 20
13.7976123937
 30
0.0
 10
14.7000327345
 20
13.8028530909
 30
0.0
  0
SPLINE
  5
355
100
AcDbEntity
  8
0
100
AcDbSpline
 62
7
  6
CONTINUOUS
 70
0
 71
3
 72
11
 73
7
 74
0
 42
0.0000001
 43
0.0000001
 44
0.0000000001
 40
0.0
 40
0.0
 40
0.0
 40
0.0
 40
0.2531021925
 40
0.4962371156
 40
0.7404212936
 40
1.0
 40
1.0
 40
1.0
 40
1.0
 10
13.8973483523
 20
12.6968011863
 30
0.0
 10
13.897359933
 20
12.6970277617
 30
0.0
 10
13.8974230401
 20
12.6974715931
 30
0.0
 10
13.8976535338
 20
12.6980991002
 30
0.0
 10
13.8980176806
 20
12.698667837
 30
0.0
 10
13.8983517895
 20
12.698979781
 30
0.0
 10
13.8985389147
 20
12.6991180651
 30
0.0
  0
SPLINE
  5
356
100
AcDbEntity
  8
0
100
AcDbSpline
 62
7
  6
CONTINUOUS
 70
0
 71
3
 72
12
 73
8
 74
0
 42
0.0000001
 43
0.0000001
 44
0.0000000001
 40
0.0
 40
0.0
 40
0.0
 40
0.0
 40
0.1796371431
 40
0.283543678
 40
0.3981166053
 40
0.6682867682
 40
1.0
 40
1.0
 40
1.0
 40
1.0
 10
13.8985389147
 20
12.6991180651
 30
0.0
 10
13.8988420168
 20
12.6993420551
 30
0.0
 10
13.8993832038
 20
12.6996103938
 30
0.0
 10
13.9001766591
 20
12.6998702444
 30
0.0
 10
13.9011762545
 20
12.7001054277
 30
0.0
 10
13.9026778721
 20
12.7002542373
 30
0.0
 10
13.9039419182
 20
12.7002338416
 30
0.0
 10
13.9046372231
 20
12.7002039705
 30
0.0
  0
SPLINE
  5
357
100
AcDbEntity
  8
0
100
AcDbSpline
 62
7
  6
CONTINUOUS
 70
0
 71
3
 72
14
 73
10
 74
0
 42
0.0000001
 43
0.0000001
 44
0.0000000001
 40
0.0
 40
0.0
 40
0.0
 40
0.0
 40
0.0871039897
 40
0.1865838779
 40
0.2982658129
 40
0.4200670346
 40
0.5519477659
 40
0.6935718023
 40
1.0
 40
1.0
 40
1.0
 40
1.0
 10
13.9046372231
 20
12.7002039705
 30
0.0
 10
13.905328093
 20
12.7001742899
 30
0.0
 10
13.9068063119
 20
12.7000657237
 30
0.0
 10
13.9091558955
 20
12.6997649967
 30
0.0
 10
13.9117628037
 20
12.6993250115
 30
0.0
 10
13.9146103396
 20
12.6987715841
 30
0.0
 10
13.9176762372
 20
12.6981001322
 30
0.0
 10
13.9221533378
 20
12.6970258673
 30
0.0
 10
13.9255950865
 20
12.6961258912
 30
0.0
 10
13.9279423405
 20
12.6954868335
 30
0.0
  0
SPLINE
  5
358
100
AcDbEntity
  8
0
100
AcDbSpline
 62
7
  6
CONTINUOUS
 70
0
 71
3
 72
16
 73
12
 74
0
 42
0.0000001
 43
0.0000001
 44
0.0000000001
 40
0.0
 40
0.0
 40
0.0
 40
0.0
 40
0.1238024254
 40
0.2478481594
 40
0.3721603246
 40
0.49681867
 40
0.621887788
 40
0.7473761499
 40
0.810311173
 40
0.8733997952
 40
1.0
 40
1.0
 40
1.0
 40
1.0
 10
13.9279423405
 20
12.6954868335
 30
0.0
 10
13.928544631
 20
12.6976707326
 30
0.0
 10
13.9298159262
 20
12.702025034
 30
0.0
 10
13.931913159
 20
12.708505022
 30
0.0
 10
13.9342120109
 20
12.7149334955
 30
0.0
 10
13.9367715728
 20
12.7212834605
 30
0.0
 10
13.9395876476
 20
12.7275469415
 30
0.0
 10
13.9421285266
 20
12.7326919892
 30
0.0
 10
13.9443091704
 20
12.7367454788
 30
0.0
 10
13.9466020662
 20
12.7407598947
 30
0.0
 10
13.9484284282
 20
12.7437132505
 30
0.0
 10
13.9496843242
 20
12.7456599082
 30
0.0
  0
SPLINE
  5
359
100
AcDbEntity
  8
0
100
AcDbSpline
 62
7
  6
CONTINUOUS
 70
0
 71
3
 72
19
 73
15
 74
0
 42
0.0000001
 43
0.0000001
 44
0.0000000001
 40
0.0
 40
0.0
 40
0.0
 40
0.0
 40
0.0319845015
 40
0.069241995
 40
0.1118616941
 40
0.1597394127
 40
0.2126468197
 40
0.2702688488
 40
0.3322242048
 40
0.3980785047
 40
0.5395093851
 40
0.6902879145
 40
0.8455587538
 40
1.0
 40
1.0
 40
1.0
 40
1.0
 10
14.0565220349
 20
12.8514366587
 30
0.0
 10
14.0569202267
 20
12.8500874458
 30
0.0
 10
14.0574967708
 20
12.8470816554
 30
0.0
 10
14.0577857431
 20
12.8421616028
 30
0.0
 10
14.0575589025
 20
12.8365396381
 30
0.0
 10
14.0568136658
 20
12.8302715965
 30
0.0
 10
14.0555527364
 20
12.8234155666
 30
0.0
 10
14.0537836519
 20
12.8160353548
 30
0.0
 10
14.0515199765
 20
12.8081974792
 30
0.0
 10
14.0477768039
 20
12.7969601286
 30
0.0
 10
14.0419832765
 20
12.7823024606
 30
0.0
 10
14.0336739455
 20
12.7644510103
 30
0.0
 10
14.0241761868
 20
12.7465534523
 30
0.0
 10
14.0172152953
 20
12.7348374472
 30
0.0
 10
14.0136054517
 20
12.729083396
 30
0.0
  0
SPLINE
  5
35A
100
AcDbEntity
  8
0
100
AcDbSpline
 62
7
  6
CONTINUOUS
 70
0
 71
3
 72
13
 73
9
 74
0
 42
0.0000001
 43
0.0000001
 44
0.0000000001
 40
0.0
 40
0.0
 40
0.0
 40
0.0
 40
0.2714078112
 40
0.5251930288
 40
0.6469450451
 40
0.7661184609
 40
0.8835128954
 40
1.0
 40
1.0
 40
1.0
 40
1.0
 10
16.8945901539
 20
12.6902557619
 30
0.0
 10
16.8928213321
 20
12.6938602419
 30
0.0
 10
16.8898868318
 20
12.7010932613
 30
0.0
 10
16.8878334108
 20
12.7104996396
 30
0.0
 10
16.887333798
 20
12.7178119875
 30
0.0
 10
16.8875081439
 20
12.7231197002
 30
0.0
 10
16.8882276942
 20
12.7283022928
 30
0.0
 10
16.8890706517
 20
12.7316661985
 30
0.0
 10
16.8895793972
 20
12.7333126533
 30
0.0
  0
SPLINE
  5
35B
100
AcDbEntity
  8
0
100
AcDbSpline
 62
7
  6
CONTINUOUS
 70
0
 71
3
 72
11
 73
7
 74
0
 42
0.0000001
 43
0.0000001
 44
0.0000000001
 40
0.0
 40
0.0
 40
0.0
 40
0.0
 40
0.2249199305
 40
0.4674747404
 40
0.7263025381
 40
1.0
 40
1.0
 40
1.0
 40
1.0
 10
16.5072804415
 20
12.9376114068
 30
0.0
 10
16.5078044099
 20
12.9378340544
 30
0.0
 10
16.5089138379
 20
12.9382481612
 30
0.0
 10
16.5106597514
 20
12.938824341
 30
0.0
 10
16.5125438468
 20
12.9393730864
 30
0.0
 10
16.5138519298
 20
12.939699703
 30
0.0
 10
16.514526576
 20
12.939857151
 30
0.0
  0
SPLINE
  5
35C
100
AcDbEntity
  8
0
100
AcDbSpline
 62
7
  6
CONTINUOUS
 70
0
 71
3
 72
9
 73
5
 74
0
 42
0.0000001
 43
0.0000001
 44
0.0000000001
 40
0.0
 40
0.0
 40
0.0
 40
0.0
 40
0.2448243543
 40
1.0
 40
1.0
 40
1.0
 40
1.0
 10
16.5469204743
 20
12.9462854655
 30
0.0
 10
16.5463900627
 20
12.9462854655
 30
0.0
 10
16.5442238101
 20
12.9462259077
 30
0.0
 10
16.542065268
 20
12.9459345557
 30
0.0
 10
16.5404638362
 20
12.9455995979
 30
0.0
  0
SPLINE
  5
35D
100
AcDbEntity
  8
0
100
AcDbSpline
 62
7
  6
CONTINUOUS
 70
0
 71
3
 72
15
 73
11
 74
0
 42
0.0000001
 43
0.0000001
 44
0.0000000001
 40
0.0
 40
0.0
 40
0.0
 40
0.0
 40
0.1413598997
 40
0.2789406036
 40
0.4121621253
 40
0.5405497575
 40
0.6637171759
 40
0.7813996362
 40
0.8934820983
 40
1.0
 40
1.0
 40
1.0
 40
1.0
 10
15.0260944269
 20
13.9807209734
 30
0.0
 10
15.03467612
 20
13.9757937517
 30
0.0
 10
15.0513497656
 20
13.9656077643
 30
0.0
 10
15.0750753118
 20
13.9491606653
 30
0.0
 10
15.0970375596
 20
13.9318515329
 30
0.0
 10
15.1170686026
 20
13.9138126238
 30
0.0
 10
15.135016015
 20
13.8951791124
 30
0.0
 10
15.1507440632
 20
13.87608988
 30
0.0
 10
15.1641298347
 20
13.8566897021
 30
0.0
 10
15.1716117101
 20
13.8433062352
 30
0.0
 10
15.1748966443
 20
13.836612243
 30
0.0
  0
SPLINE
  5
35E
100
AcDbEntity
  8
0
100
AcDbSpline
 62
7
  6
CONTINUOUS
 70
0
 71
3
 72
14
 73
10
 74
0
 42
0.0000001
 43
0.0000001
 44
0.0000000001
 40
0.0
 40
0.0
 40
0.0
 40
0.0
 40
0.1191429979
 40
0.2411798975
 40
0.3655304238
 40
0.4915944141
 40
0.6187352381
 40
0.7462992646
 40
1.0
 40
1.0
 40
1.0
 40
1.0
 10
16.9310335541
 20
12.9462854655
 30
0.0
 10
16.9408356216
 20
12.9462854655
 30
0.0
 10
16.9606819756
 20
12.9456914042
 30
0.0
 10
16.9906579413
 20
12.9431110251
 30
0.0
 10
17.0210167855
 20
12.9388484565
 30
0.0
 10
17.0515245996
 20
12.9329371224
 30
0.0
 10
17.0819509937
 20
12.9254210769
 30
0.0
 10
17.1220141177
 20
12.9133628829
 30
0.0
 10
17.1513571933
 20
12.9020780798
 30
0.0
 10
17.1704246936
 20
12.8935878203
 30
0.0
  0
SPLINE
  5
35F
100
AcDbEntity
  8
0
100
AcDbSpline
 62
7
  6
CONTINUOUS
 70
0
 71
3
 72
9
 73
5
 74
0
 42
0.0000001
 43
0.0000001
 44
0.0000000001
 40
0.0
 40
0.0
 40
0.0
 40
0.0
 40
0.5231765196
 40
1.0
 40
1.0
 40
1.0
 40
1.0
 10
15.3039654521
 20
13.5724798915
 30
0.0
 10
15.3037093278
 20
13.5733579628
 30
0.0
 10
15.3031618865
 20
13.5750202244
 30
0.0
 10
15.3024764993
 20
13.5766318328
 30
0.0
 10
15.302109252
 20
13.5773802042
 30
0.0
  0
SPLINE
  5
360
100
AcDbEntity
  8
0
100
AcDbSpline
 62
7
  6
CONTINUOUS
 70
0
 71
3
 72
14
 73
10
 74
0
 42
0.0000001
 43
0.0000001
 44
0.0000000001
 40
0.0
 40
0.0
 40
0.0
 40
0.0
 40
0.2155373415
 40
0.3320267054
 40
0.4544573409
 40
0.5827617641
 40
0.7167110753
 40
0.8559533143
 40
1.0
 40
1.0
 40
1.0
 40
1.0
 10
13.4428943492
 20
12.8935878203
 30
0.0
 10
13.4540689487
 20
12.9024260272
 30
0.0
 10
13.4730410941
 20
12.9139026451
 30
0.0
 10
13.5007115978
 20
12.9256397067
 30
0.0
 10
13.5238392221
 20
12.9331238234
 30
0.0
 10
13.5486046693
 20
12.9389924517
 30
0.0
 10
13.5748297245
 20
12.9432091065
 30
0.0
 10
13.6023118729
 20
12.9457409083
 30
0.0
 10
13.6210433176
 20
12.9462854655
 30
0.0
 10
13.6305649923
 20
12.9462854655
 30
0.0
  0
SPLINE
  5
361
100
AcDbEntity
  8
0
100
AcDbSpline
 62
7
  6
CONTINUOUS
 70
0
 71
3
 72
11
 73
7
 74
0
 42
0.0000001
 43
0.0000001
 44
0.0000000001
 40
0.0
 40
0.0
 40
0.0
 40
0.0
 40
0.2502602712
 40
0.5008383624
 40
0.7509836209
 40
1.0
 40
1.0
 40
1.0
 40
1.0
 10
14.6272315963
 20
13.5387416897
 30
0.0
 10
14.6278933785
 20
13.5394171986
 30
0.0
 10
14.629198116
 20
13.5407887135
 30
0.0
 10
14.631070346
 20
13.5429222202
 30
0.0
 10
14.6328580041
 20
13.5451207271
 30
0.0
 10
14.6340002736
 20
13.5466221628
 30
0.0
 10
14.6345577505
 20
13.5473801998
 30
0.0
  0
SPLINE
  5
362
100
AcDbEntity
  8
0
100
AcDbSpline
 62
7
  6
CONTINUOUS
 70
0
 71
3
 72
15
 73
11
 74
0
 42
0.0000001
 43
0.0000001
 44
0.0000000001
 40
0.0
 40
0.0
 40
0.0
 40
0.0
 40
0.1795149639
 40
0.3386213558
 40
0.4782656179
 40
0.6003081164
 40
0.707890264
 40
0.805900094
 40
0.9008896398
 40
1.0
 40
1.0
 40
1.0
 40
1.0
 10
13.8973049682
 20
12.7139045344
 30
0.0
 10
13.8973071966
 20
12.7128756624
 30
0.0
 10
13.8973761819
 20
12.7109337923
 30
0.0
 10
13.8977159757
 20
12.708209357
 30
0.0
 10
13.8982863611
 20
12.7058591451
 30
0.0
 10
13.89908906
 20
12.7038898719
 30
0.0
 10
13.9001317005
 20
12.7023096564
 30
0.0
 10
13.9014238904
 20
12.7011374677
 30
0.0
 10
13.9029560757
 20
12.7004063764
 30
0.0
 10
13.9040697042
 20
12.7002283518
 30
0.0
 10
13.9046372231
 20
12.7002039705
 30
0.0
  0
SPLINE
  5
363
100
AcDbEntity
  8
0
100
AcDbSpline
 62
7
  6
CONTINUOUS
 70
0
 71
3
 72
11
 73
7
 74
0
 42
0.0000001
 43
0.0000001
 44
0.0000000001
 40
0.0
 40
0.0
 40
0.0
 40
0.0
 40
0.2467034626
 40
0.4947581469
 40
0.745477483
 40
1.0
 40
1.0
 40
1.0
 40
1.0
 10
14.5005360264
 20
13.9427167539
 30
0.0
 10
14.5015804853
 20
13.946096832
 30
0.0
 10
14.5039827002
 20
13.9527847142
 30
0.0
 10
14.50848943
 20
13.9624936327
 30
0.0
 10
14.5138911344
 20
13.9718638498
 30
0.0
 10
14.5180407652
 20
13.9778153887
 30
0.0
 10
14.5202496854
 20
13.9807209734
 30
0.0
  0
SPLINE
  5
364
100
AcDbEntity
  8
0
100
AcDbSpline
 62
7
  6
CONTINUOUS
 70
0
 71
3
 72
13
 73
9
 74
0
 42
0.0000001
 43
0.0000001
 44
0.0000000001
 40
0.0
 40
0.0
 40
0.0
 40
0.0
 40
0.2714078112
 40
0.5251930288
 40
0.6469450451
 40
0.7661184609
 40
0.8835128954
 40
1.0
 40
1.0
 40
1.0
 40
1.0
 10
14.7000327345
 20
13.8028530909
 30
0.0
 10
14.6982639126
 20
13.8064575709
 30
0.0
 10
14.6953294123
 20
13.8136905903
 30
0.0
 10
14.6932759913
 20
13.8230969686
 30
0.0
 10
14.6927763786
 20
13.8304093165
 30
0.0
 10
14.6929507245
 20
13.8357170293
 30
0.0
 10
14.6936702748
 20
13.8408996218
 30
0.0
 10
14.6945132322
 20
13.8442635275
 30
0.0
 10
14.6950219778
 20
13.8459099824
 30
0.0
  0
LINE
  5
365
100
AcDbEntity
  8
0
100
AcDbLine
 62
7
  6
CONTINUOUS
 10
15.3215730092
 20
13.5387416897
 11
15.3162096472
 21
13.5473801998
  0
SPLINE
  5
366
100
AcDbEntity
  8
0
100
AcDbSpline
 62
7
  6
CONTINUOUS
 70
0
 71
3
 72
13
 73
9
 74
0
 42
0.0000001
 43
0.0000001
 44
0.0000000001
 40
0.0
 40
0.0
 40
0.0
 40
0.0
 40
0.2505531306
 40
0.5083807004
 40
0.6374726063
 40
0.7642150468
 40
0.8862248917
 40
1.0
 40
1.0
 40
1.0
 40
1.0
 10
15.3162096472
 20
13.5473801998
 30
0.0
 10
15.3149558556
 20
13.5493545915
 30
0.0
 10
15.3124904893
 20
13.5534122683
 30
0.0
 10
15.309700244
 20
13.5586720457
 30
0.0
 10
15.3076176659
 20
13.5629915257
 30
0.0
 10
15.3061863606
 20
13.566216046
 30
0.0
 10
15.3049486655
 20
13.5693671613
 30
0.0
 10
15.3042628509
 20
13.5714603187
 30
0.0
 10
15.3039654521
 20
13.5724798915
 30
0.0
  0
SPLINE
  5
367
100
AcDbEntity
  8
0
100
AcDbSpline
 62
7
  6
CONTINUOUS
 70
0
 71
3
 72
16
 73
12
 74
0
 42
0.0000001
 43
0.0000001
 44
0.0000000001
 40
0.0
 40
0.0
 40
0.0
 40
0.0
 40
0.1230703299
 40
0.1848295602
 40
0.2467482171
 40
0.3710409843
 40
0.4958548054
 40
0.6211816449
 40
0.7470365745
 40
0.8733270003
 40
1.0
 40
1.0
 40
1.0
 40
1.0
 10
13.9496843242
 20
12.7456599082
 30
0.0
 10
13.9509455893
 20
12.7476148881
 30
0.0
 10
13.9528969702
 20
12.750514875
 30
0.0
 10
13.9556320963
 20
12.7542938194
 30
0.0
 10
13.958473507
 20
12.758022717
 30
0.0
 10
13.9621928915
 20
12.7625785351
 30
0.0
 10
13.9668554875
 20
12.7679059413
 30
0.0
 10
13.971731429
 20
12.7730800617
 30
0.0
 10
13.9768126515
 20
12.7780918368
 30
0.0
 10
13.98204867
 20
12.782978293
 30
0.0
 10
13.985629001
 20
12.7861493178
 30
0.0
 10
13.9874425545
 20
12.7877130617
 30
0.0
  0
SPLINE
  5
368
100
AcDbEntity
  8
0
100
AcDbSpline
 62
7
  6
CONTINUOUS
 70
0
 71
3
 72
16
 73
12
 74
0
 42
0.0000001
 43
0.0000001
 44
0.0000000001
 40
0.0
 40
0.0
 40
0.0
 40
0.0
 40
0.1283906398
 40
0.2559645774
 40
0.3826429809
 40
0.5082554889
 40
0.6328261956
 40
0.7563766972
 40
0.8177170823
 40
0.8787525651
 40
1.0
 40
1.0
 40
1.0
 40
1.0
 10
13.9874425545
 20
12.7877130617
 30
0.0
 10
13.9874226953
 20
12.7899145535
 30
0.0
 10
13.987443851
 20
12.7943043236
 30
0.0
 10
13.9876547205
 20
12.8008630558
 30
0.0
 10
13.9880537381
 20
12.8073658325
 30
0.0
 10
13.9886999915
 20
12.8137975109
 30
0.0
 10
13.9895924193
 20
12.8201450655
 30
0.0
 10
13.9905258432
 20
12.8253705931
 30
0.0
 10
13.9914192417
 20
12.8294923993
 30
0.0
 10
13.9924146135
 20
12.8335500249
 30
0.0
 10
13.9932736973
 20
12.836556904
 30
0.0
 10
13.9938875441
 20
12.8385433128
 30
0.0
  0
SPLINE
  5
369
100
AcDbEntity
  8
0
100
AcDbSpline
 62
7
  6
CONTINUOUS
 70
0
 71
3
 72
14
 73
10
 74
0
 42
0.0000001
 43
0.0000001
 44
0.0000000001
 40
0.0
 40
0.0
 40
0.0
 40
0.0
 40
0.3349072497
 40
0.4828436545
 40
0.616437097
 40
0.7350450277
 40
0.8383140228
 40
0.9263418641
 40
1.0
 40
1.0
 40
1.0
 40
1.0
 10
13.9068485403
 20
12.840531617
 30
0.0
 10
13.907397449
 20
12.8423078863
 30
0.0
 10
13.9081158045
 20
12.8448937161
 30
0.0
 10
13.9088137538
 20
12.8482448453
 30
0.0
 10
13.9091544859
 20
12.8504410732
 30
0.0
 10
13.9093325192
 20
12.8524079068
 30
0.0
 10
13.9093469928
 20
12.8541309611
 30
0.0
 10
13.9091980005
 20
12.8555974046
 30
0.0
 10
13.9089699751
 20
12.8564723501
 30
0.0
 10
13.9088194868
 20
12.8568525438
 30
0.0
  0
SPLINE
  5
36A
100
AcDbEntity
  8
0
100
AcDbSpline
 62
7
  6
CONTINUOUS
 70
0
 71
3
 72
16
 73
12
 74
0
 42
0.0000001
 43
0.0000001
 44
0.0000000001
 40
0.0
 40
0.0
 40
0.0
 40
0.0
 40
0.1276048717
 40
0.1910283457
 40
0.2541889947
 40
0.3798651802
 40
0.5048689326
 40
0.6292607095
 40
0.7531633277
 40
0.8767220794
 40
1.0
 40
1.0
 40
1.0
 40
1.0
 10
13.9938875441
 20
12.8385433128
 30
0.0
 10
13.9944966263
 20
12.8405143036
 30
0.0
 10
13.9954715948
 20
12.8434462927
 30
0.0
 10
13.9969195483
 20
12.8472926143
 30
0.0
 10
13.998464418
 20
12.8510674758
 30
0.0
 10
14.0005694171
 20
12.8556861414
 30
0.0
 10
14.0033089335
 20
12.8610975454
 30
0.0
 10
14.0062737394
 20
12.8663566654
 30
0.0
 10
14.0094609147
 20
12.8714558362
 30
0.0
 10
14.0128129337
 20
12.8764256986
 30
0.0
 10
14.0151529592
 20
12.8796592551
 30
0.0
 10
14.0163487804
 20
12.8812536428
 30
0.0
  0
SPLINE
  5
36B
100
AcDbEntity
  8
0
100
AcDbSpline
 62
7
  6
CONTINUOUS
 70
0
 71
3
 72
15
 73
11
 74
0
 42
0.0000001
 43
0.0000001
 44
0.0000000001
 40
0.0
 40
0.0
 40
0.0
 40
0.0
 40
0.1780641037
 40
0.3411490367
 40
0.4887476985
 40
0.6206069437
 40
0.7367614623
 40
0.8377460128
 40
0.9247515059
 40
1.0
 40
1.0
 40
1.0
 40
1.0
 10
13.9460059158
 20
12.8568072194
 30
0.0
 10
13.9467961477
 20
12.857674991
 30
0.0
 10
13.9483412235
 20
12.859309724
 30
0.0
 10
13.9506587254
 20
12.861549196
 30
0.0
 10
13.952865242
 20
12.8634596684
 30
0.0
 10
13.9549487075
 20
12.865031785
 30
0.0
 10
13.9568992057
 20
12.8662577407
 30
0.0
 10
13.9587094539
 20
12.8671321805
 30
0.0
 10
13.9603734249
 20
12.8676495852
 30
0.0
 10
13.9614495777
 20
12.867756189
 30
0.0
 10
13.961945103
 20
12.8677349007
 30
0.0
  0
SPLINE
  5
36C
100
AcDbEntity
  8
0
100
AcDbSpline
 62
7
  6
CONTINUOUS
 70
0
 71
3
 72
29
 73
25
 74
0
 42
0.0000001
 43
0.0000001
 44
0.0000000001
 40
0.0
 40
0.0
 40
0.0
 40
0.0
 40
0.0214558549
 40
0.0432079549
 40
0.0655328871
 40
0.0886716227
 40
0.1128201128
 40
0.1381253183
 40
0.1646851159
 40
0.192552983
 40
0.2217416012
 40
0.2522279613
 40
0.3168234671
 40
0.3856623453
 40
0.4577278594
 40
0.5318037505
 40
0.6065583722
 40
0.6806231662
 40
0.752667656
 40
0.8214763121
 40
0.8860346402
 40
0.9165003337
 40
0.945666949
 40
1.0
 40
1.0
 40
1.0
 40
1.0
 10
17.1682437006
 20
12.6471988705
 30
0.0
 10
17.1675631298
 20
12.644996337
 30
0.0
 10
17.1658671288
 20
12.6406543277
 30
0.0
 10
17.1623845881
 20
12.6345094169
 30
0.0
 10
17.1579833773
 20
12.6287562312
 30
0.0
 10
17.1526998355
 20
12.6234355234
 30
0.0
 10
17.1465736079
 20
12.6185811823
 30
0.0
 10
17.1396486202
 20
12.6142241603
 30
0.0
 10
17.1319733412
 20
12.610390874
 30
0.0
 10
17.1235999757
 20
12.6071056494
 30
0.0
 10
17.114584914
 20
12.6043890187
 30
0.0
 10
17.101540328
 20
12.6014930344
 30
0.0
 10
17.0839912647
 20
12.5994727912
 30
0.0
 10
17.0618692071
 20
12.5995302248
 30
0.0
 10
17.0388653827
 20
12.6020197628
 30
0.0
 10
17.0155965776
 20
12.6068744763
 30
0.0
 10
16.9926844429
 20
12.6139643031
 30
0.0
 10
16.9707435809
 20
12.6230989453
 30
0.0
 10
16.9503604237
 20
12.6340345553
 30
0.0
 10
16.9320812259
 20
12.6464787612
 30
0.0
 10
16.9187509998
 20
12.6580540826
 30
0.0
 10
16.9096298178
 20
12.667809914
 30
0.0
 10
16.9019513531
 20
12.6773548087
 30
0.0
 10
16.8971619146
 20
12.6850150646
 30
0.0
 10
16.8945901539
 20
12.6902557619
 30
0.0
  0
SPLINE
  5
36D
100
AcDbEntity
  8
0
100
AcDbSpline
 62
7
  6
CONTINUOUS
 70
0
 71
3
 72
19
 73
15
 74
0
 42
0.0000001
 43
0.0000001
 44
0.0000000001
 40
0.0
 40
0.0
 40
0.0
 40
0.0
 40
0.0383816535
 40
0.07508484
 40
0.111694185
 40
0.1498191309
 40
0.1908859444
 40
0.2360188005
 40
0.2860337688
 40
0.3414754565
 40
0.4698482029
 40
0.6225717132
 40
0.7995906191
 40
1.0
 40
1.0
 40
1.0
 40
1.0
 10
13.899611381
 20
12.7367542089
 30
0.0
 10
13.8993015536
 20
12.7367675194
 30
0.0
 10
13.8986955603
 20
12.7368481588
 30
0.0
 10
13.8978393896
 20
12.737154972
 30
0.0
 10
13.8970739421
 20
12.7376430798
 30
0.0
 10
13.896406019
 20
12.7383074139
 30
0.0
 10
13.8958364729
 20
12.7391408961
 30
0.0
 10
13.8953642364
 20
12.7401390873
 30
0.0
 10
13.8949881519
 20
12.7412990594
 30
0.0
 10
13.8945951767
 20
12.7431497735
 30
0.0
 10
13.8943828012
 20
12.7458711378
 30
0.0
 10
13.8945145593
 20
12.7495748889
 30
0.0
 10
13.895023673
 20
12.7538319883
 30
0.0
 10
13.8955789172
 20
12.7568323769
 30
0.0
 10
13.8959120761
 20
12.7584169854
 30
0.0
  0
SPLINE
  5
36E
100
AcDbEntity
  8
0
100
AcDbSpline
 62
7
  6
CONTINUOUS
 70
0
 71
3
 72
17
 73
13
 74
0
 42
0.0000001
 43
0.0000001
 44
0.0000000001
 40
0.0
 40
0.0
 40
0.0
 40
0.0
 40
0.1843026406
 40
0.3554578996
 40
0.5108448866
 40
0.6482972815
 40
0.7661283122
 40
0.8173818992
 40
0.8634654985
 40
0.9044632312
 40
0.9406010811
 40
1.0
 40
1.0
 40
1.0
 40
1.0
 10
13.9313732468
 20
12.7688043377
 30
0.0
 10
13.929835233
 20
12.7664203931
 30
0.0
 10
13.926787996
 20
12.7618738977
 30
0.0
 10
13.9221456683
 20
12.7555239478
 30
0.0
 10
13.9176554979
 20
12.7499648693
 30
0.0
 10
13.9133947467
 20
12.74528951
 30
0.0
 10
13.90995107
 20
12.7420520178
 30
0.0
 10
13.9073496491
 20
12.7399982748
 30
0.0
 10
13.9055907601
 20
12.7387954026
 30
0.0
 10
13.9039352326
 20
12.7378598908
 30
0.0
 10
13.9020066981
 20
12.7370306173
 30
0.0
 10
13.9005248817
 20
12.7367149639
 30
0.0
 10
13.899611381
 20
12.7367542089
 30
0.0
  0
SPLINE
  5
36F
100
AcDbEntity
  8
0
100
AcDbSpline
 62
7
  6
CONTINUOUS
 70
0
 71
3
 72
15
 73
11
 74
0
 42
0.0000001
 43
0.0000001
 44
0.0000000001
 40
0.0
 40
0.0
 40
0.0
 40
0.0
 40
0.1120236856
 40
0.231750651
 40
0.3572740182
 40
0.4866027573
 40
0.6176496464
 40
0.7482918752
 40
0.8764366828
 40
1.0
 40
1.0
 40
1.0
 40
1.0
 10
13.9625401078
 20
12.8342946836
 30
0.0
 10
13.9617383102
 20
12.8317000655
 30
0.0
 10
13.9599530781
 20
12.8263710475
 30
0.0
 10
13.9568853557
 20
12.8182696158
 30
0.0
 10
13.9533762346
 20
12.8098926339
 30
0.0
 10
13.9494855376
 20
12.8013834313
 30
0.0
 10
13.9452790701
 20
12.7928871818
 30
0.0
 10
13.9408286758
 20
12.7845485905
 30
0.0
 10
13.9362103868
 20
12.776510427
 30
0.0
 10
13.932997136
 20
12.7713213904
 30
0.0
 10
13.9313732468
 20
12.7688043377
 30
0.0
  0
SPLINE
  5
370
100
AcDbEntity
  8
0
100
AcDbSpline
 62
7
  6
CONTINUOUS
 70
0
 71
3
 72
20
 73
16
 74
0
 42
0.0000001
 43
0.0000001
 44
0.0000000001
 40
0.0
 40
0.0
 40
0.0
 40
0.0
 40
0.0321435273
 40
0.0629348625
 40
0.0945609958
 40
0.129057319
 40
0.1679770639
 40
0.2123477746
 40
0.2627817201
 40
0.3196186993
 40
0.3829932177
 40
0.4529182693
 40
0.6119022245
 40
0.7950765151
 40
1.0
 40
1.0
 40
1.0
 40
1.0
 10
13.961945103
 20
12.8677349007
 30
0.0
 10
13.962334939
 20
12.8677181529
 30
0.0
 10
13.9630994524
 20
12.8675981979
 30
0.0
 10
13.9641550049
 20
12.8671098269
 30
0.0
 10
13.965052165
 20
12.8663267136
 30
0.0
 10
13.9657832662
 20
12.8652693501
 30
0.0
 10
13.9663539988
 20
12.8639507715
 30
0.0
 10
13.9667690702
 20
12.862376658
 30
0.0
 10
13.9670304439
 20
12.8605513287
 30
0.0
 10
13.9671376669
 20
12.8584804059
 30
0.0
 10
13.9670912038
 20
12.8561711631
 30
0.0
 10
13.9668108441
 20
12.8526325591
 30
0.0
 10
13.9660421662
 20
12.8476828753
 30
0.0
 10
13.9645692302
 20
12.8412036506
 30
0.0
 10
13.9632745652
 20
12.8366713886
 30
0.0
 10
13.9625401078
 20
12.8342946836
 30
0.0
  0
ELLIPSE
  5
371
100
AcDbEntity
  8
0
100
AcDbEllipse
 62
7
  6
CONTINUOUS
 10
6.0708720839
 20
12.3556332944
 30
0.0
 11
1.3778095763
 21
0.6537677062
 31
0.0
 40
0.3419987131
 41
2.148675031
 42
2.171819153
  0
ELLIPSE
  5
372
100
AcDbEntity
  8
0
100
AcDbEllipse
 62
7
  6
CONTINUOUS
 10
6.0708720839
 20
12.5944622683
 30
0.0
 11
1.3778095763
 21
-0.6537677062
 31
0.0
 40
0.3419987131
 41
-2.171819153
 42
-2.148675031
  0
ELLIPSE
  5
373
100
AcDbEntity
  8
0
100
AcDbEllipse
 62
7
  6
CONTINUOUS
 10
15.185010774
 20
12.0581779305
 30
0.0
 11
1.2767857903
 21
-0.5953839379
 31
0.0
 40
0.1168359196
 41
2.8906880741
 42
2.913832196
  0
ELLIPSE
  5
374
100
AcDbEntity
  8
0
100
AcDbEllipse
 62
7
  6
CONTINUOUS
 10
15.185010774
 20
12.0581779305
 30
0.0
 11
1.2370254775
 21
0.8721025679
 31
0.0
 40
0.8726840024
 41
-4.3256782094
 42
-4.3025340874
  0
ENDSEC
  0
SECTION
  2
OBJECTS
  0
DICTIONARY
  5
C
100
AcDbDictionary
280
0
281
1
  3
ACAD_GROUP
350
D
  3
ACAD_MLINESTYLE
350
17
  3
ACAD_LAYOUT
350
1A
  3
ACAD_PLOTSETTINGS
350
19
  3
ACAD_PLOTSTYLENAME
350
E
  0
DICTIONARY
  5
D
102
{ACAD_REACTORS
330
C
102
}
100
AcDbDictionary
280
0
281
1
  0
ACDBDICTIONARYWDFLT
  5
E
102
{ACAD_REACTORS
330
C
102
}
100
AcDbDictionary
281
1
  3
Normal
350
F
100
AcDbDictionaryWithDefault
340
F
  0
DICTIONARY
  5
17
102
{ACAD_REACTORS
330
C
102
}
100
AcDbDictionary
280
0
281
1
  3
Standard
350
18
  0
DICTIONARY
  5
19
102
{ACAD_REACTORS
330
C
102
}
100
AcDbDictionary
281
1
  0
DICTIONARY
  5
1A
102
{ACAD_REACTORS
330
C
102
}
100
AcDbDictionary
281
1
  3
Model
350
375
  3
Layout1
350
376
  0
ACDBPLACEHOLDER
  5
F
102
{ACAD_REACTORS
330
E
102
}
  0
MLINESTYLE
  5
18
102
{ACAD_REACTORS
330
17
102
}
100
AcDbMlineStyle
  2
STANDARD
 70
0
  3

 62
256
 51
90.0
 52
90.0
 71
2
 49
0.5
 62
256
  6
BYLAYER
 49
-0.5
 62
256
  6
BYLAYER
  0
LAYOUT
  5
375
102
{ACAD_REACTORS
330
1A
102
}
100
AcDbPlotSettings
  1

  2
none_device
  4
ANSI_C_(22.00_x_17.00_Inches)
  6

 40
0.0
 41
0.0
 42
0.0
 43
0.0
 44
558.8
 45
431.8
 46
0.0
 47
0.0
 48
0.0
 49
0.0
140
0.0
141
0.0
142
1.0
143
1.0
 70
1024
 72
0
 73
0
 74
0
  7

 75
0
147
1.0
148
0.0
149
0.0
100
AcDbLayout
  1
Model
 70
0
 71
0
 10
0.0
 20
0.0
 11
22.0
 21
17.0
 12
0.0
 22
0.0
 32
0.0
 14
0.0
 24
0.0
 34
0.0
 15
0.0
 25
0.0
 35
0.0
146
0.0
 13
0.0
 23
0.0
 33
0.0
 16
1.0
 26
0.0
 36
0.0
 17
0.0
 27
1.0
 37
0.0
 76
0
330
219
345
0
346
0
  0
LAYOUT
  5
376
102
{ACAD_REACTORS
330
1A
102
}
100
AcDbPlotSettings
  1

  2
none_device
  4
ANSI_C_(22.00_x_17.00_Inches)
  6

 40
0.0
 41
0.0
 42
0.0
 43
0.0
 44
558.8
 45
431.8
 46
0.0
 47
0.0
 48
0.0
 49
0.0
140
0.0
141
0.0
142
1.0
143
1.0
 70
0
 72
0
 73
0
 74
0
  7

 75
0
147
1.0
148
0.0
149
0.0
100
AcDbLayout
  1
Layout1
 70
0
 71
1
 10
0.0
 20
0.0
 11
22.0
 21
17.0
 12
0.0
 22
0.0
 32
0.0
 14
0.0
 24
0.0
 34
0.0
 15
0.0
 25
0.0
 35
0.0
146
0.0
 13
0.0
 23
0.0
 33
0.0
 16
1.0
 26
0.0
 36
0.0
 17
0.0
 27
1.0
 37
0.0
 76
0
330
21A
345
0
346
0
  0
ENDSEC
  0
EOF