999
DXF file: _cgs_temp_output.dxf
999
Pro/ENGINEER 2016360 by Parametric Technology Corporation
  0
SECTION
  2
HEADER
  9
$ACADVER
  1
AC1021
  9
$DWGCODEPAGE
  3
ANSI_1252
  9
$EXTMAX
 10
22.0
 20
17.0
 30
0.0
  9
$EXTMIN
 10
0.0
 20
0.0
 30
0.0
  9
$LIMMIN
 10
0.0
 20
0.0
  9
$LIMMAX
 10
22.0
 20
17.0
  9
$VIEWCTR
 10
11.0
 20
8.5
  9
$VIEWSIZE
 40
17.0
  9
$CLAYER
  8
0
  9
$LTSCALE
 40
1.21
  9
$CELTYPE
  6
BYLAYER
  9
$DIMSCALE
 40
1.0
  9
$DIMASZ
 40
0.1875
  9
$DIMEXO
 40
0.0625
  9
$DIMDLI
 40
0.836
  9
$DIMEXE
 40
0.125
  9
$DIMCEN
 40
0.198
  9
$DIMLFAC
 40
1.0
  9
$DIMBLK
  1
_CLOSED
  9
$DIMALT
 70
0
  9
$DIMALTF
 40
25.4
  9
$DIMTXT
 40
0.15625
  9
$DIMTOL
 70
0
  9
$DIMLIM
 70
0
  9
$DIMTFAC
 40
1.0
  9
$DIMGAP
 40
0.09
  9
$DIMDSEP
 70
46
  9
$AUNITS
 70
0
  9
$PDMODE
 70
3
  9
$PDSIZE
 40
0.3125
  9
$HANDSEED
  5
474
  9
$TILEMODE
 70
1
  9
$MEASUREMENT
 70
0
  9
$INSUNITS
 70
1
  0
ENDSEC
  0
SECTION
  2
CLASSES
  0
CLASS
  1
ACDBDICTIONARYWDFLT
  2
AcDbDictionaryWithDefault
  3
AutoCAD 2000
 90
0
 91
1
280
0
281
0
  0
CLASS
  1
ACDBPLACEHOLDER
  2
AcDbPlaceHolder
  3
AutoCAD 2000
 90
0
 91
1
280
0
281
0
  0
CLASS
  1
LAYOUT
  2
AcDbLayout
  3
AutoCAD 2000
 90
0
 91
0
280
0
281
0
  0
ENDSEC
  0
SECTION
  2
TABLES
  0
TABLE
  2
VPORT
  5
8
100
AcDbSymbolTable
 70
2
  0
VPORT
  5
1F4
100
AcDbSymbolTableRecord
100
AcDbViewportTableRecord
  2
*ACTIVE
 70
0
 10
0.0
 20
0.0
 11
1.0
 21
1.0
 12
11.0
 22
8.5
 13
0.0
 23
0.0
 14
1.0
 24
1.0
 15
0.0
 25
0.0
 16
0.0
 26
0.0
 36
1.0
 17
0.0
 27
0.0
 37
0.0
 40
17.0
 41
1.2941176471
 42
50.0
 43
0.0
 44
0.0
 50
0.0
 51
0.0
 71
0
 72
100
 73
1
 74
1
 75
0
 76
0
 77
0
 78
0
  0
ENDTAB
  0
TABLE
  2
LTYPE
  5
5
100
AcDbSymbolTable
 70
6
  0
LTYPE
  5
14
100
AcDbSymbolTableRecord
100
AcDbLinetypeTableRecord
  2
BYBLOCK
 70
0
  3

 72
65
 73
0
 40
0.0
  0
LTYPE
  5
15
100
AcDbSymbolTableRecord
100
AcDbLinetypeTableRecord
  2
BYLAYER
 70
0
  3

 72
65
 73
0
 40
0.0
  0
LTYPE
  5
16
100
AcDbSymbolTableRecord
100
AcDbLinetypeTableRecord
  2
CONTINUOUS
 70
64
  3
Solid line
 72
65
 73
0
 40
0.0
  0
LTYPE
  5
1F5
100
AcDbSymbolTableRecord
100
AcDbLinetypeTableRecord
  2
CENTER
 70
64
  3
____ _ ____ _ ____ _ ____ _ ____ _ ____ _ ____
 72
65
 73
4
 40
0.6
 49
0.375
 74
0
 49
-0.075
 74
0
 49
0.075
 74
0
 49
-0.075
 74
0
  0
LTYPE
  5
1F6
100
AcDbSymbolTableRecord
100
AcDbLinetypeTableRecord
  2
HIDDEN
 70
64
  3
- - - - - - - - - - - - - - - - - - - -
 72
65
 73
2
 40
0.2
 49
0.1
 74
0
 49
-0.1
 74
0
  0
LTYPE
  5
1F7
100
AcDbSymbolTableRecord
100
AcDbLinetypeTableRecord
  2
PHANTOM
 70
64
  3
_____ _ _ _____ _ _ _____ _ _ _____
 72
65
 73
6
 40
0.8
 49
0.45
 74
0
 49
-0.05
 74
0
 49
0.1
 74
0
 49
-0.05
 74
0
 49
0.1
 74
0
 49
-0.05
 74
0
  0
LTYPE
  5
1F8
100
AcDbSymbolTableRecord
100
AcDbLinetypeTableRecord
  2
DOT
 70
64
  3
. . . . . . . . . . . . . . . . . . . .
 72
65
 73
2
 40
0.2
 49
0.1
 74
0
 49
-0.1
 74
0
  0
LTYPE
  5
1F9
100
AcDbSymbolTableRecord
100
AcDbLinetypeTableRecord
  2
DASHED
 70
64
  3
- - - - - - - - - - - - - - - - - - - -
 72
65
 73
2
 40
0.2
 49
0.1
 74
0
 49
-0.1
 74
0
  0
ENDTAB
  0
TABLE
  2
LAYER
  5
2
100
AcDbSymbolTable
 70
36
  0
LAYER
  5
10
100
AcDbSymbolTableRecord
100
AcDbLayerTableRecord
  2
0
 70
0
 62
7
  6
CONTINUOUS
370
-3
390
F
  0
LAYER
  5
1FA
100
AcDbSymbolTableRecord
100
AcDbLayerTableRecord
  2
DEFAULT_1
 70
0
 62
7
  6
CENTER
370
-3
390
F
  0
LAYER
  5
1FB
100
AcDbSymbolTableRecord
100
AcDbLayerTableRecord
  2
DEFAULT_2
 70
0
 62
8
  6
HIDDEN
370
-3
390
F
  0
LAYER
  5
1FC
100
AcDbSymbolTableRecord
100
AcDbLayerTableRecord
  2
DEFAULT_3
 70
0
 62
7
  6
PHANTOM
370
-3
390
F
  0
LAYER
  5
1FD
100
AcDbSymbolTableRecord
100
AcDbLayerTableRecord
  2
01_ALL_DTM_PLN
 70
0
 62
7
  6
CONTINUOUS
370
-3
390
F
  0
LAYER
  5
1FE
100
AcDbSymbolTableRecord
100
AcDbLayerTableRecord
  2
01__ASM_ALL_DTM_PLN
 70
0
 62
7
  6
CONTINUOUS
370
-3
390
F
  0
LAYER
  5
1FF
100
AcDbSymbolTableRecord
100
AcDbLayerTableRecord
  2
01__ASM_DEF_DTM_PLN
 70
0
 62
7
  6
CONTINUOUS
370
-3
390
F
  0
LAYER
  5
200
100
AcDbSymbolTableRecord
100
AcDbLayerTableRecord
  2
01___PRT_ALL_DTM_PLN
 70
0
 62
7
  6
CONTINUOUS
370
-3
390
F
  0
LAYER
  5
201
100
AcDbSymbolTableRecord
100
AcDbLayerTableRecord
  2
01___PRT_DEF_DTM_PLN
 70
0
 62
7
  6
CONTINUOUS
370
-3
390
F
  0
LAYER
  5
202
100
AcDbSymbolTableRecord
100
AcDbLayerTableRecord
  2
02_ALL_AXES
 70
0
 62
7
  6
CONTINUOUS
370
-3
390
F
  0
LAYER
  5
203
100
AcDbSymbolTableRecord
100
AcDbLayerTableRecord
  2
02__ASM_ALL_AXES
 70
0
 62
7
  6
CONTINUOUS
370
-3
390
F
  0
LAYER
  5
204
100
AcDbSymbolTableRecord
100
AcDbLayerTableRecord
  2
02___PRT_ALL_AXES
 70
0
 62
7
  6
CONTINUOUS
370
-3
390
F
  0
LAYER
  5
205
100
AcDbSymbolTableRecord
100
AcDbLayerTableRecord
  2
03_ALL_CURVES
 70
0
 62
7
  6
CONTINUOUS
370
-3
390
F
  0
LAYER
  5
206
100
AcDbSymbolTableRecord
100
AcDbLayerTableRecord
  2
03__ASM_ALL_CURVES
 70
0
 62
7
  6
CONTINUOUS
370
-3
390
F
  0
LAYER
  5
207
100
AcDbSymbolTableRecord
100
AcDbLayerTableRecord
  2
03___PRT_ALL_CURVES
 70
0
 62
7
  6
CONTINUOUS
370
-3
390
F
  0
LAYER
  5
208
100
AcDbSymbolTableRecord
100
AcDbLayerTableRecord
  2
04_ALL_DTM_PNT
 70
0
 62
7
  6
CONTINUOUS
370
-3
390
F
  0
LAYER
  5
209
100
AcDbSymbolTableRecord
100
AcDbLayerTableRecord
  2
04__ASM_ALL_DTM_PNT
 70
0
 62
7
  6
CONTINUOUS
370
-3
390
F
  0
LAYER
  5
20A
100
AcDbSymbolTableRecord
100
AcDbLayerTableRecord
  2
04___PRT_ALL_DTM_PNT
 70
0
 62
7
  6
CONTINUOUS
370
-3
390
F
  0
LAYER
  5
20B
100
AcDbSymbolTableRecord
100
AcDbLayerTableRecord
  2
05_ALL_DTM_CSYS
 70
0
 62
7
  6
CONTINUOUS
370
-3
390
F
  0
LAYER
  5
20C
100
AcDbSymbolTableRecord
100
AcDbLayerTableRecord
  2
05__ASM_ALL_DTM_CSYS
 70
0
 62
7
  6
CONTINUOUS
370
-3
390
F
  0
LAYER
  5
20D
100
AcDbSymbolTableRecord
100
AcDbLayerTableRecord
  2
05__ASM_DEF_DTM_CSYS
 70
0
 62
7
  6
CONTINUOUS
370
-3
390
F
  0
LAYER
  5
20E
100
AcDbSymbolTableRecord
100
AcDbLayerTableRecord
  2
05___PRT_ALL_DTM_CSYS
 70
0
 62
7
  6
CONTINUOUS
370
-3
390
F
  0
LAYER
  5
20F
100
AcDbSymbolTableRecord
100
AcDbLayerTableRecord
  2
05___PRT_DEF_DTM_CSYS
 70
0
 62
7
  6
CONTINUOUS
370
-3
390
F
  0
LAYER
  5
210
100
AcDbSymbolTableRecord
100
AcDbLayerTableRecord
  2
06_ALL_SURFS
 70
0
 62
7
  6
CONTINUOUS
370
-3
390
F
  0
LAYER
  5
211
100
AcDbSymbolTableRecord
100
AcDbLayerTableRecord
  2
06__ASM_ALL_SURFS
 70
0
 62
7
  6
CONTINUOUS
370
-3
390
F
  0
LAYER
  5
212
100
AcDbSymbolTableRecord
100
AcDbLayerTableRecord
  2
06___PRT_ALL_SURFS
 70
0
 62
7
  6
CONTINUOUS
370
-3
390
F
  0
LAYER
  5
213
100
AcDbSymbolTableRecord
100
AcDbLayerTableRecord
  2
07__ASM_ALL_SKELETONS
 70
0
 62
7
  6
CONTINUOUS
370
-3
390
F
  0
LAYER
  5
214
100
AcDbSymbolTableRecord
100
AcDbLayerTableRecord
  2
SHELL
 70
0
 62
7
  6
CONTINUOUS
370
-3
390
F
  0
ENDTAB
  0
TABLE
  2
STYLE
  5
3
100
AcDbSymbolTable
 70
1
  0
STYLE
  5
11
100
AcDbSymbolTableRecord
100
AcDbTextStyleTableRecord
  2
STANDARD
 70
0
 40
0.0
 41
0.8
 50
0.0
 71
0
 42
0.2
  3
txt
  4

  0
STYLE
  5
215
100
AcDbSymbolTableRecord
100
AcDbTextStyleTableRecord
  2
TEXTSTYLE_1
 70
0
 40
0.0
 41
0.8
 50
0.0
 71
0
 42
0.2
  3
gdt
  4

  0
ENDTAB
  0
TABLE
  2
VIEW
  5
6
100
AcDbSymbolTable
 70
0
  0
ENDTAB
  0
TABLE
  2
UCS
  5
7
100
AcDbSymbolTable
 70
0
  0
ENDTAB
  0
TABLE
  2
APPID
  5
9
100
AcDbSymbolTable
 70
1
  0
APPID
  5
216
100
AcDbSymbolTableRecord
100
AcDbRegAppTableRecord
  2
ACAD
 70
0
  0
ENDTAB
  0
TABLE
  2
BLOCK_RECORD
  5
1
100
AcDbSymbolTable
 70
0
  0
BLOCK_RECORD
  5
217
100
AcDbSymbolTableRecord
100
AcDbBlockTableRecord
  2
*Model_Space
  0
BLOCK_RECORD
  5
218
100
AcDbSymbolTableRecord
100
AcDbBlockTableRecord
  2
*Paper_Space
  0
ENDTAB
  0
TABLE
  2
DIMSTYLE
  5
A
100
AcDbSymbolTable
 70
1
100
AcDbDimStyleTable
 71
0
  0
DIMSTYLE
105
219
100
AcDbSymbolTableRecord
100
AcDbDimStyleTableRecord
  2
STANDARD
 70
0
  3

  4

 40
1.0
 41
0.1875
 42
0.0625
 43
0.38
 44
0.125
 45
0.0
 46
0.0
 47
0.0001
 48
0.0001
140
0.15625
141
0.09
142
0.0
143
25.4
144
1.0
145
0.0
146
1.0
147
0.09
 71
0.0
 72
0.0
 73
1
 74
1
 75
0
 76
0
 77
0
 78
4
 79
1
170
0
171
3
172
0
173
0
174
0
175
0
176
0
177
0
178
0
270
2
179
4
271
4
272
4
273
2
274
2
275
0
280
0
281
0
282
0
283
1
284
4
285
0
286
0
287
3
288
0
340
11
278
46
  0
ENDTAB
  0
ENDSEC
  0
SECTION
  2
BLOCKS
  0
BLOCK
  5
20
100
AcDbEntity
  8
0
100
AcDbBlockBegin
  2
*Model_Space
 70
0
 10
0.0
 20
0.0
 30
0.0
  3
*Model_Space
  1

  0
ENDBLK
  5
21
100
AcDbEntity
  8
0
100
AcDbBlockEnd
  0
BLOCK
  5
1C
100
AcDbEntity
  8
0
100
AcDbBlockBegin
  2
*Paper_Space
 70
0
 10
0.0
 20
0.0
 30
0.0
  3
*Paper_Space
  1

  0
ENDBLK
  5
1D
100
AcDbEntity
  8
0
100
AcDbBlockEnd
  0
ENDSEC
  0
SECTION
  2
ENTITIES
  0
MTEXT
  5
21A
100
AcDbEntity
  8
0
100
AcDbMText
 62
7
  6
CONTINUOUS
  7
STANDARD
 71
1
 72
1
 10
15.9560215477
 20
0.9479130325
 30
0.0
 11
1.0
 21
0.0
 31
0.0
 44
0.9
  1
SCALE: 1:0.333
 40
0.3
 41
3.36
  0
LINE
  5
21B
100
AcDbEntity
  8
0
100
AcDbLine
 62
7
  6
CONTINUOUS
 10
0.0
 20
0.0
 11
0.0
 21
17.0
  0
LINE
  5
21C
100
AcDbEntity
  8
0
100
AcDbLine
 62
7
  6
CONTINUOUS
 10
0.0
 20
0.0
 11
22.0
 21
0.0
  0
LINE
  5
21D
100
AcDbEntity
  8
0
100
AcDbLine
 62
7
  6
CONTINUOUS
 10
0.0
 20
17.0
 11
22.0
 21
17.0
  0
LINE
  5
21E
100
AcDbEntity
  8
0
100
AcDbLine
 62
7
  6
CONTINUOUS
 10
22.0
 20
0.0
 11
22.0
 21
17.0
  0
LINE
  5
21F
100
AcDbEntity
  8
0
100
AcDbLine
 62
7
  6
CONTINUOUS
 10
5.8557683382
 20
7.5436179977
 11
4.1068691753
 21
5.7947188347
  0
LINE
  5
220
100
AcDbEntity
  8
0
100
AcDbLine
 62
7
  6
CONTINUOUS
 10
4.1068691753
 20
5.2455209588
 11
5.8557683382
 21
3.4966217958
  0
LINE
  5
221
100
AcDbEntity
  8
0
100
AcDbLine
 62
7
  6
CONTINUOUS
 10
5.0035926203
 20
6.6233243265
 11
5.0271628464
 21
6.6468945526
  0
LINE
  5
222
100
AcDbEntity
  8
0
100
AcDbLine
 62
7
  6
CONTINUOUS
 10
5.0222558548
 20
6.5722196919
 11
5.078267481
 21
6.6282313181
  0
LINE
  5
223
100
AcDbEntity
  8
0
100
AcDbLine
 62
7
  6
CONTINUOUS
 10
5.0322893705
 20
6.5150780634
 11
5.1354091095
 21
6.6181978024
  0
LINE
  5
224
100
AcDbEntity
  8
0
100
AcDbLine
 62
7
  6
CONTINUOUS
 10
5.025454491
 20
6.4787804014
 11
5.1717067715
 21
6.6250326819
  0
LINE
  5
225
100
AcDbEntity
  8
0
100
AcDbLine
 62
7
  6
CONTINUOUS
 10
5.0353279134
 20
4.9284503761
 11
5.0704467592
 21
4.8676227508
  0
LINE
  5
226
100
AcDbEntity
  8
0
100
AcDbLine
 62
7
  6
CONTINUOUS
 10
5.1189386828
 20
4.880298942
 11
5.0705517788
 21
4.9641075182
  0
LINE
  5
227
100
AcDbEntity
  8
0
100
AcDbLine
 62
7
  6
CONTINUOUS
 10
5.0849855355
 20
4.9724408515
 11
5.1333724396
 21
4.8886322753
  0
LINE
  5
228
100
AcDbEntity
  8
0
100
AcDbLine
 62
7
  6
CONTINUOUS
 10
5.1682249582
 20
5.0223617974
 11
5.2182249582
 21
4.935759257
  0
LINE
  5
229
100
AcDbEntity
  8
0
100
AcDbLine
 62
7
  6
CONTINUOUS
 10
5.2712996765
 20
4.9664019599
 11
5.2212996765
 21
5.0530045003
  0
LINE
  5
22A
100
AcDbEntity
  8
0
100
AcDbLine
 62
7
  6
CONTINUOUS
 10
5.2183747639
 20
6.5768224812
 11
5.2183747639
 21
6.5783646896
  0
LINE
  5
22B
100
AcDbEntity
  8
0
100
AcDbLine
 62
7
  6
CONTINUOUS
 10
6.0295339428
 20
6.4609532301
 11
6.0262006095
 21
6.4576198968
  0
LINE
  5
22C
100
AcDbEntity
  8
0
100
AcDbLine
 62
7
  6
CONTINUOUS
 10
5.7709922762
 20
7.3117865634
 11
5.7709922762
 21
6.8879734052
  0
LINE
  5
22D
100
AcDbEntity
  8
0
100
AcDbLine
 62
7
  6
CONTINUOUS
 10
5.7709922762
 20
4.1522663883
 11
5.7709922762
 21
3.7284532301
  0
LINE
  5
22E
100
AcDbEntity
  8
0
100
AcDbLine
 62
7
  6
CONTINUOUS
 10
4.3387006095
 20
5.1607448968
 11
4.7815899395
 21
5.1607448968
  0
LINE
  5
22F
100
AcDbEntity
  8
0
100
AcDbLine
 62
7
  6
CONTINUOUS
 10
7.4982207846
 20
5.1607448968
 11
7.9220339428
 21
5.1607448968
  0
LINE
  5
230
100
AcDbEntity
  8
0
100
AcDbLine
 62
7
  6
CONTINUOUS
 10
6.0262006095
 20
6.4518148874
 11
6.0262006095
 21
6.4576198968
  0
LINE
  5
231
100
AcDbEntity
  8
0
100
AcDbLine
 62
7
  6
CONTINUOUS
 10
6.0637006095
 20
4.4012709719
 11
6.0637006095
 21
4.5014657602
  0
LINE
  5
232
100
AcDbEntity
  8
0
100
AcDbLine
 62
7
  6
CONTINUOUS
 10
6.0637006095
 20
6.5387740333
 11
6.0637006095
 21
6.6389688216
  0
LINE
  5
233
100
AcDbEntity
  8
0
100
AcDbLine
 62
7
  6
CONTINUOUS
 10
5.5132077868
 20
4.5845016382
 11
5.563305181
 21
4.6712728701
  0
LINE
  5
234
100
AcDbEntity
  8
0
100
AcDbLine
 62
7
  6
CONTINUOUS
 10
6.5819593175
 20
6.43563359
 11
6.6320567117
 21
6.522404822
  0
LINE
  5
235
100
AcDbEntity
  8
0
100
AcDbLine
 62
7
  6
CONTINUOUS
 10
5.1280823509
 20
5.0184304612
 11
5.2148535829
 21
5.0685278554
  0
LINE
  5
236
100
AcDbEntity
  8
0
100
AcDbLine
 62
7
  6
CONTINUOUS
 10
6.9792143028
 20
6.087181992
 11
7.0659855348
 21
6.1372793861
  0
LINE
  5
237
100
AcDbEntity
  8
0
100
AcDbLine
 62
7
  6
CONTINUOUS
 10
5.2212996765
 20
5.0530045003
 11
5.11515024
 21
4.9917190945
  0
LINE
  5
238
100
AcDbEntity
  8
0
100
AcDbLine
 62
7
  6
CONTINUOUS
 10
7.0620622668
 20
5.4159532301
 11
7.0678672762
 21
5.4159532301
  0
LINE
  5
239
100
AcDbEntity
  8
0
100
AcDbLine
 62
7
  6
CONTINUOUS
 10
7.249216201
 20
5.4534532301
 11
7.1490214128
 21
5.4534532301
  0
LINE
  5
23A
100
AcDbEntity
  8
0
100
AcDbLine
 62
7
  6
CONTINUOUS
 10
5.0115183513
 20
5.4534532301
 11
5.1117131396
 21
5.4534532301
  0
LINE
  5
23B
100
AcDbEntity
  8
0
100
AcDbLine
 62
7
  6
CONTINUOUS
 10
7.0659855348
 20
4.9029604074
 11
6.9792143028
 21
4.9530578015
  0
LINE
  5
23C
100
AcDbEntity
  8
0
100
AcDbLine
 62
7
  6
CONTINUOUS
 10
5.2148535829
 20
5.9717119381
 11
5.1280823509
 21
6.0218093323
  0
LINE
  5
23D
100
AcDbEntity
  8
0
100
AcDbLine
 62
7
  6
CONTINUOUS
 10
5.0721224834
 20
6.4321124091
 11
5.025454491
 21
6.4787804014
  0
LINE
  5
23E
100
AcDbEntity
  8
0
100
AcDbLine
 62
7
  6
CONTINUOUS
 10
5.0322893705
 20
6.5150780634
 11
5.0470207618
 21
6.5003466722
  0
LINE
  5
23F
100
AcDbEntity
  8
0
100
AcDbLine
 62
7
  6
CONTINUOUS
 10
5.08384924
 20
6.5666379329
 11
5.0985806313
 21
6.5519065416
  0
LINE
  5
240
100
AcDbEntity
  8
0
100
AcDbLine
 62
7
  6
CONTINUOUS
 10
5.1051119947
 20
6.5453751782
 11
5.1339359703
 21
6.5165512026
  0
LINE
  5
241
100
AcDbEntity
  8
0
100
AcDbLine
 62
7
  6
CONTINUOUS
 10
6.6320567117
 20
4.5178349715
 11
6.5819593175
 21
4.6046062035
  0
LINE
  5
242
100
AcDbEntity
  8
0
100
AcDbLine
 62
7
  6
CONTINUOUS
 10
5.563305181
 20
6.3689669234
 11
5.5132077868
 21
6.4557381553
  0
LINE
  5
243
100
AcDbEntity
  8
0
100
AcDbLine
 62
7
  6
CONTINUOUS
 10
6.1970339428
 20
4.4012709719
 11
6.1970339428
 21
4.5014657602
  0
LINE
  5
244
100
AcDbEntity
  8
0
100
AcDbLine
 62
7
  6
CONTINUOUS
 10
6.1970339428
 20
6.5387740333
 11
6.1970339428
 21
6.6389688216
  0
LINE
  5
245
100
AcDbEntity
  8
0
100
AcDbLine
 62
7
  6
CONTINUOUS
 10
6.2345339428
 20
6.4518148874
 11
6.2345339428
 21
6.4576198968
  0
LINE
  5
246
100
AcDbEntity
  8
0
100
AcDbLine
 62
7
  6
CONTINUOUS
 10
6.7475267655
 20
6.4557381553
 11
6.6974293714
 21
6.3689669234
  0
LINE
  5
247
100
AcDbEntity
  8
0
100
AcDbLine
 62
7
  6
CONTINUOUS
 10
5.6787752348
 20
4.6046062035
 11
5.6286778407
 21
4.5178349715
  0
LINE
  5
248
100
AcDbEntity
  8
0
100
AcDbLine
 62
7
  6
CONTINUOUS
 10
5.16515024
 20
4.9051165542
 11
5.2712996765
 21
4.9664019599
  0
LINE
  5
249
100
AcDbEntity
  8
0
100
AcDbLine
 62
7
  6
CONTINUOUS
 10
7.1326522014
 20
6.0218093323
 11
7.0458809695
 21
5.9717119381
  0
LINE
  5
24A
100
AcDbEntity
  8
0
100
AcDbLine
 62
7
  6
CONTINUOUS
 10
5.2815202495
 20
4.9530578015
 11
5.1947490176
 21
4.9029604074
  0
LINE
  5
24B
100
AcDbEntity
  8
0
100
AcDbLine
 62
7
  6
CONTINUOUS
 10
5.0115183513
 20
5.5867865634
 11
5.1117131396
 21
5.5867865634
  0
LINE
  5
24C
100
AcDbEntity
  8
0
100
AcDbLine
 62
7
  6
CONTINUOUS
 10
7.1490214128
 20
5.5867865634
 11
7.249216201
 21
5.5867865634
  0
LINE
  5
24D
100
AcDbEntity
  8
0
100
AcDbLine
 62
7
  6
CONTINUOUS
 10
7.0620622668
 20
5.6242865634
 11
7.0678672762
 21
5.6242865634
  0
LINE
  5
24E
100
AcDbEntity
  8
0
100
AcDbLine
 62
7
  6
CONTINUOUS
 10
5.1947490176
 20
6.1372793861
 11
5.2815202495
 21
6.087181992
  0
LINE
  5
24F
100
AcDbEntity
  8
0
100
AcDbLine
 62
7
  6
CONTINUOUS
 10
7.0458809695
 20
5.0685278554
 11
7.1326522014
 21
5.0184304612
  0
LINE
  5
250
100
AcDbEntity
  8
0
100
AcDbLine
 62
7
  6
CONTINUOUS
 10
5.1501405007
 20
6.6034664111
 11
5.1354091095
 21
6.6181978024
  0
LINE
  5
251
100
AcDbEntity
  8
0
100
AcDbLine
 62
7
  6
CONTINUOUS
 10
5.2183747639
 20
6.5783646896
 11
5.1717067715
 21
6.6250326819
  0
LINE
  5
252
100
AcDbEntity
  8
0
100
AcDbLine
 62
7
  6
CONTINUOUS
 10
5.6286778407
 20
6.522404822
 11
5.6787752348
 21
6.43563359
  0
LINE
  5
253
100
AcDbEntity
  8
0
100
AcDbLine
 62
7
  6
CONTINUOUS
 10
6.6974293714
 20
4.6712728701
 11
6.7475267655
 21
4.5845016382
  0
LINE
  5
254
100
AcDbEntity
  8
0
100
AcDbLine
 62
7
  6
CONTINUOUS
 10
6.4897422762
 20
3.7284532301
 11
6.4897422762
 21
4.1522663883
  0
LINE
  5
255
100
AcDbEntity
  8
0
100
AcDbLine
 62
7
  6
CONTINUOUS
 10
6.4897422762
 20
6.8879734052
 11
6.4897422762
 21
7.3117865634
  0
LINE
  5
256
100
AcDbEntity
  8
0
100
AcDbLine
 62
7
  6
CONTINUOUS
 10
7.9220339428
 20
5.8794948968
 11
7.4982207846
 21
5.8794948968
  0
LINE
  5
257
100
AcDbEntity
  8
0
100
AcDbLine
 62
7
  6
CONTINUOUS
 10
4.7801103375
 20
5.8794948968
 11
4.3387006095
 21
5.8794948968
  0
LINE
  5
258
100
AcDbEntity
  8
0
100
AcDbLine
 62
7
  6
CONTINUOUS
 10
7.0712006095
 20
5.4192865634
 11
7.0678672762
 21
5.4159532301
  0
LINE
  5
259
100
AcDbEntity
  8
0
100
AcDbLine
 62
7
  6
CONTINUOUS
 10
6.2312006095
 20
6.4609532301
 11
6.2345339428
 21
6.4576198968
  0
LINE
  5
25A
100
AcDbEntity
  8
0
100
AcDbLine
 62
7
  6
CONTINUOUS
 10
7.0712006095
 20
5.6209532301
 11
7.0678672762
 21
5.6242865634
  0
LINE
  5
25B
100
AcDbEntity
  8
0
100
AcDbLine
 62
7
  6
CONTINUOUS
 10
7.0678672762
 20
5.6242865634
 11
7.0678672762
 21
5.4159532301
  0
LINE
  5
25C
100
AcDbEntity
  8
0
100
AcDbLine
 62
7
  6
CONTINUOUS
 10
7.0712006095
 20
5.6209531743
 11
7.0712006095
 21
5.4192866193
  0
LINE
  5
25D
100
AcDbEntity
  8
0
100
AcDbLine
 62
7
  6
CONTINUOUS
 10
5.0736646917
 20
6.4321124091
 11
5.0721224834
 21
6.4321124091
  0
LINE
  5
25E
100
AcDbEntity
  8
0
100
AcDbLine
 62
7
  6
CONTINUOUS
 10
6.0262006095
 20
6.4576198968
 11
6.2345339428
 21
6.4576198968
  0
LINE
  5
25F
100
AcDbEntity
  8
0
100
AcDbLine
 62
7
  6
CONTINUOUS
 10
6.0295339987
 20
6.4609532301
 11
6.2312005537
 21
6.4609532301
  0
LINE
  5
260
100
AcDbEntity
  8
0
100
AcDbLine
 62
7
  6
CONTINUOUS
 10
6.4049662141
 20
3.4966217958
 11
8.1538653771
 21
5.2455209588
  0
LINE
  5
261
100
AcDbEntity
  8
0
100
AcDbLine
 62
7
  6
CONTINUOUS
 10
8.1538653771
 20
5.7947188347
 11
6.4049662141
 21
7.5436179977
  0
LINE
  5
262
100
AcDbEntity
  8
0
100
AcDbLine
 62
7
  6
CONTINUOUS
 10
3.9198304172
 20
13.119839448
 11
3.9198304172
 21
13.469839448
  0
LINE
  5
263
100
AcDbEntity
  8
0
100
AcDbLine
 62
7
  6
CONTINUOUS
 10
4.047373983
 20
13.1365061147
 11
4.047373983
 21
13.469839448
  0
LINE
  5
264
100
AcDbEntity
  8
0
100
AcDbLine
 62
7
  6
CONTINUOUS
 10
4.6750387505
 20
12.0990061147
 11
4.6750387505
 21
13.094839448
  0
LINE
  5
265
100
AcDbEntity
  8
0
100
AcDbLine
 62
7
  6
CONTINUOUS
 10
5.1333720839
 20
11.763589448
 11
5.1667054172
 21
11.7302561147
  0
LINE
  5
266
100
AcDbEntity
  8
0
100
AcDbLine
 62
7
  6
CONTINUOUS
 10
4.9758002502
 20
12.0740061147
 11
4.9758327211
 21
12.027339448
  0
LINE
  5
267
100
AcDbEntity
  8
0
100
AcDbLine
 62
7
  6
CONTINUOUS
 10
5.0556550477
 20
12.027339448
 11
5.0556550477
 21
12.052339448
  0
LINE
  5
268
100
AcDbEntity
  8
0
100
AcDbLine
 62
7
  6
CONTINUOUS
 10
5.0759139172
 20
12.4494379052
 11
5.0759139172
 21
12.3652409909
  0
LINE
  5
269
100
AcDbEntity
  8
0
100
AcDbLine
 62
7
  6
CONTINUOUS
 10
5.0906453084
 20
12.4494379052
 11
5.0906453084
 21
12.3652409909
  0
LINE
  5
26A
100
AcDbEntity
  8
0
100
AcDbLine
 62
7
  6
CONTINUOUS
 10
5.1091335835
 20
12.0740061147
 11
5.1091335835
 21
12.0545297156
  0
LINE
  5
26B
100
AcDbEntity
  8
0
100
AcDbLine
 62
7
  6
CONTINUOUS
 10
5.1333720839
 20
12.0740061147
 11
5.1333720839
 21
11.763589448
  0
LINE
  5
26C
100
AcDbEntity
  8
0
100
AcDbLine
 62
7
  6
CONTINUOUS
 10
6.9750387505
 20
11.7302561147
 11
5.1667054172
 21
11.7302561147
  0
LINE
  5
26D
100
AcDbEntity
  8
0
100
AcDbLine
 62
7
  6
CONTINUOUS
 10
7.0083720839
 20
11.763589448
 11
5.1333720839
 21
11.763589448
  0
LINE
  5
26E
100
AcDbEntity
  8
0
100
AcDbLine
 62
7
  6
CONTINUOUS
 10
5.0243540477
 20
12.3231425338
 11
4.9782643268
 21
12.3607746333
  0
LINE
  5
26F
100
AcDbEntity
  8
0
100
AcDbLine
 62
7
  6
CONTINUOUS
 10
6.0448304172
 20
11.8570256249
 11
6.0969137505
 21
11.8570256249
  0
LINE
  5
270
100
AcDbEntity
  8
0
100
AcDbLine
 62
7
  6
CONTINUOUS
 10
6.0969137505
 20
11.9472366045
 11
6.0448304172
 21
11.9472366045
  0
LINE
  5
271
100
AcDbEntity
  8
0
100
AcDbLine
 62
7
  6
CONTINUOUS
 10
5.0759139172
 20
12.4494379052
 11
5.0243540477
 21
12.4915363623
  0
LINE
  5
272
100
AcDbEntity
  8
0
100
AcDbLine
 62
7
  6
CONTINUOUS
 10
5.0906453084
 20
12.4494379052
 11
5.039085439
 21
12.4915363623
  0
LINE
  5
273
100
AcDbEntity
  8
0
100
AcDbLine
 62
7
  6
CONTINUOUS
 10
4.9782275472
 20
12.4538742323
 11
5.0243540477
 21
12.4915363623
  0
LINE
  5
274
100
AcDbEntity
  8
0
100
AcDbLine
 62
7
  6
CONTINUOUS
 10
5.0759139172
 20
12.3652409909
 11
5.0243540477
 21
12.3231425338
  0
LINE
  5
275
100
AcDbEntity
  8
0
100
AcDbLine
 62
7
  6
CONTINUOUS
 10
4.9758327211
 20
12.027339448
 11
5.1333720839
 21
12.027339448
  0
LINE
  5
276
100
AcDbEntity
  8
0
100
AcDbLine
 62
7
  6
CONTINUOUS
 10
4.9758327211
 20
12.052339448
 11
4.9758002502
 21
12.052339448
  0
LINE
  5
277
100
AcDbEntity
  8
0
100
AcDbLine
 62
7
  6
CONTINUOUS
 10
5.0556550477
 20
12.052339448
 11
5.1044836702
 21
12.052339448
  0
LINE
  5
278
100
AcDbEntity
  8
0
100
AcDbLine
 62
7
  6
CONTINUOUS
 10
7.4417054172
 20
12.0740061147
 11
4.7000387505
 21
12.0740061147
  0
LINE
  5
279
100
AcDbEntity
  8
0
100
AcDbLine
 62
7
  6
CONTINUOUS
 10
5.7114970839
 20
13.1365061147
 11
5.7114970839
 21
13.119839448
  0
LINE
  5
27A
100
AcDbEntity
  8
0
100
AcDbLine
 62
7
  6
CONTINUOUS
 10
5.0906453084
 20
12.3652409909
 11
5.039085439
 21
12.3231425338
  0
LINE
  5
27B
100
AcDbEntity
  8
0
100
AcDbLine
 62
7
  6
CONTINUOUS
 10
5.0456168024
 20
12.2879249611
 11
5.074440778
 21
12.2879249611
  0
LINE
  5
27C
100
AcDbEntity
  8
0
100
AcDbLine
 62
7
  6
CONTINUOUS
 10
6.0448304172
 20
11.8570256249
 11
6.0187887505
 21
11.9021311147
  0
LINE
  5
27D
100
AcDbEntity
  8
0
100
AcDbLine
 62
7
  6
CONTINUOUS
 10
6.0969137505
 20
11.9472366045
 11
6.1229554172
 21
11.9021311147
  0
LINE
  5
27E
100
AcDbEntity
  8
0
100
AcDbLine
 62
7
  6
CONTINUOUS
 10
5.7962731459
 20
13.469839448
 11
5.7962731459
 21
13.1365061147
  0
LINE
  5
27F
100
AcDbEntity
  8
0
100
AcDbLine
 62
7
  6
CONTINUOUS
 10
5.0243540477
 20
12.3231425338
 11
5.039085439
 21
12.3231425338
  0
LINE
  5
280
100
AcDbEntity
  8
0
100
AcDbLine
 62
7
  6
CONTINUOUS
 10
5.1475669183
 20
12.3476322046
 11
5.1187429426
 21
12.3476322046
  0
LINE
  5
281
100
AcDbEntity
  8
0
100
AcDbLine
 62
7
  6
CONTINUOUS
 10
5.0906453084
 20
12.3652409909
 11
5.0759139172
 21
12.3652409909
  0
LINE
  5
282
100
AcDbEntity
  8
0
100
AcDbLine
 62
7
  6
CONTINUOUS
 10
5.0759139172
 20
12.4494379052
 11
5.0906453084
 21
12.4494379052
  0
LINE
  5
283
100
AcDbEntity
  8
0
100
AcDbLine
 62
7
  6
CONTINUOUS
 10
5.1187429426
 20
12.4670466915
 11
5.1475669183
 21
12.4670466915
  0
LINE
  5
284
100
AcDbEntity
  8
0
100
AcDbLine
 62
7
  6
CONTINUOUS
 10
5.0243540477
 20
12.4915363623
 11
5.039085439
 21
12.4915363623
  0
LINE
  5
285
100
AcDbEntity
  8
0
100
AcDbLine
 62
7
  6
CONTINUOUS
 10
5.0456168024
 20
12.526753935
 11
5.074440778
 21
12.526753935
  0
LINE
  5
286
100
AcDbEntity
  8
0
100
AcDbLine
 62
7
  6
CONTINUOUS
 10
5.1044836702
 20
12.052339448
 11
5.1333720839
 21
12.0659468748
  0
LINE
  5
287
100
AcDbEntity
  8
0
100
AcDbLine
 62
7
  6
CONTINUOUS
 10
5.1333720839
 20
12.0389468191
 11
5.1087297659
 21
12.027339448
  0
LINE
  5
288
100
AcDbEntity
  8
0
100
AcDbLine
 62
7
  6
CONTINUOUS
 10
6.3454710218
 20
13.1365061147
 11
6.3454710218
 21
13.469839448
  0
LINE
  5
289
100
AcDbEntity
  8
0
100
AcDbLine
 62
7
  6
CONTINUOUS
 10
6.0187887505
 20
11.9021311147
 11
6.0448304172
 21
11.9472366045
  0
LINE
  5
28A
100
AcDbEntity
  8
0
100
AcDbLine
 62
7
  6
CONTINUOUS
 10
7.0083720839
 20
12.0062977814
 11
7.0117054172
 21
12.002964448
  0
LINE
  5
28B
100
AcDbEntity
  8
0
100
AcDbLine
 62
7
  6
CONTINUOUS
 10
6.4302470839
 20
13.119839448
 11
6.4302470839
 21
13.1365061147
  0
LINE
  5
28C
100
AcDbEntity
  8
0
100
AcDbLine
 62
7
  6
CONTINUOUS
 10
6.1229554172
 20
11.9021311147
 11
6.0969137505
 21
11.8570256249
  0
LINE
  5
28D
100
AcDbEntity
  8
0
100
AcDbLine
 62
7
  6
CONTINUOUS
 10
6.4052470839
 20
13.094839448
 11
5.7364970839
 21
13.094839448
  0
LINE
  5
28E
100
AcDbEntity
  8
0
100
AcDbLine
 62
7
  6
CONTINUOUS
 10
3.9448304172
 20
13.094839448
 11
4.7156805646
 21
13.094839448
  0
LINE
  5
28F
100
AcDbEntity
  8
0
100
AcDbLine
 62
7
  6
CONTINUOUS
 10
7.4517995695
 20
13.094839448
 11
8.1969137505
 21
13.094839448
  0
LINE
  5
290
100
AcDbEntity
  8
0
100
AcDbLine
 62
7
  6
CONTINUOUS
 10
8.0943701848
 20
13.1365061147
 11
6.3454710218
 21
13.1365061147
  0
LINE
  5
291
100
AcDbEntity
  8
0
100
AcDbLine
 62
7
  6
CONTINUOUS
 10
5.7962731459
 20
13.1365061147
 11
4.047373983
 21
13.1365061147
  0
LINE
  5
292
100
AcDbEntity
  8
0
100
AcDbLine
 62
7
  6
CONTINUOUS
 10
7.0083720839
 20
11.763589448
 11
7.0083720839
 21
12.0740061147
  0
LINE
  5
293
100
AcDbEntity
  8
0
100
AcDbLine
 62
7
  6
CONTINUOUS
 10
7.0117054172
 20
12.002964448
 11
7.0117054172
 21
11.8012977814
  0
LINE
  5
294
100
AcDbEntity
  8
03__ASM_ALL_CURVES
100
AcDbLine
 62
8
  6
PHANTOM
 10
8.2219137505
 20
13.469839448
 11
3.9198304172
 21
13.469839448
  0
LINE
  5
295
100
AcDbEntity
  8
0
100
AcDbLine
 62
7
  6
CONTINUOUS
 10
3.9198313397
 20
13.469839448
 11
8.2219137505
 21
13.469839448
  0
LINE
  5
296
100
AcDbEntity
  8
0
100
AcDbLine
 62
7
  6
CONTINUOUS
 10
7.0117054172
 20
11.8012977814
 11
7.0083720839
 21
11.797964448
  0
LINE
  5
297
100
AcDbEntity
  8
0
100
AcDbLine
 62
7
  6
CONTINUOUS
 10
6.9750387505
 20
11.7302561147
 11
7.0083720839
 21
11.763589448
  0
LINE
  5
298
100
AcDbEntity
  8
0
100
AcDbLine
 62
7
  6
CONTINUOUS
 10
7.4667054172
 20
13.069839448
 11
7.4667054172
 21
12.0990061147
  0
LINE
  5
299
100
AcDbEntity
  8
0
100
AcDbLine
 62
7
  6
CONTINUOUS
 10
8.0943701848
 20
13.469839448
 11
8.0943701848
 21
13.1365061147
  0
LINE
  5
29A
100
AcDbEntity
  8
0
100
AcDbLine
 62
7
  6
CONTINUOUS
 10
8.2219137505
 20
13.119839448
 11
8.2219137505
 21
13.469839448
  0
LINE
  5
29B
100
AcDbEntity
  8
0
100
AcDbLine
 62
7
  6
CONTINUOUS
 10
16.0801469236
 20
3.3095830378
 11
16.4301469236
 21
3.3095830378
  0
LINE
  5
29C
100
AcDbEntity
  8
0
100
AcDbLine
 62
7
  6
CONTINUOUS
 10
16.4301469236
 20
3.4371266035
 11
16.0968135903
 21
3.4371266035
  0
LINE
  5
29D
100
AcDbEntity
  8
0
100
AcDbLine
 62
7
  6
CONTINUOUS
 10
15.0593135903
 20
4.0647913711
 11
16.0301469236
 21
4.0647913711
  0
LINE
  5
29E
100
AcDbEntity
  8
0
100
AcDbLine
 62
7
  6
CONTINUOUS
 10
14.6905635903
 20
6.3647913711
 11
14.7238969236
 21
6.3981247044
  0
LINE
  5
29F
100
AcDbEntity
  8
0
100
AcDbLine
 62
7
  6
CONTINUOUS
 10
14.7616052569
 20
6.4014580378
 11
14.7582719236
 21
6.3981247044
  0
LINE
  5
2A0
100
AcDbEntity
  8
0
100
AcDbLine
 62
7
  6
CONTINUOUS
 10
14.6905635903
 20
4.5564580378
 11
14.7238969236
 21
4.5231247044
  0
LINE
  5
2A1
100
AcDbEntity
  8
0
100
AcDbLine
 62
7
  6
CONTINUOUS
 10
15.0343135903
 20
4.5231247044
 11
14.7238969236
 21
4.5231247044
  0
LINE
  5
2A2
100
AcDbEntity
  8
0
100
AcDbLine
 62
7
  6
CONTINUOUS
 10
14.6905635903
 20
4.5564580965
 11
14.6905635903
 21
6.3647913124
  0
LINE
  5
2A3
100
AcDbEntity
  8
0
100
AcDbLine
 62
7
  6
CONTINUOUS
 10
14.7238969236
 20
4.5231247044
 11
14.7238969236
 21
6.3981247044
  0
LINE
  5
2A4
100
AcDbEntity
  8
0
100
AcDbLine
 62
7
  6
CONTINUOUS
 10
14.8173331005
 20
5.4866663711
 11
14.8173331005
 21
5.4345830378
  0
LINE
  5
2A5
100
AcDbEntity
  8
0
100
AcDbLine
 62
7
  6
CONTINUOUS
 10
14.90754408
 20
5.4345830378
 11
14.90754408
 21
5.4866663711
  0
LINE
  5
2A6
100
AcDbEntity
  8
0
100
AcDbLine
 62
7
  6
CONTINUOUS
 10
15.0343135903
 20
4.0897914371
 11
15.0343135903
 21
6.8314580378
  0
LINE
  5
2A7
100
AcDbEntity
  8
0
100
AcDbLine
 62
7
  6
CONTINUOUS
 10
14.8173331005
 20
5.4866663711
 11
14.8624385903
 21
5.5127080378
  0
LINE
  5
2A8
100
AcDbEntity
  8
0
100
AcDbLine
 62
7
  6
CONTINUOUS
 10
14.90754408
 20
5.4345830378
 11
14.8624385903
 21
5.4085413711
  0
LINE
  5
2A9
100
AcDbEntity
  8
0
100
AcDbLine
 62
7
  6
CONTINUOUS
 10
16.0801469236
 20
5.1012497044
 11
16.0968135903
 21
5.1012497044
  0
LINE
  5
2AA
100
AcDbEntity
  8
0
100
AcDbLine
 62
7
  6
CONTINUOUS
 10
14.8624385903
 20
5.4085413711
 11
14.8173331005
 21
5.4345830378
  0
LINE
  5
2AB
100
AcDbEntity
  8
0
100
AcDbLine
 62
7
  6
CONTINUOUS
 10
14.8624385903
 20
5.5127080378
 11
14.90754408
 21
5.4866663711
  0
LINE
  5
2AC
100
AcDbEntity
  8
0
100
AcDbLine
 62
7
  6
CONTINUOUS
 10
16.0968135903
 20
5.1860257665
 11
16.4301469236
 21
5.1860257665
  0
LINE
  5
2AD
100
AcDbEntity
  8
0
100
AcDbLine
 62
7
  6
CONTINUOUS
 10
16.4301469236
 20
5.7352236424
 11
16.0968135903
 21
5.7352236424
  0
LINE
  5
2AE
100
AcDbEntity
  8
0
100
AcDbLine
 62
7
  6
CONTINUOUS
 10
14.9666052569
 20
6.3981247044
 11
14.9632719236
 21
6.4014580378
  0
LINE
  5
2AF
100
AcDbEntity
  8
0
100
AcDbLine
 62
7
  6
CONTINUOUS
 10
16.0968135903
 20
5.8199997044
 11
16.0801469236
 21
5.8199997044
  0
LINE
  5
2B0
100
AcDbEntity
  8
0
100
AcDbLine
 62
7
  6
CONTINUOUS
 10
16.0551469236
 20
3.3345830928
 11
16.0551469236
 21
4.0796972188
  0
LINE
  5
2B1
100
AcDbEntity
  8
0
100
AcDbLine
 62
7
  6
CONTINUOUS
 10
16.0551469236
 20
5.1262497044
 11
16.0551469236
 21
5.7949997044
  0
LINE
  5
2B2
100
AcDbEntity
  8
0
100
AcDbLine
 62
7
  6
CONTINUOUS
 10
16.0551469236
 20
6.84155219
 11
16.0551469236
 21
7.5866663161
  0
LINE
  5
2B3
100
AcDbEntity
  8
0
100
AcDbLine
 62
7
  6
CONTINUOUS
 10
16.0968135903
 20
3.4371266035
 11
16.0968135903
 21
5.1860257665
  0
LINE
  5
2B4
100
AcDbEntity
  8
0
100
AcDbLine
 62
7
  6
CONTINUOUS
 10
16.0968135903
 20
5.7352236424
 11
16.0968135903
 21
7.4841228053
  0
LINE
  5
2B5
100
AcDbEntity
  8
0
100
AcDbLine
 62
7
  6
CONTINUOUS
 10
16.4301469236
 20
7.6116654537
 11
16.4301469236
 21
3.3095839552
  0
LINE
  5
2B6
100
AcDbEntity
  8
03__ASM_ALL_CURVES
100
AcDbLine
 62
8
  6
PHANTOM
 10
16.4301469236
 20
3.3095830378
 11
16.4301469236
 21
7.6116663711
  0
LINE
  5
2B7
100
AcDbEntity
  8
0
100
AcDbLine
 62
7
  6
CONTINUOUS
 10
14.7238969236
 20
6.3981247044
 11
15.0343135903
 21
6.3981247044
  0
LINE
  5
2B8
100
AcDbEntity
  8
0
100
AcDbLine
 62
7
  6
CONTINUOUS
 10
14.7616052569
 20
6.4014580378
 11
14.9632719236
 21
6.4014580378
  0
LINE
  5
2B9
100
AcDbEntity
  8
0
100
AcDbLine
 62
7
  6
CONTINUOUS
 10
15.0593135903
 20
6.8564580378
 11
16.0301469236
 21
6.8564580378
  0
LINE
  5
2BA
100
AcDbEntity
  8
0
100
AcDbLine
 62
7
  6
CONTINUOUS
 10
16.0968135903
 20
7.4841228053
 11
16.4301469236
 21
7.4841228053
  0
LINE
  5
2BB
100
AcDbEntity
  8
0
100
AcDbLine
 62
7
  6
CONTINUOUS
 10
16.0801469236
 20
7.6116663711
 11
16.4301469236
 21
7.6116663711
  0
LINE
  5
2BC
100
AcDbEntity
  8
0
100
AcDbLine
 62
7
  6
CONTINUOUS
 10
13.3928006085
 20
12.6496577793
 11
13.4775238216
 21
12.9238221977
  0
LINE
  5
2BD
100
AcDbEntity
  8
0
100
AcDbLine
 62
7
  6
CONTINUOUS
 10
13.4428943492
 20
12.7273021408
 11
13.5235831237
 21
12.9884111107
  0
LINE
  5
2BE
100
AcDbEntity
  8
0
100
AcDbLine
 62
7
  6
CONTINUOUS
 10
13.8973049453
 20
12.5476188196
 11
13.8973483523
 21
12.5305155068
  0
LINE
  5
2BF
100
AcDbEntity
  8
0
100
AcDbLine
 62
7
  6
CONTINUOUS
 10
13.5235831237
 20
12.9884111107
 11
14.6009384599
 21
14.0755442638
  0
LINE
  5
2C0
100
AcDbEntity
  8
0
100
AcDbLine
 62
7
  6
CONTINUOUS
 10
14.5202496854
 20
13.814435294
 11
13.4428943492
 21
12.7273021408
  0
LINE
  5
2C1
100
AcDbEntity
  8
0
100
AcDbLine
 62
7
  6
CONTINUOUS
 10
15.5616184821
 20
10.9185874246
 11
15.5885482095
 21
10.9249207063
  0
LINE
  5
2C2
100
AcDbEntity
  8
0
100
AcDbLine
 62
7
  6
CONTINUOUS
 10
14.293817728
 20
11.3199809344
 11
14.3377984162
 21
11.2873108947
  0
LINE
  5
2C3
100
AcDbEntity
  8
0
100
AcDbLine
 62
7
  6
CONTINUOUS
 10
14.3249512713
 20
11.3007464967
 11
14.3062895808
 21
11.3211685922
  0
LINE
  5
2C4
100
AcDbEntity
  8
0
100
AcDbLine
 62
7
  6
CONTINUOUS
 10
13.8963540124
 20
12.595293334
 11
13.8888257575
 21
12.5709318922
  0
LINE
  5
2C5
100
AcDbEntity
  8
0
100
AcDbLine
 62
7
  6
CONTINUOUS
 10
13.9727307265
 20
12.7009858585
 11
13.9523494891
 21
12.6350321498
  0
LINE
  5
2C6
100
AcDbEntity
  8
0
100
AcDbLine
 62
7
  6
CONTINUOUS
 10
13.8056716217
 20
12.1560231576
 11
13.9181409587
 21
12.5199740655
  0
LINE
  5
2C7
100
AcDbEntity
  8
0
100
AcDbLine
 62
7
  6
CONTINUOUS
 10
13.9771122644
 20
12.7108052808
 11
14.0507637741
 21
12.9491416536
  0
LINE
  5
2C8
100
AcDbEntity
  8
0
100
AcDbLine
 62
7
  6
CONTINUOUS
 10
13.9907929275
 20
12.6918286788
 11
13.9704116901
 21
12.6258749702
  0
LINE
  5
2C9
100
AcDbEntity
  8
0
100
AcDbLine
 62
7
  6
CONTINUOUS
 10
14.057026394
 20
12.0361790163
 11
14.0623618317
 21
12.0552466067
  0
LINE
  5
2CA
100
AcDbEntity
  8
0
100
AcDbLine
 62
7
  6
CONTINUOUS
 10
14.496501545
 20
13.7633756391
 11
14.5005359837
 21
13.7764310876
  0
LINE
  5
2CB
100
AcDbEntity
  8
0
100
AcDbLine
 62
7
  6
CONTINUOUS
 10
14.6009384599
 20
14.0755442638
 11
14.5202496854
 21
13.814435294
  0
LINE
  5
2CC
100
AcDbEntity
  8
0
100
AcDbLine
 62
7
  6
CONTINUOUS
 10
13.9415758675
 20
12.687057841
 11
13.9511594795
 21
12.701912584
  0
LINE
  5
2CD
100
AcDbEntity
  8
0
100
AcDbLine
 62
7
  6
CONTINUOUS
 10
13.9523494891
 20
12.6350321498
 11
13.9103970045
 21
12.5700051667
  0
LINE
  5
2CE
100
AcDbEntity
  8
0
100
AcDbLine
 62
7
  6
CONTINUOUS
 10
13.9704116901
 20
12.6258749702
 11
13.9284592055
 21
12.560847987
  0
LINE
  5
2CF
100
AcDbEntity
  8
0
100
AcDbLine
 62
7
  6
CONTINUOUS
 10
14.056522035
 20
12.6851509657
 11
14.0541472088
 21
12.6931975147
  0
LINE
  5
2D0
100
AcDbEntity
  8
0
100
AcDbLine
 62
7
  6
CONTINUOUS
 10
14.1238431347
 20
11.6854942873
 11
14.123036247
 21
11.6828831976
  0
LINE
  5
2D1
100
AcDbEntity
  8
0
100
AcDbLine
 62
7
  6
CONTINUOUS
 10
13.9822517109
 20
12.7151731988
 11
13.9869707164
 21
12.7186152248
  0
LINE
  5
2D2
100
AcDbEntity
  8
0
100
AcDbLine
 62
7
  6
CONTINUOUS
 10
14.2375211839
 20
12.001118273
 11
14.1623797627
 21
11.7579605448
  0
LINE
  5
2D3
100
AcDbEntity
  8
0
100
AcDbLine
 62
7
  6
CONTINUOUS
 10
14.3519955668
 20
12.2519756355
 11
14.3528024546
 21
12.2545867252
  0
LINE
  5
2D4
100
AcDbEntity
  8
0
100
AcDbLine
 62
7
  6
CONTINUOUS
 10
15.9740755585
 20
11.5573140304
 11
15.9648649485
 21
11.5573140304
  0
LINE
  5
2D5
100
AcDbEntity
  8
0
100
AcDbLine
 62
7
  6
CONTINUOUS
 10
15.9770502799
 20
11.6088341339
 11
15.96783967
 21
11.6088341339
  0
LINE
  5
2D6
100
AcDbEntity
  8
0
100
AcDbLine
 62
7
  6
CONTINUOUS
 10
16.1832491913
 20
11.3406913716
 11
16.0880457915
 21
11.3718324112
  0
LINE
  5
2D7
100
AcDbEntity
  8
0
100
AcDbLine
 62
7
  6
CONTINUOUS
 10
14.1522297938
 20
12.0050379767
 11
14.057026394
 21
12.0361790163
  0
LINE
  5
2D8
100
AcDbEntity
  8
0
100
AcDbLine
 62
7
  6
CONTINUOUS
 10
16.184056079
 20
11.3433024613
 11
16.0891309201
 21
11.3743524883
  0
LINE
  5
2D9
100
AcDbEntity
  8
0
100
AcDbLine
 62
7
  6
CONTINUOUS
 10
14.0578332817
 20
12.038790106
 11
14.1530366815
 21
12.0076490664
  0
LINE
  5
2DA
100
AcDbEntity
  8
0
100
AcDbLine
 62
7
  6
CONTINUOUS
 10
13.7399993273
 20
12.3202224693
 11
13.8406450125
 21
12.2691970919
  0
LINE
  5
2DB
100
AcDbEntity
  8
0
100
AcDbLine
 62
7
  6
CONTINUOUS
 10
15.90105366
 20
11.1012935616
 11
15.8995733329
 21
11.1023931884
  0
LINE
  5
2DC
100
AcDbEntity
  8
0
100
AcDbLine
 62
7
  6
CONTINUOUS
 10
14.3519955668
 20
12.2519756355
 11
14.2793839526
 21
12.3059134982
  0
LINE
  5
2DD
100
AcDbEntity
  8
0
100
AcDbLine
 62
7
  6
CONTINUOUS
 10
14.2819179219
 20
12.3072416652
 11
14.3528024546
 21
12.2545867252
  0
LINE
  5
2DE
100
AcDbEntity
  8
0
100
AcDbLine
 62
7
  6
CONTINUOUS
 10
15.0260944269
 20
13.814435294
 11
15.1067832014
 21
14.0755442638
  0
LINE
  5
2DF
100
AcDbEntity
  8
0
100
AcDbLine
 62
7
  6
CONTINUOUS
 10
16.1840924527
 20
11.6828831976
 11
16.0918069414
 21
11.6828831976
  0
LINE
  5
2E0
100
AcDbEntity
  8
0
100
AcDbLine
 62
7
  6
CONTINUOUS
 10
14.123036247
 20
11.6828831976
 11
14.1496941942
 21
11.6828831976
  0
LINE
  5
2E1
100
AcDbEntity
  8
0
100
AcDbLine
 62
7
  6
CONTINUOUS
 10
16.1829647026
 20
11.6854942873
 11
16.0926138292
 21
11.6854942873
  0
LINE
  5
2E2
100
AcDbEntity
  8
0
100
AcDbLine
 62
7
  6
CONTINUOUS
 10
14.1238431347
 20
11.6854942873
 11
14.1498801537
 21
11.6854942873
  0
LINE
  5
2E3
100
AcDbEntity
  8
0
100
AcDbLine
 62
7
  6
CONTINUOUS
 10
14.0823639981
 20
11.7657645267
 11
14.1647913755
 21
11.7657645267
  0
LINE
  5
2E4
100
AcDbEntity
  8
0
100
AcDbLine
 62
7
  6
CONTINUOUS
 10
16.0511346925
 20
11.7657645267
 11
16.1434202038
 21
11.7657645267
  0
LINE
  5
2E5
100
AcDbEntity
  8
0
100
AcDbLine
 62
7
  6
CONTINUOUS
 10
14.0832072595
 20
12.1079563528
 11
14.1784106593
 21
12.0768153132
  0
LINE
  5
2E6
100
AcDbEntity
  8
0
100
AcDbLine
 62
7
  6
CONTINUOUS
 10
16.114226657
 20
11.4436097477
 11
16.2094300568
 21
11.4124687081
  0
LINE
  5
2E7
100
AcDbEntity
  8
0
100
AcDbLine
 62
7
  6
CONTINUOUS
 10
13.8973483523
 20
12.5305155068
 11
13.9326895113
 21
12.5125982362
  0
LINE
  5
2E8
100
AcDbEntity
  8
0
100
AcDbLine
 62
7
  6
CONTINUOUS
 10
14.3654027907
 20
12.3473541628
 11
14.4380144049
 21
12.2934163
  0
LINE
  5
2E9
100
AcDbEntity
  8
0
100
AcDbLine
 62
7
  6
CONTINUOUS
 10
15.942937667
 20
11.1755187675
 11
15.9870724982
 21
11.1427342262
  0
LINE
  5
2EA
100
AcDbEntity
  8
0
100
AcDbLine
 62
7
  6
CONTINUOUS
 10
14.7597080118
 20
12.1683048284
 11
14.7566575931
 21
12.1745209281
  0
LINE
  5
2EB
100
AcDbEntity
  8
0
100
AcDbLine
 62
7
  6
CONTINUOUS
 10
14.7915620766
 20
12.209853272
 11
14.7946124952
 21
12.2036371723
  0
LINE
  5
2EC
100
AcDbEntity
  8
0
100
AcDbLine
 62
7
  6
CONTINUOUS
 10
14.7610919998
 20
12.3575294277
 11
14.7305283946
 21
12.4198115069
  0
LINE
  5
2ED
100
AcDbEntity
  8
0
100
AcDbLine
 62
7
  6
CONTINUOUS
 10
14.7325960356
 20
12.4198534515
 11
14.7618988876
 21
12.3601405174
  0
LINE
  5
2EE
100
AcDbEntity
  8
0
100
AcDbLine
 62
7
  6
CONTINUOUS
 10
14.7697250364
 20
12.1391885842
 11
14.7566575931
 21
12.1745209281
  0
LINE
  5
2EF
100
AcDbEntity
  8
0
100
AcDbLine
 62
7
  6
CONTINUOUS
 10
14.7597080118
 20
12.1683048284
 11
14.77047647
 21
12.1391885842
  0
LINE
  5
2F0
100
AcDbEntity
  8
0
100
AcDbLine
 62
7
  6
CONTINUOUS
 10
14.8395340033
 20
12.209853272
 11
14.8526014466
 21
12.1745209281
  0
LINE
  5
2F1
100
AcDbEntity
  8
0
100
AcDbLine
 62
7
  6
CONTINUOUS
 10
14.7610919998
 20
12.3575294277
 11
14.7618988876
 21
12.3601405174
  0
LINE
  5
2F2
100
AcDbEntity
  8
0
100
AcDbLine
 62
7
  6
CONTINUOUS
 10
13.9279423405
 20
12.529201154
 11
13.9632834995
 21
12.5112838834
  0
LINE
  5
2F3
100
AcDbEntity
  8
0
100
AcDbLine
 62
7
  6
CONTINUOUS
 10
13.8888257575
 20
12.5709318922
 11
13.9068879585
 21
12.5617747125
  0
LINE
  5
2F4
100
AcDbEntity
  8
0
100
AcDbLine
 62
7
  6
CONTINUOUS
 10
13.9103970045
 20
12.5700051667
 11
13.9284592055
 21
12.560847987
  0
LINE
  5
2F5
100
AcDbEntity
  8
0
100
AcDbLine
 62
7
  6
CONTINUOUS
 10
13.9704116901
 20
12.6258749702
 11
13.9523494891
 21
12.6350321498
  0
LINE
  5
2F6
100
AcDbEntity
  8
0
100
AcDbLine
 62
7
  6
CONTINUOUS
 10
14.0227837135
 20
12.6035101117
 11
13.9874425545
 21
12.6214273823
  0
LINE
  5
2F7
100
AcDbEntity
  8
0
100
AcDbLine
 62
7
  6
CONTINUOUS
 10
13.9727307265
 20
12.7009858585
 11
13.9907929275
 21
12.6918286788
  0
LINE
  5
2F8
100
AcDbEntity
  8
0
100
AcDbLine
 62
7
  6
CONTINUOUS
 10
14.8839001324
 20
12.3575294277
 11
14.8533365271
 21
12.4198115069
  0
LINE
  5
2F9
100
AcDbEntity
  8
0
100
AcDbLine
 62
7
  6
CONTINUOUS
 10
14.2793839526
 20
12.3059134982
 11
14.2810312008
 21
12.3068485993
  0
LINE
  5
2FA
100
AcDbEntity
  8
0
100
AcDbLine
 62
7
  6
CONTINUOUS
 10
14.2793839526
 20
12.3059134982
 11
14.2810905734
 21
12.3068080148
  0
LINE
  5
2FB
100
AcDbEntity
  8
0
100
AcDbLine
 62
7
  6
CONTINUOUS
 10
14.7697250364
 20
12.1391885842
 11
14.8176969632
 21
12.1391885842
  0
LINE
  5
2FC
100
AcDbEntity
  8
0
100
AcDbLine
 62
7
  6
CONTINUOUS
 10
14.0163487804
 20
12.7149679633
 11
14.0516899394
 21
12.6970506927
  0
LINE
  5
2FD
100
AcDbEntity
  8
0
100
AcDbLine
 62
7
  6
CONTINUOUS
 10
14.6379851285
 20
13.3842955751
 11
14.5094328497
 21
13.6462575473
  0
LWPOLYLINE
  5
2FE
100
AcDbEntity
  8
0
100
AcDbPolyline
 62
7
  6
CONTINUOUS
 90
3
 70
0
 10
14.6379876619
 20
13.3842903817
 10
14.6382011557
 20
13.3837941168
 10
14.6383582404
 20
13.3832740185
  0
LINE
  5
2FF
100
AcDbEntity
  8
0
100
AcDbLine
 62
7
  6
CONTINUOUS
 10
14.7566575931
 20
12.1745209281
 11
14.7915620766
 21
12.209853272
  0
LINE
  5
300
100
AcDbEntity
  8
0
100
AcDbLine
 62
7
  6
CONTINUOUS
 10
14.7946124952
 20
12.2036371723
 11
14.7597080118
 21
12.1683048284
  0
LINE
  5
301
100
AcDbEntity
  8
0
100
AcDbLine
 62
7
  6
CONTINUOUS
 10
14.8526014466
 20
12.1745209281
 11
14.8176969632
 21
12.1391885842
  0
LINE
  5
302
100
AcDbEntity
  8
0
100
AcDbLine
 62
7
  6
CONTINUOUS
 10
14.8418329884
 20
12.2036371723
 11
14.7946124952
 21
12.2036371723
  0
LINE
  5
303
100
AcDbEntity
  8
0
100
AcDbLine
 62
7
  6
CONTINUOUS
 10
14.8395340033
 20
12.209853272
 11
14.7915620766
 21
12.209853272
  0
LINE
  5
304
100
AcDbEntity
  8
0
100
AcDbLine
 62
7
  6
CONTINUOUS
 10
17.1386219104
 20
12.310702422
 11
16.7530323016
 21
12.310702422
  0
LINE
  5
305
100
AcDbEntity
  8
0
100
AcDbLine
 62
7
  6
CONTINUOUS
 10
13.8534711296
 20
12.310702422
 11
13.8381533485
 21
12.310702422
  0
LINE
  5
306
100
AcDbEntity
  8
0
100
AcDbLine
 62
7
  6
CONTINUOUS
 10
15.396593121
 20
12.2519756355
 11
15.3974000087
 21
12.2545867252
  0
LINE
  5
307
100
AcDbEntity
  8
0
100
AcDbLine
 62
7
  6
CONTINUOUS
 10
15.269902034
 20
12.2934163
 11
15.289575931
 21
12.3473541628
  0
LINE
  5
308
100
AcDbEntity
  8
0
100
AcDbLine
 62
7
  6
CONTINUOUS
 10
15.3974000087
 20
12.2545867252
 11
15.4161385938
 21
12.3059603411
  0
LINE
  5
309
100
AcDbEntity
  8
0
100
AcDbLine
 62
7
  6
CONTINUOUS
 10
15.416267018
 20
12.3059134982
 11
15.396593121
 21
12.2519756355
  0
LINE
  5
30A
100
AcDbEntity
  8
0
100
AcDbLine
 62
7
  6
CONTINUOUS
 10
14.7305283946
 20
12.4198115069
 11
14.7313779808
 21
12.4198461073
  0
LINE
  5
30B
100
AcDbEntity
  8
0
100
AcDbLine
 62
7
  6
CONTINUOUS
 10
14.7305283946
 20
12.4198115069
 11
14.7313878978
 21
12.4198289429
  0
LINE
  5
30C
100
AcDbEntity
  8
0
100
AcDbLine
 62
7
  6
CONTINUOUS
 10
13.9284592055
 20
12.560847987
 11
13.9068879585
 21
12.5617747125
  0
LINE
  5
30D
100
AcDbEntity
  8
0
100
AcDbLine
 62
7
  6
CONTINUOUS
 10
13.8888257575
 20
12.5709318922
 11
13.9103970045
 21
12.5700051667
  0
LINE
  5
30E
100
AcDbEntity
  8
0
100
AcDbLine
 62
7
  6
CONTINUOUS
 10
15.9025963286
 20
12.0367697873
 11
15.903357493
 21
12.0361790163
  0
LINE
  5
30F
100
AcDbEntity
  8
0
100
AcDbLine
 62
7
  6
CONTINUOUS
 10
15.9026180285
 20
12.0367785998
 11
15.903357493
 21
12.0361790163
  0
LINE
  5
310
100
AcDbEntity
  8
0
100
AcDbLine
 62
7
  6
CONTINUOUS
 10
15.9393256426
 20
11.5705449653
 11
15.9552132398
 21
11.5381694461
  0
LINE
  5
311
100
AcDbEntity
  8
0
100
AcDbLine
 62
7
  6
CONTINUOUS
 10
13.9511594795
 20
12.701912584
 11
13.9727307265
 21
12.7009858585
  0
LINE
  5
312
100
AcDbEntity
  8
0
100
AcDbLine
 62
7
  6
CONTINUOUS
 10
15.96783967
 20
11.6088341339
 11
15.9550143745
 21
11.6349693384
  0
LINE
  5
313
100
AcDbEntity
  8
0
100
AcDbLine
 62
7
  6
CONTINUOUS
 10
15.9770502799
 20
11.6088341339
 11
15.9611626827
 21
11.6412096531
  0
LINE
  5
314
100
AcDbEntity
  8
0
100
AcDbLine
 62
7
  6
CONTINUOUS
 10
13.9984949838
 20
12.779999786
 11
13.6305649923
 21
12.779999786
  0
LINE
  5
315
100
AcDbEntity
  8
0
100
AcDbLine
 62
7
  6
CONTINUOUS
 10
16.5469204743
 20
12.779999786
 11
16.9310335541
 21
12.779999786
  0
LINE
  5
316
100
AcDbEntity
  8
0
100
AcDbLine
 62
7
  6
CONTINUOUS
 10
15.302109252
 20
13.4110945247
 11
15.1748966443
 21
13.6703265635
  0
LINE
  5
317
100
AcDbEntity
  8
0
100
AcDbLine
 62
7
  6
CONTINUOUS
 10
16.1832688596
 20
11.6847900699
 11
16.1840924527
 21
11.6828831976
  0
LINE
  5
318
100
AcDbEntity
  8
0
100
AcDbLine
 62
7
  6
CONTINUOUS
 10
16.1833219774
 20
11.6847880701
 11
16.1840924527
 21
11.6828831976
  0
LINE
  5
319
100
AcDbEntity
  8
0
100
AcDbLine
 62
7
  6
CONTINUOUS
 10
15.9393256426
 20
11.5705449653
 11
15.942300364
 21
11.6220650688
  0
LINE
  5
31A
100
AcDbEntity
  8
0
100
AcDbLine
 62
7
  6
CONTINUOUS
 10
15.9648649485
 20
11.5573140304
 11
15.96783967
 21
11.6088341339
  0
LINE
  5
31B
100
AcDbEntity
  8
0
100
AcDbLine
 62
7
  6
CONTINUOUS
 10
15.8387176985
 20
12.0050379767
 11
15.8395245862
 21
12.0076490664
  0
LINE
  5
31C
100
AcDbEntity
  8
0
100
AcDbLine
 62
7
  6
CONTINUOUS
 10
15.7420904315
 20
12.0768153132
 11
15.806730226
 21
12.1079563528
  0
LINE
  5
31D
100
AcDbEntity
  8
0
100
AcDbLine
 62
7
  6
CONTINUOUS
 10
15.9770502799
 20
11.6088341339
 11
15.9740755585
 21
11.5573140304
  0
LINE
  5
31E
100
AcDbEntity
  8
0
100
AcDbLine
 62
7
  6
CONTINUOUS
 10
15.8395245862
 20
12.0076490664
 11
15.9015907748
 21
12.0375502387
  0
LINE
  5
31F
100
AcDbEntity
  8
0
100
AcDbLine
 62
7
  6
CONTINUOUS
 10
15.903357493
 20
12.0361790163
 11
15.8387176985
 21
12.0050379767
  0
LINE
  5
320
100
AcDbEntity
  8
0
100
AcDbLine
 62
7
  6
CONTINUOUS
 10
16.1085528804
 20
11.422925748
 11
16.114226657
 21
11.4436097477
  0
LINE
  5
321
100
AcDbEntity
  8
0
100
AcDbLine
 62
7
  6
CONTINUOUS
 10
15.9018605478
 20
11.1039046513
 11
15.90105366
 21
11.1012935616
  0
LINE
  5
322
100
AcDbEntity
  8
0
100
AcDbLine
 62
7
  6
CONTINUOUS
 10
16.0918069414
 20
11.6828831976
 11
16.0926138292
 21
11.6854942873
  0
LINE
  5
323
100
AcDbEntity
  8
0
100
AcDbLine
 62
7
  6
CONTINUOUS
 10
16.0289352669
 20
11.4475294514
 11
15.9537938457
 21
11.2043717232
  0
LINE
  5
324
100
AcDbEntity
  8
0
100
AcDbLine
 62
7
  6
CONTINUOUS
 10
16.184056079
 20
11.3433024613
 11
16.1832491913
 21
11.3406913716
  0
LINE
  5
325
100
AcDbEntity
  8
0
100
AcDbLine
 62
7
  6
CONTINUOUS
 10
15.942300364
 20
11.6220650688
 11
15.9611626827
 21
11.6412096531
  0
LINE
  5
326
100
AcDbEntity
  8
0
100
AcDbLine
 62
7
  6
CONTINUOUS
 10
15.9521509381
 20
11.5444097609
 11
15.9648649485
 21
11.5573140304
  0
LINE
  5
327
100
AcDbEntity
  8
0
100
AcDbLine
 62
7
  6
CONTINUOUS
 10
15.9740755585
 20
11.5573140304
 11
15.9552132398
 21
11.5381694461
  0
LWPOLYLINE
  5
328
100
AcDbEntity
  8
0
100
AcDbPolyline
 62
7
  6
CONTINUOUS
 90
7
 70
0
 10
16.7370378195
 20
12.303910621
 10
16.7383893862
 20
12.3052712487
 10
16.7404695554
 20
12.306900448
 10
16.7432806849
 20
12.3085138791
 10
16.7467265593
 20
12.3098171542
 10
16.7506588329
 20
12.3105778939
 10
16.7530323516
 20
12.3107023155
  0
LINE
  5
329
100
AcDbEntity
  8
0
100
AcDbLine
 62
7
  6
CONTINUOUS
 10
17.1704246936
 20
12.7273021408
 11
15.0260944269
 21
13.814435294
  0
LWPOLYLINE
  5
32A
100
AcDbEntity
  8
0
100
AcDbPolyline
 62
7
  6
CONTINUOUS
 90
4
 70
0
 10
16.7360745557
 20
12.302668529
 10
16.7360552684
 20
12.3026351641
 10
16.7363023079
 20
12.3029985953
 10
16.7370378195
 20
12.303910621
  0
LINE
  5
32B
100
AcDbEntity
  8
0
100
AcDbLine
 62
7
  6
CONTINUOUS
 10
15.1067832014
 20
14.0755442638
 11
17.251113468
 21
12.9884111107
  0
LINE
  5
32C
100
AcDbEntity
  8
0
100
AcDbLine
 62
7
  6
CONTINUOUS
 10
16.4728881452
 20
11.3317909122
 11
16.7179802977
 21
12.1249094082
  0
LINE
  5
32D
100
AcDbEntity
  8
0
100
AcDbLine
 62
7
  6
CONTINUOUS
 10
16.5542596804
 20
11.5951092964
 11
17.2980224144
 21
12.3456222414
  0
LINE
  5
32E
100
AcDbEntity
  8
0
100
AcDbLine
 62
7
  6
CONTINUOUS
 10
17.251113468
 20
12.9884111107
 11
17.1704246936
 21
12.7273021408
  0
LINE
  5
32F
100
AcDbEntity
  8
0
100
AcDbLine
 62
7
  6
CONTINUOUS
 10
17.3799779021
 20
12.4374487311
 11
17.4647011153
 21
12.7116131494
  0
ARC
  5
330
100
AcDbEntity
  8
0
100
AcDbCircle
 62
7
  6
CONTINUOUS
 10
5.1019621092
 20
4.9263698968
 40
0.0666666667
100
AcDbArc
 50
78.5903778907
 51
341.4096221093
  0
CIRCLE
  5
331
100
AcDbEntity
  8
0
100
AcDbCircle
 62
7
  6
CONTINUOUS
 10
5.8230196601
 20
4.373082978
 40
0.0566666667
  0
ARC
  5
332
100
AcDbEntity
  8
0
100
AcDbCircle
 62
7
  6
CONTINUOUS
 10
5.1019621092
 20
4.9263698968
 40
0.0490992559
100
AcDbArc
 50
110.2282144729
 51
129.7717855271
  0
ARC
  5
333
100
AcDbEntity
  8
0
100
AcDbCircle
 62
7
  6
CONTINUOUS
 10
5.1019621092
 20
4.9263698968
 40
0.0490992559
100
AcDbArc
 50
290.2282144729
 51
309.7717855271
  0
ARC
  5
334
100
AcDbEntity
  8
0
100
AcDbCircle
 62
7
  6
CONTINUOUS
 10
5.1019621092
 20
4.9263698968
 40
0.0478860217
100
AcDbArc
 50
289.9781142607
 51
310.0218857393
  0
ARC
  5
335
100
AcDbEntity
  8
0
100
AcDbCircle
 62
7
  6
CONTINUOUS
 10
5.1019621092
 20
4.9263698968
 40
0.0478860217
100
AcDbArc
 50
109.9781142607
 51
130.0218857393
  0
CIRCLE
  5
336
100
AcDbEntity
  8
0
100
AcDbCircle
 62
7
  6
CONTINUOUS
 10
5.8230196601
 20
4.373082978
 40
0.04
  0
ARC
  5
337
100
AcDbEntity
  8
0
100
AcDbCircle
 62
7
  6
CONTINUOUS
 10
5.7459922762
 20
4.1522663883
 40
0.025
100
AcDbArc
 50
0.0
 51
74.3043200429
  0
ARC
  5
338
100
AcDbEntity
  8
0
100
AcDbCircle
 62
7
  6
CONTINUOUS
 10
4.3387006095
 20
5.5201198968
 40
0.359375
100
AcDbArc
 50
90.0
 51
270.0
  0
CIRCLE
  5
339
100
AcDbEntity
  8
0
100
AcDbCircle
 62
7
  6
CONTINUOUS
 10
4.3405032363
 20
5.5201198968
 40
0.1458333333
  0
ARC
  5
33A
100
AcDbEntity
  8
0
100
AcDbCircle
 62
7
  6
CONTINUOUS
 10
4.9978125891
 20
6.5384759833
 40
0.0416666667
100
AcDbArc
 50
325.8369362645
 51
54.0811816562
  0
ARC
  5
33B
100
AcDbEntity
  8
0
100
AcDbCircle
 62
7
  6
CONTINUOUS
 10
5.1120111896
 20
6.6526745838
 40
0.0416666667
100
AcDbArc
 50
215.9188183438
 51
304.1630637355
  0
ARC
  5
33C
100
AcDbEntity
  8
0
100
AcDbCircle
 62
7
  6
CONTINUOUS
 10
5.0248058238
 20
6.6021111231
 40
0.03
100
AcDbArc
 50
135.0
 51
265.1240345935
  0
ARC
  5
33D
100
AcDbEntity
  8
0
100
AcDbCircle
 62
7
  6
CONTINUOUS
 10
5.0483760498
 20
6.6256813491
 40
0.03
100
AcDbArc
 50
4.8759654065
 51
135.0
  0
ARC
  5
33E
100
AcDbEntity
  8
0
100
AcDbCircle
 62
7
  6
CONTINUOUS
 10
5.7459922762
 20
6.8879734052
 40
0.025
100
AcDbArc
 50
304.9981748585
 51
360.0
  0
ARC
  5
33F
100
AcDbEntity
  8
0
100
AcDbCircle
 62
7
  6
CONTINUOUS
 10
6.1303672762
 20
3.7284532301
 40
0.359375
100
AcDbArc
 50
180.0
 51
360.0
  0
CIRCLE
  5
340
100
AcDbEntity
  8
0
100
AcDbCircle
 62
7
  6
CONTINUOUS
 10
6.1303672762
 20
3.7302558569
 40
0.1458333333
  0
ARC
  5
341
100
AcDbEntity
  8
0
100
AcDbCircle
 62
7
  6
CONTINUOUS
 10
7.4982207846
 20
5.1357448968
 40
0.025
100
AcDbArc
 50
90.0
 51
145.0018251415
  0
ARC
  5
342
100
AcDbEntity
  8
0
100
AcDbCircle
 62
7
  6
CONTINUOUS
 10
6.5147422762
 20
4.1522663883
 40
0.025
100
AcDbArc
 50
124.9981748585
 51
180.0
  0
CIRCLE
  5
343
100
AcDbEntity
  8
03__ASM_ALL_CURVES
100
AcDbCircle
 62
8
  6
PHANTOM
 10
6.1303672762
 20
5.5201198968
 40
2.1510416667
  0
ARC
  5
344
100
AcDbEntity
  8
03__ASM_ALL_CURVES
100
AcDbCircle
 62
8
  6
PHANTOM
 10
6.1303672762
 20
5.5201198968
 40
1.7898640399
100
AcDbArc
 50
20.2421858314
 51
69.7771960295
  0
ARC
  5
345
100
AcDbEntity
  8
03__ASM_ALL_CURVES
100
AcDbCircle
 62
8
  6
PHANTOM
 10
6.1303672762
 20
5.5201198968
 40
1.7898640399
100
AcDbArc
 50
85.3424632613
 51
94.6575367387
  0
ARC
  5
346
100
AcDbEntity
  8
03__ASM_ALL_CURVES
100
AcDbCircle
 62
8
  6
PHANTOM
 10
6.1303672762
 20
5.5201198968
 40
1.7898640399
100
AcDbArc
 50
110.2228039705
 51
159.7578141686
  0
ARC
  5
347
100
AcDbEntity
  8
03__ASM_ALL_CURVES
100
AcDbCircle
 62
8
  6
PHANTOM
 10
6.1303672762
 20
5.5201198968
 40
1.7898640399
100
AcDbArc
 50
175.338866692
 51
184.6609328597
  0
ARC
  5
348
100
AcDbEntity
  8
03__ASM_ALL_CURVES
100
AcDbCircle
 62
8
  6
PHANTOM
 10
6.1303672762
 20
5.5201198968
 40
1.7898640399
100
AcDbArc
 50
200.2421858314
 51
249.7771960295
  0
ARC
  5
349
100
AcDbEntity
  8
03__ASM_ALL_CURVES
100
AcDbCircle
 62
8
  6
PHANTOM
 10
6.1303672762
 20
5.5201198968
 40
1.7898640399
100
AcDbArc
 50
265.3424632613
 51
274.6575367387
  0
ARC
  5
34A
100
AcDbEntity
  8
03__ASM_ALL_CURVES
100
AcDbCircle
 62
8
  6
PHANTOM
 10
6.1303672762
 20
5.5201198968
 40
1.7898640399
100
AcDbArc
 50
290.2228039705
 51
339.7578141686
  0
ARC
  5
34B
100
AcDbEntity
  8
03__ASM_ALL_CURVES
100
AcDbCircle
 62
8
  6
PHANTOM
 10
6.1303672762
 20
5.5201198968
 40
1.7898640399
100
AcDbArc
 50
355.338866692
 51
4.6609328597
  0
CIRCLE
  5
34C
100
AcDbEntity
  8
0
100
AcDbCircle
 62
7
  6
CONTINUOUS
 10
6.1303672762
 20
5.5201198968
 40
1.3958333333
  0
ARC
  5
34D
100
AcDbEntity
  8
0
100
AcDbCircle
 62
7
  6
CONTINUOUS
 10
6.1303672762
 20
5.5201198968
 40
1.1208333333
100
AcDbArc
 50
356.5900599508
 51
3.4099400492
  0
ARC
  5
34E
100
AcDbEntity
  8
0
100
AcDbCircle
 62
7
  6
CONTINUOUS
 10
6.1303672762
 20
5.5201198968
 40
1.1208333333
100
AcDbArc
 50
176.5900599508
 51
183.4099400492
  0
ARC
  5
34F
100
AcDbEntity
  8
0
100
AcDbCircle
 62
7
  6
CONTINUOUS
 10
6.1303672762
 20
5.5201198968
 40
1.1208333333
100
AcDbArc
 50
326.5900599508
 51
333.4099400492
  0
ARC
  5
350
100
AcDbEntity
  8
0
100
AcDbCircle
 62
7
  6
CONTINUOUS
 10
6.1303672762
 20
5.5201198968
 40
1.1208333333
100
AcDbArc
 50
26.5900599508
 51
33.4099400492
  0
ARC
  5
351
100
AcDbEntity
  8
0
100
AcDbCircle
 62
7
  6
CONTINUOUS
 10
6.1303672762
 20
5.5201198968
 40
1.1208333333
100
AcDbArc
 50
56.5900599508
 51
63.4099400492
  0
ARC
  5
352
100
AcDbEntity
  8
0
100
AcDbCircle
 62
7
  6
CONTINUOUS
 10
6.1303672762
 20
5.5201198968
 40
1.1208333333
100
AcDbArc
 50
86.5900599508
 51
93.4099400492
  0
ARC
  5
353
100
AcDbEntity
  8
0
100
AcDbCircle
 62
7
  6
CONTINUOUS
 10
6.1303672762
 20
5.5201198968
 40
1.1208333333
100
AcDbArc
 50
116.5900599508
 51
123.4099400492
  0
ARC
  5
354
100
AcDbEntity
  8
0
100
AcDbCircle
 62
7
  6
CONTINUOUS
 10
6.1303672762
 20
5.5201198968
 40
1.1208333333
100
AcDbArc
 50
146.5900599508
 51
153.4099400492
  0
ARC
  5
355
100
AcDbEntity
  8
0
100
AcDbCircle
 62
7
  6
CONTINUOUS
 10
6.1303672762
 20
5.5201198968
 40
1.1208333333
100
AcDbArc
 50
206.5900599508
 51
207.4427146709
  0
ARC
  5
356
100
AcDbEntity
  8
0
100
AcDbCircle
 62
7
  6
CONTINUOUS
 10
6.1303672762
 20
5.5201198968
 40
1.1208333333
100
AcDbArc
 50
212.557303089
 51
213.4099400492
  0
ARC
  5
357
100
AcDbEntity
  8
0
100
AcDbCircle
 62
7
  6
CONTINUOUS
 10
6.1303672762
 20
5.5201198968
 40
1.1208333333
100
AcDbArc
 50
236.5900599508
 51
243.4099400492
  0
ARC
  5
358
100
AcDbEntity
  8
0
100
AcDbCircle
 62
7
  6
CONTINUOUS
 10
6.1303672762
 20
5.5201198968
 40
1.1208333333
100
AcDbArc
 50
266.5900599508
 51
273.4099400492
  0
ARC
  5
359
100
AcDbEntity
  8
0
100
AcDbCircle
 62
7
  6
CONTINUOUS
 10
6.1303672762
 20
5.5201198968
 40
1.1208333333
100
AcDbArc
 50
296.5900599508
 51
303.4099400492
  0
ARC
  5
35A
100
AcDbEntity
  8
0
100
AcDbCircle
 62
7
  6
CONTINUOUS
 10
6.1303672762
 20
5.5201198968
 40
1.0208333333
100
AcDbArc
 50
176.2555699872
 51
183.7444300128
  0
ARC
  5
35B
100
AcDbEntity
  8
0
100
AcDbCircle
 62
7
  6
CONTINUOUS
 10
6.1303672762
 20
5.5201198968
 40
1.0208333333
100
AcDbArc
 50
356.2555699872
 51
3.7444300128
  0
ARC
  5
35C
100
AcDbEntity
  8
0
100
AcDbCircle
 62
7
  6
CONTINUOUS
 10
6.1303672762
 20
5.5201198968
 40
1.0208333333
100
AcDbArc
 50
326.2555699872
 51
333.7444300128
  0
ARC
  5
35D
100
AcDbEntity
  8
0
100
AcDbCircle
 62
7
  6
CONTINUOUS
 10
6.1303672762
 20
5.5201198968
 40
1.0208333333
100
AcDbArc
 50
26.2555699872
 51
33.7444300128
  0
ARC
  5
35E
100
AcDbEntity
  8
0
100
AcDbCircle
 62
7
  6
CONTINUOUS
 10
6.1303672762
 20
5.5201198968
 40
1.0208333333
100
AcDbArc
 50
56.2555699872
 51
63.7444300128
  0
ARC
  5
35F
100
AcDbEntity
  8
0
100
AcDbCircle
 62
7
  6
CONTINUOUS
 10
6.1303672762
 20
5.5201198968
 40
1.0208333333
100
AcDbArc
 50
86.2555699872
 51
93.7444300128
  0
ARC
  5
360
100
AcDbEntity
  8
0
100
AcDbCircle
 62
7
  6
CONTINUOUS
 10
6.1303672762
 20
5.5201198968
 40
1.0208333333
100
AcDbArc
 50
116.2555699872
 51
123.7444300128
  0
ARC
  5
361
100
AcDbEntity
  8
0
100
AcDbCircle
 62
7
  6
CONTINUOUS
 10
6.1303672762
 20
5.5201198968
 40
1.0208333333
100
AcDbArc
 50
146.2555699872
 51
153.7444300128
  0
ARC
  5
362
100
AcDbEntity
  8
0
100
AcDbCircle
 62
7
  6
CONTINUOUS
 10
6.1303672762
 20
5.5201198968
 40
1.0208333333
100
AcDbArc
 50
206.2555699872
 51
207.1958031489
  0
ARC
  5
363
100
AcDbEntity
  8
0
100
AcDbCircle
 62
7
  6
CONTINUOUS
 10
6.1303672762
 20
5.5201198968
 40
1.0208333333
100
AcDbArc
 50
212.8047028446
 51
213.7444300128
  0
ARC
  5
364
100
AcDbEntity
  8
0
100
AcDbCircle
 62
7
  6
CONTINUOUS
 10
6.1303672762
 20
5.5201198968
 40
1.0208333333
100
AcDbArc
 50
236.2555699872
 51
243.7444300128
  0
ARC
  5
365
100
AcDbEntity
  8
0
100
AcDbCircle
 62
7
  6
CONTINUOUS
 10
6.1303672762
 20
5.5201198968
 40
1.0208333333
100
AcDbArc
 50
266.2555699872
 51
273.7444300128
  0
ARC
  5
366
100
AcDbEntity
  8
0
100
AcDbCircle
 62
7
  6
CONTINUOUS
 10
6.1303672762
 20
5.5201198968
 40
1.0208333333
100
AcDbArc
 50
296.2555699872
 51
303.7444300128
  0
CIRCLE
  5
367
100
AcDbEntity
  8
0
100
AcDbCircle
 62
7
  6
CONTINUOUS
 10
6.1303672762
 20
5.5201198968
 40
0.9375
  0
CIRCLE
  5
368
100
AcDbEntity
  8
0
100
AcDbCircle
 62
7
  6
CONTINUOUS
 10
6.1303672762
 20
5.5201198968
 40
0.9041666667
  0
CIRCLE
  5
369
100
AcDbEntity
  8
0
100
AcDbCircle
 62
7
  6
CONTINUOUS
 10
6.1303672762
 20
5.5201198968
 40
0.6145833333
  0
CIRCLE
  5
36A
100
AcDbEntity
  8
03__ASM_ALL_CURVES
100
AcDbCircle
 62
4
  6
CONTINUOUS
 10
6.1303672762
 20
5.5201198968
 40
0.3333333333
  0
ARC
  5
36B
100
AcDbEntity
  8
0
100
AcDbCircle
 62
7
  6
CONTINUOUS
 10
6.1303672762
 20
7.3117865634
 40
0.359375
100
AcDbArc
 50
0.0
 51
180.0
  0
CIRCLE
  5
36C
100
AcDbEntity
  8
0
100
AcDbCircle
 62
7
  6
CONTINUOUS
 10
6.1303672762
 20
7.3099839366
 40
0.1458333333
  0
ARC
  5
36D
100
AcDbEntity
  8
0
100
AcDbCircle
 62
7
  6
CONTINUOUS
 10
6.5147422762
 20
6.8879734052
 40
0.025
100
AcDbArc
 50
180.0
 51
235.0018251415
  0
ARC
  5
36E
100
AcDbEntity
  8
0
100
AcDbCircle
 62
7
  6
CONTINUOUS
 10
7.9220339428
 20
5.5201198968
 40
0.359375
100
AcDbArc
 50
270.0
 51
90.0
  0
CIRCLE
  5
36F
100
AcDbEntity
  8
0
100
AcDbCircle
 62
7
  6
CONTINUOUS
 10
7.920231316
 20
5.5201198968
 40
0.1458333333
  0
ARC
  5
370
100
AcDbEntity
  8
0
100
AcDbCircle
 62
7
  6
CONTINUOUS
 10
7.4982207846
 20
5.9044948968
 40
0.025
100
AcDbArc
 50
214.9981748585
 51
270.0
  0
ARC
  5
371
100
AcDbEntity
  8
0
100
AcDbCircle
 62
7
  6
CONTINUOUS
 10
7.9400789674
 20
11.9021311147
 40
0.9375079895
100
AcDbArc
 50
173.6207105508
 51
186.3792894492
  0
ARC
  5
372
100
AcDbEntity
  8
0
100
AcDbCircle
 62
7
  6
CONTINUOUS
 10
5.3492443977
 20
12.4244747962
 40
0.3845102874
100
AcDbArc
 50
189.4299443996
 51
191.5279154722
  0
ARC
  5
373
100
AcDbEntity
  8
0
100
AcDbCircle
 62
7
  6
CONTINUOUS
 10
5.3469934679
 20
12.3906248523
 40
0.3822206811
100
AcDbArc
 50
168.4664522341
 51
170.5590991993
  0
CIRCLE
  5
374
100
AcDbEntity
  8
0
100
AcDbCircle
 62
7
  6
CONTINUOUS
 10
6.0708720839
 20
11.9021311147
 40
0.1041666667
  0
CIRCLE
  5
375
100
AcDbEntity
  8
0
100
AcDbCircle
 62
7
  6
CONTINUOUS
 10
6.0708720839
 20
11.9021311147
 40
0.1008333333
  0
ARC
  5
376
100
AcDbEntity
  8
0
100
AcDbCircle
 62
7
  6
CONTINUOUS
 10
8.1969137505
 20
13.119839448
 40
0.025
100
AcDbArc
 50
270.0
 51
360.0
  0
ARC
  5
377
100
AcDbEntity
  8
0
100
AcDbCircle
 62
7
  6
CONTINUOUS
 10
7.4917054172
 20
13.069839448
 40
0.025
100
AcDbArc
 50
90.0
 51
180.0
  0
ARC
  5
378
100
AcDbEntity
  8
0
100
AcDbCircle
 62
7
  6
CONTINUOUS
 10
3.9448304172
 20
13.119839448
 40
0.025
100
AcDbArc
 50
180.0
 51
270.0
  0
ARC
  5
379
100
AcDbEntity
  8
0
100
AcDbCircle
 62
7
  6
CONTINUOUS
 10
5.7364970839
 20
13.119839448
 40
0.025
100
AcDbArc
 50
180.0
 51
270.0
  0
ARC
  5
37A
100
AcDbEntity
  8
0
100
AcDbCircle
 62
7
  6
CONTINUOUS
 10
6.4052470839
 20
13.119839448
 40
0.025
100
AcDbArc
 50
270.0
 51
360.0
  0
ARC
  5
37B
100
AcDbEntity
  8
0
100
AcDbCircle
 62
7
  6
CONTINUOUS
 10
4.7000387505
 20
12.0990061147
 40
0.025
100
AcDbArc
 50
180.0
 51
270.0
  0
ARC
  5
37C
100
AcDbEntity
  8
0
100
AcDbCircle
 62
7
  6
CONTINUOUS
 10
7.4417054172
 20
12.0990061147
 40
0.025
100
AcDbArc
 50
270.0
 51
360.0
  0
ARC
  5
37D
100
AcDbEntity
  8
0
100
AcDbCircle
 62
7
  6
CONTINUOUS
 10
14.8624385903
 20
7.3298315231
 40
0.9375079247
100
AcDbArc
 50
263.62071011
 51
276.37928989
  0
CIRCLE
  5
37E
100
AcDbEntity
  8
0
100
AcDbCircle
 62
7
  6
CONTINUOUS
 10
14.8624385903
 20
5.4606247044
 40
0.1041666667
  0
CIRCLE
  5
37F
100
AcDbEntity
  8
0
100
AcDbCircle
 62
7
  6
CONTINUOUS
 10
14.8624385903
 20
5.4606247044
 40
0.1008333333
  0
ARC
  5
380
100
AcDbEntity
  8
0
100
AcDbCircle
 62
7
  6
CONTINUOUS
 10
16.0701584173
 20
6.8352539784
 40
0.0266551733
100
AcDbArc
 50
345.2737679637
 51
0.0088581848
  0
ARC
  5
381
100
AcDbEntity
  8
0
100
AcDbCircle
 62
7
  6
CONTINUOUS
 10
16.0801469236
 20
7.5866663711
 40
0.025
100
AcDbArc
 50
90.0
 51
180.0
  0
ARC
  5
382
100
AcDbEntity
  8
0
100
AcDbCircle
 62
7
  6
CONTINUOUS
 10
16.0301469236
 20
6.8814580378
 40
0.025
100
AcDbArc
 50
270.0
 51
360.0
  0
ARC
  5
383
100
AcDbEntity
  8
0
100
AcDbCircle
 62
7
  6
CONTINUOUS
 10
16.0801469236
 20
3.3345830378
 40
0.025
100
AcDbArc
 50
180.0
 51
270.0
  0
ARC
  5
384
100
AcDbEntity
  8
0
100
AcDbCircle
 62
7
  6
CONTINUOUS
 10
16.0301469236
 20
4.0397913711
 40
0.025
100
AcDbArc
 50
0.0
 51
90.0
  0
ARC
  5
385
100
AcDbEntity
  8
0
100
AcDbCircle
 62
7
  6
CONTINUOUS
 10
15.0593135903
 20
6.8314580378
 40
0.025
100
AcDbArc
 50
90.0
 51
180.0
  0
ARC
  5
386
100
AcDbEntity
  8
0
100
AcDbCircle
 62
7
  6
CONTINUOUS
 10
15.0593135903
 20
4.0897913711
 40
0.025
100
AcDbArc
 50
180.0
 51
270.0
  0
ARC
  5
387
100
AcDbEntity
  8
0
100
AcDbCircle
 62
7
  6
CONTINUOUS
 10
16.0801469236
 20
5.7949997044
 40
0.025
100
AcDbArc
 50
90.0
 51
180.0
  0
ARC
  5
388
100
AcDbEntity
  8
0
100
AcDbCircle
 62
7
  6
CONTINUOUS
 10
16.0801469236
 20
5.1262497044
 40
0.025
100
AcDbArc
 50
180.0
 51
270.0
  0
ARC
  5
389
100
AcDbEntity
  8
0
100
AcDbCircle
 62
7
  6
CONTINUOUS
 10
14.7452450334
 20
10.4688646631
 40
1.9557655603
100
AcDbArc
 50
69.9341809958
 51
73.839969457
  0
ARC
  5
38A
100
AcDbEntity
  8
0
100
AcDbCircle
 62
7
  6
CONTINUOUS
 10
14.7807286328
 20
10.5836968495
 40
1.7810549016
100
AcDbArc
 50
69.742528438
 51
74.0316220148
  0
ARC
  5
38B
100
AcDbEntity
  8
0
100
AcDbCircle
 62
7
  6
CONTINUOUS
 10
14.7806007841
 20
10.5831616963
 40
1.7788722615
100
AcDbArc
 50
69.7398958909
 51
74.0342545619
  0
ARC
  5
38C
100
AcDbEntity
  8
0
100
AcDbCircle
 62
7
  6
CONTINUOUS
 10
14.7919279565
 20
10.9066518549
 40
1.5144052116
100
AcDbArc
 50
87.6760401876
 51
92.2914494964
  0
ARC
  5
38D
100
AcDbEntity
  8
0
100
AcDbCircle
 62
7
  6
CONTINUOUS
 10
14.9876412887
 20
10.9043357524
 40
1.4558877831
100
AcDbArc
 50
51.0629238675
 51
55.7638955242
  0
ARC
  5
38E
100
AcDbEntity
  8
0
100
AcDbCircle
 62
7
  6
CONTINUOUS
 10
14.8232691971
 20
10.9857463457
 40
1.3757636621
100
AcDbArc
 50
87.5292665406
 51
92.5567087026
  0
ARC
  5
38F
100
AcDbEntity
  8
0
100
AcDbCircle
 62
7
  6
CONTINUOUS
 10
15.0095019605
 20
10.9896695233
 40
1.3109431095
100
AcDbArc
 50
50.762694913
 51
56.0253861974
  0
ARC
  5
390
100
AcDbEntity
  8
0
100
AcDbCircle
 62
7
  6
CONTINUOUS
 10
14.9223362023
 20
11.8469223094
 40
0.8094298503
100
AcDbArc
 50
220.4716794769
 51
222.4359868311
  0
ARC
  5
391
100
AcDbEntity
  8
0
100
AcDbCircle
 62
7
  6
CONTINUOUS
 10
14.4801253698
 20
11.9260504427
 40
0.337285951
100
AcDbArc
 50
153.4490008639
 51
162.8118097158
  0
ARC
  5
392
100
AcDbEntity
  8
0
100
AcDbCircle
 62
7
  6
CONTINUOUS
 10
14.4806864564
 20
11.9287514244
 40
0.3370246229
100
AcDbArc
 50
153.9063522061
 51
162.8140606541
  0
ARC
  5
393
100
AcDbEntity
  8
0
100
AcDbCircle
 62
7
  6
CONTINUOUS
 10
14.4786550517
 20
11.9266435354
 40
0.335706922
100
AcDbArc
 50
166.0290176886
 51
166.4955738732
  0
ARC
  5
394
100
AcDbEntity
  8
0
100
AcDbCircle
 62
7
  6
CONTINUOUS
 10
14.4778918242
 20
11.9268401435
 40
0.334918805
100
AcDbArc
 50
162.8279581381
 51
166.0301340513
  0
ARC
  5
395
100
AcDbEntity
  8
0
100
AcDbCircle
 62
7
  6
CONTINUOUS
 10
14.415988112
 20
11.9458599873
 40
0.3701598676
100
AcDbArc
 50
154.0294521277
 51
162.3889043429
  0
ARC
  5
396
100
AcDbEntity
  8
0
100
AcDbCircle
 62
7
  6
CONTINUOUS
 10
14.4134769255
 20
11.946743981
 40
0.3674989282
100
AcDbArc
 50
162.4018122309
 51
162.8276501161
  0
ARC
  5
397
100
AcDbEntity
  8
0
100
AcDbCircle
 62
7
  6
CONTINUOUS
 10
14.078239565
 20
12.6061075146
 40
0.1457424122
100
AcDbArc
 50
137.9650346163
 51
139.2722818589
  0
ARC
  5
398
100
AcDbEntity
  8
0
100
AcDbCircle
 62
7
  6
CONTINUOUS
 10
14.8308641628
 20
12.1406440367
 40
0.1134014113
100
AcDbArc
 50
90.0013109753
 51
90.9218306104
  0
ARC
  5
399
100
AcDbEntity
  8
0
100
AcDbCircle
 62
7
  6
CONTINUOUS
 10
14.8290398848
 20
12.1453908318
 40
0.1081155597
100
AcDbArc
 50
89.0391303079
 51
90.0010655237
  0
ARC
  5
39A
100
AcDbEntity
  8
0
100
AcDbCircle
 62
7
  6
CONTINUOUS
 10
14.0250454201
 20
12.6187111118
 40
0.1067900128
100
AcDbArc
 50
138.1983791638
 51
139.3497127992
  0
ARC
  5
39B
100
AcDbEntity
  8
0
100
AcDbCircle
 62
7
  6
CONTINUOUS
 10
13.9982528449
 20
12.570599549
 40
0.1045813057
100
AcDbArc
 50
166.7681498147
 51
168.118669528
  0
ARC
  5
39C
100
AcDbEntity
  8
0
100
AcDbCircle
 62
7
  6
CONTINUOUS
 10
14.0177752069
 20
12.6251729424
 40
0.0970632286
100
AcDbArc
 50
137.6809785437
 51
138.1812791228
  0
ARC
  5
39D
100
AcDbEntity
  8
0
100
AcDbCircle
 62
7
  6
CONTINUOUS
 10
13.9204414058
 20
12.6403221612
 40
0.0876596778
100
AcDbArc
 50
158.0615958687
 51
159.1397453141
  0
ARC
  5
39E
100
AcDbEntity
  8
0
100
AcDbCircle
 62
7
  6
CONTINUOUS
 10
14.591678634
 20
13.4126919179
 40
0.0532636289
100
AcDbArc
 50
323.6136917524
 51
327.8058141718
  0
ARC
  5
39F
100
AcDbEntity
  8
0
100
AcDbCircle
 62
7
  6
CONTINUOUS
 10
14.5943610187
 20
13.4109822189
 40
0.0500827601
100
AcDbArc
 50
327.8260396147
 51
328.5819936647
  0
ARC
  5
3A0
100
AcDbEntity
  8
0
100
AcDbCircle
 62
7
  6
CONTINUOUS
 10
14.5953195339
 20
13.410397045
 40
0.0489597376
100
AcDbArc
 50
328.581674333
 51
329.4284210894
  0
ARC
  5
3A1
100
AcDbEntity
  8
0
100
AcDbCircle
 62
7
  6
CONTINUOUS
 10
13.9297203392
 20
12.7218792633
 40
0.0370709469
100
AcDbArc
 50
234.5514643168
 51
236.2209876891
  0
ARC
  5
3A2
100
AcDbEntity
  8
0
100
AcDbCircle
 62
7
  6
CONTINUOUS
 10
13.8608505282
 20
12.5860409549
 40
0.0370581281
100
AcDbArc
 50
70.0118263205
 51
71.70944968
  0
ARC
  5
3A3
100
AcDbEntity
  8
0
100
AcDbCircle
 62
7
  6
CONTINUOUS
 10
13.8791014541
 20
12.6788081483
 40
0.0319598381
100
AcDbArc
 50
21.5875762374
 51
23.8870363918
  0
ARC
  5
3A4
100
AcDbEntity
  8
0
100
AcDbCircle
 62
7
  6
CONTINUOUS
 10
13.8656762329
 20
12.6522969381
 40
0.0319392159
100
AcDbArc
 50
282.3146882221
 51
284.6439687496
  0
ARC
  5
3A5
100
AcDbEntity
  8
0
100
AcDbCircle
 62
7
  6
CONTINUOUS
 10
13.8656923917
 20
12.6522246061
 40
0.031865102
100
AcDbArc
 50
281.5757260021
 51
282.3140409573
  0
ARC
  5
3A6
100
AcDbEntity
  8
0
100
AcDbCircle
 62
7
  6
CONTINUOUS
 10
13.8791911422
 20
12.6788473511
 40
0.0318619576
100
AcDbArc
 50
23.887886923
 51
24.6526260687
  0
ARC
  5
3A7
100
AcDbEntity
  8
0
100
AcDbCircle
 62
7
  6
CONTINUOUS
 10
16.7565810962
 20
11.741718042
 40
1.0598576617
100
AcDbArc
 50
101.7657196387
 51
103.2018675305
  0
ARC
  5
3A8
100
AcDbEntity
  8
0
100
AcDbCircle
 62
7
  6
CONTINUOUS
 10
15.3744987634
 20
11.7145542404
 40
0.8176654551
100
AcDbArc
 50
283.2291526674
 51
285.1756486528
  0
ARC
  5
3A9
100
AcDbEntity
  8
0
100
AcDbCircle
 62
7
  6
CONTINUOUS
 10
15.8512812795
 20
11.5053967456
 40
0.3701535144
100
AcDbArc
 50
334.0293314487
 51
342.3887006113
  0
ARC
  5
3AA
100
AcDbEntity
  8
0
100
AcDbCircle
 62
7
  6
CONTINUOUS
 10
15.8506396624
 20
11.5027151446
 40
0.3699740555
100
AcDbArc
 50
334.0279403252
 51
342.8145807798
  0
ARC
  5
3AB
100
AcDbEntity
  8
0
100
AcDbCircle
 62
7
  6
CONTINUOUS
 10
15.8526267312
 20
11.502005432
 40
0.36786606
100
AcDbArc
 50
343.2541137917
 51
345.9130027016
  0
ARC
  5
3AC
100
AcDbEntity
  8
0
100
AcDbCircle
 62
7
  6
CONTINUOUS
 10
15.8529770646
 20
11.5019044751
 40
0.3675014951
100
AcDbArc
 50
342.8276543971
 51
343.2534488322
  0
ARC
  5
3AD
100
AcDbEntity
  8
0
100
AcDbCircle
 62
7
  6
CONTINUOUS
 10
15.781009134
 20
11.5250830823
 40
0.3431578022
100
AcDbArc
 50
333.4749206
 51
333.930576253
  0
ARC
  5
3AE
100
AcDbEntity
  8
0
100
AcDbCircle
 62
7
  6
CONTINUOUS
 10
15.7865729299
 20
11.5225085866
 40
0.3370286931
100
AcDbArc
 50
333.9080521181
 51
342.8140647789
  0
ARC
  5
3AF
100
AcDbEntity
  8
0
100
AcDbCircle
 62
7
  6
CONTINUOUS
 10
15.9473862983
 20
11.6585934882
 40
0.0354307971
100
AcDbArc
 50
43.8592118039
 51
45.7829530257
  0
ARC
  5
3B0
100
AcDbEntity
  8
0
100
AcDbCircle
 62
7
  6
CONTINUOUS
 10
15.9498922846
 20
11.5181867887
 40
0.0318205584
100
AcDbArc
 50
311.2367513519
 51
314.2035733621
  0
ARC
  5
3B1
100
AcDbEntity
  8
0
100
AcDbCircle
 62
7
  6
CONTINUOUS
 10
16.7852936766
 20
12.2949893538
 40
0.0486762229
100
AcDbArc
 50
168.7720140582
 51
170.855361602
  0
SPLINE
  5
3B2
100
AcDbEntity
  8
0
100
AcDbSpline
 62
7
  6
CONTINUOUS
 70
0
 71
3
 72
16
 73
12
 74
0
 42
0.0000001
 43
0.0000001
 44
0.0000000001
 40
0.0
 40
0.0
 40
0.0
 40
0.0
 40
0.1258191942
 40
0.2513849914
 40
0.3766855805
 40
0.5017040917
 40
0.6265074042
 40
0.7511301327
 40
0.8133800485
 40
0.8756038069
 40
1.0
 40
1.0
 40
1.0
 40
1.0
 10
5.0319858545
 20
6.472249038
 30
0.0
 10
5.0329753695
 20
6.4742280681
 30
0.0
 10
5.0350126568
 20
6.4781523355
 30
0.0
 10
5.0382384756
 20
6.4839391296
 30
0.0
 10
5.0416376179
 20
6.4896101363
 30
0.0
 10
5.0452617188
 20
6.4951247675
 30
0.0
 10
5.0491044106
 20
6.5004740479
 30
0.0
 10
5.0524724037
 20
6.5048006408
 30
0.0
 10
5.0552912221
 20
6.508154444
 30
0.0
 10
5.0581983728
 20
6.5114265176
 30
0.0
 10
5.0604706955
 20
6.5137966058
 30
0.0
 10
5.0620175612
 20
6.5153434715
 30
0.0
  0
SPLINE
  5
3B3
100
AcDbEntity
  8
0
100
AcDbSpline
 62
7
  6
CONTINUOUS
 70
0
 71
3
 72
9
 73
5
 74
0
 42
0.0000001
 43
0.0000001
 44
0.0000000001
 40
0.0
 40
0.0
 40
0.0
 40
0.0
 40
0.238854547
 40
1.0
 40
1.0
 40
1.0
 40
1.0
 10
6.5072920496
 20
6.8640984716
 30
0.0
 10
6.5067016334
 20
6.8642640624
 30
0.0
 10
6.5042659589
 20
6.8650870978
 30
0.0
 10
6.5020043249
 20
6.866373562
 30
0.0
 10
6.5004035176
 20
6.8674941473
 30
0.0
  0
SPLINE
  5
3B4
100
AcDbEntity
  8
0
100
AcDbSpline
 62
7
  6
CONTINUOUS
 70
0
 71
3
 72
16
 73
12
 74
0
 42
0.0000001
 43
0.0000001
 44
0.0000000001
 40
0.0
 40
0.0
 40
0.0
 40
0.0
 40
0.1243962375
 40
0.1866202295
 40
0.2488702589
 40
0.3734926663
 40
0.4982957621
 40
0.6233141588
 40
0.7486146822
 40
0.8741806187
 40
1.0
 40
1.0
 40
1.0
 40
1.0
 10
5.0620175612
 20
6.5153434715
 30
0.0
 10
5.0635644256
 20
6.5168903359
 30
0.0
 10
5.0659347817
 20
6.5191623888
 30
0.0
 10
5.0692070821
 20
6.5220692812
 30
0.0
 10
5.0725608624
 20
6.5248881155
 30
0.0
 10
5.0768872237
 20
6.5282563804
 30
0.0
 10
5.0822363396
 20
6.5320992719
 30
0.0
 10
5.08775082
 20
6.5357235769
 30
0.0
 10
5.0934217862
 20
6.5391227762
 30
0.0
 10
5.0992086523
 20
6.5423484624
 30
0.0
 10
5.103132964
 20
6.5443856629
 30
0.0
 10
5.1051119947
 20
6.5453751782
 30
0.0
  0
SPLINE
  5
3B5
100
AcDbEntity
  8
0
100
AcDbSpline
 62
7
  6
CONTINUOUS
 70
0
 71
3
 72
11
 73
7
 74
0
 42
0.0000001
 43
0.0000001
 44
0.0000000001
 40
0.0
 40
0.0
 40
0.0
 40
0.0
 40
0.2528337534
 40
0.5037951633
 40
0.7527901265
 40
1.0
 40
1.0
 40
1.0
 40
1.0
 10
5.2070621106
 20
6.5896773428
 30
0.0
 10
5.2061609922
 20
6.5863143233
 30
0.0
 10
5.2041752955
 20
6.5796615649
 30
0.0
 10
5.200509661
 20
6.569953495
 30
0.0
 10
5.1960381762
 20
6.5606704551
 30
0.0
 10
5.1924269817
 20
6.5548484665
 30
0.0
 10
5.190458833
 20
6.5520708708
 30
0.0
  0
SPLINE
  5
3B6
100
AcDbEntity
  8
0
100
AcDbSpline
 62
7
  6
CONTINUOUS
 70
0
 71
3
 72
10
 73
6
 74
0
 42
0.0000001
 43
0.0000001
 44
0.0000000001
 40
0.0
 40
0.0
 40
0.0
 40
0.0
 40
0.2525060748
 40
0.6281537151
 40
1.0
 40
1.0
 40
1.0
 40
1.0
 10
5.1339359703
 20
6.5165512026
 30
0.0
 10
5.1331591304
 20
6.5136519965
 30
0.0
 10
5.1310499208
 20
6.5064856926
 30
0.0
 10
5.1268553504
 20
6.4953436252
 30
0.0
 10
5.1227590663
 20
6.4874234136
 30
0.0
 10
5.1204440859
 20
6.4836580871
 30
0.0
  0
SPLINE
  5
3B7
100
AcDbEntity
  8
0
100
AcDbSpline
 62
7
  6
CONTINUOUS
 70
0
 71
3
 72
10
 73
6
 74
0
 42
0.0000001
 43
0.0000001
 44
0.0000000001
 40
0.0
 40
0.0
 40
0.0
 40
0.0
 40
0.2475764849
 40
0.6219158657
 40
1.0
 40
1.0
 40
1.0
 40
1.0
 10
5.1668290859
 20
6.530043087
 30
0.0
 10
5.1643219442
 20
6.5285016579
 30
0.0
 10
5.1578308137
 20
6.5249379805
 30
0.0
 10
5.1468383199
 20
6.5203452891
 30
0.0
 10
5.1382773323
 20
6.517714467
 30
0.0
 10
5.1339359703
 20
6.5165512026
 30
0.0
  0
SPLINE
  5
3B8
100
AcDbEntity
  8
0
100
AcDbSpline
 62
7
  6
CONTINUOUS
 70
0
 71
3
 72
16
 73
12
 74
0
 42
0.0000001
 43
0.0000001
 44
0.0000000001
 40
0.0
 40
0.0
 40
0.0
 40
0.0
 40
0.1258191942
 40
0.2513849914
 40
0.3766855805
 40
0.5017040917
 40
0.6265074042
 40
0.7511301327
 40
0.8133800485
 40
0.8756038069
 40
1.0
 40
1.0
 40
1.0
 40
1.0
 10
5.1051119947
 20
6.5453751782
 30
0.0
 10
5.1061015097
 20
6.5473542083
 30
0.0
 10
5.108138797
 20
6.5512784757
 30
0.0
 10
5.1113646159
 20
6.5570652698
 30
0.0
 10
5.1147637581
 20
6.5627362765
 30
0.0
 10
5.1183878591
 20
6.5682509077
 30
0.0
 10
5.1222305508
 20
6.5736001881
 30
0.0
 10
5.1255985439
 20
6.577926781
 30
0.0
 10
5.1284173623
 20
6.5812805843
 30
0.0
 10
5.131324513
 20
6.5845526579
 30
0.0
 10
5.1335968357
 20
6.5869227461
 30
0.0
 10
5.1351437014
 20
6.5884696118
 30
0.0
  0
SPLINE
  5
3B9
100
AcDbEntity
  8
0
100
AcDbSpline
 62
7
  6
CONTINUOUS
 70
0
 71
3
 72
15
 73
11
 74
0
 42
0.0000001
 43
0.0000001
 44
0.0000000001
 40
0.0
 40
0.0
 40
0.0
 40
0.0
 40
0.153628483
 40
0.2848663086
 40
0.3977790665
 40
0.499955882
 40
0.602114928
 40
0.7150323246
 40
0.8463374958
 40
1.0
 40
1.0
 40
1.0
 40
1.0
 10
4.7801103375
 20
5.8794948968
 30
0.0
 10
4.7802248515
 20
5.8794948968
 30
0.0
 10
4.780437593
 20
5.8794842044
 30
0.0
 10
4.7807294819
 20
5.8794237604
 30
0.0
 10
4.7809672544
 20
5.8793156073
 30
0.0
 10
4.7811456477
 20
5.8791535027
 30
0.0
 10
4.7812568097
 20
5.8789395873
 30
0.0
 10
4.7813002298
 20
5.8786819335
 30
0.0
 10
4.7812834774
 20
5.8783842501
 30
0.0
 10
4.7812391671
 20
5.878175832
 30
0.0
 10
4.7812097948
 20
5.8780651228
 30
0.0
  0
SPLINE
  5
3BA
100
AcDbEntity
  8
0
100
AcDbSpline
 62
7
  6
CONTINUOUS
 70
0
 71
3
 72
9
 73
5
 74
0
 42
0.0000001
 43
0.0000001
 44
0.0000000001
 40
0.0
 40
0.0
 40
0.0
 40
0.0
 40
0.2388506594
 40
1.0
 40
1.0
 40
1.0
 40
1.0
 10
5.7534425028
 20
6.8640984716
 30
0.0
 10
5.7540329103
 20
6.8642640556
 30
0.0
 10
5.7564685721
 20
6.8650871265
 30
0.0
 10
5.7587302222
 20
6.8663735531
 30
0.0
 10
5.7603310347
 20
6.8674941473
 30
0.0
  0
SPLINE
  5
3BB
100
AcDbEntity
  8
0
100
AcDbSpline
 62
7
  6
CONTINUOUS
 70
0
 71
3
 72
11
 73
7
 74
0
 42
0.0000001
 43
0.0000001
 44
0.0000000001
 40
0.0
 40
0.0
 40
0.0
 40
0.0
 40
0.2472098693
 40
0.4962046626
 40
0.747165949
 40
1.0
 40
1.0
 40
1.0
 40
1.0
 10
5.0984163021
 20
6.4600283399
 30
0.0
 10
5.0956387065
 20
6.4580601912
 30
0.0
 10
5.0898167201
 20
6.4544489978
 30
0.0
 10
5.0805336836
 20
6.4499775154
 30
0.0
 10
5.0708256149
 20
6.4463118774
 30
0.0
 10
5.0641728536
 20
6.4443261818
 30
0.0
 10
5.0608098301
 20
6.4434250623
 30
0.0
  0
SPLINE
  5
3BC
100
AcDbEntity
  8
0
100
AcDbSpline
 62
7
  6
CONTINUOUS
 70
0
 71
3
 72
9
 73
5
 74
0
 42
0.0000001
 43
0.0000001
 44
0.0000000001
 40
0.0
 40
0.0
 40
0.0
 40
0.0
 40
0.2388506594
 40
1.0
 40
1.0
 40
1.0
 40
1.0
 10
7.474345851
 20
5.8970446701
 30
0.0
 10
7.474511435
 20
5.8964542626
 30
0.0
 10
7.4753345059
 20
5.8940186008
 30
0.0
 10
7.4766209325
 20
5.8917569507
 30
0.0
 10
7.4777415267
 20
5.8901561382
 30
0.0
  0
SPLINE
  5
3BD
100
AcDbEntity
  8
0
100
AcDbSpline
 62
7
  6
CONTINUOUS
 70
0
 71
3
 72
16
 73
12
 74
0
 42
0.0000001
 43
0.0000001
 44
0.0000000001
 40
0.0
 40
0.0
 40
0.0
 40
0.0
 40
0.1243962375
 40
0.1866202295
 40
0.2488702589
 40
0.3734926663
 40
0.4982957621
 40
0.6233141588
 40
0.7486146822
 40
0.8741806187
 40
1.0
 40
1.0
 40
1.0
 40
1.0
 10
5.1351437014
 20
6.5884696118
 30
0.0
 10
5.1366905658
 20
6.5900164762
 30
0.0
 10
5.139060922
 20
6.592288529
 30
0.0
 10
5.1423332224
 20
6.5951954214
 30
0.0
 10
5.1456870026
 20
6.5980142558
 30
0.0
 10
5.150013364
 20
6.6013825207
 30
0.0
 10
5.1553624799
 20
6.6052254121
 30
0.0
 10
5.1608769602
 20
6.6088497171
 30
0.0
 10
5.1665479265
 20
6.6122489165
 30
0.0
 10
5.1723347926
 20
6.6154746026
 30
0.0
 10
5.1762591042
 20
6.6175118031
 30
0.0
 10
5.1782381349
 20
6.6185013185
 30
0.0
  0
SPLINE
  5
3BE
100
AcDbEntity
  8
0
100
AcDbSpline
 62
7
  6
CONTINUOUS
 70
0
 71
3
 72
9
 73
5
 74
0
 42
0.0000001
 43
0.0000001
 44
0.0000000001
 40
0.0
 40
0.0
 40
0.0
 40
0.0
 40
0.2388506594
 40
1.0
 40
1.0
 40
1.0
 40
1.0
 10
6.5072920496
 20
4.1761413219
 30
0.0
 10
6.506701642
 20
4.1759757379
 30
0.0
 10
6.5042659802
 20
4.175152667
 30
0.0
 10
6.5020043302
 20
4.1738662405
 30
0.0
 10
6.5004035176
 20
4.1727456462
 30
0.0
  0
SPLINE
  5
3BF
100
AcDbEntity
  8
0
100
AcDbSpline
 62
7
  6
CONTINUOUS
 70
0
 71
3
 72
9
 73
5
 74
0
 42
0.0000001
 43
0.0000001
 44
0.0000000001
 40
0.0
 40
0.0
 40
0.0
 40
0.0
 40
0.238854547
 40
1.0
 40
1.0
 40
1.0
 40
1.0
 10
7.474345851
 20
5.1431951234
 30
0.0
 10
7.4745114418
 20
5.1437855395
 30
0.0
 10
7.4753344772
 20
5.146221214
 30
0.0
 10
7.4766209414
 20
5.148482848
 30
0.0
 10
7.4777415267
 20
5.1500836553
 30
0.0
  0
SPLINE
  5
3C0
100
AcDbEntity
  8
0
100
AcDbSpline
 62
7
  6
CONTINUOUS
 70
0
 71
3
 72
23
 73
19
 74
0
 42
0.0000001
 43
0.0000001
 44
0.0000000001
 40
0.0
 40
0.0
 40
0.0
 40
0.0
 40
0.0636313937
 40
0.1270464067
 40
0.1901036232
 40
0.2527866773
 40
0.3151859781
 40
0.3774102309
 40
0.4395738418
 40
0.5017313125
 40
0.5639028478
 40
0.6260863561
 40
0.6882657247
 40
0.7504332952
 40
0.8126155161
 40
0.8748630308
 40
0.9372899291
 40
1.0
 40
1.0
 40
1.0
 40
1.0
 10
4.9353106315
 20
12.407339448
 30
0.0
 10
4.9353106315
 20
12.4048541274
 30
0.0
 10
4.9356564053
 20
12.3998849133
 30
0.0
 10
4.9372095619
 20
12.3925995867
 30
0.0
 10
4.9397874445
 20
12.3856467076
 30
0.0
 10
4.9433691954
 20
12.3791963321
 30
0.0
 10
4.9479164624
 20
12.373423152
 30
0.0
 10
4.953357281
 20
12.3685081822
 30
0.0
 10
4.9595735021
 20
12.3646318146
 30
0.0
 10
4.9663932129
 20
12.361955041
 30
0.0
 10
4.9735953987
 20
12.3605998578
 30
0.0
 10
4.9809252707
 20
12.3606313796
 30
0.0
 10
4.9881162796
 20
12.3620481005
 30
0.0
 10
4.9949144536
 20
12.3647828105
 30
0.0
 10
5.0011002653
 20
12.3687109311
 30
0.0
 10
5.0065042319
 20
12.3736707596
 30
0.0
 10
5.0110086631
 20
12.3794793749
 30
0.0
 10
5.0133615938
 20
12.3837897598
 30
0.0
 10
5.0143696455
 20
12.3860220403
 30
0.0
  0
SPLINE
  5
3C1
100
AcDbEntity
  8
0
100
AcDbSpline
 62
7
  6
CONTINUOUS
 70
0
 71
3
 72
23
 73
19
 74
0
 42
0.0000001
 43
0.0000001
 44
0.0000000001
 40
0.0
 40
0.0
 40
0.0
 40
0.0
 40
0.0627034753
 40
0.1251139409
 40
0.1873428553
 40
0.2495084728
 40
0.3116601676
 40
0.3738314641
 40
0.4360133749
 40
0.4981883109
 40
0.5603566435
 40
0.6225337039
 40
0.6847753344
 40
0.7471871275
 40
0.8098826811
 40
0.8729486041
 40
0.9363683165
 40
1.0
 40
1.0
 40
1.0
 40
1.0
 10
5.0143696455
 20
12.4286568558
 30
0.0
 10
5.0133617006
 20
12.4308888998
 30
0.0
 10
5.0110092806
 20
12.4351985266
 30
0.0
 10
5.0065060321
 20
12.4410059661
 30
0.0
 10
5.0011040742
 20
12.4459649186
 30
0.0
 10
4.9949206197
 20
12.4498929894
 30
0.0
 10
4.9881244006
 20
12.4526282023
 30
0.0
 10
4.9809347577
 20
12.454046557
 30
0.0
 10
4.9736051515
 20
12.4540797683
 30
0.0
 10
4.9664020973
 20
12.4527264564
 30
0.0
 10
4.9595808869
 20
12.4500505178
 30
0.0
 10
4.9533623722
 20
12.4461747176
 30
0.0
 10
4.9479197712
 20
12.4412591438
 30
0.0
 10
4.9433707857
 20
12.4354852017
 30
0.0
 10
4.9397881775
 20
12.4290337703
 30
0.0
 10
4.9372096968
 20
12.4220800356
 30
0.0
 10
4.9356564315
 20
12.4147941795
 30
0.0
 10
4.9353106315
 20
12.409824778
 30
0.0
 10
4.9353106315
 20
12.407339448
 30
0.0
  0
SPLINE
  5
3C2
100
AcDbEntity
  8
0
100
AcDbSpline
 62
7
  6
CONTINUOUS
 70
0
 71
3
 72
15
 73
11
 74
0
 42
0.0000001
 43
0.0000001
 44
0.0000000001
 40
0.0
 40
0.0
 40
0.0
 40
0.0
 40
0.112317245
 40
0.2276946197
 40
0.3463498198
 40
0.4689113683
 40
0.5954416016
 40
0.7258218261
 40
0.8606950047
 40
1.0
 40
1.0
 40
1.0
 40
1.0
 10
4.9724906621
 20
12.3476322046
 30
0.0
 10
4.9734950687
 20
12.3464020628
 30
0.0
 10
4.9755626901
 20
12.3439337954
 30
0.0
 10
4.9787924761
 20
12.3402521312
 30
0.0
 10
4.9822041284
 20
12.3365388257
 30
0.0
 10
4.9858295156
 20
12.3328103834
 30
0.0
 10
4.9896701146
 20
12.3290628633
 30
0.0
 10
4.9937225449
 20
12.325285051
 30
0.0
 10
4.9980178295
 20
12.3215060481
 30
0.0
 10
5.0009966468
 20
12.3190243296
 30
0.0
 10
5.0025223689
 20
12.3177785828
 30
0.0
  0
SPLINE
  5
3C3
100
AcDbEntity
  8
0
100
AcDbSpline
 62
7
  6
CONTINUOUS
 70
0
 71
3
 72
15
 73
11
 74
0
 42
0.0000001
 43
0.0000001
 44
0.0000000001
 40
0.0
 40
0.0
 40
0.0
 40
0.0
 40
0.1157138299
 40
0.2347162407
 40
0.3568083694
 40
0.4813389779
 40
0.6081812563
 40
0.7371776539
 40
0.8678607379
 40
1.0
 40
1.0
 40
1.0
 40
1.0
 10
5.0025223689
 20
12.3177785828
 30
0.0
 10
5.0040898458
 20
12.3164987432
 30
0.0
 10
5.0072964195
 20
12.3139355486
 30
0.0
 10
5.0122638521
 20
12.310158243
 30
0.0
 10
5.0174394045
 20
12.3064029114
 30
0.0
 10
5.0227866333
 20
12.3026523625
 30
0.0
 10
5.0282969071
 20
12.2989255468
 30
0.0
 10
5.0339572218
 20
12.2952303232
 30
0.0
 10
5.0397398434
 20
12.2915540814
 30
0.0
 10
5.0436461011
 20
12.2891317642
 30
0.0
 10
5.0456168024
 20
12.2879249611
 30
0.0
  0
SPLINE
  5
3C4
100
AcDbEntity
  8
0
100
AcDbSpline
 62
7
  6
CONTINUOUS
 70
0
 71
3
 72
15
 73
11
 74
0
 42
0.0000001
 43
0.0000001
 44
0.0000000001
 40
0.0
 40
0.0
 40
0.0
 40
0.0
 40
0.1321386292
 40
0.2628209872
 40
0.3918180066
 40
0.5186621805
 40
0.6431954292
 40
0.7652907151
 40
0.8842906872
 40
1.0
 40
1.0
 40
1.0
 40
1.0
 10
5.0456168024
 20
12.526753935
 30
0.0
 10
5.0436461101
 20
12.5255471374
 30
0.0
 10
5.0397398914
 20
12.5231248001
 30
0.0
 10
5.0339573116
 20
12.519448514
 30
0.0
 10
5.0282969557
 20
12.5157532947
 30
0.0
 10
5.0227865479
 20
12.5120265133
 30
0.0
 10
5.0174391511
 20
12.5082759682
 30
0.0
 10
5.0122634327
 20
12.5045207622
 30
0.0
 10
5.0072961092
 20
12.5007434145
 30
0.0
 10
5.004089785
 20
12.4981801031
 30
0.0
 10
5.0025223689
 20
12.4969003133
 30
0.0
  0
SPLINE
  5
3C5
100
AcDbEntity
  8
0
100
AcDbSpline
 62
7
  6
CONTINUOUS
 70
0
 71
3
 72
15
 73
11
 74
0
 42
0.0000001
 43
0.0000001
 44
0.0000000001
 40
0.0
 40
0.0
 40
0.0
 40
0.0
 40
0.1392989235
 40
0.2741692009
 40
0.4045535927
 40
0.5310878526
 40
0.6536526967
 40
0.7723087613
 40
0.8876843129
 40
1.0
 40
1.0
 40
1.0
 40
1.0
 10
5.0025223689
 20
12.4969003133
 30
0.0
 10
5.0009967138
 20
12.4956546212
 30
0.0
 10
4.9980181472
 20
12.4931727995
 30
0.0
 10
4.9937230078
 20
12.489393744
 30
0.0
 10
4.9896703703
 20
12.4856160483
 30
0.0
 10
4.985829568
 20
12.4818685054
 30
0.0
 10
4.9822040056
 20
12.4781400742
 30
0.0
 10
4.9787923007
 20
12.4744267728
 30
0.0
 10
4.9755625999
 20
12.4707450824
 30
0.0
 10
4.9734950544
 20
12.4682768158
 30
0.0
 10
4.9724906621
 20
12.4670466915
 30
0.0
  0
SPLINE
  5
3C6
100
AcDbEntity
  8
0
100
AcDbSpline
 62
7
  6
CONTINUOUS
 70
0
 71
3
 72
9
 73
5
 74
0
 42
0.0000001
 43
0.0000001
 44
0.0000000001
 40
0.0
 40
0.0
 40
0.0
 40
0.0
 40
0.5107789742
 40
1.0
 40
1.0
 40
1.0
 40
1.0
 10
5.074440778
 20
12.526753935
 30
0.0
 10
5.0801815493
 20
12.5237822931
 30
0.0
 10
5.0913265865
 20
12.5177797547
 30
0.0
 10
5.1021646483
 20
12.5112251402
 30
0.0
 10
5.1073338936
 20
12.5078173381
 30
0.0
  0
SPLINE
  5
3C7
100
AcDbEntity
  8
0
100
AcDbSpline
 62
7
  6
CONTINUOUS
 70
0
 71
3
 72
15
 73
11
 74
0
 42
0.0000001
 43
0.0000001
 44
0.0000000001
 40
0.0
 40
0.0
 40
0.0
 40
0.0
 40
0.122132055
 40
0.2463529781
 40
0.372546071
 40
0.5000000005
 40
0.6274539315
 40
0.7536470221
 40
0.8778679449
 40
1.0
 40
1.0
 40
1.0
 40
1.0
 10
5.1475669183
 20
12.3476322046
 30
0.0
 10
5.1492238864
 20
12.3523188182
 30
0.0
 10
5.1523057116
 20
12.3618679906
 30
0.0
 10
5.1559443784
 20
12.3766034782
 30
0.0
 10
5.1583243031
 20
12.3918213739
 30
0.0
 10
5.1591585858
 20
12.4073394482
 30
0.0
 10
5.1583243031
 20
12.4228575223
 30
0.0
 10
5.1559443784
 20
12.438075418
 30
0.0
 10
5.1523057116
 20
12.4528109054
 30
0.0
 10
5.1492238864
 20
12.4623600778
 30
0.0
 10
5.1475669183
 20
12.4670466915
 30
0.0
  0
SPLINE
  5
3C8
100
AcDbEntity
  8
0
100
AcDbSpline
 62
7
  6
CONTINUOUS
 70
0
 71
3
 72
11
 73
7
 74
0
 42
0.0000001
 43
0.0000001
 44
0.0000000001
 40
0.0
 40
0.0
 40
0.0
 40
0.0
 40
0.2840059646
 40
0.5428294781
 40
0.7801432256
 40
1.0
 40
1.0
 40
1.0
 40
1.0
 10
5.1309636407
 20
12.4891777291
 30
0.0
 10
5.1328376378
 20
12.4873329697
 30
0.0
 10
5.1362942145
 20
12.4836758109
 30
0.0
 10
5.1408218187
 20
12.4780374128
 30
0.0
 10
5.1445409905
 20
12.4725410176
 30
0.0
 10
5.1466311165
 20
12.4688545217
 30
0.0
 10
5.1475669183
 20
12.4670466915
 30
0.0
  0
SPLINE
  5
3C9
100
AcDbEntity
  8
0
100
AcDbSpline
 62
7
  6
CONTINUOUS
 70
0
 71
3
 72
11
 73
7
 74
0
 42
0.0000001
 43
0.0000001
 44
0.0000000001
 40
0.0
 40
0.0
 40
0.0
 40
0.0
 40
0.2198565332
 40
0.4571703459
 40
0.7159940321
 40
1.0
 40
1.0
 40
1.0
 40
1.0
 10
5.1475669183
 20
12.3476322046
 30
0.0
 10
5.1466311175
 20
12.3458243763
 30
0.0
 10
5.1445409913
 20
12.3421378825
 30
0.0
 10
5.1408218215
 20
12.336641486
 30
0.0
 10
5.1362942155
 20
12.3310030865
 30
0.0
 10
5.1328376379
 20
12.3273459264
 30
0.0
 10
5.1309636407
 20
12.3255011669
 30
0.0
  0
SPLINE
  5
3CA
100
AcDbEntity
  8
0
100
AcDbSpline
 62
7
  6
CONTINUOUS
 70
0
 71
3
 72
9
 73
5
 74
0
 42
0.0000001
 43
0.0000001
 44
0.0000000001
 40
0.0
 40
0.0
 40
0.0
 40
0.0
 40
0.4892207759
 40
1.0
 40
1.0
 40
1.0
 40
1.0
 10
5.1073338936
 20
12.306861558
 30
0.0
 10
5.1021646509
 20
12.3034537576
 30
0.0
 10
5.0913265893
 20
12.2968991429
 30
0.0
 10
5.0801815521
 20
12.2908966044
 30
0.0
 10
5.074440778
 20
12.2879249611
 30
0.0
  0
SPLINE
  5
3CB
100
AcDbEntity
  8
0
100
AcDbSpline
 62
7
  6
CONTINUOUS
 70
0
 71
3
 72
9
 73
5
 74
0
 42
0.0000001
 43
0.0000001
 44
0.0000000001
 40
0.0
 40
0.0
 40
0.0
 40
0.0
 40
0.2421497118
 40
1.0
 40
1.0
 40
1.0
 40
1.0
 10
5.0143696205
 20
12.3860220629
 30
0.0
 10
5.015095839
 20
12.3876301044
 30
0.0
 10
5.0176974801
 20
12.3944466884
 30
0.0
 10
5.0187722887
 20
12.4018173726
 30
0.0
 10
5.0187722887
 20
12.407339448
 30
0.0
  0
SPLINE
  5
3CC
100
AcDbEntity
  8
0
100
AcDbSpline
 62
7
  6
CONTINUOUS
 70
0
 71
3
 72
9
 73
5
 74
0
 42
0.0000001
 43
0.0000001
 44
0.0000000001
 40
0.0
 40
0.0
 40
0.0
 40
0.0
 40
0.4842371469
 40
1.0
 40
1.0
 40
1.0
 40
1.0
 10
4.998574113
 20
12.3441917623
 30
0.0
 10
4.9957705658
 20
12.346480849
 30
0.0
 10
4.9904761776
 20
12.3518335961
 30
0.0
 10
4.9862425402
 20
12.358040459
 30
0.0
 10
4.9843234588
 20
12.3613838314
 30
0.0
  0
SPLINE
  5
3CD
100
AcDbEntity
  8
0
100
AcDbSpline
 62
7
  6
CONTINUOUS
 70
0
 71
3
 72
13
 73
9
 74
0
 42
0.0000001
 43
0.0000001
 44
0.0000000001
 40
0.0
 40
0.0
 40
0.0
 40
0.0
 40
0.1366552967
 40
0.2713592853
 40
0.4026460174
 40
0.5301002273
 40
0.772801846
 40
1.0
 40
1.0
 40
1.0
 40
1.0
 10
7.4387255923
 20
13.1356305318
 30
0.0
 10
7.4375597103
 20
13.1353239822
 30
0.0
 10
7.4352866203
 20
13.1345506491
 30
0.0
 10
7.4320586627
 20
13.1330558732
 30
0.0
 10
7.4290686852
 20
13.1312806528
 30
0.0
 10
7.4255115776
 20
13.1286394941
 30
0.0
 10
7.4217471616
 20
13.1249136193
 30
0.0
 10
7.4192816386
 20
13.1215555803
 30
0.0
 10
7.4182463344
 20
13.119839448
 30
0.0
  0
SPLINE
  5
3CE
100
AcDbEntity
  8
0
100
AcDbSpline
 62
7
  6
CONTINUOUS
 70
0
 71
3
 72
15
 73
11
 74
0
 42
0.0000001
 43
0.0000001
 44
0.0000000001
 40
0.0
 40
0.0
 40
0.0
 40
0.0
 40
0.112317245
 40
0.2276946197
 40
0.3463498198
 40
0.4689113683
 40
0.5954416016
 40
0.7258218261
 40
0.8606950047
 40
1.0
 40
1.0
 40
1.0
 40
1.0
 10
5.0456168024
 20
12.2879249611
 30
0.0
 10
5.0466212089
 20
12.2891551028
 30
0.0
 10
5.0486888304
 20
12.2916233702
 30
0.0
 10
5.0519186164
 20
12.2953050344
 30
0.0
 10
5.0553302687
 20
12.2990183399
 30
0.0
 10
5.0589556559
 20
12.3027467822
 30
0.0
 10
5.0627962549
 20
12.3064943023
 30
0.0
 10
5.0668486851
 20
12.3102721146
 30
0.0
 10
5.0711439697
 20
12.3140511175
 30
0.0
 10
5.0741227871
 20
12.316532836
 30
0.0
 10
5.0756485091
 20
12.3177785828
 30
0.0
  0
SPLINE
  5
3CF
100
AcDbEntity
  8
0
100
AcDbSpline
 62
7
  6
CONTINUOUS
 70
0
 71
3
 72
15
 73
11
 74
0
 42
0.0000001
 43
0.0000001
 44
0.0000000001
 40
0.0
 40
0.0
 40
0.0
 40
0.0
 40
0.1312658062
 40
0.2573771378
 40
0.3796893943
 40
0.5
 40
0.6203106057
 40
0.7426228622
 40
0.8687341938
 40
1.0
 40
1.0
 40
1.0
 40
1.0
 10
5.0501339824
 20
12.3441917623
 30
0.0
 10
5.0482299593
 20
12.342637134
 30
0.0
 10
5.0442677447
 20
12.3398537061
 30
0.0
 10
5.037838413
 20
12.3367428231
 30
0.0
 10
5.0311596589
 20
12.3348483953
 30
0.0
 10
5.0243540477
 20
12.3342118876
 30
0.0
 10
5.0175484365
 20
12.3348483953
 30
0.0
 10
5.0108696824
 20
12.3367428231
 30
0.0
 10
5.0044403507
 20
12.3398537061
 30
0.0
 10
5.0004781361
 20
12.342637134
 30
0.0
 10
4.998574113
 20
12.3441917623
 30
0.0
  0
SPLINE
  5
3D0
100
AcDbEntity
  8
0
100
AcDbSpline
 62
7
  6
CONTINUOUS
 70
0
 71
3
 72
15
 73
11
 74
0
 42
0.0000001
 43
0.0000001
 44
0.0000000001
 40
0.0
 40
0.0
 40
0.0
 40
0.0
 40
0.1157138299
 40
0.2347162407
 40
0.3568083694
 40
0.4813389779
 40
0.6081812563
 40
0.7371776539
 40
0.8678607379
 40
1.0
 40
1.0
 40
1.0
 40
1.0
 10
5.0756485091
 20
12.3177785828
 30
0.0
 10
5.077215986
 20
12.3190584224
 30
0.0
 10
5.0804225598
 20
12.321621617
 30
0.0
 10
5.0853899923
 20
12.3253989226
 30
0.0
 10
5.0905655447
 20
12.3291542542
 30
0.0
 10
5.0959127735
 20
12.3329048031
 30
0.0
 10
5.1014230473
 20
12.3366316189
 30
0.0
 10
5.107083362
 20
12.3403268424
 30
0.0
 10
5.1128659836
 20
12.3440030842
 30
0.0
 10
5.1167722414
 20
12.3464254014
 30
0.0
 10
5.1187429426
 20
12.3476322046
 30
0.0
  0
SPLINE
  5
3D1
100
AcDbEntity
  8
0
100
AcDbSpline
 62
7
  6
CONTINUOUS
 70
0
 71
3
 72
15
 73
11
 74
0
 42
0.0000001
 43
0.0000001
 44
0.0000000001
 40
0.0
 40
0.0
 40
0.0
 40
0.0
 40
0.1237121711
 40
0.2478515311
 40
0.3723891162
 40
0.4973382558
 40
0.622659344
 40
0.7482556017
 40
0.8740673833
 40
1.0
 40
1.0
 40
1.0
 40
1.0
 10
5.1187429426
 20
12.3476322046
 30
0.0
 10
5.1182467244
 20
12.3500631672
 30
0.0
 10
5.1173010475
 20
12.3549435147
 30
0.0
 10
5.1160209967
 20
12.3623018091
 30
0.0
 10
5.114885344
 20
12.3697091391
 30
0.0
 10
5.1139409748
 20
12.377167428
 30
0.0
 10
5.1131888275
 20
12.3846686394
 30
0.0
 10
5.1126129364
 20
12.3922030471
 30
0.0
 10
5.1122754161
 20
12.399764589
 30
0.0
 10
5.1122115792
 20
12.4048138253
 30
0.0
 10
5.1122115792
 20
12.407339448
 30
0.0
  0
SPLINE
  5
3D2
100
AcDbEntity
  8
0
100
AcDbSpline
 62
7
  6
CONTINUOUS
 70
0
 71
3
 72
15
 73
11
 74
0
 42
0.0000001
 43
0.0000001
 44
0.0000000001
 40
0.0
 40
0.0
 40
0.0
 40
0.0
 40
0.1259324456
 40
0.2517443406
 40
0.3773406369
 40
0.5026619668
 40
0.6276114377
 40
0.752149047
 40
0.8762880868
 40
1.0
 40
1.0
 40
1.0
 40
1.0
 10
5.1122115792
 20
12.407339448
 30
0.0
 10
5.1122115792
 20
12.4098650663
 30
0.0
 10
5.1122758016
 20
12.414914297
 30
0.0
 10
5.112613505
 20
12.4224758192
 30
0.0
 10
5.1131890617
 20
12.4300102559
 30
0.0
 10
5.1139410353
 20
12.4375114951
 30
0.0
 10
5.1148852233
 20
12.444969816
 30
0.0
 10
5.1160208258
 20
12.4523771527
 30
0.0
 10
5.1173009813
 20
12.4597354151
 30
0.0
 10
5.1182467257
 20
12.4646157349
 30
0.0
 10
5.1187429426
 20
12.4670466915
 30
0.0
  0
SPLINE
  5
3D3
100
AcDbEntity
  8
0
100
AcDbSpline
 62
7
  6
CONTINUOUS
 70
0
 71
3
 72
16
 73
12
 74
0
 42
0.0000001
 43
0.0000001
 44
0.0000000001
 40
0.0
 40
0.0
 40
0.0
 40
0.0
 40
0.1249714216
 40
0.2499478551
 40
0.3749483246
 40
0.4999403469
 40
0.6249292426
 40
0.749942726
 40
0.8124931984
 40
0.8750180348
 40
1.0
 40
1.0
 40
1.0
 40
1.0
 10
4.7206151452
 20
13.119839448
 30
0.0
 10
4.7201654907
 20
13.1210684771
 30
0.0
 10
4.719095756
 20
13.1234719441
 30
0.0
 10
4.7168850944
 20
13.1267395247
 30
0.0
 10
4.7141920793
 20
13.1296176856
 30
0.0
 10
4.7110993857
 20
13.1320611205
 30
0.0
 10
4.7076812643
 20
13.1340219965
 30
0.0
 10
4.7046243472
 20
13.1352266725
 30
0.0
 10
4.7020939796
 20
13.1359108819
 30
0.0
 10
4.699516503
 20
13.1363881043
 30
0.0
 10
4.6975475016
 20
13.1365061147
 30
0.0
 10
4.6962386889
 20
13.1365061147
 30
0.0
  0
SPLINE
  5
3D4
100
AcDbEntity
  8
0
100
AcDbSpline
 62
7
  6
CONTINUOUS
 70
0
 71
3
 72
15
 73
11
 74
0
 42
0.0000001
 43
0.0000001
 44
0.0000000001
 40
0.0
 40
0.0
 40
0.0
 40
0.0
 40
0.1321386292
 40
0.2628209872
 40
0.3918180066
 40
0.5186621805
 40
0.6431954292
 40
0.7652907151
 40
0.8842906872
 40
1.0
 40
1.0
 40
1.0
 40
1.0
 10
5.1187429426
 20
12.4670466915
 30
0.0
 10
5.1167722504
 20
12.4682534891
 30
0.0
 10
5.1128660316
 20
12.4706758264
 30
0.0
 10
5.1070834518
 20
12.4743521125
 30
0.0
 10
5.1014230959
 20
12.4780473319
 30
0.0
 10
5.0959126882
 20
12.4817741132
 30
0.0
 10
5.0905652913
 20
12.4855246584
 30
0.0
 10
5.0853895729
 20
12.4892798643
 30
0.0
 10
5.0804222495
 20
12.493057212
 30
0.0
 10
5.0772159252
 20
12.4956205234
 30
0.0
 10
5.0756485091
 20
12.4969003133
 30
0.0
  0
SPLINE
  5
3D5
100
AcDbEntity
  8
0
100
AcDbSpline
 62
7
  6
CONTINUOUS
 70
0
 71
3
 72
14
 73
10
 74
0
 42
0.0000001
 43
0.0000001
 44
0.0000000001
 40
0.0
 40
0.0
 40
0.0
 40
0.0
 40
0.3044232889
 40
0.4472698721
 40
0.5820898731
 40
0.7070640204
 40
0.819974634
 40
0.9182901162
 40
1.0
 40
1.0
 40
1.0
 40
1.0
 10
6.4409083253
 20
13.119839448
 30
0.0
 10
6.4397366674
 20
13.1211992665
 30
0.0
 10
6.4380340741
 20
13.1232141586
 30
0.0
 10
6.4359100028
 20
13.1259105319
 30
0.0
 10
6.4344905816
 20
13.12781392
 30
0.0
 10
6.4332236897
 20
13.1296098349
 30
0.0
 10
6.4321340427
 20
13.1312666056
 30
0.0
 10
6.4312542171
 20
13.1327534394
 30
0.0
 10
6.4307839454
 20
13.1337081584
 30
0.0
 10
6.4306060474
 20
13.1341558946
 30
0.0
  0
LINE
  5
3D6
100
AcDbEntity
  8
0
100
AcDbLine
 62
7
  6
CONTINUOUS
 10
6.4477968573
 20
13.1115061147
 11
6.4409083253
 21
13.119839448
  0
SPLINE
  5
3D7
100
AcDbEntity
  8
0
100
AcDbSpline
 62
7
  6
CONTINUOUS
 70
0
 71
3
 72
11
 73
7
 74
0
 42
0.0000001
 43
0.0000001
 44
0.0000000001
 40
0.0
 40
0.0
 40
0.0
 40
0.0
 40
0.2669422871
 40
0.5232216592
 40
0.7676615213
 40
1.0
 40
1.0
 40
1.0
 40
1.0
 10
4.9737820281
 20
12.3608015875
 30
0.0
 10
4.9753449699
 20
12.3564152005
 30
0.0
 10
4.978893151
 20
12.3479793775
 30
0.0
 10
4.9855709281
 20
12.3363309814
 30
0.0
 10
4.9933756678
 20
12.3261517522
 30
0.0
 10
4.9993830107
 20
12.320341858
 30
0.0
 10
5.0025223689
 20
12.3177785828
 30
0.0
  0
SPLINE
  5
3D8
100
AcDbEntity
  8
0
100
AcDbSpline
 62
7
  6
CONTINUOUS
 70
0
 71
3
 72
15
 73
11
 74
0
 42
0.0000001
 43
0.0000001
 44
0.0000000001
 40
0.0
 40
0.0
 40
0.0
 40
0.0
 40
0.1392989235
 40
0.2741692009
 40
0.4045535927
 40
0.5310878526
 40
0.6536526967
 40
0.7723087613
 40
0.8876843129
 40
1.0
 40
1.0
 40
1.0
 40
1.0
 10
5.0756485091
 20
12.4969003133
 30
0.0
 10
5.0741228541
 20
12.4981460054
 30
0.0
 10
5.0711442874
 20
12.500627827
 30
0.0
 10
5.066849148
 20
12.5044068825
 30
0.0
 10
5.0627965105
 20
12.5081845782
 30
0.0
 10
5.0589557083
 20
12.5119321211
 30
0.0
 10
5.0553301458
 20
12.5156605523
 30
0.0
 10
5.0519184409
 20
12.5193738537
 30
0.0
 10
5.0486887401
 20
12.5230555441
 30
0.0
 10
5.0466211947
 20
12.5255238107
 30
0.0
 10
5.0456168024
 20
12.526753935
 30
0.0
  0
SPLINE
  5
3D9
100
AcDbEntity
  8
0
100
AcDbSpline
 62
7
  6
CONTINUOUS
 70
0
 71
3
 72
14
 73
10
 74
0
 42
0.0000001
 43
0.0000001
 44
0.0000000001
 40
0.0
 40
0.0
 40
0.0
 40
0.0
 40
0.269599703
 40
0.4017108628
 40
0.5305730595
 40
0.6553331758
 40
0.7753493757
 40
0.8902627932
 40
1.0
 40
1.0
 40
1.0
 40
1.0
 10
5.0759139172
 20
12.407339448
 30
0.0
 10
5.0759139172
 20
12.4010214367
 30
0.0
 10
5.0750503566
 20
12.3915738447
 30
0.0
 10
5.0721568326
 20
12.3794670976
 30
0.0
 10
5.069187802
 20
12.3709111522
 30
0.0
 10
5.0654553552
 20
12.3629716147
 30
0.0
 10
5.061020298
 20
12.355779976
 30
0.0
 10
5.0559559348
 20
12.3494609528
 30
0.0
 10
5.0521259879
 20
12.345818228
 30
0.0
 10
5.0501339824
 20
12.3441917623
 30
0.0
  0
SPLINE
  5
3DA
100
AcDbEntity
  8
0
100
AcDbSpline
 62
7
  6
CONTINUOUS
 70
0
 71
3
 72
14
 73
10
 74
0
 42
0.0000001
 43
0.0000001
 44
0.0000000001
 40
0.0
 40
0.0
 40
0.0
 40
0.0
 40
0.1097372068
 40
0.2246506243
 40
0.3446668242
 40
0.4694269405
 40
0.5982891372
 40
0.730400297
 40
1.0
 40
1.0
 40
1.0
 40
1.0
 10
5.0501339824
 20
12.4704871337
 30
0.0
 10
5.0521259879
 20
12.4688606681
 30
0.0
 10
5.0559559348
 20
12.4652179433
 30
0.0
 10
5.061020298
 20
12.4588989201
 30
0.0
 10
5.0654553552
 20
12.4517072814
 30
0.0
 10
5.069187802
 20
12.4437677439
 30
0.0
 10
5.0721568326
 20
12.4352117985
 30
0.0
 10
5.0750503566
 20
12.4231050513
 30
0.0
 10
5.0759139172
 20
12.4136574594
 30
0.0
 10
5.0759139172
 20
12.407339448
 30
0.0
  0
SPLINE
  5
3DB
100
AcDbEntity
  8
0
100
AcDbSpline
 62
7
  6
CONTINUOUS
 70
0
 71
3
 72
11
 73
7
 74
0
 42
0.0000001
 43
0.0000001
 44
0.0000000001
 40
0.0
 40
0.0
 40
0.0
 40
0.0
 40
0.2323253747
 40
0.476762387
 40
0.7330474332
 40
1.0
 40
1.0
 40
1.0
 40
1.0
 10
5.0025223689
 20
12.4969003133
 30
0.0
 10
4.9993800511
 20
12.4943346215
 30
0.0
 10
4.9933673142
 20
12.4885185933
 30
0.0
 10
4.9855568925
 20
12.4783277211
 30
0.0
 10
4.9788757858
 20
12.4666654469
 30
0.0
 10
4.9753271719
 20
12.4582195471
 30
0.0
 10
4.9737644529
 20
12.4538279512
 30
0.0
  0
SPLINE
  5
3DC
100
AcDbEntity
  8
0
100
AcDbSpline
 62
7
  6
CONTINUOUS
 70
0
 71
3
 72
15
 73
11
 74
0
 42
0.0000001
 43
0.0000001
 44
0.0000000001
 40
0.0
 40
0.0
 40
0.0
 40
0.0
 40
0.1312712794
 40
0.2573740503
 40
0.3796904152
 40
0.5
 40
0.6203095848
 40
0.7426259497
 40
0.8687287206
 40
1.0
 40
1.0
 40
1.0
 40
1.0
 10
5.0756485091
 20
12.4969003133
 30
0.0
 10
5.0729479615
 20
12.4991053012
 30
0.0
 10
5.0673285925
 20
12.5030530899
 30
0.0
 10
5.0582098536
 20
12.5074648743
 30
0.0
 10
5.0487377773
 20
12.5101521018
 30
0.0
 10
5.039085439
 20
12.5110545428
 30
0.0
 10
5.0294331007
 20
12.5101521018
 30
0.0
 10
5.0199610243
 20
12.5074648743
 30
0.0
 10
5.0108422854
 20
12.5030530899
 30
0.0
 10
5.0052229165
 20
12.4991053012
 30
0.0
 10
5.0025223689
 20
12.4969003133
 30
0.0
  0
SPLINE
  5
3DD
100
AcDbEntity
  8
0
100
AcDbSpline
 62
7
  6
CONTINUOUS
 70
0
 71
3
 72
14
 73
10
 74
0
 42
0.0000001
 43
0.0000001
 44
0.0000000001
 40
0.0
 40
0.0
 40
0.0
 40
0.0
 40
0.269596452
 40
0.4017121349
 40
0.5305732369
 40
0.6553327001
 40
0.7753521299
 40
0.8902584827
 40
1.0
 40
1.0
 40
1.0
 40
1.0
 10
5.1122115792
 20
12.407339448
 30
0.0
 10
5.1122115792
 20
12.4163000305
 30
0.0
 10
5.1109866898
 20
12.4296993388
 30
0.0
 10
5.1068832298
 20
12.4468701641
 30
0.0
 10
5.1026720803
 20
12.4590048743
 30
0.0
 10
5.0973786379
 20
12.4702654952
 30
0.0
 10
5.0910882589
 20
12.4804649063
 30
0.0
 10
5.0839058117
 20
12.4894272207
 30
0.0
 10
5.0784738357
 20
12.4945934438
 30
0.0
 10
5.0756485091
 20
12.4969003133
 30
0.0
  0
SPLINE
  5
3DE
100
AcDbEntity
  8
0
100
AcDbSpline
 62
7
  6
CONTINUOUS
 70
0
 71
3
 72
14
 73
10
 74
0
 42
0.0000001
 43
0.0000001
 44
0.0000000001
 40
0.0
 40
0.0
 40
0.0
 40
0.0
 40
0.1097415173
 40
0.2246478701
 40
0.3446672999
 40
0.4694267631
 40
0.5982878651
 40
0.730403548
 40
1.0
 40
1.0
 40
1.0
 40
1.0
 10
5.0756485091
 20
12.3177785828
 30
0.0
 10
5.0784738357
 20
12.3200854523
 30
0.0
 10
5.0839058117
 20
12.3252516753
 30
0.0
 10
5.0910882589
 20
12.3342139898
 30
0.0
 10
5.0973786379
 20
12.3444134009
 30
0.0
 10
5.1026720803
 20
12.3556740218
 30
0.0
 10
5.1068832298
 20
12.367808732
 30
0.0
 10
5.1109866898
 20
12.3849795573
 30
0.0
 10
5.1122115792
 20
12.3983788655
 30
0.0
 10
5.1122115792
 20
12.407339448
 30
0.0
  0
SPLINE
  5
3DF
100
AcDbEntity
  8
0
100
AcDbSpline
 62
7
  6
CONTINUOUS
 70
0
 71
3
 72
14
 73
10
 74
0
 42
0.0000001
 43
0.0000001
 44
0.0000000001
 40
0.0
 40
0.0
 40
0.0
 40
0.0
 40
0.0817940073
 40
0.180165692
 40
0.2930993601
 40
0.4180741629
 40
0.5528731236
 40
0.6956838448
 40
1.0
 40
1.0
 40
1.0
 40
1.0
 10
5.7111346177
 20
13.1341478081
 30
0.0
 10
5.7109560885
 20
13.1337000512
 30
0.0
 10
5.7104850374
 20
13.1327454254
 30
0.0
 10
5.709604614
 20
13.1312588384
 30
0.0
 10
5.7085149233
 20
13.1296027364
 30
0.0
 10
5.7072484368
 20
13.1278078746
 30
0.0
 10
5.7058299356
 20
13.1259057114
 30
0.0
 10
5.7037076879
 20
13.1232113362
 30
0.0
 10
5.7020064971
 20
13.1211981022
 30
0.0
 10
5.7008358424
 20
13.119839448
 30
0.0
  0
SPLINE
  5
3E0
100
AcDbEntity
  8
0
100
AcDbSpline
 62
7
  6
CONTINUOUS
 70
0
 71
3
 72
9
 73
5
 74
0
 42
0.0000001
 43
0.0000001
 44
0.0000000001
 40
0.0
 40
0.0
 40
0.0
 40
0.0
 40
0.256914736
 40
1.0
 40
1.0
 40
1.0
 40
1.0
 10
5.0187722887
 20
12.407339448
 30
0.0
 10
5.0187722887
 20
12.4092111464
 30
0.0
 10
5.0184089882
 20
12.4164879898
 30
0.0
 10
5.0165977987
 20
12.423723052
 30
0.0
 10
5.0143696205
 20
12.4286568332
 30
0.0
  0
SPLINE
  5
3E1
100
AcDbEntity
  8
0
100
AcDbSpline
 62
7
  6
CONTINUOUS
 70
0
 71
3
 72
15
 73
11
 74
0
 42
0.0000001
 43
0.0000001
 44
0.0000000001
 40
0.0
 40
0.0
 40
0.0
 40
0.0
 40
0.1312712794
 40
0.2573740503
 40
0.3796904152
 40
0.5
 40
0.6203095848
 40
0.7426259497
 40
0.8687287206
 40
1.0
 40
1.0
 40
1.0
 40
1.0
 10
5.0025223689
 20
12.3177785828
 30
0.0
 10
5.0052229165
 20
12.3155735949
 30
0.0
 10
5.0108422854
 20
12.3116258062
 30
0.0
 10
5.0199610243
 20
12.3072140218
 30
0.0
 10
5.0294331007
 20
12.3045267943
 30
0.0
 10
5.039085439
 20
12.3036243532
 30
0.0
 10
5.0487377773
 20
12.3045267943
 30
0.0
 10
5.0582098536
 20
12.3072140218
 30
0.0
 10
5.0673285925
 20
12.3116258062
 30
0.0
 10
5.0729479615
 20
12.3155735949
 30
0.0
 10
5.0756485091
 20
12.3177785828
 30
0.0
  0
SPLINE
  5
3E2
100
AcDbEntity
  8
0
100
AcDbSpline
 62
7
  6
CONTINUOUS
 70
0
 71
3
 72
18
 73
14
 74
0
 42
0.0000001
 43
0.0000001
 44
0.0000000001
 40
0.0
 40
0.0
 40
0.0
 40
0.0
 40
0.1943400723
 40
0.3728688532
 40
0.5322233628
 40
0.6703242976
 40
0.7855381944
 40
0.8343635526
 40
0.8773909763
 40
0.9146925711
 40
0.9465796073
 40
0.9743144695
 40
1.0
 40
1.0
 40
1.0
 40
1.0
 10
4.7217146025
 20
13.1115061147
 30
0.0
 10
4.7216026718
 20
13.1103128407
 30
0.0
 10
4.7213459808
 20
13.1080266463
 30
0.0
 10
4.7207986954
 20
13.1047885243
 30
0.0
 10
4.720135055
 20
13.1019267826
 30
0.0
 10
4.7193812048
 20
13.0994936691
 30
0.0
 10
4.7186610352
 20
13.0977694878
 30
0.0
 10
4.7180388757
 20
13.0966527548
 30
0.0
 10
4.7175881659
 20
13.095994268
 30
0.0
 10
4.7171294114
 20
13.0954731553
 30
0.0
 10
4.7166577109
 20
13.095098101
 30
0.0
 10
4.7161703019
 20
13.0948834665
 30
0.0
 10
4.7158389695
 20
13.094839448
 30
0.0
 10
4.7156805646
 20
13.094839448
 30
0.0
  0
SPLINE
  5
3E3
100
AcDbEntity
  8
0
100
AcDbSpline
 62
7
  6
CONTINUOUS
 70
0
 71
3
 72
9
 73
5
 74
0
 42
0.0000001
 43
0.0000001
 44
0.0000000001
 40
0.0
 40
0.0
 40
0.0
 40
0.0
 40
0.5073089573
 40
1.0
 40
1.0
 40
1.0
 40
1.0
 10
4.7206151452
 20
13.119839448
 30
0.0
 10
4.7211065762
 20
13.1184962324
 30
0.0
 10
4.7217931053
 20
13.1157346437
 30
0.0
 10
4.7218443303
 20
13.1128891215
 30
0.0
 10
4.7217146025
 20
13.1115061147
 30
0.0
  0
LINE
  5
3E4
100
AcDbEntity
  8
0
100
AcDbLine
 62
7
  6
CONTINUOUS
 10
5.6939473105
 20
13.1115061147
 11
5.7008358424
 21
13.119839448
  0
SPLINE
  5
3E5
100
AcDbEntity
  8
0
100
AcDbSpline
 62
7
  6
CONTINUOUS
 70
0
 71
3
 72
10
 73
6
 74
0
 42
0.0000001
 43
0.0000001
 44
0.0000000001
 40
0.0
 40
0.0
 40
0.0
 40
0.0
 40
0.2482223576
 40
0.497363072
 40
1.0
 40
1.0
 40
1.0
 40
1.0
 10
7.4148506587
 20
13.1115061147
 30
0.0
 10
7.41501237
 20
13.1122356869
 30
0.0
 10
7.4154073238
 20
13.1136825911
 30
0.0
 10
7.4164376479
 20
13.1165134914
 30
0.0
 10
7.4174646028
 20
13.1185438129
 30
0.0
 10
7.4182463344
 20
13.119839448
 30
0.0
  0
SPLINE
  5
3E6
100
AcDbEntity
  8
0
100
AcDbSpline
 62
7
  6
CONTINUOUS
 70
0
 71
3
 72
15
 73
11
 74
0
 42
0.0000001
 43
0.0000001
 44
0.0000000001
 40
0.0
 40
0.0
 40
0.0
 40
0.0
 40
0.1312658062
 40
0.2573771378
 40
0.3796893943
 40
0.5
 40
0.6203106057
 40
0.7426228622
 40
0.8687341938
 40
1.0
 40
1.0
 40
1.0
 40
1.0
 10
4.998574113
 20
12.4704871337
 30
0.0
 10
5.0004781361
 20
12.4720417621
 30
0.0
 10
5.0044403507
 20
12.47482519
 30
0.0
 10
5.0108696824
 20
12.477936073
 30
0.0
 10
5.0175484365
 20
12.4798305008
 30
0.0
 10
5.0243540477
 20
12.4804670085
 30
0.0
 10
5.0311596589
 20
12.4798305008
 30
0.0
 10
5.037838413
 20
12.477936073
 30
0.0
 10
5.0442677447
 20
12.47482519
 30
0.0
 10
5.0482299593
 20
12.4720417621
 30
0.0
 10
5.0501339824
 20
12.4704871337
 30
0.0
  0
SPLINE
  5
3E7
100
AcDbEntity
  8
0
100
AcDbSpline
 62
7
  6
CONTINUOUS
 70
0
 71
3
 72
9
 73
5
 74
0
 42
0.0000001
 43
0.0000001
 44
0.0000000001
 40
0.0
 40
0.0
 40
0.0
 40
0.0
 40
0.5157384893
 40
1.0
 40
1.0
 40
1.0
 40
1.0
 10
4.9843433622
 20
12.4533297182
 30
0.0
 10
4.9862607464
 20
12.4566659619
 30
0.0
 10
4.9904895664
 20
12.4628598371
 30
0.0
 10
4.9957754031
 20
12.4682019967
 30
0.0
 10
4.998574113
 20
12.4704871337
 30
0.0
  0
SPLINE
  5
3E8
100
AcDbEntity
  8
0
100
AcDbSpline
 62
7
  6
CONTINUOUS
 70
0
 71
3
 72
14
 73
10
 74
0
 42
0.0000001
 43
0.0000001
 44
0.0000000001
 40
0.0
 40
0.0
 40
0.0
 40
0.0
 40
0.0817940073
 40
0.180165692
 40
0.2930993601
 40
0.4180741629
 40
0.5528731236
 40
0.6956838448
 40
1.0
 40
1.0
 40
1.0
 40
1.0
 10
16.0944552837
 20
5.8203621706
 30
0.0
 10
16.0940075267
 20
5.8205406998
 30
0.0
 10
16.093052901
 20
5.8210117509
 30
0.0
 10
16.091566314
 20
5.8218921743
 30
0.0
 10
16.0899102119
 20
5.822981865
 30
0.0
 10
16.0881153501
 20
5.8242483515
 30
0.0
 10
16.086213187
 20
5.8256668527
 30
0.0
 10
16.0835188118
 20
5.8277891004
 30
0.0
 10
16.0815055778
 20
5.8294902912
 30
0.0
 10
16.0801469236
 20
5.8306609459
 30
0.0
  0
SPLINE
  5
3E9
100
AcDbEntity
  8
0
100
AcDbSpline
 62
7
  6
CONTINUOUS
 70
0
 71
3
 72
14
 73
10
 74
0
 42
0.0000001
 43
0.0000001
 44
0.0000000001
 40
0.0
 40
0.0
 40
0.0
 40
0.0
 40
0.3044232889
 40
0.4472698721
 40
0.5820898731
 40
0.7070640204
 40
0.819974634
 40
0.9182901162
 40
1.0
 40
1.0
 40
1.0
 40
1.0
 10
16.0801469236
 20
5.090588463
 30
0.0
 10
16.0815067421
 20
5.0917601209
 30
0.0
 10
16.0835216341
 20
5.0934627142
 30
0.0
 10
16.0862180075
 20
5.0955867855
 30
0.0
 10
16.0881213956
 20
5.0970062067
 30
0.0
 10
16.0899173105
 20
5.0982730986
 30
0.0
 10
16.0915740812
 20
5.0993627456
 30
0.0
 10
16.093060915
 20
5.1002425712
 30
0.0
 10
16.094015634
 20
5.1007128429
 30
0.0
 10
16.0944633702
 20
5.1008907409
 30
0.0
  0
SPLINE
  5
3EA
100
AcDbEntity
  8
0
100
AcDbSpline
 62
7
  6
CONTINUOUS
 70
0
 71
3
 72
13
 73
9
 74
0
 42
0.0000001
 43
0.0000001
 44
0.0000000001
 40
0.0
 40
0.0
 40
0.0
 40
0.0
 40
0.2271981488
 40
0.4699015193
 40
0.5973585336
 40
0.728644095
 40
0.8633454361
 40
1.0
 40
1.0
 40
1.0
 40
1.0
 10
16.0801469236
 20
6.807998955
 30
0.0
 10
16.081863032
 20
6.8090342448
 30
0.0
 10
16.0852209393
 20
6.8114999257
 30
0.0
 10
16.0889463568
 20
6.8152647201
 30
0.0
 10
16.0915874877
 20
6.8188217943
 30
0.0
 10
16.0933627067
 20
6.8218117158
 30
0.0
 10
16.0948574968
 20
6.8250395318
 30
0.0
 10
16.0956314636
 20
6.8273123534
 30
0.0
 10
16.0959380074
 20
6.8284782129
 30
0.0
  0
SPLINE
  5
3EB
100
AcDbEntity
  8
0
100
AcDbSpline
 62
7
  6
CONTINUOUS
 70
0
 71
3
 72
11
 73
7
 74
0
 42
0.0000001
 43
0.0000001
 44
0.0000000001
 40
0.0
 40
0.0
 40
0.0
 40
0.0
 40
0.2481242
 40
0.4971733437
 40
0.7478977088
 40
1.0
 40
1.0
 40
1.0
 40
1.0
 10
16.0718135903
 20
6.8046032793
 30
0.0
 10
16.072543174
 20
6.8047648801
 30
0.0
 10
16.0739899326
 20
6.8051598506
 30
0.0
 10
16.0761084331
 20
6.8059313593
 30
0.0
 10
16.0781708833
 20
6.8068716663
 30
0.0
 10
16.0794968401
 20
6.8076067208
 30
0.0
 10
16.0801469236
 20
6.807998955
 30
0.0
  0
SPLINE
  5
3EC
100
AcDbEntity
  8
0
100
AcDbSpline
 62
7
  6
CONTINUOUS
 70
0
 71
3
 72
10
 73
6
 74
0
 42
0.0000001
 43
0.0000001
 44
0.0000000001
 40
0.0
 40
0.0
 40
0.0
 40
0.0
 40
0.2482223576
 40
0.497363072
 40
1.0
 40
1.0
 40
1.0
 40
1.0
 10
16.0718135903
 20
4.1166461296
 30
0.0
 10
16.0725431625
 20
4.1164844183
 30
0.0
 10
16.0739900666
 20
4.1160894645
 30
0.0
 10
16.076820967
 20
4.1150591404
 30
0.0
 10
16.0788512885
 20
4.1140321855
 30
0.0
 10
16.0801469236
 20
4.1132504539
 30
0.0
  0
LINE
  5
3ED
100
AcDbEntity
  8
0
100
AcDbLine
 62
7
  6
CONTINUOUS
 10
16.0718135903
 20
5.8375494778
 11
16.0801469236
 21
5.8306609459
  0
SPLINE
  5
3EE
100
AcDbEntity
  8
0
100
AcDbSpline
 62
7
  6
CONTINUOUS
 70
0
 71
3
 72
13
 73
9
 74
0
 42
0.0000001
 43
0.0000001
 44
0.0000000001
 40
0.0
 40
0.0
 40
0.0
 40
0.0
 40
0.1366552967
 40
0.2713592853
 40
0.4026460174
 40
0.5301002273
 40
0.772801846
 40
1.0
 40
1.0
 40
1.0
 40
1.0
 10
16.0959380074
 20
4.092771196
 30
0.0
 10
16.0956314577
 20
4.093937078
 30
0.0
 10
16.0948581247
 20
4.096210168
 30
0.0
 10
16.0933633488
 20
4.0994381256
 30
0.0
 10
16.0915881283
 20
4.1024281031
 30
0.0
 10
16.0889469697
 20
4.1059852107
 30
0.0
 10
16.0852210949
 20
4.1097496267
 30
0.0
 10
16.0818630558
 20
4.1122151497
 30
0.0
 10
16.0801469236
 20
4.1132504539
 30
0.0
  0
LINE
  5
3EF
100
AcDbEntity
  8
0
100
AcDbLine
 62
7
  6
CONTINUOUS
 10
16.0718135903
 20
5.083699931
 11
16.0801469236
 21
5.090588463
  0
SPLINE
  5
3F0
100
AcDbEntity
  8
03__ASM_ALL_CURVES
100
AcDbSpline
 62
8
  6
PHANTOM
 70
0
 71
3
 72
116
 73
112
 74
0
 42
0.0000001
 43
0.0000001
 44
0.0000000001
 40
0.0
 40
0.0
 40
0.0
 40
0.0
 40
0.03125
 40
0.0625
 40
0.078125
 40
0.09375
 40
0.109375
 40
0.125
 40
0.140625
 40
0.1484375
 40
0.15234375
 40
0.15625
 40
0.16015625
 40
0.1640625
 40
0.1650390625
 40
0.166015625
 40
0.1669921875
 40
0.16796875
 40
0.169921875
 40
0.171875
 40
0.17578125
 40
0.1796875
 40
0.1875
 40
0.1953125
 40
0.203125
 40
0.21875
 40
0.25
 40
0.28125
 40
0.296875
 40
0.3046875
 40
0.3125
 40
0.3203125
 40
0.32421875
 40
0.328125
 40
0.330078125
 40
0.33203125
 40
0.3330078125
 40
0.333984375
 40
0.3359375
 40
0.33984375
 40
0.34375
 40
0.3515625
 40
0.359375
 40
0.375
 40
0.390625
 40
0.40625
 40
0.421875
 40
0.4375
 40
0.453125
 40
0.46875
 40
0.4765625
 40
0.484375
 40
0.48828125
 40
0.4921875
 40
0.49609375
 40
0.498046875
 40
0.4990234375
 40
0.5
 40
0.5009765625
 40
0.501953125
 40
0.50390625
 40
0.5078125
 40
0.51171875
 40
0.515625
 40
0.5234375
 40
0.53125
 40
0.546875
 40
0.5625
 40
0.578125
 40
0.59375
 40
0.609375
 40
0.625
 40
0.640625
 40
0.6484375
 40
0.65625
 40
0.66015625
 40
0.6640625
 40
0.666015625
 40
0.6669921875
 40
0.66796875
 40
0.669921875
 40
0.671875
 40
0.67578125
 40
0.6796875
 40
0.6875
 40
0.6953125
 40
0.703125
 40
0.71875
 40
0.75
 40
0.78125
 40
0.796875
 40
0.8046875
 40
0.8125
 40
0.8203125
 40
0.82421875
 40
0.828125
 40
0.830078125
 40
0.83203125
 40
0.8330078125
 40
0.833984375
 40
0.8359375
 40
0.83984375
 40
0.84375
 40
0.8515625
 40
0.859375
 40
0.875
 40
0.890625
 40
0.90625
 40
0.9375
 40
0.96875
 40
1.0
 40
1.0
 40
1.0
 40
1.0
 10
16.8289637434
 20
13.2026642227
 30
0.0
 10
16.818445008
 20
13.2117237306
 30
0.0
 10
16.7974075374
 20
13.2298427465
 30
0.0
 10
16.7711106992
 20
13.2524915164
 30
0.0
 10
16.7500732284
 20
13.2706105321
 30
0.0
 10
16.7342951261
 20
13.2841997943
 30
0.0
 10
16.7185170205
 20
13.297789055
 30
0.0
 10
16.7027389275
 20
13.3113783214
 30
0.0
 10
16.6895904775
 20
13.3227026925
 30
0.0
 10
16.6803866391
 20
13.3306297865
 30
0.0
 10
16.6751271833
 20
13.3351595012
 30
0.0
 10
16.6711829284
 20
13.3385569373
 30
0.0
 10
16.6672373856
 20
13.3419537997
 30
0.0
 10
16.6642818392
 20
13.344503055
 30
0.0
 10
16.6623058596
 20
13.346200057
 30
0.0
 10
16.661327897
 20
13.3470530248
 30
0.0
 10
16.6603109488
 20
13.347888626
 30
0.0
 10
16.6587695179
 20
13.348920128
 30
0.0
 10
16.6569062441
 20
13.3502377988
 30
0.0
 10
16.653889511
 20
13.3523302605
 30
0.0
 10
16.6501307482
 20
13.3549512515
 30
0.0
 10
16.644109935
 20
13.3591418112
 30
0.0
 10
16.6365862491
 20
13.3643810491
 30
0.0
 10
16.6275568285
 20
13.3706676902
 30
0.0
 10
16.615517949
 20
13.3790500334
 30
0.0
 10
16.594449747
 20
13.3937190612
 30
0.0
 10
16.5643524076
 20
13.4146748577
 30
0.0
 10
16.5342550104
 20
13.4356306226
 30
0.0
 10
16.5131868892
 20
13.4502996946
 30
0.0
 10
16.5011478826
 20
13.4586819682
 30
0.0
 10
16.4921188521
 20
13.4649688229
 30
0.0
 10
16.4845939454
 20
13.4702073924
 30
0.0
 10
16.4785756229
 20
13.4743993157
 30
0.0
 10
16.4748105214
 20
13.4770168367
 30
0.0
 10
16.4718067993
 20
13.4791164211
 30
0.0
 10
16.4699104003
 20
13.4804159578
 30
0.0
 10
16.4684369658
 20
13.4814846838
 30
0.0
 10
16.4668040506
 20
13.4824471859
 30
0.0
 10
16.4638723634
 20
13.484082219
 30
0.0
 10
16.4597228929
 20
13.4864437265
 30
0.0
 10
16.4530621384
 20
13.4902077505
 30
0.0
 10
16.4447435918
 20
13.494917707
 30
0.0
 10
16.4314297832
 20
13.502450884
 30
0.0
 10
16.4147889411
 20
13.5118683
 30
0.0
 10
16.3948193224
 20
13.5231687941
 30
0.0
 10
16.3748498669
 20
13.534469397
 30
0.0
 10
16.3548803663
 20
13.5457699699
 30
0.0
 10
16.3349108831
 20
13.5570705541
 30
0.0
 10
16.3149413756
 20
13.568371123
 30
0.0
 10
16.2983001857
 20
13.5777883055
 30
0.0
 10
16.2849870867
 20
13.5853219589
 30
0.0
 10
16.2766667344
 20
13.5900307029
 30
0.0
 10
16.2700096863
 20
13.5937972157
 30
0.0
 10
16.2650189981
 20
13.5966234212
 30
0.0
 10
16.2608534177
 20
13.5989743902
 30
0.0
 10
16.2579506082
 20
13.6006283154
 30
0.0
 10
16.2562714104
 20
13.6015605387
 30
0.0
 10
16.2550696185
 20
13.6022959804
 30
0.0
 10
16.2536476254
 20
13.6028927636
 30
0.0
 10
16.2518284433
 20
13.6037368401
 30
0.0
 10
16.248609088
 20
13.6051914395
 30
0.0
 10
16.2440287186
 20
13.60728122
 30
0.0
 10
16.2385242671
 20
13.6097839139
 30
0.0
 10
16.2311877954
 20
13.6131226003
 30
0.0
 10
16.2220162482
 20
13.6172953553
 30
0.0
 10
16.2073423078
 20
13.6239721004
 30
0.0
 10
16.1889996987
 20
13.6323179158
 30
0.0
 10
16.1669886467
 20
13.6423329448
 30
0.0
 10
16.1449775727
 20
13.6523479573
 30
0.0
 10
16.1229665077
 20
13.6623629854
 30
0.0
 10
16.1009554287
 20
13.6723779676
 30
0.0
 10
16.0789443966
 20
13.6823931178
 30
0.0
 10
16.0606017252
 20
13.6907385547
 30
0.0
 10
16.0459279118
 20
13.697416072
 30
0.0
 10
16.0367560415
 20
13.7015868617
 30
0.0
 10
16.029420233
 20
13.7049295821
 30
0.0
 10
16.0248315017
 20
13.70700489
 30
0.0
 10
16.0216271077
 20
13.7084854476
 30
0.0
 10
16.01978395
 20
13.709287919
 30
0.0
 10
16.0178953026
 20
13.7099262875
 30
0.0
 10
16.015550069
 20
13.7107804367
 30
0.0
 10
16.0117889908
 20
13.7121156746
 30
0.0
 10
16.0070906234
 20
13.7137954736
 30
0.0
 10
15.9995715699
 20
13.7164771429
 30
0.0
 10
15.9901733245
 20
13.7198312913
 30
0.0
 10
15.9788951855
 20
13.7238553869
 30
0.0
 10
15.9638577521
 20
13.7292211556
 30
0.0
 10
15.9375422034
 20
13.7386111066
 30
0.0
 10
15.899948587
 20
13.752025404
 30
0.0
 10
15.8623549492
 20
13.765439649
 30
0.0
 10
15.8360394303
 20
13.7748296735
 30
0.0
 10
15.8210019502
 20
13.7801953267
 30
0.0
 10
15.8097239545
 20
13.7842197766
 30
0.0
 10
15.8003252603
 20
13.7875728162
 30
0.0
 10
15.7928071226
 20
13.7902567476
 30
0.0
 10
15.7881064246
 20
13.7919307898
 30
0.0
 10
15.7843501303
 20
13.7932778446
 30
0.0
 10
15.7819927171
 20
13.7941019085
 30
0.0
 10
15.7801290708
 20
13.7948020331
 30
0.0
 10
15.7781840708
 20
13.7953529404
 30
0.0
 10
15.7747425285
 20
13.7962477103
 30
0.0
 10
15.7698457575
 20
13.7975621195
 30
0.0
 10
15.7619999047
 20
13.7996449628
 30
0.0
 10
15.7521963616
 20
13.8022554373
 30
0.0
 10
15.736508584
 20
13.8064283288
 30
0.0
 10
15.7168995855
 20
13.8116457701
 30
0.0
 10
15.6933684775
 20
13.8179061316
 30
0.0
 10
15.6619937751
 20
13.8262534788
 30
0.0
 10
15.62277536
 20
13.8366875947
 30
0.0
 10
15.5757132779
 20
13.849208563
 30
0.0
 10
15.5443385534
 20
13.8575558697
 30
0.0
 10
15.5286511915
 20
13.8617295237
 30
0.0
  0
SPLINE
  5
3F1
100
AcDbEntity
  8
03__ASM_ALL_CURVES
100
AcDbSpline
 62
8
  6
PHANTOM
 70
0
 71
3
 72
136
 73
132
 74
0
 42
0.0000001
 43
0.0000001
 44
0.0000000001
 40
0.0
 40
0.0
 40
0.0
 40
0.0
 40
0.03125
 40
0.0625
 40
0.078125
 40
0.09375
 40
0.109375
 40
0.125
 40
0.140625
 40
0.1484375
 40
0.15234375
 40
0.15625
 40
0.16015625
 40
0.1640625
 40
0.1650390625
 40
0.166015625
 40
0.1665039062
 40
0.1669921875
 40
0.16796875
 40
0.169921875
 40
0.171875
 40
0.17578125
 40
0.1796875
 40
0.1875
 40
0.1953125
 40
0.203125
 40
0.21875
 40
0.25
 40
0.265625
 40
0.28125
 40
0.296875
 40
0.3046875
 40
0.3125
 40
0.3203125
 40
0.32421875
 40
0.328125
 40
0.330078125
 40
0.33203125
 40
0.3330078125
 40
0.3334960938
 40
0.333984375
 40
0.3349609375
 40
0.3359375
 40
0.33984375
 40
0.34375
 40
0.34765625
 40
0.3515625
 40
0.359375
 40
0.375
 40
0.390625
 40
0.40625
 40
0.421875
 40
0.4375
 40
0.453125
 40
0.4609375
 40
0.46875
 40
0.4765625
 40
0.484375
 40
0.48828125
 40
0.4921875
 40
0.494140625
 40
0.49609375
 40
0.498046875
 40
0.4990234375
 40
0.4995117188
 40
0.5
 40
0.5004882812
 40
0.5009765625
 40
0.501953125
 40
0.50390625
 40
0.505859375
 40
0.5078125
 40
0.51171875
 40
0.515625
 40
0.5234375
 40
0.53125
 40
0.5390625
 40
0.546875
 40
0.5625
 40
0.578125
 40
0.59375
 40
0.609375
 40
0.625
 40
0.640625
 40
0.6484375
 40
0.65234375
 40
0.65625
 40
0.66015625
 40
0.6640625
 40
0.6650390625
 40
0.666015625
 40
0.6665039062
 40
0.6669921875
 40
0.66796875
 40
0.669921875
 40
0.671875
 40
0.67578125
 40
0.6796875
 40
0.6875
 40
0.6953125
 40
0.703125
 40
0.71875
 40
0.734375
 40
0.75
 40
0.765625
 40
0.78125
 40
0.796875
 40
0.8046875
 40
0.8125
 40
0.8203125
 40
0.82421875
 40
0.828125
 40
0.830078125
 40
0.83203125
 40
0.8330078125
 40
0.8334960938
 40
0.833984375
 40
0.8349609375
 40
0.8359375
 40
0.83984375
 40
0.84375
 40
0.84765625
 40
0.8515625
 40
0.859375
 40
0.875
 40
0.890625
 40
0.90625
 40
0.921875
 40
0.9375
 40
0.96875
 40
1.0
 40
1.0
 40
1.0
 40
1.0
 10
14.3889205148
 20
13.8617295168
 30
0.0
 10
14.3775044509
 20
13.8576340241
 30
0.0
 10
14.3546723229
 20
13.8494430387
 30
0.0
 10
14.3261321631
 20
13.8392043068
 30
0.0
 10
14.3033000348
 20
13.8310133217
 30
0.0
 10
14.2861759398
 20
13.8248700818
 30
0.0
 10
14.2690518401
 20
13.8187268457
 30
0.0
 10
14.2519277582
 20
13.8125835957
 30
0.0
 10
14.2376576345
 20
13.8074642637
 30
0.0
 10
14.2276686566
 20
13.8038806472
 30
0.0
 10
14.2219604995
 20
13.8018329976
 30
0.0
 10
14.2176798598
 20
13.8002968905
 30
0.0
 10
14.2133973926
 20
13.7987621972
 30
0.0
 10
14.210190666
 20
13.7976072135
 30
0.0
 10
14.2080448796
 20
13.7968433888
 30
0.0
 10
14.2071626598
 20
13.7965159554
 30
0.0
 10
14.206429222
 20
13.7962754078
 30
0.0
 10
14.2057969457
 20
13.795956602
 30
0.0
 10
14.2047374641
 20
13.7953623312
 30
0.0
 10
14.2031993958
 20
13.794532344
 30
0.0
 10
14.2007521911
 20
13.7931937626
 30
0.0
 10
14.1976884928
 20
13.791524166
 30
0.0
 10
14.1927891982
 20
13.7888507825
 30
0.0
 10
14.18666418
 20
13.7855097492
 30
0.0
 10
14.1793145434
 20
13.7815002113
 30
0.0
 10
14.1695148935
 20
13.7761542647
 30
0.0
 10
14.1523655689
 20
13.7667988098
 30
0.0
 10
14.1327663145
 20
13.7561068817
 30
0.0
 10
14.1131670673
 20
13.7454149477
 30
0.0
 10
14.0984676364
 20
13.7373959945
 30
0.0
 10
14.0862180925
 20
13.7307135449
 30
0.0
 10
14.0764184988
 20
13.7253675592
 30
0.0
 10
14.0690686902
 20
13.7213581412
 30
0.0
 10
14.0629442104
 20
13.7180167329
 30
0.0
 10
14.0580438174
 20
13.7153441145
 30
0.0
 10
14.0549829142
 20
13.7136725708
 30
0.0
 10
14.0525299722
 20
13.712337986
 30
0.0
 10
14.0510065108
 20
13.7114978236
 30
0.0
 10
14.0499207935
 20
13.7109218288
 30
0.0
 10
14.0493305713
 20
13.7105737277
 30
0.0
 10
14.0488540508
 20
13.7101542094
 30
0.0
 10
14.0482195365
 20
13.7096542222
 30
0.0
 10
14.0467286888
 20
13.7084341619
 30
0.0
 10
14.0444789825
 20
13.7066125099
 30
0.0
 10
14.0414870528
 20
13.7041788176
 30
0.0
 10
14.0384930691
 20
13.7017464153
 30
0.0
 10
14.0345018073
 20
13.6985027623
 30
0.0
 10
14.0275167653
 20
13.6928265793
 30
0.0
 10
14.0175383085
 20
13.6847176367
 30
0.0
 10
14.0055640854
 20
13.6749869526
 30
0.0
 10
13.9935898824
 20
13.6652562558
 30
0.0
 10
13.981615674
 20
13.6555255625
 30
0.0
 10
13.9696414672
 20
13.6457948682
 30
0.0
 10
13.9596629606
 20
13.6376859568
 30
0.0
 10
13.9516801568
 20
13.6311988268
 30
0.0
 10
13.9456930501
 20
13.6263334818
 30
0.0
 10
13.9397059579
 20
13.6214681274
 30
0.0
 10
13.9347166695
 20
13.6174136944
 30
0.0
 10
13.9307253392
 20
13.6141700831
 30
0.0
 10
13.9282305292
 20
13.6121429738
 30
0.0
 10
13.9262352046
 20
13.6105209479
 30
0.0
 10
13.9247372781
 20
13.6093053553
 30
0.0
 10
13.9234935648
 20
13.608289413
 30
0.0
 10
13.922614019
 20
13.6075840398
 30
0.0
 10
13.9221253906
 20
13.6071719344
 30
0.0
 10
13.9217195678
 20
13.606888307
 30
0.0
 10
13.9214641665
 20
13.6065073902
 30
0.0
 10
13.9210711628
 20
13.6060334368
 30
0.0
 10
13.9204078524
 20
13.6051882071
 30
0.0
 10
13.9194474854
 20
13.6039890023
 30
0.0
 10
13.9183005156
 20
13.6025464183
 30
0.0
 10
13.9167693118
 20
13.6006242089
 30
0.0
 10
13.9148559612
 20
13.5982210239
 30
0.0
 10
13.9117942347
 20
13.5943761645
 30
0.0
 10
13.907967202
 20
13.589570009
 30
0.0
 10
13.9033747089
 20
13.5838026572
 30
0.0
 10
13.8987822303
 20
13.5780352962
 30
0.0
 10
13.8926589204
 20
13.5703454847
 30
0.0
 10
13.8850047849
 20
13.5607332191
 30
0.0
 10
13.875819821
 20
13.5491985011
 30
0.0
 10
13.8666348591
 20
13.5376637825
 30
0.0
 10
13.8574498905
 20
13.5261290658
 30
0.0
 10
13.8482649469
 20
13.5145943417
 30
0.0
 10
13.8406107492
 20
13.5049820949
 30
0.0
 10
13.8352529639
 20
13.4982534764
 30
0.0
 10
13.8321911333
 20
13.494408623
 30
0.0
 10
13.8298954335
 20
13.4915247818
 30
0.0
 10
13.8275971607
 20
13.4886417093
 30
0.0
 10
13.8258806701
 20
13.4864772498
 30
0.0
 10
13.8247251238
 20
13.4850376284
 30
0.0
 10
13.824260341
 20
13.4844327988
 30
0.0
 10
13.8238495692
 20
13.4839605696
 30
0.0
 10
13.8235812236
 20
13.4834457921
 30
0.0
 10
13.8231777935
 20
13.4825251624
 30
0.0
 10
13.8225669383
 20
13.4812202915
 30
0.0
 10
13.8216088649
 20
13.479126734
 30
0.0
 10
13.8204046665
 20
13.4765117607
 30
0.0
 10
13.8184816415
 20
13.4723267003
 30
0.0
 10
13.8160765934
 20
13.4670957534
 30
0.0
 10
13.813191078
 20
13.4608184551
 30
0.0
 10
13.8093435347
 20
13.4524487805
 30
0.0
 10
13.8045341706
 20
13.4419866679
 30
0.0
 10
13.7987629056
 20
13.4294321412
 30
0.0
 10
13.7929916487
 20
13.416877612
 30
0.0
 10
13.7872203878
 20
13.4043230842
 30
0.0
 10
13.7814491346
 20
13.3917685535
 30
0.0
 10
13.7766397346
 20
13.3813064531
 30
0.0
 10
13.7727922643
 20
13.3729367537
 30
0.0
 10
13.7699065258
 20
13.3666595313
 30
0.0
 10
13.7675021756
 20
13.361428347
 30
0.0
 10
13.7655777268
 20
13.3572437708
 30
0.0
 10
13.764377152
 20
13.3546275652
 30
0.0
 10
13.7634116407
 20
13.3525365372
 30
0.0
 10
13.7628197218
 20
13.3512252264
 30
0.0
 10
13.7623822798
 20
13.3503161637
 30
0.0
 10
13.7621684531
 20
13.3497828449
 30
0.0
 10
13.7620907482
 20
13.349197344
 30
0.0
 10
13.7619470901
 20
13.348483304
 30
0.0
 10
13.7616406044
 20
13.3467549279
 30
0.0
 10
13.7611647921
 20
13.3441685296
 30
0.0
 10
13.7605395685
 20
13.3407164745
 30
0.0
 10
13.7599118858
 20
13.337265362
 30
0.0
 10
13.7590758334
 20
13.3326635499
 30
0.0
 10
13.7576123419
 20
13.3246105319
 30
0.0
 10
13.7555218488
 20
13.3131061404
 30
0.0
 10
13.7530131675
 20
13.2993009049
 30
0.0
 10
13.7505045102
 20
13.2854956602
 30
0.0
 10
13.7479958464
 20
13.2716904179
 30
0.0
 10
13.7446509637
 20
13.2532834274
 30
0.0
 10
13.7404698595
 20
13.2302746896
 30
0.0
 10
13.7371249763
 20
13.2118676992
 30
0.0
 10
13.7354525347
 20
13.2026642041
 30
0.0
  0
SPLINE
  5
3F2
100
AcDbEntity
  8
03__ASM_ALL_CURVES
100
AcDbSpline
 62
8
  6
PHANTOM
 70
0
 71
3
 72
71
 73
67
 74
0
 42
0.0000001
 43
0.0000001
 44
0.0000000001
 40
0.0
 40
0.0
 40
0.0
 40
0.0
 40
0.0625
 40
0.09375
 40
0.125
 40
0.140625
 40
0.15625
 40
0.1640625
 40
0.16796875
 40
0.171875
 40
0.1796875
 40
0.1875
 40
0.203125
 40
0.21875
 40
0.25
 40
0.28125
 40
0.296875
 40
0.3125
 40
0.3203125
 40
0.328125
 40
0.33203125
 40
0.3359375
 40
0.34375
 40
0.359375
 40
0.375
 40
0.390625
 40
0.40625
 40
0.4375
 40
0.453125
 40
0.46875
 40
0.484375
 40
0.4921875
 40
0.49609375
 40
0.5
 40
0.50390625
 40
0.5078125
 40
0.515625
 40
0.53125
 40
0.546875
 40
0.5625
 40
0.59375
 40
0.609375
 40
0.625
 40
0.640625
 40
0.65625
 40
0.6640625
 40
0.66796875
 40
0.671875
 40
0.6796875
 40
0.6875
 40
0.703125
 40
0.71875
 40
0.75
 40
0.78125
 40
0.796875
 40
0.8125
 40
0.8203125
 40
0.828125
 40
0.83203125
 40
0.8359375
 40
0.84375
 40
0.859375
 40
0.875
 40
0.90625
 40
0.9375
 40
1.0
 40
1.0
 40
1.0
 40
1.0
 10
16.8607971512
 20
11.9044063454
 30
0.0
 10
16.8677933843
 20
11.9090179883
 30
0.0
 10
16.8782876455
 20
11.9159357766
 30
0.0
 10
16.8922803473
 20
11.9251581986
 30
0.0
 10
16.9010250495
 20
11.9309249115
 30
0.0
 10
16.9080224902
 20
11.9355321279
 30
0.0
 10
16.9123920616
 20
11.9384256734
 30
0.0
 10
16.9154584354
 20
11.9404230274
 30
0.0
 10
16.9171986426
 20
11.9416083811
 30
0.0
 10
16.9188936201
 20
11.9429595218
 30
0.0
 10
16.9210278286
 20
11.9445916824
 30
0.0
 10
16.924433907
 20
11.9472348628
 30
0.0
 10
16.9286944731
 20
11.9505279735
 30
0.0
 10
16.9355096934
 20
11.9558030383
 30
0.0
 10
16.9440294875
 20
11.9623946706
 30
0.0
 10
16.9525483134
 20
11.9689874882
 30
0.0
 10
16.9593650829
 20
11.9742606565
 30
0.0
 10
16.963621776
 20
11.9775585085
 30
0.0
 10
16.967035794
 20
11.9801919692
 30
0.0
 10
16.9691497903
 20
11.9818488735
 30
0.0
 10
16.9708862574
 20
11.9831492229
 30
0.0
 10
16.9724574565
 20
11.9845414754
 30
0.0
 10
16.9751302691
 20
11.9870206167
 30
0.0
 10
16.9789887237
 20
11.9905399197
 30
0.0
 10
16.9836016552
 20
11.9947726558
 30
0.0
 10
16.9882192015
 20
11.999002826
 30
0.0
 10
16.9943742696
 20
12.0046439741
 30
0.0
 10
17.0005300704
 20
12.0102847275
 30
0.0
 10
17.0066849181
 20
12.0159259739
 30
0.0
 10
17.0113031806
 20
12.0201558246
 30
0.0
 10
17.0151450407
 20
12.0236841085
 30
0.0
 10
17.0178474654
 20
12.026147224
 30
0.0
 10
17.0193712198
 20
12.027565153
 30
0.0
 10
17.020571751
 20
12.028599206
 30
0.0
 10
17.0215516648
 20
12.0297456166
 30
0.0
 10
17.0229351703
 20
12.0312349724
 30
0.0
 10
17.0253204505
 20
12.0338596053
 30
0.0
 10
17.0287467403
 20
12.0375995335
 30
0.0
 10
17.0328502574
 20
12.0420915369
 30
0.0
 10
17.038324451
 20
12.0480794312
 30
0.0
 10
17.0437976814
 20
12.0540678084
 30
0.0
 10
17.049271673
 20
12.0600558194
 30
0.0
 10
17.0533758465
 20
12.0645474435
 30
0.0
 10
17.0574849203
 20
12.0690367873
 30
0.0
 10
17.060893914
 20
12.0727849947
 30
0.0
 10
17.0633100582
 20
12.0753948537
 30
0.0
 10
17.0646441133
 20
12.0769078803
 30
0.0
 10
17.0658026516
 20
12.078502561
 30
0.0
 10
17.0673109212
 20
12.0804679535
 30
0.0
 10
17.069690567
 20
12.0836282064
 30
0.0
 10
17.0726766285
 20
12.0875731694
 30
0.0
 10
17.0774478712
 20
12.0938881209
 30
0.0
 10
17.0834143256
 20
12.1017806423
 30
0.0
 10
17.0893792454
 20
12.109674072
 30
0.0
 10
17.0941529435
 20
12.1159875703
 30
0.0
 10
17.0971328664
 20
12.1199361661
 30
0.0
 10
17.0995250965
 20
12.1230889718
 30
0.0
 10
17.1010013299
 20
12.1250733229
 30
0.0
 10
17.1022256286
 20
12.1266290873
 30
0.0
 10
17.103291808
 20
12.1283006398
 30
0.0
 10
17.105084169
 20
12.1312796452
 30
0.0
 10
17.1076830089
 20
12.1355073031
 30
0.0
 10
17.1118197348
 20
12.1422872395
 30
0.0
 10
17.116997979
 20
12.1507567876
 30
0.0
 10
17.1252790507
 20
12.1643110806
 30
0.0
 10
17.1314907813
 20
12.1744761218
 30
0.0
 10
17.135631729
 20
12.1812529667
 30
0.0
  0
SPLINE
  5
3F3
100
AcDbEntity
  8
03__ASM_ALL_CURVES
100
AcDbSpline
 62
8
  6
PHANTOM
 70
0
 71
3
 72
187
 73
183
 74
0
 42
0.0000001
 43
0.0000001
 44
0.0000000001
 40
0.0
 40
0.0
 40
0.0
 40
0.0
 40
0.03125
 40
0.046875
 40
0.0625
 40
0.078125
 40
0.09375
 40
0.1015625
 40
0.109375
 40
0.1171875
 40
0.12109375
 40
0.125
 40
0.12890625
 40
0.1328125
 40
0.13671875
 40
0.138671875
 40
0.1396484375
 40
0.140625
 40
0.1416015625
 40
0.1420898438
 40
0.142578125
 40
0.1428222656
 40
0.1430664062
 40
0.1435546875
 40
0.14453125
 40
0.1455078125
 40
0.146484375
 40
0.1484375
 40
0.150390625
 40
0.15234375
 40
0.15625
 40
0.1640625
 40
0.171875
 40
0.1796875
 40
0.1875
 40
0.203125
 40
0.21875
 40
0.234375
 40
0.2421875
 40
0.25
 40
0.2578125
 40
0.265625
 40
0.26953125
 40
0.2734375
 40
0.27734375
 40
0.279296875
 40
0.28125
 40
0.2822265625
 40
0.283203125
 40
0.2841796875
 40
0.28515625
 40
0.2854003906
 40
0.2856445312
 40
0.2861328125
 40
0.2866210938
 40
0.287109375
 40
0.2890625
 40
0.291015625
 40
0.29296875
 40
0.296875
 40
0.30078125
 40
0.3046875
 40
0.3125
 40
0.3203125
 40
0.328125
 40
0.34375
 40
0.359375
 40
0.375
 40
0.3828125
 40
0.390625
 40
0.3984375
 40
0.40625
 40
0.4140625
 40
0.41796875
 40
0.421875
 40
0.423828125
 40
0.42578125
 40
0.4267578125
 40
0.427734375
 40
0.4287109375
 40
0.4291992188
 40
0.4296875
 40
0.4306640625
 40
0.431640625
 40
0.43359375
 40
0.435546875
 40
0.4375
 40
0.44140625
 40
0.4453125
 40
0.44921875
 40
0.453125
 40
0.4609375
 40
0.46875
 40
0.484375
 40
0.5
 40
0.515625
 40
0.53125
 40
0.5390625
 40
0.546875
 40
0.55078125
 40
0.5546875
 40
0.55859375
 40
0.5625
 40
0.564453125
 40
0.56640625
 40
0.568359375
 40
0.5693359375
 40
0.5703125
 40
0.5708007812
 40
0.5712890625
 40
0.572265625
 40
0.5732421875
 40
0.57421875
 40
0.576171875
 40
0.578125
 40
0.58203125
 40
0.5859375
 40
0.59375
 40
0.6015625
 40
0.609375
 40
0.6171875
 40
0.625
 40
0.65625
 40
0.671875
 40
0.6875
 40
0.6953125
 40
0.69921875
 40
0.703125
 40
0.70703125
 40
0.708984375
 40
0.7109375
 40
0.712890625
 40
0.7133789062
 40
0.7138671875
 40
0.7143554688
 40
0.7145996094
 40
0.71484375
 40
0.7158203125
 40
0.716796875
 40
0.71875
 40
0.720703125
 40
0.72265625
 40
0.7265625
 40
0.73046875
 40
0.734375
 40
0.7421875
 40
0.75
 40
0.7578125
 40
0.765625
 40
0.78125
 40
0.796875
 40
0.8125
 40
0.828125
 40
0.8359375
 40
0.84375
 40
0.84765625
 40
0.849609375
 40
0.8515625
 40
0.853515625
 40
0.85546875
 40
0.8564453125
 40
0.8569335938
 40
0.8571777344
 40
0.857421875
 40
0.8579101562
 40
0.8583984375
 40
0.859375
 40
0.8603515625
 40
0.861328125
 40
0.86328125
 40
0.8671875
 40
0.87109375
 40
0.875
 40
0.8828125
 40
0.890625
 40
0.8984375
 40
0.90625
 40
0.921875
 40
0.9375
 40
0.953125
 40
0.96875
 40
1.0
 40
1.0
 40
1.0
 40
1.0
 10
17.4523530441
 20
12.8177176735
 30
0.0
 10
17.4381630324
 20
12.8393181042
 30
0.0
 10
17.4168780149
 20
12.8717187501
 30
0.0
 10
17.3884979915
 20
12.9149196114
 30
0.0
 10
17.3672129739
 20
12.9473202574
 30
0.0
 10
17.3459279564
 20
12.9797209033
 30
0.0
 10
17.3281904418
 20
13.0067214416
 30
0.0
 10
17.3140004301
 20
13.0283218723
 30
0.0
 10
17.3033579212
 20
13.0445221952
 30
0.0
 10
17.2944891645
 20
13.0580224645
 30
0.0
 10
17.2873941573
 20
13.0688226795
 30
0.0
 10
17.2820729072
 20
13.0769228417
 30
0.0
 10
17.2767516367
 20
13.0850230006
 30
0.0
 10
17.2714304424
 20
13.093123172
 30
0.0
 10
17.266995877
 20
13.0998732756
 30
0.0
 10
17.2638921451
 20
13.1045984251
 30
0.0
 10
17.2621178599
 20
13.1072983904
 30
0.0
 10
17.2607891856
 20
13.1093237026
 30
0.0
 10
17.2596754603
 20
13.1110103855
 30
0.0
 10
17.2587990523
 20
13.1123621481
 30
0.0
 10
17.2582181151
 20
13.1132014978
 30
0.0
 10
17.2578293595
 20
13.1138855779
 30
0.0
 10
17.257163173
 20
13.1145236584
 30
0.0
 10
17.2560458009
 20
13.1156483331
 30
0.0
 10
17.2544242225
 20
13.1172508111
 30
0.0
 10
17.2524891716
 20
13.1191755825
 30
0.0
 10
17.2499053161
 20
13.1217413163
 30
0.0
 10
17.2466767963
 20
13.1249486991
 30
0.0
 10
17.2428020163
 20
13.1287974662
 30
0.0
 10
17.2376358369
 20
13.1339291878
 30
0.0
 10
17.2285949327
 20
13.1429096857
 30
0.0
 10
17.2156794025
 20
13.1557389763
 30
0.0
 10
17.200180746
 20
13.1711341216
 30
0.0
 10
17.1846820949
 20
13.1865292678
 30
0.0
 10
17.1640172249
 20
13.207056129
 30
0.0
 10
17.138186138
 20
13.2327147057
 30
0.0
 10
17.1071888335
 20
13.2635049977
 30
0.0
 10
17.0813577464
 20
13.2891635744
 30
0.0
 10
17.0606928768
 20
13.3096904358
 30
0.0
 10
17.0451942245
 20
13.3250855817
 30
0.0
 10
17.0296955726
 20
13.3404807279
 30
0.0
 10
17.0167800278
 20
13.3533100157
 30
0.0
 10
17.0064475957
 20
13.3635734474
 30
0.0
 10
16.9986982613
 20
13.3712710173
 30
0.0
 10
16.9922405153
 20
13.3776856713
 30
0.0
 10
16.9870742454
 20
13.3828173665
 30
0.0
 10
16.983845493
 20
13.3860247399
 30
0.0
 10
16.9812621103
 20
13.3885904922
 30
0.0
 10
16.9793256158
 20
13.3905152072
 30
0.0
 10
16.9773851418
 20
13.3924383927
 30
0.0
 10
16.9759409429
 20
13.3938850697
 30
0.0
 10
16.9749607928
 20
13.3948428525
 30
0.0
 10
16.9743486697
 20
13.3954972513
 30
0.0
 10
16.9732823641
 20
13.3961995065
 30
0.0
 10
16.9720730546
 20
13.3970692151
 30
0.0
 10
16.9696182951
 20
13.3987947421
 30
0.0
 10
16.9659513325
 20
13.4013888656
 30
0.0
 10
16.9610533875
 20
13.404844368
 30
0.0
 10
16.9545258199
 20
13.4094528674
 30
0.0
 10
16.9463653222
 20
13.4152130927
 30
0.0
 10
16.9365731693
 20
13.4221255338
 30
0.0
 10
16.9235168103
 20
13.4313420623
 30
0.0
 10
16.9071964147
 20
13.4428627434
 30
0.0
 10
16.8876119173
 20
13.456687552
 30
0.0
 10
16.8614992619
 20
13.4751206331
 30
0.0
 10
16.8288584401
 20
13.4981619835
 30
0.0
 10
16.7896894549
 20
13.5258116043
 30
0.0
 10
16.7570486342
 20
13.5488529553
 30
0.0
 10
16.7309359763
 20
13.5672860351
 30
0.0
 10
16.7113514867
 20
13.5811108477
 30
0.0
 10
16.6917669826
 20
13.5949356498
 30
0.0
 10
16.6721825326
 20
13.6087604911
 30
0.0
 10
16.6558619893
 20
13.6202810701
 30
0.0
 10
16.6428059316
 20
13.6294978068
 30
0.0
 10
16.6346450373
 20
13.6352576447
 30
0.0
 10
16.6281182874
 20
13.6398669407
 30
0.0
 10
16.6240345839
 20
13.6427444978
 30
0.0
 10
16.6207778934
 20
13.645053994
 30
0.0
 10
16.6183072492
 20
13.6467657163
 30
0.0
 10
16.6163378535
 20
13.6482570466
 30
0.0
 10
16.6143949222
 20
13.649183628
 30
0.0
 10
16.6125161561
 20
13.6501567478
 30
0.0
 10
16.6101457283
 20
13.6513572127
 30
0.0
 10
16.6063653229
 20
13.6532868627
 30
0.0
 10
16.6016356032
 20
13.6556958695
 30
0.0
 10
16.5959617428
 20
13.6585879855
 30
0.0
 10
16.5883959658
 20
13.6624436834
 30
0.0
 10
16.5789389606
 20
13.6672634625
 30
0.0
 10
16.5675904618
 20
13.6730471302
 30
0.0
 10
16.5562419878
 20
13.6788308159
 30
0.0
 10
16.5411106804
 20
13.6865423906
 30
0.0
 10
16.5221965491
 20
13.6961818611
 30
0.0
 10
16.4919339374
 20
13.7116050126
 30
0.0
 10
16.4541056734
 20
13.7308839525
 30
0.0
 10
16.4087117563
 20
13.7540186802
 30
0.0
 10
16.3633178393
 20
13.7771534079
 30
0.0
 10
16.325489575
 20
13.7964323476
 30
0.0
 10
16.2952269638
 20
13.8118554997
 30
0.0
 10
16.2763128312
 20
13.8214949688
 30
0.0
 10
16.2611815266
 20
13.8292065462
 30
0.0
 10
16.249833044
 20
13.8349902234
 30
0.0
 10
16.2384845773
 20
13.8407739232
 30
0.0
 10
16.2290274724
 20
13.8455936027
 30
0.0
 10
16.2214618987
 20
13.8494495036
 30
0.0
 10
16.2157874173
 20
13.8523409995
 30
0.0
 10
16.2110596408
 20
13.8547519468
 30
0.0
 10
16.2072752709
 20
13.8566776376
 30
0.0
 10
16.2049149326
 20
13.8578881782
 30
0.0
 10
16.2030154561
 20
13.8588406163
 30
0.0
 10
16.2011568889
 20
13.859851445
 30
0.0
 10
16.1985408668
 20
13.8606970443
 30
0.0
 10
16.1954700952
 20
13.8618094702
 30
0.0
 10
16.1913518231
 20
13.8632585778
 30
0.0
 10
16.1862121697
 20
13.8650816472
 30
0.0
 10
16.1779841492
 20
13.8679920282
 30
0.0
 10
16.1677006901
 20
13.8716322405
 30
0.0
 10
16.15124628
 20
13.8774553303
 30
0.0
 10
16.1306785678
 20
13.8847346215
 30
0.0
 10
16.1059971844
 20
13.893469587
 30
0.0
 10
16.0813158354
 20
13.9022046018
 30
0.0
 10
16.0566344773
 20
13.9109396035
 30
0.0
 10
16.0072717657
 20
13.9284096134
 30
0.0
 10
15.9496819342
 20
13.9487912908
 30
0.0
 10
15.8838649836
 20
13.9720846327
 30
0.0
 10
15.8427293919
 20
13.9866429817
 30
0.0
 10
15.8139344728
 20
13.996833805
 30
0.0
 10
15.7974802409
 20
14.0026571656
 30
0.0
 10
15.7851395455
 20
14.0070245931
 30
0.0
 10
15.7748557013
 20
14.010664412
 30
0.0
 10
15.7666284719
 20
14.0135756033
 30
0.0
 10
15.7604584707
 20
14.0157608108
 30
0.0
 10
15.7558297651
 20
14.017394523
 30
0.0
 10
15.7527458377
 20
14.0184917533
 30
0.0
 10
15.7512005229
 20
14.019025922
 30
0.0
 10
15.749923618
 20
14.0195178693
 30
0.0
 10
15.7488574163
 20
14.0197188187
 30
0.0
 10
15.7472696041
 20
14.0200697784
 30
0.0
 10
15.7448830726
 20
14.0205754675
 30
0.0
 10
15.7406439367
 20
14.0214899336
 30
0.0
 10
15.7353437861
 20
14.0226277109
 30
0.0
 10
15.7289841323
 20
14.0239953145
 30
0.0
 10
15.7205044098
 20
14.0258179928
 30
0.0
 10
15.7099048198
 20
14.0280966128
 30
0.0
 10
15.6971852848
 20
14.0308308402
 30
0.0
 10
15.6802259142
 20
14.0344765175
 30
0.0
 10
15.6590266977
 20
14.0390336002
 30
0.0
 10
15.6335876394
 20
14.0445021054
 30
0.0
 10
15.6081485807
 20
14.049970609
 30
0.0
 10
15.5742298358
 20
14.0572619477
 30
0.0
 10
15.5318314047
 20
14.0663761207
 30
0.0
 10
15.4809532874
 20
14.0773131292
 30
0.0
 10
15.4300751701
 20
14.0882501348
 30
0.0
 10
15.3876767389
 20
14.0973643149
 30
0.0
 10
15.3537579943
 20
14.1046556395
 30
0.0
 10
15.332558778
 20
14.1092127618
 30
0.0
 10
15.3177193286
 20
14.1124026584
 30
0.0
 10
15.30923964
 20
14.1142255956
 30
0.0
 10
15.3028798824
 20
14.1155924064
 30
0.0
 10
15.2965200913
 20
14.1169607163
 30
0.0
 10
15.2912203697
 20
14.1180963041
 30
0.0
 10
15.2875103601
 20
14.1189003677
 30
0.0
 10
15.2856556347
 20
14.1192898973
 30
0.0
 10
15.2845953419
 20
14.1195326105
 30
0.0
 10
15.2835395633
 20
14.1195732711
 30
0.0
 10
15.2822182943
 20
14.11969328
 30
0.0
 10
15.2801051279
 20
14.1198466276
 30
0.0
 10
15.2774633734
 20
14.1200515784
 30
0.0
 10
15.2742933949
 20
14.1202918415
 30
0.0
 10
15.2700667127
 20
14.1206141728
 30
0.0
 10
15.2626700394
 20
14.1211773297
 30
0.0
 10
15.2521033525
 20
14.1219823221
 30
0.0
 10
15.2394233328
 20
14.1229481065
 30
0.0
 10
15.2225166383
 20
14.1242358911
 30
0.0
 10
15.2013832707
 20
14.1258455972
 30
0.0
 10
15.1760232294
 20
14.127777255
 30
0.0
 10
15.1506631881
 20
14.1297089101
 30
0.0
 10
15.1168497997
 20
14.1322844511
 30
0.0
 10
15.0745830642
 20
14.135503877
 30
0.0
 10
15.0238629817
 20
14.1393671883
 30
0.0
 10
14.9731428991
 20
14.1432304995
 30
0.0
 10
14.9055161223
 20
14.1483815811
 30
0.0
 10
14.8547960397
 20
14.1522448924
 30
0.0
 10
14.8209826513
 20
14.1548204332
 30
0.0
  0
LINE
  5
3F4
100
AcDbEntity
  8
03__ASM_ALL_CURVES
100
AcDbLine
 62
8
  6
PHANTOM
 10
14.8209827442
 20
14.154820433
 11
14.7980817947
 21
14.1547779887
  0
SPLINE
  5
3F5
100
AcDbEntity
  8
03__ASM_ALL_CURVES
100
AcDbSpline
 62
8
  6
PHANTOM
 70
0
 71
3
 72
206
 73
202
 74
0
 42
0.0000001
 43
0.0000001
 44
0.0000000001
 40
0.0
 40
0.0
 40
0.0
 40
0.0
 40
0.03125
 40
0.046875
 40
0.0625
 40
0.078125
 40
0.09375
 40
0.1015625
 40
0.109375
 40
0.1171875
 40
0.12109375
 40
0.125
 40
0.12890625
 40
0.1328125
 40
0.13671875
 40
0.138671875
 40
0.1396484375
 40
0.140625
 40
0.1416015625
 40
0.1420898438
 40
0.142578125
 40
0.1428222656
 40
0.1430664062
 40
0.1435546875
 40
0.14453125
 40
0.146484375
 40
0.1484375
 40
0.150390625
 40
0.15234375
 40
0.15625
 40
0.1640625
 40
0.171875
 40
0.1796875
 40
0.1875
 40
0.203125
 40
0.21875
 40
0.234375
 40
0.2421875
 40
0.25
 40
0.2578125
 40
0.265625
 40
0.26953125
 40
0.2734375
 40
0.27734375
 40
0.279296875
 40
0.28125
 40
0.2822265625
 40
0.283203125
 40
0.2841796875
 40
0.28515625
 40
0.2854003906
 40
0.2856445312
 40
0.2861328125
 40
0.2866210938
 40
0.287109375
 40
0.2880859375
 40
0.2890625
 40
0.291015625
 40
0.29296875
 40
0.296875
 40
0.30078125
 40
0.3046875
 40
0.3125
 40
0.3203125
 40
0.328125
 40
0.34375
 40
0.359375
 40
0.375
 40
0.3828125
 40
0.390625
 40
0.3984375
 40
0.40625
 40
0.4140625
 40
0.41796875
 40
0.421875
 40
0.423828125
 40
0.42578125
 40
0.4267578125
 40
0.427734375
 40
0.4282226562
 40
0.4284667969
 40
0.4285888672
 40
0.4287109375
 40
0.4289550781
 40
0.4291992188
 40
0.4296875
 40
0.4306640625
 40
0.431640625
 40
0.43359375
 40
0.435546875
 40
0.4375
 40
0.44140625
 40
0.4453125
 40
0.44921875
 40
0.453125
 40
0.4609375
 40
0.46875
 40
0.4765625
 40
0.484375
 40
0.5
 40
0.515625
 40
0.5234375
 40
0.53125
 40
0.5390625
 40
0.546875
 40
0.55078125
 40
0.5546875
 40
0.55859375
 40
0.5625
 40
0.564453125
 40
0.56640625
 40
0.568359375
 40
0.5693359375
 40
0.5703125
 40
0.5708007812
 40
0.5710449219
 40
0.5712890625
 40
0.5714111328
 40
0.5715332031
 40
0.5717773438
 40
0.572265625
 40
0.5732421875
 40
0.57421875
 40
0.576171875
 40
0.578125
 40
0.58203125
 40
0.5859375
 40
0.59375
 40
0.6015625
 40
0.609375
 40
0.6171875
 40
0.625
 40
0.640625
 40
0.65625
 40
0.671875
 40
0.6796875
 40
0.6875
 40
0.6953125
 40
0.69921875
 40
0.703125
 40
0.70703125
 40
0.708984375
 40
0.7109375
 40
0.7119140625
 40
0.712890625
 40
0.7133789062
 40
0.7138671875
 40
0.7143554688
 40
0.7145996094
 40
0.71484375
 40
0.7153320312
 40
0.7158203125
 40
0.716796875
 40
0.7177734375
 40
0.71875
 40
0.720703125
 40
0.72265625
 40
0.7265625
 40
0.73046875
 40
0.734375
 40
0.7421875
 40
0.75
 40
0.7578125
 40
0.765625
 40
0.78125
 40
0.796875
 40
0.8125
 40
0.8203125
 40
0.828125
 40
0.8359375
 40
0.84375
 40
0.84765625
 40
0.849609375
 40
0.8515625
 40
0.853515625
 40
0.8544921875
 40
0.85546875
 40
0.8564453125
 40
0.8569335938
 40
0.8571777344
 40
0.857421875
 40
0.8579101562
 40
0.8583984375
 40
0.859375
 40
0.8603515625
 40
0.861328125
 40
0.86328125
 40
0.865234375
 40
0.8671875
 40
0.87109375
 40
0.875
 40
0.87890625
 40
0.8828125
 40
0.890625
 40
0.8984375
 40
0.90625
 40
0.921875
 40
0.9375
 40
0.953125
 40
0.96875
 40
1.0
 40
1.0
 40
1.0
 40
1.0
 10
14.7980817951
 20
14.1547779887
 30
0.0
 10
14.7682935176
 20
14.1523251247
 30
0.0
 10
14.7236111014
 20
14.1486458287
 30
0.0
 10
14.6640345465
 20
14.1437401007
 30
0.0
 10
14.6193521303
 20
14.1400608047
 30
0.0
 10
14.5746697141
 20
14.1363815087
 30
0.0
 10
14.5374343673
 20
14.1333154287
 30
0.0
 10
14.5076460898
 20
14.1308625647
 30
0.0
 10
14.4853048819
 20
14.1290229166
 30
0.0
 10
14.4666872081
 20
14.127489877
 30
0.0
 10
14.4517930701
 20
14.1262634441
 30
0.0
 10
14.4406224636
 20
14.125343623
 30
0.0
 10
14.4294518687
 20
14.124423788
 30
0.0
 10
14.4182812306
 20
14.1235040051
 30
0.0
 10
14.4089724999
 20
14.1227373573
 30
0.0
 10
14.402456125
 20
14.1222010214
 30
0.0
 10
14.3987328935
 20
14.1218940479
 30
0.0
 10
14.395939311
 20
14.1216652145
 30
0.0
 10
14.3936150173
 20
14.121470071
 30
0.0
 10
14.3917473018
 20
14.1213239354
 30
0.0
 10
14.390598835
 20
14.1212098772
 30
0.0
 10
14.3896368787
 20
14.121170672
 30
0.0
 10
14.3888325698
 20
14.1209414802
 30
0.0
 10
14.3873975509
 20
14.1205735098
 30
0.0
 10
14.3845470221
 20
14.1198140579
 30
0.0
 10
14.380464637
 20
14.1187414203
 30
0.0
 10
14.3755701478
 20
14.1174489853
 30
0.0
 10
14.3706744889
 20
14.1161579599
 30
0.0
 10
14.3641473517
 20
14.114436101
 30
0.0
 10
14.3527246715
 20
14.1114230771
 30
0.0
 10
14.3364066563
 20
14.1071186374
 30
0.0
 10
14.3168249954
 20
14.1019533612
 30
0.0
 10
14.297243346
 20
14.0967880712
 30
0.0
 10
14.2711344761
 20
14.0899010227
 30
0.0
 10
14.23849839
 20
14.0812922104
 30
0.0
 10
14.1993350862
 20
14.0709616364
 30
0.0
 10
14.1666989998
 20
14.0623528245
 30
0.0
 10
14.1405901306
 20
14.0554657751
 30
0.0
 10
14.1210084789
 20
14.0503004879
 30
0.0
 10
14.1014268266
 20
14.0451352011
 30
0.0
 10
14.0851087846
 20
14.0408307942
 30
0.0
 10
14.0720543476
 20
14.0373872715
 30
0.0
 10
14.0622635291
 20
14.0348046217
 30
0.0
 10
14.0541044844
 20
14.0326524382
 30
0.0
 10
14.0475773142
 20
14.0309306362
 30
0.0
 10
14.0434976834
 20
14.0298546355
 30
0.0
 10
14.0402343211
 20
14.0289935475
 30
0.0
 10
14.0377858621
 20
14.0283485185
 30
0.0
 10
14.0353409809
 20
14.027700485
 30
0.0
 10
14.0334972896
 20
14.0272228833
 30
0.0
 10
14.0322837614
 20
14.026891382
 30
0.0
 10
14.0314376022
 20
14.0267015711
 30
0.0
 10
14.0306506563
 20
14.0262369333
 30
0.0
 10
14.0296430717
 20
14.0257324839
 30
0.0
 10
14.0283217173
 20
14.0250413325
 30
0.0
 10
14.0266624601
 20
14.0241837454
 30
0.0
 10
14.0240118758
 20
14.0228080561
 30
0.0
 10
14.020697198
 20
14.02108966
 30
0.0
 10
14.0153945225
 20
14.0183395469
 30
0.0
 10
14.0087659006
 20
14.0149021386
 30
0.0
 10
14.0008116731
 20
14.0107771489
 30
0.0
 10
13.9902059949
 20
14.0052771975
 30
0.0
 10
13.9769489115
 20
13.9984022463
 30
0.0
 10
13.9610404052
 20
13.9901523099
 30
0.0
 10
13.9398290657
 20
13.979152393
 30
0.0
 10
13.9133148906
 20
13.9654024975
 30
0.0
 10
13.8814978807
 20
13.9489026225
 30
0.0
 10
13.8549837057
 20
13.9351527268
 30
0.0
 10
13.8337723659
 20
13.9241528102
 30
0.0
 10
13.8178638606
 20
13.915902873
 30
0.0
 10
13.801955357
 20
13.9076529347
 30
0.0
 10
13.7860468468
 20
13.8994030004
 30
0.0
 10
13.7727897755
 20
13.8925280427
 30
0.0
 10
13.7621840727
 20
13.8870281045
 30
0.0
 10
13.7555556125
 20
13.8835905795
 30
0.0
 10
13.7502526059
 20
13.8808407052
 30
0.0
 10
13.746938771
 20
13.8791217011
 30
0.0
 10
13.7442864566
 20
13.8777472599
 30
0.0
 10
13.742631604
 20
13.8768864954
 30
0.0
 10
13.7414675078
 20
13.876287445
 30
0.0
 10
13.7408932622
 20
13.875983149
 30
0.0
 10
13.7405525604
 20
13.8758169462
 30
0.0
 10
13.7403379778
 20
13.8755736286
 30
0.0
 10
13.7400265722
 20
13.8752958822
 30
0.0
 10
13.7395524203
 20
13.8748367539
 30
0.0
 10
13.7387114287
 20
13.8740401434
 30
0.0
 10
13.7375158692
 20
13.872898547
 30
0.0
 10
13.7355997005
 20
13.8710739945
 30
0.0
 10
13.7332056128
 20
13.868792617
 30
0.0
 10
13.7303322267
 20
13.866055258
 30
0.0
 10
13.7265012133
 20
13.8624053433
 30
0.0
 10
13.7217123888
 20
13.8578429852
 30
0.0
 10
13.7159658242
 20
13.8523681404
 30
0.0
 10
13.7102192529
 20
13.8468932996
 30
0.0
 10
13.7025571602
 20
13.8395935105
 30
0.0
 10
13.6929795436
 20
13.8304687745
 30
0.0
 10
13.6814864039
 20
13.8195190912
 30
0.0
 10
13.6699932642
 20
13.8085694079
 30
0.0
 10
13.6546690779
 20
13.7939698302
 30
0.0
 10
13.635513845
 20
13.7757203581
 30
0.0
 10
13.6163586122
 20
13.7574708859
 30
0.0
 10
13.6010344259
 20
13.7428713082
 30
0.0
 10
13.5895412862
 20
13.7319216249
 30
0.0
 10
13.5780481464
 20
13.7209719417
 30
0.0
 10
13.5684705302
 20
13.7118472055
 30
0.0
 10
13.5608084365
 20
13.7045474169
 30
0.0
 10
13.5550618682
 20
13.6990725746
 30
0.0
 10
13.5493152925
 20
13.6935977355
 30
0.0
 10
13.5445265025
 20
13.6890353594
 30
0.0
 10
13.5406954188
 20
13.6853854814
 30
0.0
 10
13.5378222473
 20
13.6826480105
 30
0.0
 10
13.5354274884
 20
13.6803669833
 30
0.0
 10
13.5335126889
 20
13.6785417161
 30
0.0
 10
13.5323136448
 20
13.6774019384
 30
0.0
 10
13.5314789118
 20
13.6766020614
 30
0.0
 10
13.5309947278
 20
13.676148169
 30
0.0
 10
13.5307090024
 20
13.67585702
 30
0.0
 10
13.5304416853
 20
13.6756412247
 30
0.0
 10
13.5303158039
 20
13.6753629067
 30
0.0
 10
13.5300708591
 20
13.6748867479
 30
0.0
 10
13.5295984696
 20
13.6739266944
 30
0.0
 10
13.5289144969
 20
13.6725592256
 30
0.0
 10
13.5278252431
 20
13.6703690199
 30
0.0
 10
13.5264619288
 20
13.667632035
 30
0.0
 10
13.5242816023
 20
13.6632524277
 30
0.0
 10
13.5215558598
 20
13.6577780663
 30
0.0
 10
13.5171948587
 20
13.6490190055
 30
0.0
 10
13.5117435432
 20
13.6380702078
 30
0.0
 10
13.505201992
 20
13.6249316384
 30
0.0
 10
13.4986604335
 20
13.6117930723
 30
0.0
 10
13.492118877
 20
13.5986545053
 30
0.0
 10
13.4833968009
 20
13.5811364163
 30
0.0
 10
13.4724942061
 20
13.5592388049
 30
0.0
 10
13.4594110921
 20
13.5329616713
 30
0.0
 10
13.4485084975
 20
13.5110640599
 30
0.0
 10
13.4397864209
 20
13.493545971
 30
0.0
 10
13.4332448658
 20
13.4804074037
 30
0.0
 10
13.4277935626
 20
13.4694585997
 30
0.0
 10
13.4234325364
 20
13.4606995517
 30
0.0
 10
13.4201617221
 20
13.454130279
 30
0.0
 10
13.4174361854
 20
13.4486558426
 30
0.0
 10
13.4152554378
 20
13.4442763888
 30
0.0
 10
13.4138931953
 20
13.441539013
 30
0.0
 10
13.4128017414
 20
13.4393496099
 30
0.0
 10
13.4121233701
 20
13.4379800976
 30
0.0
 10
13.4115719983
 20
13.4368870883
 30
0.0
 10
13.4111822214
 20
13.4360602109
 30
0.0
 10
13.4107818486
 20
13.4353937976
 30
0.0
 10
13.4107718219
 20
13.4347676527
 30
0.0
 10
13.4107076095
 20
13.4341577517
 30
0.0
 10
13.4106458972
 20
13.4333898135
 30
0.0
 10
13.4105367882
 20
13.432164221
 30
0.0
 10
13.4104039595
 20
13.4306311639
 30
0.0
 10
13.4102430424
 20
13.4287919518
 30
0.0
 10
13.4100290181
 20
13.4263395096
 30
0.0
 10
13.4097613055
 20
13.4232740115
 30
0.0
 10
13.4093330673
 20
13.4183691839
 30
0.0
 10
13.4087977346
 20
13.4122381599
 30
0.0
 10
13.4081553503
 20
13.4048809266
 30
0.0
 10
13.4072988326
 20
13.3950712838
 30
0.0
 10
13.4062281873
 20
13.3828092298
 30
0.0
 10
13.4049434122
 20
13.3680947652
 30
0.0
 10
13.4036586373
 20
13.3533803005
 30
0.0
 10
13.4019456041
 20
13.3337610143
 30
0.0
 10
13.3998043125
 20
13.3092369065
 30
0.0
 10
13.3972347626
 20
13.2798079771
 30
0.0
 10
13.3950934712
 20
13.2552838693
 30
0.0
 10
13.3933804376
 20
13.2356645832
 30
0.0
 10
13.3920956639
 20
13.2209501183
 30
0.0
 10
13.3908108842
 20
13.2062356546
 30
0.0
 10
13.3897402533
 20
13.1939735976
 30
0.0
 10
13.3889907747
 20
13.1853901654
 30
0.0
 10
13.3885625589
 20
13.180485335
 30
0.0
 10
13.3882412347
 20
13.1768067459
 30
0.0
 10
13.3879739815
 20
13.1737411477
 30
0.0
 10
13.3877590194
 20
13.1712889098
 30
0.0
 10
13.3876009661
 20
13.1694490738
 30
0.0
 10
13.3874591774
 20
13.1679179687
 30
0.0
 10
13.3873797023
 20
13.1668420906
 30
0.0
 10
13.3873034078
 20
13.166233712
 30
0.0
 10
13.3875365269
 20
13.1655611174
 30
0.0
 10
13.3877219822
 20
13.1647423617
 30
0.0
 10
13.3880779226
 20
13.1634200638
 30
0.0
 10
13.3885025327
 20
13.1617714077
 30
0.0
 10
13.3890207606
 20
13.1597912157
 30
0.0
 10
13.3897086935
 20
13.15715159
 30
0.0
 10
13.3905696519
 20
13.1538518416
 30
0.0
 10
13.3916023558
 20
13.1498922362
 30
0.0
 10
13.3929794502
 20
13.1446127299
 30
0.0
 10
13.3947007648
 20
13.1380133582
 30
0.0
 10
13.3967663651
 20
13.1300941073
 30
0.0
 10
13.3988319594
 20
13.1221748577
 30
0.0
 10
13.4015860872
 20
13.1116158578
 30
0.0
 10
13.4050287462
 20
13.0984171081
 30
0.0
 10
13.4091599373
 20
13.0825786084
 30
0.0
 10
13.4146681921
 20
13.0614606088
 30
0.0
 10
13.4215535105
 20
13.0350631093
 30
0.0
 10
13.4298158926
 20
13.0033861099
 30
0.0
 10
13.4380782747
 20
12.9717091105
 30
0.0
 10
13.4490947842
 20
12.9294731112
 30
0.0
 10
13.4573571664
 20
12.8977961118
 30
0.0
 10
13.4628654211
 20
12.8766781122
 30
0.0
  0
SPLINE
  5
3F6
100
AcDbEntity
  8
03__ASM_ALL_CURVES
100
AcDbSpline
 62
8
  6
PHANTOM
 70
0
 71
3
 72
187
 73
183
 74
0
 42
0.0000001
 43
0.0000001
 44
0.0000000001
 40
0.0
 40
0.0
 40
0.0
 40
0.0
 40
0.03125
 40
0.046875
 40
0.0625
 40
0.078125
 40
0.09375
 40
0.109375
 40
0.125
 40
0.1328125
 40
0.140625
 40
0.1484375
 40
0.15234375
 40
0.15625
 40
0.16015625
 40
0.162109375
 40
0.1640625
 40
0.1650390625
 40
0.166015625
 40
0.1665039062
 40
0.1667480469
 40
0.1669921875
 40
0.1674804688
 40
0.16796875
 40
0.1689453125
 40
0.169921875
 40
0.171875
 40
0.173828125
 40
0.17578125
 40
0.1796875
 40
0.1875
 40
0.1953125
 40
0.203125
 40
0.2109375
 40
0.21875
 40
0.234375
 40
0.25
 40
0.265625
 40
0.28125
 40
0.2890625
 40
0.296875
 40
0.3046875
 40
0.3125
 40
0.31640625
 40
0.3203125
 40
0.32421875
 40
0.326171875
 40
0.328125
 40
0.330078125
 40
0.3310546875
 40
0.33203125
 40
0.3325195312
 40
0.3330078125
 40
0.3332519531
 40
0.3334960938
 40
0.3337402344
 40
0.333984375
 40
0.3349609375
 40
0.3359375
 40
0.3369140625
 40
0.337890625
 40
0.33984375
 40
0.34375
 40
0.34765625
 40
0.3515625
 40
0.35546875
 40
0.359375
 40
0.3671875
 40
0.375
 40
0.390625
 40
0.40625
 40
0.421875
 40
0.4375
 40
0.4453125
 40
0.453125
 40
0.4609375
 40
0.46875
 40
0.4765625
 40
0.48046875
 40
0.484375
 40
0.48828125
 40
0.4921875
 40
0.494140625
 40
0.49609375
 40
0.4970703125
 40
0.498046875
 40
0.4990234375
 40
0.4995117188
 40
0.4997558594
 40
0.5
 40
0.5002441406
 40
0.5004882812
 40
0.5009765625
 40
0.501953125
 40
0.5029296875
 40
0.50390625
 40
0.505859375
 40
0.5078125
 40
0.51171875
 40
0.515625
 40
0.51953125
 40
0.5234375
 40
0.53125
 40
0.5390625
 40
0.546875
 40
0.5546875
 40
0.5625
 40
0.578125
 40
0.59375
 40
0.609375
 40
0.625
 40
0.6328125
 40
0.640625
 40
0.64453125
 40
0.6484375
 40
0.65234375
 40
0.65625
 40
0.66015625
 40
0.662109375
 40
0.6630859375
 40
0.6640625
 40
0.6650390625
 40
0.666015625
 40
0.6662597656
 40
0.6665039062
 40
0.6667480469
 40
0.6669921875
 40
0.6674804688
 40
0.66796875
 40
0.6689453125
 40
0.669921875
 40
0.671875
 40
0.673828125
 40
0.67578125
 40
0.6796875
 40
0.68359375
 40
0.6875
 40
0.6953125
 40
0.703125
 40
0.7109375
 40
0.71875
 40
0.734375
 40
0.75
 40
0.765625
 40
0.78125
 40
0.7890625
 40
0.796875
 40
0.8046875
 40
0.8125
 40
0.81640625
 40
0.8203125
 40
0.82421875
 40
0.826171875
 40
0.828125
 40
0.830078125
 40
0.8310546875
 40
0.83203125
 40
0.8325195312
 40
0.8330078125
 40
0.8332519531
 40
0.8334960938
 40
0.8337402344
 40
0.833984375
 40
0.8349609375
 40
0.8359375
 40
0.8369140625
 40
0.837890625
 40
0.83984375
 40
0.84375
 40
0.84765625
 40
0.8515625
 40
0.85546875
 40
0.859375
 40
0.8671875
 40
0.875
 40
0.890625
 40
0.90625
 40
0.921875
 40
0.9375
 40
0.953125
 40
0.96875
 40
1.0
 40
1.0
 40
1.0
 40
1.0
 10
16.5283924506
 20
11.5103765352
 30
0.0
 10
16.5516668947
 20
11.5162920422
 30
0.0
 10
16.5865785608
 20
11.5251653027
 30
0.0
 10
16.633127449
 20
11.5369963168
 30
0.0
 10
16.6680391152
 20
11.5458695773
 30
0.0
 10
16.7029507814
 20
11.5547428378
 30
0.0
 10
16.7378624474
 20
11.5636160984
 30
0.0
 10
16.7727741139
 20
11.5724893586
 30
0.0
 10
16.8018671681
 20
11.5798837432
 30
0.0
 10
16.825141614
 20
11.5857992486
 30
0.0
 10
16.8425974417
 20
11.5902358839
 30
0.0
 10
16.8571439861
 20
11.5939330599
 30
0.0
 10
16.8687811738
 20
11.5968908458
 30
0.0
 10
16.8775091952
 20
11.5991090621
 30
0.0
 10
16.8847821308
 20
11.6009579673
 30
0.0
 10
16.8906014115
 20
11.602436213
 30
0.0
 10
16.894236339
 20
11.603362117
 30
0.0
 10
16.897149143
 20
11.6040982587
 30
0.0
 10
16.8989585522
 20
11.6045688009
 30
0.0
 10
16.9002473709
 20
11.60487723
 30
0.0
 10
16.9009490542
 20
11.6050862541
 30
0.0
 10
16.901519699
 20
11.6054187607
 30
0.0
 10
16.9022778723
 20
11.6057921139
 30
0.0
 10
16.9034658756
 20
11.606413107
 30
0.0
 10
16.9049594651
 20
11.6071812581
 30
0.0
 10
16.90734441
 20
11.6084148215
 30
0.0
 10
16.9103272374
 20
11.6099552245
 30
0.0
 10
16.9139059257
 20
11.611804372
 30
0.0
 10
16.9186777558
 20
11.6142696704
 30
0.0
 10
16.927028344
 20
11.6185840505
 30
0.0
 10
16.9389578156
 20
11.6247473942
 30
0.0
 10
16.9532731558
 20
11.6321434309
 30
0.0
 10
16.967588503
 20
11.6395394611
 30
0.0
 10
16.9819038483
 20
11.646935493
 30
0.0
 10
17.0009909759
 20
11.6567968683
 30
0.0
 10
17.0248498853
 20
11.6691235876
 30
0.0
 10
17.0534805767
 20
11.6839156507
 30
0.0
 10
17.082111268
 20
11.6987077138
 30
0.0
 10
17.1059701775
 20
11.7110344331
 30
0.0
 10
17.1250573051
 20
11.7208958085
 30
0.0
 10
17.1393726506
 20
11.7282918401
 30
0.0
 10
17.1536879968
 20
11.7356878714
 30
0.0
 10
17.1656174499
 20
11.741851232
 30
0.0
 10
17.1751610169
 20
11.7467819177
 30
0.0
 10
17.1823186799
 20
11.7504799395
 30
0.0
 10
17.1882834381
 20
11.7535616006
 30
0.0
 10
17.1930551572
 20
11.7560269826
 30
0.0
 10
17.1966341854
 20
11.7578758739
 30
0.0
 10
17.199615949
 20
11.7594170786
 30
0.0
 10
17.2020030642
 20
11.7606490062
 30
0.0
 10
17.2034911304
 20
11.7614213205
 30
0.0
 10
17.2046904713
 20
11.7620337681
 30
0.0
 10
17.2054197798
 20
11.7624288776
 30
0.0
 10
17.2060496755
 20
11.7627167247
 30
0.0
 10
17.2063949185
 20
11.7630099339
 30
0.0
 10
17.2067045237
 20
11.7633248109
 30
0.0
 10
17.2073420663
 20
11.7639434188
 30
0.0
 10
17.2082906804
 20
11.7648760121
 30
0.0
 10
17.2095599001
 20
11.7661167942
 30
0.0
 10
17.2108279425
 20
11.767358292
 30
0.0
 10
17.2125190765
 20
11.7690133728
 30
0.0
 10
17.2154783695
 20
11.7719098804
 30
0.0
 10
17.219706031
 20
11.7760476877
 30
0.0
 10
17.224779182
 20
11.7810130825
 30
0.0
 10
17.2298523444
 20
11.7859784703
 30
0.0
 10
17.2349255038
 20
11.7909438599
 30
0.0
 10
17.2416897174
 20
11.7975643788
 30
0.0
 10
17.250144984
 20
11.8058400276
 30
0.0
 10
17.2636734107
 20
11.8190810657
 30
0.0
 10
17.2805839441
 20
11.8356323632
 30
0.0
 10
17.3008765841
 20
11.8554939203
 30
0.0
 10
17.3211692242
 20
11.8753554774
 30
0.0
 10
17.3380797576
 20
11.8919067749
 30
0.0
 10
17.3516081843
 20
11.905147813
 30
0.0
 10
17.3617545043
 20
11.9150785915
 30
0.0
 10
17.3719008244
 20
11.92500937
 30
0.0
 10
17.3820471442
 20
11.9349401487
 30
0.0
 10
17.3905024117
 20
11.9432157971
 30
0.0
 10
17.3972666234
 20
11.9498363168
 30
0.0
 10
17.4023397885
 20
11.9548017039
 30
0.0
 10
17.4074129294
 20
11.9597671014
 30
0.0
 10
17.4116406222
 20
11.9639049001
 30
0.0
 10
17.4150226076
 20
11.967215212
 30
0.0
 10
17.4171367328
 20
11.969283991
 30
0.0
 10
17.418827153
 20
11.9709393942
 30
0.0
 10
17.4200973773
 20
11.9721799059
 30
0.0
 10
17.4211482336
 20
11.9732169765
 30
0.0
 10
17.4218988733
 20
11.9739364285
 30
0.0
 10
17.4223043261
 20
11.9743576891
 30
0.0
 10
17.4226745713
 20
11.9746450554
 30
0.0
 10
17.4227919359
 20
11.9750416658
 30
0.0
 10
17.4230366297
 20
11.9755323741
 30
0.0
 10
17.4234237462
 20
11.9764088677
 30
0.0
 10
17.4239982561
 20
11.9776517193
 30
0.0
 10
17.4246784712
 20
11.9791471143
 30
0.0
 10
17.4255886369
 20
11.9811395867
 30
0.0
 10
17.4267252442
 20
11.9836306522
 30
0.0
 10
17.4285444305
 20
11.9876160916
 30
0.0
 10
17.4308182024
 20
11.9925979819
 30
0.0
 10
17.4335468192
 20
11.9985762112
 30
0.0
 10
17.4362754118
 20
12.0045544509
 30
0.0
 10
17.4399135437
 20
12.0125254336
 30
0.0
 10
17.4444612056
 20
12.0224891632
 30
0.0
 10
17.4499184012
 20
12.0344456382
 30
0.0
 10
17.4553755965
 20
12.0464021133
 30
0.0
 10
17.4608327919
 20
12.0583585884
 30
0.0
 10
17.4681090523
 20
12.0743005552
 30
0.0
 10
17.4772043779
 20
12.0942280136
 30
0.0
 10
17.4881187686
 20
12.1181409638
 30
0.0
 10
17.4990331592
 20
12.142053914
 30
0.0
 10
17.5081284848
 20
12.1619813725
 30
0.0
 10
17.5154047452
 20
12.1779233393
 30
0.0
 10
17.5199524081
 20
12.1878870685
 30
0.0
 10
17.5235905381
 20
12.195858052
 30
0.0
 10
17.5263191365
 20
12.2018362893
 30
0.0
 10
17.5290477313
 20
12.2078145276
 30
0.0
 10
17.5317763398
 20
12.2137927621
 30
0.0
 10
17.5340501376
 20
12.2187746363
 30
0.0
 10
17.5356418795
 20
12.2222619245
 30
0.0
 10
17.536551316
 20
12.2242546976
 30
0.0
 10
17.5372337605
 20
12.2257491731
 30
0.0
 10
17.5379148018
 20
12.2272440476
 30
0.0
 10
17.5384295167
 20
12.2283640849
 30
0.0
 10
17.538766542
 20
12.229112516
 30
0.0
 10
17.5389459793
 20
12.2294836253
 30
0.0
 10
17.5390829416
 20
12.2298668116
 30
0.0
 10
17.5390634537
 20
12.2304351916
 30
0.0
 10
17.539108294
 20
12.2311259906
 30
0.0
 10
17.5391413663
 20
12.232242265
 30
0.0
 10
17.539195948
 20
12.2336338429
 30
0.0
 10
17.5392758781
 20
12.2358624718
 30
0.0
 10
17.5393783299
 20
12.238647536
 30
0.0
 10
17.5395001852
 20
12.2419899221
 30
0.0
 10
17.5396630385
 20
12.2464463289
 30
0.0
 10
17.539866475
 20
12.2520168744
 30
0.0
 10
17.5401106545
 20
12.2587015133
 30
0.0
 10
17.5404362076
 20
12.2676143705
 30
0.0
 10
17.5408431558
 20
12.2787554402
 30
0.0
 10
17.5413314907
 20
12.2921247247
 30
0.0
 10
17.5418198264
 20
12.3054940089
 30
0.0
 10
17.5424709404
 20
12.3233197213
 30
0.0
 10
17.5432848329
 20
12.3456018618
 30
0.0
 10
17.5442615039
 20
12.3723404304
 30
0.0
 10
17.545238175
 20
12.3990789989
 30
0.0
 10
17.5460520675
 20
12.4213611394
 30
0.0
 10
17.5467031816
 20
12.4391868518
 30
0.0
 10
17.5471915169
 20
12.4525561361
 30
0.0
 10
17.5476798531
 20
12.4659254203
 30
0.0
 10
17.5480867974
 20
12.4770664908
 30
0.0
 10
17.5484123583
 20
12.4859793464
 30
0.0
 10
17.5486565142
 20
12.4926639904
 30
0.0
 10
17.5488600246
 20
12.4982345195
 30
0.0
 10
17.5490227271
 20
12.50269096
 30
0.0
 10
17.5491450429
 20
12.5060332432
 30
0.0
 10
17.5492460539
 20
12.5088186292
 30
0.0
 10
17.5493289234
 20
12.5110466015
 30
0.0
 10
17.5493760246
 20
12.5124398505
 30
0.0
 10
17.5494244518
 20
12.5135526948
 30
0.0
 10
17.5494301992
 20
12.5142522265
 30
0.0
 10
17.5494909577
 20
12.514802681
 30
0.0
 10
17.5493827565
 20
12.515240632
 30
0.0
 10
17.5492314661
 20
12.5156856193
 30
0.0
 10
17.5489510505
 20
12.5165719745
 30
0.0
 10
17.5485211175
 20
12.5179030276
 30
0.0
 10
17.5479531944
 20
12.5196768961
 30
0.0
 10
17.547383848
 20
12.521450997
 30
0.0
 10
17.546625216
 20
12.5238163838
 30
0.0
 10
17.5452973786
 20
12.5279558485
 30
0.0
 10
17.543400589
 20
12.5338693497
 30
0.0
 10
17.5411243895
 20
12.5409655596
 30
0.0
 10
17.538848204
 20
12.5480617673
 30
0.0
 10
17.5365720148
 20
12.5551579756
 30
0.0
 10
17.5335370971
 20
12.5646195864
 30
0.0
 10
17.5297434496
 20
12.5764466
 30
0.0
 10
17.5236736138
 20
12.5953698217
 30
0.0
 10
17.5160863189
 20
12.6190238489
 30
0.0
 10
17.5069815652
 20
12.6474086815
 30
0.0
 10
17.4978768114
 20
12.6757935141
 30
0.0
 10
17.4887720576
 20
12.7041783466
 30
0.0
 10
17.4796673038
 20
12.7325631792
 30
0.0
 10
17.4675276321
 20
12.7704096227
 30
0.0
 10
17.4584228783
 20
12.7987944553
 30
0.0
 10
17.4523530424
 20
12.817717677
 30
0.0
  0
SPLINE
  5
3F7
100
AcDbEntity
  8
0
100
AcDbSpline
 62
7
  6
CONTINUOUS
 70
0
 71
3
 72
22
 73
18
 74
0
 42
0.0000001
 43
0.0000001
 44
0.0000000001
 40
0.0
 40
0.0
 40
0.0
 40
0.0
 40
0.1177960976
 40
0.1769709088
 40
0.2374527713
 40
0.2992463361
 40
0.3619776223
 40
0.4252829468
 40
0.4889203566
 40
0.5527509872
 40
0.6166929419
 40
0.6806906024
 40
0.7447052683
 40
0.80869785
 40
0.8726327109
 40
0.9364394539
 40
1.0
 40
1.0
 40
1.0
 40
1.0
 10
13.8369122209
 20
12.6668667851
 30
0.0
 10
13.8360913712
 20
12.6642105146
 30
0.0
 10
13.8350918366
 20
12.6601332885
 30
0.0
 10
13.8345035106
 20
12.6545518194
 30
0.0
 10
13.8345147767
 20
12.6502595452
 30
0.0
 10
13.8350587054
 20
12.64591513
 30
0.0
 10
13.8361869317
 20
12.6416138537
 30
0.0
 10
13.8379140429
 20
12.6374677879
 30
0.0
 10
13.8402243847
 20
12.6335850937
 30
0.0
 10
13.8430787704
 20
12.6300629816
 30
0.0
 10
13.8464205543
 20
12.6269865009
 30
0.0
 10
13.8501790825
 20
12.6244279046
 30
0.0
 10
13.8542724362
 20
12.6224458465
 30
0.0
 10
13.8586099011
 20
12.6210834534
 30
0.0
 10
13.8630949103
 20
12.6203689625
 30
0.0
 10
13.8676247281
 20
12.6203114241
 30
0.0
 10
13.8706168987
 20
12.620706607
 30
0.0
 10
13.8720865353
 20
12.6210076292
 30
0.0
  0
SPLINE
  5
3F8
100
AcDbEntity
  8
0
100
AcDbSpline
 62
7
  6
CONTINUOUS
 70
0
 71
3
 72
25
 73
21
 74
0
 42
0.0000001
 43
0.0000001
 44
0.0000000001
 40
0.0
 40
0.0
 40
0.0
 40
0.0
 40
0.0633746834
 40
0.0952174268
 40
0.1271001032
 40
0.1908640103
 40
0.2546687375
 40
0.2866033928
 40
0.3185232147
 40
0.3821938713
 40
0.4456217939
 40
0.5085260977
 40
0.5703836967
 40
0.6305662316
 40
0.6892382735
 40
0.7480987648
 40
0.8089655805
 40
0.8721510768
 40
0.9364369325
 40
1.0
 40
1.0
 40
1.0
 40
1.0
 10
13.9081489898
 20
12.6921374754
 30
0.0
 10
13.9073200451
 20
12.6939436542
 30
0.0
 10
13.9058134328
 20
12.6965487058
 30
0.0
 10
13.9033430917
 20
12.6996821318
 30
0.0
 10
13.9005739204
 20
12.7025734247
 30
0.0
 10
13.896603457
 20
12.7056670782
 30
0.0
 10
13.8921077546
 20
12.7079350869
 30
0.0
 10
13.8883044558
 20
12.7092017502
 30
0.0
 10
13.8844007197
 20
12.7100938585
 30
0.0
 10
13.8793964171
 20
12.710493107
 30
0.0
 10
13.8734407185
 20
12.7098230585
 30
0.0
 10
13.8677693831
 20
12.7080740489
 30
0.0
 10
13.8625941287
 20
12.7053932771
 30
0.0
 10
13.8580348428
 20
12.7019915105
 30
0.0
 10
13.8540576793
 20
12.6980684019
 30
0.0
 10
13.8505127913
 20
12.6937303409
 30
0.0
 10
13.8472574856
 20
12.6890016343
 30
0.0
 10
13.8442404933
 20
12.6839198615
 30
0.0
 10
13.8414962375
 20
12.6785912653
 30
0.0
 10
13.839874136
 20
12.6749215726
 30
0.0
 10
13.8391295124
 20
12.673072659
 30
0.0
  0
LINE
  5
3F9
100
AcDbEntity
  8
0
100
AcDbLine
 62
7
  6
CONTINUOUS
 10
13.8385276696
 20
12.6715368843
 11
13.8369122209
 21
12.6668667851
  0
SPLINE
  5
3FA
100
AcDbEntity
  8
0
100
AcDbSpline
 62
7
  6
CONTINUOUS
 70
0
 71
3
 72
29
 73
25
 74
0
 42
0.0000001
 43
0.0000001
 44
0.0000000001
 40
0.0
 40
0.0
 40
0.0
 40
0.0
 40
0.0014402165
 40
0.0033613905
 40
0.0060937465
 40
0.0096408732
 40
0.0140069416
 40
0.0252143864
 40
0.0396911923
 40
0.0573006935
 40
0.0779013345
 40
0.1012814835
 40
0.1271764844
 40
0.1553319166
 40
0.185487958
 40
0.2173857597
 40
0.2854534504
 40
0.3579825901
 40
0.4337171763
 40
0.5117829332
 40
0.5914841639
 40
0.672344984
 40
0.835868212
 40
1.0
 40
1.0
 40
1.0
 40
1.0
 10
13.8967232673
 20
12.59210488
 30
0.0
 10
13.896722035
 20
12.5920861974
 30
0.0
 10
13.8967250484
 20
12.5921904505
 30
0.0
 10
13.8967236552
 20
12.5922363744
 30
0.0
 10
13.8967228149
 20
12.5923572317
 30
0.0
 10
13.8967187652
 20
12.5924899784
 30
0.0
 10
13.89670837
 20
12.5927410447
 30
0.0
 10
13.8966824948
 20
12.5931291286
 30
0.0
 10
13.8966284816
 20
12.5936902306
 30
0.0
 10
13.8965405444
 20
12.5943693572
 30
0.0
 10
13.896410452
 20
12.5951596681
 30
0.0
 10
13.8962312973
 20
12.5960503944
 30
0.0
 10
13.8959970179
 20
12.5970296226
 30
0.0
 10
13.8957013379
 20
12.5980839211
 30
0.0
 10
13.8953411723
 20
12.5992003068
 30
0.0
 10
13.8947592111
 20
12.6007890737
 30
0.0
 10
13.8938566032
 20
12.6028448502
 30
0.0
 10
13.8925191779
 20
12.6053224399
 30
0.0
 10
13.890905699
 20
12.6077871651
 30
0.0
 10
13.889034141
 20
12.6101817157
 30
0.0
 10
13.8869182962
 20
12.6124558173
 30
0.0
 10
13.8837932724
 20
12.6152881527
 30
0.0
 10
13.8794083414
 20
12.6183327189
 30
0.0
 10
13.8755231963
 20
12.6201374688
 30
0.0
 10
13.8735179664
 20
12.6208668198
 30
0.0
  0
SPLINE
  5
3FB
100
AcDbEntity
  8
0
100
AcDbSpline
 62
7
  6
CONTINUOUS
 70
0
 71
3
 72
18
 73
14
 74
0
 42
0.0000001
 43
0.0000001
 44
0.0000000001
 40
0.0
 40
0.0
 40
0.0
 40
0.0
 40
0.1608990582
 40
0.32127914
 40
0.4788013681
 40
0.6301292754
 40
0.7694721743
 40
0.8317277917
 40
0.8867713756
 40
0.9326022391
 40
0.9674347659
 40
0.9900233636
 40
1.0
 40
1.0
 40
1.0
 40
1.0
 10
13.9091092195
 20
12.6910663301
 30
0.0
 10
13.9108460522
 20
12.6899045193
 30
0.0
 10
13.9145176354
 20
12.6878735848
 30
0.0
 10
13.9204128794
 20
12.6858092842
 30
0.0
 10
13.9264486982
 20
12.684779121
 30
0.0
 10
13.9322952485
 20
12.6847638352
 30
0.0
 10
13.9368418868
 20
12.6854979221
 30
0.0
 10
13.9400454908
 20
12.6864277838
 30
0.0
 10
13.9420315104
 20
12.6871714462
 30
0.0
 10
13.9436336162
 20
12.6879091701
 30
0.0
 10
13.9448130157
 20
12.6885494617
 30
0.0
 10
13.9455545236
 20
12.6890152089
 30
0.0
 10
13.9459023477
 20
12.6892562368
 30
0.0
 10
13.9460055035
 20
12.6893346352
 30
0.0
  0
SPLINE
  5
3FC
100
AcDbEntity
  8
0
100
AcDbSpline
 62
7
  6
CONTINUOUS
 70
0
 71
3
 72
14
 73
10
 74
0
 42
0.0000001
 43
0.0000001
 44
0.0000000001
 40
0.0
 40
0.0
 40
0.0
 40
0.0
 40
0.1128402252
 40
0.227185433
 40
0.3443967841
 40
0.4655768479
 40
0.5915064787
 40
0.7226067261
 40
1.0
 40
1.0
 40
1.0
 40
1.0
 10
14.8991600035
 20
12.2183387425
 30
0.0
 10
14.8978154544
 20
12.2210784226
 30
0.0
 10
14.8946338429
 20
12.2263751202
 30
0.0
 10
14.8885480113
 20
12.2334791364
 30
0.0
 10
14.881232496
 20
12.2396636319
 30
0.0
 10
14.872805935
 20
12.2448367258
 30
0.0
 10
14.8633955974
 20
12.2489281913
 30
0.0
 10
14.8494793671
 20
12.2529416087
 30
0.0
 10
14.838363829
 20
12.2540454479
 30
0.0
 10
14.8308615681
 20
12.2540454479
 30
0.0
  0
SPLINE
  5
3FD
100
AcDbEntity
  8
0
100
AcDbSpline
 62
7
  6
CONTINUOUS
 70
0
 71
3
 72
11
 73
7
 74
0
 42
0.0000001
 43
0.0000001
 44
0.0000000001
 40
0.0
 40
0.0
 40
0.0
 40
0.0
 40
0.2851242927
 40
0.547365063
 40
0.7858386767
 40
1.0
 40
1.0
 40
1.0
 40
1.0
 10
13.8995363782
 20
12.5653270774
 30
0.0
 10
13.8991785587
 20
12.5636659837
 30
0.0
 10
13.8985475703
 20
12.5604645968
 30
0.0
 10
13.8978382518
 20
12.5558337105
 30
0.0
 10
13.8974078108
 20
12.5515932404
 30
0.0
 10
13.897302204
 20
12.5488951447
 30
0.0
 10
13.8973049682
 20
12.5476188549
 30
0.0
  0
SPLINE
  5
3FE
100
AcDbEntity
  8
0
100
AcDbSpline
 62
7
  6
CONTINUOUS
 70
0
 71
3
 72
14
 73
10
 74
0
 42
0.0000001
 43
0.0000001
 44
0.0000000001
 40
0.0
 40
0.0
 40
0.0
 40
0.0
 40
0.306420573
 40
0.4480470088
 40
0.5799360059
 40
0.7017479783
 40
0.8134418791
 40
0.9129128955
 40
1.0
 40
1.0
 40
1.0
 40
1.0
 10
14.0163487804
 20
12.7149679633
 30
0.0
 10
14.0140015829
 20
12.7156070056
 30
0.0
 10
14.010559857
 20
12.716506916
 30
0.0
 10
14.0060827338
 20
12.7175812029
 30
0.0
 10
14.0030166813
 20
12.7182527534
 30
0.0
 10
14.0001689138
 20
12.7188062885
 30
0.0
 10
13.9975619192
 20
12.7192464295
 30
0.0
 10
13.9952124299
 20
12.7195471024
 30
0.0
 10
13.9937343994
 20
12.7196554255
 30
0.0
 10
13.9930436629
 20
12.7196851003
 30
0.0
  0
SPLINE
  5
3FF
100
AcDbEntity
  8
0
100
AcDbSpline
 62
7
  6
CONTINUOUS
 70
0
 71
3
 72
13
 73
9
 74
0
 42
0.0000001
 43
0.0000001
 44
0.0000000001
 40
0.0
 40
0.0
 40
0.0
 40
0.0
 40
0.1088827436
 40
0.2195535782
 40
0.3336920471
 40
0.4527981115
 40
0.7103976372
 40
1.0
 40
1.0
 40
1.0
 40
1.0
 10
15.9551177579
 20
11.4855229679
 30
0.0
 10
15.9558570064
 20
11.4855229276
 30
0.0
 10
15.9573497128
 20
11.4856282597
 30
0.0
 10
15.9595722471
 20
11.4861005802
 30
0.0
 10
15.9617787209
 20
11.4868840524
 30
0.0
 10
15.9647658315
 20
11.4883777228
 30
0.0
 10
15.968437007
 20
11.4910776943
 30
0.0
 10
15.9710081057
 20
11.4937815929
 30
0.0
 10
15.9722681054
 20
11.4952910452
 30
0.0
  0
SPLINE
  5
400
100
AcDbEntity
  8
0
100
AcDbSpline
 62
7
  6
CONTINUOUS
 70
0
 71
3
 72
11
 73
7
 74
0
 42
0.0000001
 43
0.0000001
 44
0.0000000001
 40
0.0
 40
0.0
 40
0.0
 40
0.0
 40
0.3311112539
 40
0.6013020254
 40
0.8198817343
 40
1.0
 40
1.0
 40
1.0
 40
1.0
 10
13.9930436629
 20
12.7196851003
 30
0.0
 10
13.9923529303
 20
12.719714775
 30
0.0
 10
13.9910960794
 20
12.7197354309
 30
0.0
 10
13.9893860764
 20
12.7195663216
 30
0.0
 10
13.9880315913
 20
12.7192063005
 30
0.0
 10
13.9872731275
 20
12.7188369143
 30
0.0
 10
13.986968564
 20
12.7186162645
 30
0.0
  0
SPLINE
  5
401
100
AcDbEntity
  8
0
100
AcDbSpline
 62
7
  6
CONTINUOUS
 70
0
 71
3
 72
42
 73
38
 74
0
 42
0.0000001
 43
0.0000001
 44
0.0000000001
 40
0.0
 40
0.0
 40
0.0
 40
0.0
 40
0.0107127614
 40
0.0214629484
 40
0.032287314
 40
0.0432214015
 40
0.0655390514
 40
0.0886703514
 40
0.1006092867
 40
0.1128208934
 40
0.1381178787
 40
0.164669241
 40
0.1925280768
 40
0.2217071217
 40
0.2521837028
 40
0.2839046461
 40
0.3167907061
 40
0.3507405391
 40
0.3856342658
 40
0.4213366752
 40
0.4577001472
 40
0.4945673672
 40
0.5317738659
 40
0.5691504541
 40
0.6065256807
 40
0.6437280767
 40
0.6805885403
 40
0.7169426965
 40
0.7526333577
 40
0.787513107
 40
0.8214469279
 40
0.8543152048
 40
0.8860168595
 40
0.9164731572
 40
0.9456310998
 40
0.9734693195
 40
1.0
 40
1.0
 40
1.0
 40
1.0
 10
14.462832312
 20
11.636509316
 30
0.0
 10
14.4642649253
 20
11.6411452618
 30
0.0
 10
14.4674722216
 20
11.6503330307
 30
0.0
 10
14.4732792148
 20
11.6637678443
 30
0.0
 10
14.4800752545
 20
11.6768446911
 30
0.0
 10
14.4905068314
 20
11.6938826751
 30
0.0
 10
14.5060718239
 20
11.7142330126
 30
0.0
 10
14.5244367123
 20
11.7327255634
 30
0.0
 10
14.54081399
 20
11.7465400946
 30
0.0
 10
14.5587343417
 20
11.75999238
 30
0.0
 10
14.5833410785
 20
11.7754756067
 30
0.0
 10
14.6156855064
 20
11.791628534
 30
0.0
 10
14.6509738216
 20
11.8054738115
 30
0.0
 10
14.6889648094
 20
11.8169222032
 30
0.0
 10
14.7294030734
 20
11.8259011159
 30
0.0
 10
14.7720156847
 20
11.8323523763
 30
0.0
 10
14.8165149287
 20
11.8362340201
 30
0.0
 10
14.8625997568
 20
11.8375206983
 30
0.0
 10
14.9099579107
 20
11.836204222
 30
0.0
 10
14.9582680577
 20
11.8322938021
 30
0.0
 10
15.0072020509
 20
11.825816136
 30
0.0
 10
15.0564272291
 20
11.816815311
 30
0.0
 10
15.1056087468
 20
11.8053525692
 30
0.0
 10
15.1544119473
 20
11.7915059051
 30
0.0
 10
15.2025046936
 20
11.7753695516
 30
0.0
 10
15.2495596992
 20
11.757053324
 30
0.0
 10
15.295256778
 20
11.7366818585
 30
0.0
 10
15.3392850873
 20
11.7143937108
 30
0.0
 10
15.3813452991
 20
11.6903403513
 30
0.0
 10
15.421151635
 20
11.6646850398
 30
0.0
 10
15.4584338673
 20
11.6376016264
 30
0.0
 10
15.4929390022
 20
11.6092731946
 30
0.0
 10
15.5244332533
 20
11.5798905664
 30
0.0
 10
15.5527026473
 20
11.5496511667
 30
0.0
 10
15.5775562102
 20
11.5187555153
 30
0.0
 10
15.5988212541
 20
11.4874131007
 30
0.0
 10
15.6107927282
 20
11.4658431412
 30
0.0
 10
15.6160866626
 20
11.455055237
 30
0.0
  0
SPLINE
  5
402
100
AcDbEntity
  8
0
100
AcDbSpline
 62
7
  6
CONTINUOUS
 70
0
 71
3
 72
12
 73
8
 74
0
 42
0.0000001
 43
0.0000001
 44
0.0000000001
 40
0.0
 40
0.0
 40
0.0
 40
0.0
 40
0.2897114395
 40
0.5474343216
 40
0.7803503159
 40
0.8910683749
 40
1.0
 40
1.0
 40
1.0
 40
1.0
 10
15.9722681156
 20
11.68408811
 30
0.0
 10
15.9710082403
 20
11.6855975153
 30
0.0
 10
15.9684350051
 20
11.68830154
 30
0.0
 10
15.9641451174
 20
11.6914608738
 30
0.0
 10
15.9603623582
 20
11.6931115258
 30
0.0
 10
15.9573497813
 20
11.6937505521
 30
0.0
 10
15.9558570163
 20
11.6938560911
 30
0.0
 10
15.9551177579
 20
11.6938561314
 30
0.0
  0
SPLINE
  5
403
100
AcDbEntity
  8
0
100
AcDbSpline
 62
7
  6
CONTINUOUS
 70
0
 71
3
 72
23
 73
19
 74
0
 42
0.0000001
 43
0.0000001
 44
0.0000000001
 40
0.0
 40
0.0
 40
0.0
 40
0.0
 40
0.0427077894
 40
0.0910308698
 40
0.1447981597
 40
0.2035826497
 40
0.2667720145
 40
0.3336166737
 40
0.4032656248
 40
0.4747958848
 40
0.5472385757
 40
0.6196030279
 40
0.6909006398
 40
0.7601676527
 40
0.8264917845
 40
0.8890337204
 40
0.9470682266
 40
1.0
 40
1.0
 40
1.0
 40
1.0
 10
15.9747894901
 20
11.4983118389
 30
0.0
 10
15.9764008713
 20
11.5002422411
 30
0.0
 10
15.9794836541
 20
11.5046536062
 30
0.0
 10
15.9834770466
 20
11.5122025485
 30
0.0
 10
15.9870698719
 20
11.5209807696
 30
0.0
 10
15.990204961
 20
11.5308514848
 30
0.0
 10
15.9928331031
 20
11.541661657
 30
0.0
 10
15.9949115211
 20
11.5532400922
 30
0.0
 10
15.996406358
 20
11.565402456
 30
0.0
 10
15.9972931243
 20
11.5779542155
 30
0.0
 10
15.9975572984
 20
11.5906942112
 30
0.0
 10
15.9971945663
 20
11.6034180974
 30
0.0
 10
15.9962108467
 20
11.6159217569
 30
0.0
 10
15.994622331
 20
11.6280049516
 30
0.0
 10
15.9924548878
 20
11.6394742731
 30
0.0
 10
15.9897439482
 20
11.6501480014
 30
0.0
 10
15.9865335299
 20
11.6598556268
 30
0.0
 10
15.9839692792
 20
11.6658772073
 30
0.0
 10
15.9825963155
 20
11.668675013
 30
0.0
  0
SPLINE
  5
404
100
AcDbEntity
  8
0
100
AcDbSpline
 62
7
  6
CONTINUOUS
 70
0
 71
3
 72
11
 73
7
 74
0
 42
0.0000001
 43
0.0000001
 44
0.0000000001
 40
0.0
 40
0.0
 40
0.0
 40
0.0
 40
0.2009716314
 40
0.4392635715
 40
0.7077680571
 40
1.0
 40
1.0
 40
1.0
 40
1.0
 10
13.9569054921
 20
12.5055831618
 30
0.0
 10
13.9552477225
 20
12.5059107456
 30
0.0
 10
13.9516519121
 20
12.5067645875
 30
0.0
 10
13.9459206879
 20
12.5083694481
 30
0.0
 10
13.9395000096
 20
12.5103495641
 30
0.0
 10
13.9350196909
 20
12.511818532
 30
0.0
 10
13.9326895113
 20
12.5125982362
 30
0.0
  0
SPLINE
  5
405
100
AcDbEntity
  8
0
100
AcDbSpline
 62
7
  6
CONTINUOUS
 70
0
 71
3
 72
19
 73
15
 74
0
 42
0.0000001
 43
0.0000001
 44
0.0000000001
 40
0.0
 40
0.0
 40
0.0
 40
0.0
 40
0.1490362539
 40
0.2908757794
 40
0.4249287899
 40
0.5511718004
 40
0.6115847775
 40
0.67034225
 40
0.7276249409
 40
0.7836437605
 40
0.8386368973
 40
0.8928598362
 40
0.9465499253
 40
1.0
 40
1.0
 40
1.0
 40
1.0
 10
17.1386219104
 20
12.310702422
 30
0.0
 10
17.1530887471
 20
12.310702422
 30
0.0
 10
17.1813459877
 20
12.3119707367
 30
0.0
 10
17.2222305212
 20
12.3179876887
 30
0.0
 10
17.260039786
 20
12.3280597664
 30
0.0
 10
17.2889190466
 20
12.3399962506
 30
0.0
 10
17.3097462136
 20
12.3516071012
 30
0.0
 10
17.3239825916
 20
12.361169511
 30
0.0
 10
17.3369794252
 20
12.3716965912
 30
0.0
 10
17.3486514828
 20
12.3831643
 30
0.0
 10
17.3589071739
 20
12.3955344318
 30
0.0
 10
17.3676505867
 20
12.4087492908
 30
0.0
 10
17.3747960446
 20
12.4227239127
 30
0.0
 10
17.3784460529
 20
12.4324916653
 30
0.0
 10
17.3799779021
 20
12.4374487311
 30
0.0
  0
SPLINE
  5
406
100
AcDbEntity
  8
0
100
AcDbSpline
 62
7
  6
CONTINUOUS
 70
0
 71
3
 72
11
 73
7
 74
0
 42
0.0000001
 43
0.0000001
 44
0.0000000001
 40
0.0
 40
0.0
 40
0.0
 40
0.0
 40
0.2352904667
 40
0.4803319171
 40
0.7352498321
 40
1.0
 40
1.0
 40
1.0
 40
1.0
 10
14.1945921223
 20
11.481166134
 30
0.0
 10
14.2013553357
 20
11.467384154
 30
0.0
 10
14.2163584217
 20
11.4398233279
 30
0.0
 10
14.2424666375
 20
11.3995287085
 30
0.0
 10
14.2725021677
 20
11.35963988
 30
0.0
 10
14.2946369436
 20
11.3339205147
 30
0.0
 10
14.3062896476
 20
11.3211686064
 30
0.0
  0
SPLINE
  5
407
100
AcDbEntity
  8
0
100
AcDbSpline
 62
7
  6
CONTINUOUS
 70
0
 71
3
 72
15
 73
11
 74
0
 42
0.0000001
 43
0.0000001
 44
0.0000000001
 40
0.0
 40
0.0
 40
0.0
 40
0.0
 40
0.1381471093
 40
0.2714984926
 40
0.4004145631
 40
0.5254157731
 40
0.6471149348
 40
0.7662296118
 40
0.8835676259
 40
1.0
 40
1.0
 40
1.0
 40
1.0
 10
15.6160866626
 20
11.455055237
 30
0.0
 10
15.6198827331
 20
11.4473196586
 30
0.0
 10
15.6267951737
 20
11.4318389898
 30
0.0
 10
15.6351482673
 20
11.4082730984
 30
0.0
 10
15.6412616669
 20
11.3848714788
 30
0.0
 10
15.645107852
 20
11.3617259249
 30
0.0
 10
15.6466682132
 20
11.338924817
 30
0.0
 10
15.6459322329
 20
11.3165572507
 30
0.0
 10
15.6429002082
 20
11.2947162305
 30
0.0
 10
15.6393477332
 20
11.280539776
 30
0.0
 10
15.6372035415
 20
11.273601158
 30
0.0
  0
SPLINE
  5
408
100
AcDbEntity
  8
0
100
AcDbSpline
 62
7
  6
CONTINUOUS
 70
0
 71
3
 72
14
 73
10
 74
0
 42
0.0000001
 43
0.0000001
 44
0.0000000001
 40
0.0
 40
0.0
 40
0.0
 40
0.0
 40
0.1198742616
 40
0.2401836129
 40
0.361542451
 40
0.4843951392
 40
0.609234545
 40
0.7365375622
 40
1.0
 40
1.0
 40
1.0
 40
1.0
 10
14.496501545
 20
13.7633756391
 30
0.0
 10
14.4950779086
 20
13.7587687502
 30
0.0
 10
14.4927205273
 20
13.7493768854
 30
0.0
 10
14.4907030902
 20
13.7349486958
 30
0.0
 10
14.490195925
 20
13.7202686092
 30
0.0
 10
14.4911837942
 20
13.7054329159
 30
0.0
 10
14.4936327272
 20
13.6905256374
 30
0.0
 10
14.4988470684
 20
13.6704302489
 30
0.0
 10
14.5047641729
 20
13.6557713103
 30
0.0
 10
14.5094328497
 20
13.6462575473
 30
0.0
  0
SPLINE
  5
409
100
AcDbEntity
  8
0
100
AcDbSpline
 62
7
  6
CONTINUOUS
 70
0
 71
3
 72
29
 73
25
 74
0
 42
0.0000001
 43
0.0000001
 44
0.0000000001
 40
0.0
 40
0.0
 40
0.0
 40
0.0
 40
0.0214558549
 40
0.0432079549
 40
0.0655328871
 40
0.0886716227
 40
0.1128201128
 40
0.1381253183
 40
0.1646851159
 40
0.192552983
 40
0.2217416012
 40
0.2522279613
 40
0.3168234671
 40
0.3856623453
 40
0.4577278594
 40
0.5318037505
 40
0.6065583722
 40
0.6806231662
 40
0.752667656
 40
0.8214763121
 40
0.8860346402
 40
0.9165003337
 40
0.945666949
 40
1.0
 40
1.0
 40
1.0
 40
1.0
 10
14.6950219778
 20
13.6796243029
 30
0.0
 10
14.6957025485
 20
13.6818268363
 30
0.0
 10
14.6973985495
 20
13.6861688457
 30
0.0
 10
14.7008810902
 20
13.6923137565
 30
0.0
 10
14.705282301
 20
13.6980669422
 30
0.0
 10
14.7105658428
 20
13.70338765
 30
0.0
 10
14.7166920704
 20
13.7082419911
 30
0.0
 10
14.7236170582
 20
13.7125990131
 30
0.0
 10
14.7312923371
 20
13.7164322994
 30
0.0
 10
14.7396657026
 20
13.719717524
 30
0.0
 10
14.7486807643
 20
13.7224341547
 30
0.0
 10
14.7617253503
 20
13.7253301389
 30
0.0
 10
14.7792744136
 20
13.7273503822
 30
0.0
 10
14.8013964712
 20
13.7272929486
 30
0.0
 10
14.8244002956
 20
13.7248034106
 30
0.0
 10
14.8476691008
 20
13.7199486971
 30
0.0
 10
14.8705812355
 20
13.7128588703
 30
0.0
 10
14.8925220975
 20
13.7037242281
 30
0.0
 10
14.9129052547
 20
13.6927886181
 30
0.0
 10
14.9311844524
 20
13.6803444121
 30
0.0
 10
14.9445146785
 20
13.6687690908
 30
0.0
 10
14.9536358605
 20
13.6590132593
 30
0.0
 10
14.9613143253
 20
13.6494683647
 30
0.0
 10
14.9661037637
 20
13.6418081088
 30
0.0
 10
14.9686755244
 20
13.6365674115
 30
0.0
  0
SPLINE
  5
40A
100
AcDbEntity
  8
0
100
AcDbSpline
 62
7
  6
CONTINUOUS
 70
0
 71
3
 72
14
 73
10
 74
0
 42
0.0000001
 43
0.0000001
 44
0.0000000001
 40
0.0
 40
0.0
 40
0.0
 40
0.0
 40
0.271343435
 40
0.4002873435
 40
0.5253138534
 40
0.6470397134
 40
0.7661800009
 40
0.8835428441
 40
1.0
 40
1.0
 40
1.0
 40
1.0
 10
17.4523530441
 20
12.8177176735
 30
0.0
 10
17.4567120349
 20
12.8088349843
 30
0.0
 10
17.4622276157
 20
12.7952314693
 30
0.0
 10
17.4670737893
 20
12.776678751
 30
0.0
 10
17.4693229934
 20
12.7631435207
 30
0.0
 10
17.4702354929
 20
12.7498109584
 30
0.0
 10
17.4698051117
 20
12.7367315233
 30
0.0
 10
17.4680319586
 20
12.7239601484
 30
0.0
 10
17.4659549133
 20
12.7156704746
 30
0.0
 10
17.4647010712
 20
12.711613163
 30
0.0
  0
SPLINE
  5
40B
100
AcDbEntity
  8
0
100
AcDbSpline
 62
7
  6
CONTINUOUS
 70
0
 71
3
 72
15
 73
11
 74
0
 42
0.0000001
 43
0.0000001
 44
0.0000000001
 40
0.0
 40
0.0
 40
0.0
 40
0.0
 40
0.1419934913
 40
0.280754904
 40
0.4152984727
 40
0.5447421794
 40
0.6683560273
 40
0.7855968754
 40
0.8961518737
 40
1.0
 40
1.0
 40
1.0
 40
1.0
 10
17.251113468
 20
12.9884111107
 30
0.0
 10
17.2627354911
 20
12.9832361275
 30
0.0
 10
17.2853983583
 20
12.9722725489
 30
0.0
 10
17.317770725
 20
12.9538715547
 30
0.0
 10
17.3478457255
 20
12.9338741553
 30
0.0
 10
17.3752710329
 20
12.9125127398
 30
0.0
 10
17.3997276673
 20
12.8900344512
 30
0.0
 10
17.4209314891
 20
12.8666942977
 30
0.0
 10
17.4386319364
 20
12.8427624842
 30
0.0
 10
17.4482540518
 20
12.8260705417
 30
0.0
 10
17.4523530441
 20
12.8177176735
 30
0.0
  0
SPLINE
  5
40C
100
AcDbEntity
  8
0
100
AcDbSpline
 62
7
  6
CONTINUOUS
 70
0
 71
3
 72
23
 73
19
 74
0
 42
0.0000001
 43
0.0000001
 44
0.0000000001
 40
0.0
 40
0.0
 40
0.0
 40
0.0
 40
0.0440098311
 40
0.0904878753
 40
0.1399299003
 40
0.192619743
 40
0.2486537654
 40
0.3079675114
 40
0.3703642542
 40
0.4355397174
 40
0.5031037258
 40
0.5725989741
 40
0.6435176532
 40
0.7153166939
 40
0.7874316033
 40
0.8592912487
 40
0.9303287477
 40
1.0
 40
1.0
 40
1.0
 40
1.0
 10
14.6009384599
 20
14.0755442638
 30
0.0
 10
14.6057455686
 20
14.0818674715
 30
0.0
 10
14.6168140957
 20
14.0939997115
 30
0.0
 10
14.6366457509
 20
14.1097787728
 30
0.0
 10
14.6598368175
 20
14.1234107445
 30
0.0
 10
14.6861028017
 20
14.1347513388
 30
0.0
 10
14.7151395952
 20
14.1436883493
 30
0.0
 10
14.7466120613
 20
14.1501275712
 30
0.0
 10
14.7801573255
 20
14.1540002443
 30
0.0
 10
14.8153870673
 20
14.155264179
 30
0.0
 10
14.8518919533
 20
14.1539060449
 30
0.0
 10
14.8892464956
 20
14.1499422443
 30
0.0
 10
14.9270143157
 20
14.1434193209
 30
0.0
 10
14.9647535373
 20
14.1344135934
 30
0.0
 10
15.0020221838
 20
14.1230306648
 30
0.0
 10
15.0383841024
 20
14.1094034446
 30
0.0
 10
15.0734116695
 20
14.0936928344
 30
0.0
 10
15.0958783646
 20
14.08180533
 30
0.0
 10
15.1067832014
 20
14.0755442638
 30
0.0
  0
SPLINE
  5
40D
100
AcDbEntity
  8
0
100
AcDbSpline
 62
7
  6
CONTINUOUS
 70
0
 71
3
 72
29
 73
25
 74
0
 42
0.0000001
 43
0.0000001
 44
0.0000000001
 40
0.0
 40
0.0
 40
0.0
 40
0.0
 40
0.0214558549
 40
0.0432079549
 40
0.0655328871
 40
0.0886716227
 40
0.1128201128
 40
0.1381253183
 40
0.1646851159
 40
0.192552983
 40
0.2217416012
 40
0.2522279613
 40
0.3168234671
 40
0.3856623453
 40
0.4577278594
 40
0.5318037505
 40
0.6065583722
 40
0.6806231662
 40
0.752667656
 40
0.8214763121
 40
0.8860346402
 40
0.9165003337
 40
0.945666949
 40
1.0
 40
1.0
 40
1.0
 40
1.0
 10
16.8895793972
 20
12.5670269739
 30
0.0
 10
16.890259968
 20
12.5692295073
 30
0.0
 10
16.891955969
 20
12.5735715166
 30
0.0
 10
16.8954385097
 20
12.5797164275
 30
0.0
 10
16.8998397205
 20
12.5854696132
 30
0.0
 10
16.9051232623
 20
12.590790321
 30
0.0
 10
16.9112494899
 20
12.595644662
 30
0.0
 10
16.9181744776
 20
12.600001684
 30
0.0
 10
16.9258497565
 20
12.6038349704
 30
0.0
 10
16.9342231221
 20
12.607120195
 30
0.0
 10
16.9432381838
 20
12.6098368257
 30
0.0
 10
16.9562827698
 20
12.6127328099
 30
0.0
 10
16.9738318331
 20
12.6147530531
 30
0.0
 10
16.9959538907
 20
12.6146956195
 30
0.0
 10
17.0189577151
 20
12.6122060815
 30
0.0
 10
17.0422265202
 20
12.607351368
 30
0.0
 10
17.0651386549
 20
12.6002615413
 30
0.0
 10
17.0870795169
 20
12.5911268991
 30
0.0
 10
17.1074626741
 20
12.5801912891
 30
0.0
 10
17.1257418719
 20
12.5677470831
 30
0.0
 10
17.139072098
 20
12.5561717618
 30
0.0
 10
17.14819328
 20
12.5464159303
 30
0.0
 10
17.1558717447
 20
12.5368710357
 30
0.0
 10
17.1606611832
 20
12.5292107797
 30
0.0
 10
17.1632329439
 20
12.5239700824
 30
0.0
  0
SPLINE
  5
40E
100
AcDbEntity
  8
0
100
AcDbSpline
 62
7
  6
CONTINUOUS
 70
0
 71
3
 72
9
 73
5
 74
0
 42
0.0000001
 43
0.0000001
 44
0.0000000001
 40
0.0
 40
0.0
 40
0.0
 40
0.0
 40
0.2564993038
 40
1.0
 40
1.0
 40
1.0
 40
1.0
 10
16.1434202038
 20
11.7657645267
 30
0.0
 10
16.1472894587
 20
11.759082083
 30
0.0
 10
16.1619547913
 20
11.7327905533
 30
0.0
 10
16.1748929523
 20
11.7055230562
 30
0.0
 10
16.1833219774
 20
11.6847880701
 30
0.0
  0
SPLINE
  5
40F
100
AcDbEntity
  8
0
100
AcDbSpline
 62
7
  6
CONTINUOUS
 70
0
 71
3
 72
13
 73
9
 74
0
 42
0.0000001
 43
0.0000001
 44
0.0000000001
 40
0.0
 40
0.0
 40
0.0
 40
0.0
 40
0.1197528861
 40
0.2400427387
 40
0.3613925126
 40
0.4842999371
 40
0.7364780243
 40
1.0
 40
1.0
 40
1.0
 40
1.0
 10
13.4775238878
 20
12.9238221772
 30
0.0
 10
13.4784728475
 20
12.9268929059
 30
0.0
 10
13.4806282392
 20
12.9329731322
 30
0.0
 10
13.4846077491
 20
12.9418295112
 30
0.0
 10
13.489327732
 20
12.9504119886
 30
0.0
 10
13.4966525945
 20
12.9615557808
 30
0.0
 10
13.5077020832
 20
12.9747450893
 30
0.0
 10
13.5180358669
 20
12.9840236779
 30
0.0
 10
13.5235831237
 20
12.9884111107
 30
0.0
  0
SPLINE
  5
410
100
AcDbEntity
  8
0
100
AcDbSpline
 62
7
  6
CONTINUOUS
 70
0
 71
3
 72
9
 73
5
 74
0
 42
0.0000001
 43
0.0000001
 44
0.0000000001
 40
0.0
 40
0.0
 40
0.0
 40
0.0
 40
0.2436902133
 40
1.0
 40
1.0
 40
1.0
 40
1.0
 10
14.2810312008
 20
12.3068485993
 30
0.0
 10
14.2876507329
 20
12.3105935782
 30
0.0
 10
14.3150830651
 20
12.3254841866
 30
0.0
 10
14.3435243982
 20
12.3384947547
 30
0.0
 10
14.3654027907
 20
12.3473541628
 30
0.0
  0
SPLINE
  5
411
100
AcDbEntity
  8
0
100
AcDbSpline
 62
7
  6
CONTINUOUS
 70
0
 71
3
 72
26
 73
22
 74
0
 42
0.0000001
 43
0.0000001
 44
0.0000000001
 40
0.0
 40
0.0
 40
0.0
 40
0.0
 40
0.023584518
 40
0.0472609096
 40
0.0711530219
 40
0.0953528915
 40
0.1199631934
 40
0.1450812051
 40
0.197135639
 40
0.2521207622
 40
0.3103485918
 40
0.3718784878
 40
0.4365390531
 40
0.5039645966
 40
0.5736360451
 40
0.6449206033
 40
0.7171091346
 40
0.7894513439
 40
0.8611905841
 40
0.9315947219
 40
1.0
 40
1.0
 40
1.0
 40
1.0
 10
13.3928006085
 20
12.6496577793
 30
0.0
 10
13.391342467
 20
12.644939232
 30
0.0
 10
13.388939917
 20
12.6353142407
 30
0.0
 10
13.3869302341
 20
12.6205226487
 30
0.0
 10
13.3865045058
 20
12.6054719128
 30
0.0
 10
13.3876458861
 20
12.5902649208
 30
0.0
 10
13.3903161976
 20
12.5749916311
 30
0.0
 10
13.3959193805
 20
12.5544008638
 30
0.0
 10
13.4066819038
 20
12.5287579544
 30
0.0
 10
13.4247631377
 20
12.4991239353
 30
0.0
 10
13.4477601406
 20
12.4705454552
 30
0.0
 10
13.4752651533
 20
12.4433351572
 30
0.0
 10
13.5068429237
 20
12.4178084559
 30
0.0
 10
13.5420073047
 20
12.3942946019
 30
0.0
 10
13.5802154132
 20
12.3731195742
 30
0.0
 10
13.6208706752
 20
12.3545934069
 30
0.0
 10
13.6633321189
 20
12.3389975978
 30
0.0
 10
13.7069264595
 20
12.3265754226
 30
0.0
 10
13.7509642643
 20
12.3175253799
 30
0.0
 10
13.7947493088
 20
12.3119963017
 30
0.0
 10
13.823828956
 20
12.310702422
 30
0.0
 10
13.8381533485
 20
12.310702422
 30
0.0
  0
SPLINE
  5
412
100
AcDbEntity
  8
0
100
AcDbSpline
 62
7
  6
CONTINUOUS
 70
0
 71
3
 72
29
 73
25
 74
0
 42
0.0000001
 43
0.0000001
 44
0.0000000001
 40
0.0
 40
0.0
 40
0.0
 40
0.0
 40
0.0214558549
 40
0.0432079549
 40
0.0655328871
 40
0.0886716227
 40
0.1128201128
 40
0.1381253183
 40
0.1646851159
 40
0.192552983
 40
0.2217416012
 40
0.2522279613
 40
0.3168234671
 40
0.3856623453
 40
0.4577278594
 40
0.5318037505
 40
0.6065583722
 40
0.6806231662
 40
0.752667656
 40
0.8214763121
 40
0.8860346402
 40
0.9165003337
 40
0.945666949
 40
1.0
 40
1.0
 40
1.0
 40
1.0
 10
13.5924314938
 20
12.5670269739
 30
0.0
 10
13.5931120646
 20
12.5692295073
 30
0.0
 10
13.5948080656
 20
12.5735715166
 30
0.0
 10
13.5982906063
 20
12.5797164275
 30
0.0
 10
13.6026918171
 20
12.5854696132
 30
0.0
 10
13.6079753589
 20
12.590790321
 30
0.0
 10
13.6141015865
 20
12.595644662
 30
0.0
 10
13.6210265742
 20
12.600001684
 30
0.0
 10
13.6287018531
 20
12.6038349704
 30
0.0
 10
13.6370752187
 20
12.607120195
 30
0.0
 10
13.6460902804
 20
12.6098368257
 30
0.0
 10
13.6591348664
 20
12.6127328099
 30
0.0
 10
13.6766839297
 20
12.6147530531
 30
0.0
 10
13.6988059873
 20
12.6146956195
 30
0.0
 10
13.7218098117
 20
12.6122060815
 30
0.0
 10
13.7450786168
 20
12.607351368
 30
0.0
 10
13.7679907515
 20
12.6002615413
 30
0.0
 10
13.7899316135
 20
12.5911268991
 30
0.0
 10
13.8103147707
 20
12.5801912891
 30
0.0
 10
13.8285939685
 20
12.5677470831
 30
0.0
 10
13.8419241946
 20
12.5561717618
 30
0.0
 10
13.8510453766
 20
12.5464159303
 30
0.0
 10
13.8587238413
 20
12.5368710357
 30
0.0
 10
13.8635132798
 20
12.5292107797
 30
0.0
 10
13.8660850405
 20
12.5239700824
 30
0.0
  0
SPLINE
  5
413
100
AcDbEntity
  8
0
100
AcDbSpline
 62
7
  6
CONTINUOUS
 70
0
 71
3
 72
13
 73
9
 74
0
 42
0.0000001
 43
0.0000001
 44
0.0000000001
 40
0.0
 40
0.0
 40
0.0
 40
0.0
 40
0.2714078112
 40
0.5251930288
 40
0.6469450451
 40
0.7661184609
 40
0.8835128954
 40
1.0
 40
1.0
 40
1.0
 40
1.0
 10
13.8660850405
 20
12.5239700824
 30
0.0
 10
13.8678538623
 20
12.5203656025
 30
0.0
 10
13.8707883626
 20
12.5131325831
 30
0.0
 10
13.8728417836
 20
12.5037262047
 30
0.0
 10
13.8733413964
 20
12.4964138568
 30
0.0
 10
13.8731670505
 20
12.4911061441
 30
0.0
 10
13.8724475002
 20
12.4859235516
 30
0.0
 10
13.8716045427
 20
12.4825596459
 30
0.0
 10
13.8710957972
 20
12.480913191
 30
0.0
  0
SPLINE
  5
414
100
AcDbEntity
  8
0
100
AcDbSpline
 62
7
  6
CONTINUOUS
 70
0
 71
3
 72
15
 73
11
 74
0
 42
0.0000001
 43
0.0000001
 44
0.0000000001
 40
0.0
 40
0.0
 40
0.0
 40
0.0
 40
0.1174165472
 40
0.2356190542
 40
0.3553724779
 40
0.4773939446
 40
0.6023386881
 40
0.7307789983
 40
0.8632053948
 40
1.0
 40
1.0
 40
1.0
 40
1.0
 10
13.8056716217
 20
12.1560231576
 30
0.0
 10
13.8006302556
 20
12.1397092911
 30
0.0
 10
13.7922797225
 20
12.1063968955
 30
0.0
 10
13.785148637
 20
12.0551183788
 30
0.0
 10
13.7834050397
 20
12.002704205
 30
0.0
 10
13.7870295571
 20
11.9494113296
 30
0.0
 10
13.795969312
 20
11.8954747114
 30
0.0
 10
13.8101490023
 20
11.8411147154
 30
0.0
 10
13.8294748682
 20
11.7865439441
 30
0.0
 10
13.8454517316
 20
11.7507521078
 30
0.0
 10
13.8542154795
 20
11.7328934672
 30
0.0
  0
SPLINE
  5
415
100
AcDbEntity
  8
0
100
AcDbSpline
 62
7
  6
CONTINUOUS
 70
0
 71
3
 72
19
 73
15
 74
0
 42
0.0000001
 43
0.0000001
 44
0.0000000001
 40
0.0
 40
0.0
 40
0.0
 40
0.0
 40
0.1049372552
 40
0.159757624
 40
0.2161584324
 40
0.2741344413
 40
0.3336640462
 40
0.394710162
 40
0.4572209898
 40
0.5211316044
 40
0.5863652392
 40
0.7204212072
 40
0.8586071187
 40
1.0
 40
1.0
 40
1.0
 40
1.0
 10
13.8542154795
 20
11.7328934672
 30
0.0
 10
13.8700234319
 20
11.7006802471
 30
0.0
 10
13.8973296934
 20
11.6531678035
 30
0.0
 10
13.9393655157
 20
11.5923472565
 30
0.0
 10
13.9747519698
 20
11.5465373744
 30
0.0
 10
14.0134248451
 20
11.5013339948
 30
0.0
 10
14.055276219
 20
11.4568497846
 30
0.0
 10
14.1001864079
 20
11.413203055
 30
0.0
 10
14.1480290644
 20
11.3705096425
 30
0.0
 10
14.1986700671
 20
11.3288832759
 30
0.0
 10
14.27037849
 20
11.274465297
 30
0.0
 10
14.3661808453
 20
11.2099329544
 30
0.0
 10
14.4887722715
 20
11.1391885055
 30
0.0
 10
14.5746067773
 20
11.096914866
 30
0.0
 10
14.6186292266
 20
11.076924176
 30
0.0
  0
SPLINE
  5
416
100
AcDbEntity
  8
0
100
AcDbSpline
 62
7
  6
CONTINUOUS
 70
0
 71
3
 72
30
 73
26
 74
0
 42
0.0000001
 43
0.0000001
 44
0.0000000001
 40
0.0
 40
0.0
 40
0.0
 40
0.0
 40
0.0785431602
 40
0.1557714959
 40
0.231354651
 40
0.3049905259
 40
0.3764123189
 40
0.4453961759
 40
0.5117695327
 40
0.5754199948
 40
0.6363050554
 40
0.6657266499
 40
0.6944782079
 40
0.7225783214
 40
0.7500517055
 40
0.7769291714
 40
0.8032477775
 40
0.8290506743
 40
0.8543870813
 40
0.8793116483
 40
0.9038844609
 40
0.9281700455
 40
0.9522366594
 40
0.9761550957
 40
1.0
 40
1.0
 40
1.0
 40
1.0
 10
15.1926823673
 20
10.8995036084
 30
0.0
 10
15.230396377
 20
10.8929034388
 30
0.0
 10
15.3055333963
 20
10.8816714654
 30
0.0
 10
15.4178318499
 20
10.8707611989
 30
0.0
 10
15.5281700029
 20
10.8659841989
 30
0.0
 10
15.6357757886
 20
10.8673813889
 30
0.0
 10
15.7399050174
 20
10.8749529082
 30
0.0
 10
15.8398402738
 20
10.8886605905
 30
0.0
 10
15.9348995798
 20
10.9084312345
 30
0.0
 10
16.0244296605
 20
10.9341561694
 30
0.0
 10
16.094720821
 20
10.9607449162
 30
0.0
 10
16.1474910489
 20
10.9849460652
 30
0.0
 10
16.1848599592
 20
11.0042760493
 30
0.0
 10
16.2204006213
 20
11.0249640256
 30
0.0
 10
16.2540487588
 20
11.0469811908
 30
0.0
 10
16.2857404396
 20
11.0702967711
 30
0.0
 10
16.3154136215
 20
11.0948769575
 30
0.0
 10
16.3430078663
 20
11.1206845732
 30
0.0
 10
16.3684634315
 20
11.1476793366
 30
0.0
 10
16.391723729
 20
11.1758153126
 30
0.0
 10
16.4127329469
 20
11.2050429279
 30
0.0
 10
16.4314397385
 20
11.2353057607
 30
0.0
 10
16.4477964881
 20
11.2665427659
 30
0.0
 10
16.4617601099
 20
11.2986849429
 30
0.0
 10
16.4694563077
 20
11.3206854818
 30
0.0
 10
16.4728881452
 20
11.3317909122
 30
0.0
  0
SPLINE
  5
417
100
AcDbEntity
  8
0
100
AcDbSpline
 62
7
  6
CONTINUOUS
 70
0
 71
3
 72
18
 73
14
 74
0
 42
0.0000001
 43
0.0000001
 44
0.0000000001
 40
0.0
 40
0.0
 40
0.0
 40
0.0
 40
0.1485913701
 40
0.2894321407
 40
0.4225862924
 40
0.5484414436
 40
0.6677519749
 40
0.7253355588
 40
0.78174653
 40
0.8371879189
 40
0.8918825174
 40
0.9460696262
 40
1.0
 40
1.0
 40
1.0
 40
1.0
 10
15.5885481752
 20
10.9249207423
 30
0.0
 10
15.6117453277
 20
10.9303762906
 30
0.0
 10
15.6565248173
 20
10.9428634133
 30
0.0
 10
15.7199252904
 20
10.9671032411
 30
0.0
 10
15.7772351006
 20
10.9961649594
 30
0.0
 10
15.8279079193
 20
11.0298007951
 30
0.0
 10
15.8646432341
 20
11.0618091156
 30
0.0
 10
15.8900104325
 20
11.089353721
 30
0.0
 10
15.9068739286
 20
11.1106961236
 30
0.0
 10
15.9217532471
 20
11.1329112544
 30
0.0
 10
15.9346118713
 20
11.1559486211
 30
0.0
 10
15.9454172652
 20
11.1797503481
 30
0.0
 10
15.9512401785
 20
11.1961083368
 30
0.0
 10
15.9537938213
 20
11.2043717308
 30
0.0
  0
SPLINE
  5
418
100
AcDbEntity
  8
0
100
AcDbSpline
 62
7
  6
CONTINUOUS
 70
0
 71
3
 72
23
 73
19
 74
0
 42
0.0000001
 43
0.0000001
 44
0.0000000001
 40
0.0
 40
0.0
 40
0.0
 40
0.0
 40
0.0555741296
 40
0.1137450004
 40
0.1742679084
 40
0.2368373757
 40
0.3010995135
 40
0.3666628766
 40
0.4331086174
 40
0.4999999923
 40
0.5668913701
 40
0.6333371144
 40
0.6989004691
 40
0.7631626168
 40
0.8257321134
 40
0.8862549913
 40
0.9444258231
 40
1.0
 40
1.0
 40
1.0
 40
1.0
 10
14.3249513355
 20
11.3007465104
 30
0.0
 10
14.3417737763
 20
11.282337258
 30
0.0
 10
14.3778945783
 20
11.2461766573
 30
0.0
 10
14.4373917571
 20
11.1953239122
 30
0.0
 10
14.5029314426
 20
11.1470393963
 30
0.0
 10
14.5738642926
 20
11.1018009035
 30
0.0
 10
14.649494169
 20
11.0600503884
 30
0.0
 10
14.7290757496
 20
11.0221990086
 30
0.0
 10
14.8118245526
 20
10.9886196715
 30
0.0
 10
14.8969241632
 20
10.9596437298
 30
0.0
 10
14.9835347251
 20
10.9355572242
 30
0.0
 10
15.0708014207
 20
10.9165977953
 30
0.0
 10
15.1578632395
 20
10.9029524654
 30
0.0
 10
15.2438620932
 20
10.8947559259
 30
0.0
 10
15.327950617
 20
10.8920892022
 30
0.0
 10
15.4093046843
 20
10.8949801263
 30
0.0
 10
15.4871186438
 20
10.9034004824
 30
0.0
 10
15.5373428293
 20
10.9128785042
 30
0.0
 10
15.5616184016
 20
10.918587509
 30
0.0
  0
SPLINE
  5
419
100
AcDbEntity
  8
0
100
AcDbSpline
 62
7
  6
CONTINUOUS
 70
0
 71
3
 72
15
 73
11
 74
0
 42
0.0000001
 43
0.0000001
 44
0.0000000001
 40
0.0
 40
0.0
 40
0.0
 40
0.0
 40
0.1164322847
 40
0.2337702206
 40
0.3528850171
 40
0.4745837462
 40
0.5995857904
 40
0.7285025014
 40
0.8618493803
 40
1.0
 40
1.0
 40
1.0
 40
1.0
 10
14.162379787
 20
11.7579605372
 30
0.0
 10
14.1591089122
 20
11.7473762353
 30
0.0
 10
14.153690207
 20
11.7257510579
 30
0.0
 10
14.1490650533
 20
11.6924342764
 30
0.0
 10
14.1479421657
 20
11.6583142985
 30
0.0
 10
14.1503223166
 20
11.6235328778
 30
0.0
 10
14.1561897342
 20
11.5882260548
 30
0.0
 10
14.1655150865
 20
11.5525289349
 30
0.0
 10
14.1782568023
 20
11.516580884
 30
0.0
 10
14.1888013585
 20
11.4929664699
 30
0.0
 10
14.1945921223
 20
11.481166134
 30
0.0
  0
SPLINE
  5
41A
100
AcDbEntity
  8
0
100
AcDbSpline
 62
7
  6
CONTINUOUS
 70
0
 71
3
 72
11
 73
7
 74
0
 42
0.0000001
 43
0.0000001
 44
0.0000000001
 40
0.0
 40
0.0
 40
0.0
 40
0.0
 40
0.1964097641
 40
0.4294244372
 40
0.6980459872
 40
1.0
 40
1.0
 40
1.0
 40
1.0
 10
14.0541472196
 20
12.6931975097
 30
0.0
 10
14.0540620563
 20
12.6934861261
 30
0.0
 10
14.0538030014
 20
12.694095301
 30
0.0
 10
14.0532583657
 20
12.6950172815
 30
0.0
 10
14.0525412412
 20
12.6960195653
 30
0.0
 10
14.0519894015
 20
12.6966980705
 30
0.0
 10
14.0516899394
 20
12.6970506927
 30
0.0
  0
SPLINE
  5
41B
100
AcDbEntity
  8
0
100
AcDbSpline
 62
7
  6
CONTINUOUS
 70
0
 71
3
 72
13
 73
9
 74
0
 42
0.0000001
 43
0.0000001
 44
0.0000000001
 40
0.0
 40
0.0
 40
0.0
 40
0.0
 40
0.2714078112
 40
0.5251930288
 40
0.6469450451
 40
0.7661184609
 40
0.8835128954
 40
1.0
 40
1.0
 40
1.0
 40
1.0
 10
17.1632329439
 20
12.5239700824
 30
0.0
 10
17.1650017657
 20
12.5203656025
 30
0.0
 10
17.167936266
 20
12.5131325831
 30
0.0
 10
17.169989687
 20
12.5037262047
 30
0.0
 10
17.1704892998
 20
12.4964138568
 30
0.0
 10
17.1703149539
 20
12.4911061441
 30
0.0
 10
17.1695954036
 20
12.4859235516
 30
0.0
 10
17.1687524461
 20
12.4825596459
 30
0.0
 10
17.1682437006
 20
12.480913191
 30
0.0
  0
SPLINE
  5
41C
100
AcDbEntity
  8
0
100
AcDbSpline
 62
7
  6
CONTINUOUS
 70
0
 71
3
 72
11
 73
7
 74
0
 42
0.0000001
 43
0.0000001
 44
0.0000000001
 40
0.0
 40
0.0
 40
0.0
 40
0.0
 40
0.2155531852
 40
0.4544359556
 40
0.7161658131
 40
1.0
 40
1.0
 40
1.0
 40
1.0
 10
13.9822516659
 20
12.7151730799
 30
0.0
 10
13.9812751656
 20
12.7144608235
 30
0.0
 10
13.9792749893
 20
12.7128783868
 30
0.0
 10
13.976278674
 20
12.7102021784
 30
0.0
 10
13.9731451506
 20
12.7071131915
 30
0.0
 10
13.9710571955
 20
12.7048762498
 30
0.0
 10
13.9699913788
 20
12.7036943011
 30
0.0
  0
SPLINE
  5
41D
100
AcDbEntity
  8
0
100
AcDbSpline
 62
7
  6
CONTINUOUS
 70
0
 71
3
 72
13
 73
9
 74
0
 42
0.0000001
 43
0.0000001
 44
0.0000000001
 40
0.0
 40
0.0
 40
0.0
 40
0.0
 40
0.2714078112
 40
0.5251930288
 40
0.6469450451
 40
0.7661184609
 40
0.8835128954
 40
1.0
 40
1.0
 40
1.0
 40
1.0
 10
14.9686755244
 20
13.6365674115
 30
0.0
 10
14.9704443463
 20
13.6329629315
 30
0.0
 10
14.9733788466
 20
13.6257299121
 30
0.0
 10
14.9754322676
 20
13.6163235338
 30
0.0
 10
14.9759318803
 20
13.6090111859
 30
0.0
 10
14.9757575344
 20
13.6037034732
 30
0.0
 10
14.9750379841
 20
13.5985208806
 30
0.0
 10
14.9741950267
 20
13.5951569749
 30
0.0
 10
14.9736862811
 20
13.5935105201
 30
0.0
  0
SPLINE
  5
41E
100
AcDbEntity
  8
0
100
AcDbSpline
 62
7
  6
CONTINUOUS
 70
0
 71
3
 72
11
 73
7
 74
0
 42
0.0000001
 43
0.0000001
 44
0.0000000001
 40
0.0
 40
0.0
 40
0.0
 40
0.0
 40
0.2352482156
 40
0.4773438466
 40
0.7311180991
 40
1.0
 40
1.0
 40
1.0
 40
1.0
 10
14.2918555897
 20
11.3373973313
 30
0.0
 10
14.2915048305
 20
11.3360426896
 30
0.0
 10
14.2910576067
 20
11.3332184819
 30
0.0
 10
14.2911830851
 20
11.3288491881
 30
0.0
 10
14.2920896086
 20
11.3243715108
 30
0.0
 10
14.2931681335
 20
11.3214424531
 30
0.0
 10
14.293817728
 20
11.3199809344
 30
0.0
  0
SPLINE
  5
41F
100
AcDbEntity
  8
0
100
AcDbSpline
 62
7
  6
CONTINUOUS
 70
0
 71
3
 72
21
 73
17
 74
0
 42
0.0000001
 43
0.0000001
 44
0.0000000001
 40
0.0
 40
0.0
 40
0.0
 40
0.0
 40
0.133014419
 40
0.2018566657
 40
0.271475558
 40
0.4104992602
 40
0.4788864876
 40
0.5457412769
 40
0.6106065964
 40
0.673132219
 40
0.7331053339
 40
0.7904804377
 40
0.8454049962
 40
0.8982342412
 40
0.9495252213
 40
1.0
 40
1.0
 40
1.0
 40
1.0
 10
14.8290397286
 20
12.254030771
 30
0.0
 10
14.8201616019
 20
12.2538881196
 30
0.0
 10
14.8066707142
 20
12.2521081197
 30
0.0
 10
14.7892388964
 20
12.2470874959
 30
0.0
 10
14.7720022676
 20
12.2402374651
 30
0.0
 10
14.7558556915
 20
12.2309396686
 30
0.0
 10
14.7414965413
 20
12.2195424683
 30
0.0
 10
14.7319217299
 20
12.2101907403
 30
0.0
 10
14.7236624798
 20
12.2001600788
 30
0.0
 10
14.716865334
 20
12.1896248355
 30
0.0
 10
14.7116543947
 20
12.1787691144
 30
0.0
 10
14.7081276319
 20
12.1677819548
 30
0.0
 10
14.7063564244
 20
12.1568566644
 30
0.0
 10
14.7063847672
 20
12.1461880799
 30
0.0
 10
14.7082225427
 20
12.1359789705
 30
0.0
 10
14.710648185
 20
12.1295838202
 30
0.0
 10
14.7121326487
 20
12.1265590473
 30
0.0
  0
SPLINE
  5
420
100
AcDbEntity
  8
0
100
AcDbSpline
 62
7
  6
CONTINUOUS
 70
0
 71
3
 72
9
 73
5
 74
0
 42
0.0000001
 43
0.0000001
 44
0.0000000001
 40
0.0
 40
0.0
 40
0.0
 40
0.0
 40
0.5286596868
 40
1.0
 40
1.0
 40
1.0
 40
1.0
 10
15.9825963155
 20
11.668675013
 30
0.0
 10
15.9814572908
 20
11.6709961013
 30
0.0
 10
15.9791056902
 20
11.6752944433
 30
0.0
 10
15.9762666527
 20
11.6792976454
 30
0.0
 10
15.9747895067
 20
11.6810673521
 30
0.0
  0
SPLINE
  5
421
100
AcDbEntity
  8
0
100
AcDbSpline
 62
7
  6
CONTINUOUS
 70
0
 71
3
 72
18
 73
14
 74
0
 42
0.0000001
 43
0.0000001
 44
0.0000000001
 40
0.0
 40
0.0
 40
0.0
 40
0.0
 40
0.1180173172
 40
0.2360917097
 40
0.2954568888
 40
0.3552290624
 40
0.4155901045
 40
0.4767251968
 40
0.538786114
 40
0.60186599
 40
0.731064882
 40
0.8640408513
 40
1.0
 40
1.0
 40
1.0
 40
1.0
 10
14.0227837135
 20
12.6035101117
 30
0.0
 10
14.0259196971
 20
12.6061261638
 30
0.0
 10
14.0319678848
 20
12.6116405973
 30
0.0
 10
14.0386849042
 20
12.6193931338
 30
0.0
 10
14.0433376248
 20
12.6261651347
 30
0.0
 10
14.0464283164
 20
12.631561719
 30
0.0
 10
14.0490639449
 20
12.6372627957
 30
0.0
 10
14.0512070959
 20
12.643251145
 30
0.0
 10
14.052835629
 20
12.6494964507
 30
0.0
 10
14.0543355108
 20
12.6581779486
 30
0.0
 10
14.0549452046
 20
12.6694575707
 30
0.0
 10
14.0540214561
 20
12.6832260088
 30
0.0
 10
14.0525718548
 20
12.6924293435
 30
0.0
 10
14.0516899394
 20
12.6970506927
 30
0.0
  0
LINE
  5
422
100
AcDbEntity
  8
0
100
AcDbLine
 62
7
  6
CONTINUOUS
 10
15.9747895067
 20
11.6810673521
 11
15.9729334815
 21
11.6831430872
  0
SPLINE
  5
423
100
AcDbEntity
  8
0
100
AcDbSpline
 62
7
  6
CONTINUOUS
 70
0
 71
3
 72
33
 73
29
 74
0
 42
0.0000001
 43
0.0000001
 44
0.0000000001
 40
0.0
 40
0.0
 40
0.0
 40
0.0
 40
0.0203731704
 40
0.038974406
 40
0.0562368948
 40
0.0727456632
 40
0.0891906378
 40
0.1062712489
 40
0.1245964909
 40
0.1446272273
 40
0.1666726828
 40
0.1909096815
 40
0.2174116562
 40
0.2461733451
 40
0.2771259512
 40
0.3101538817
 40
0.3451022946
 40
0.3817845107
 40
0.4594689983
 40
0.5413089686
 40
0.6251813143
 40
0.7088679886
 40
0.7901591339
 40
0.8669584194
 40
0.9030850645
 40
0.937412112
 40
0.9697711415
 40
1.0
 40
1.0
 40
1.0
 40
1.0
 10
15.9720949698
 20
11.6839868522
 30
0.0
 10
15.9710623964
 20
11.6849909571
 30
0.0
 10
15.9689615029
 20
11.6867911398
 30
0.0
 10
15.9655498038
 20
11.6888708324
 30
0.0
 10
15.9620540392
 20
11.6901687465
 30
0.0
 10
15.9585065196
 20
11.6906551306
 30
0.0
 10
15.9549543976
 20
11.6903160361
 30
0.0
 10
15.9514465379
 20
11.6891617169
 30
0.0
 10
15.948017893
 20
11.6872192916
 30
0.0
 10
15.9446897743
 20
11.684518241
 30
0.0
 10
15.9414802611
 20
11.6810846437
 30
0.0
 10
15.9384076393
 20
11.6769460321
 30
0.0
 10
15.9354917167
 20
11.6721332244
 30
0.0
 10
15.9327534317
 20
11.6666818102
 30
0.0
 10
15.9302126219
 20
11.660632977
 30
0.0
 10
15.9278889437
 20
11.654032666
 30
0.0
 10
15.9258002498
 20
11.6469314857
 30
0.0
 10
15.9233029751
 20
11.6366719274
 30
0.0
 10
15.9209115473
 20
11.6229916806
 30
0.0
 10
15.9192247622
 20
11.6058533985
 30
0.0
 10
15.9187237641
 20
11.5882151686
 30
0.0
 10
15.91942429
 20
11.5706224564
 30
0.0
 10
15.9213042238
 20
11.5536192499
 30
0.0
 10
15.9238521236
 20
11.5401097293
 30
0.0
 10
15.9264685965
 20
11.5300303276
 30
0.0
 10
15.9286376153
 20
11.5230895901
 30
0.0
 10
15.9310358562
 20
11.5166678743
 30
0.0
 10
15.9328381488
 20
11.5126225763
 30
0.0
 10
15.933779607
 20
11.5107040862
 30
0.0
  0
SPLINE
  5
424
100
AcDbEntity
  8
0
100
AcDbSpline
 62
7
  6
CONTINUOUS
 70
0
 71
3
 72
11
 73
7
 74
0
 42
0.0000001
 43
0.0000001
 44
0.0000000001
 40
0.0
 40
0.0
 40
0.0
 40
0.0
 40
0.2486387139
 40
0.4978472197
 40
0.7480834552
 40
1.0
 40
1.0
 40
1.0
 40
1.0
 10
14.0227837135
 20
12.6035101117
 30
0.0
 10
14.022557262
 20
12.6000417033
 30
0.0
 10
14.021898623
 20
12.5931077293
 30
0.0
 10
14.0201556507
 20
12.5827850947
 30
0.0
 10
14.0175003922
 20
12.5726071876
 30
0.0
 10
14.0150295865
 20
12.5660185255
 30
0.0
 10
14.0136054517
 20
12.5627977165
 30
0.0
  0
SPLINE
  5
425
100
AcDbEntity
  8
0
100
AcDbSpline
 62
7
  6
CONTINUOUS
 70
0
 71
3
 72
14
 73
10
 74
0
 42
0.0000001
 43
0.0000001
 44
0.0000000001
 40
0.0
 40
0.0
 40
0.0
 40
0.0
 40
0.3233404323
 40
0.4686228783
 40
0.6017029412
 40
0.7218193644
 40
0.8283874463
 40
0.9211142892
 40
1.0
 40
1.0
 40
1.0
 40
1.0
 10
13.994048388
 20
12.5345041193
 30
0.0
 10
13.9913684011
 20
12.5310150854
 30
0.0
 10
13.9873712709
 20
12.5260417927
 30
0.0
 10
13.9819517852
 20
12.5199036964
 30
0.0
 10
13.9782210082
 20
12.5159675632
 30
0.0
 10
13.9747050451
 20
12.5125592326
 30
0.0
 10
13.9714273303
 20
12.5097011014
 30
0.0
 10
13.9684093111
 20
12.5074116941
 30
0.0
 10
13.9664229711
 20
12.5061729236
 30
0.0
 10
13.9654743408
 20
12.5056707409
 30
0.0
  0
SPLINE
  5
426
100
AcDbEntity
  8
0
100
AcDbSpline
 62
7
  6
CONTINUOUS
 70
0
 71
3
 72
14
 73
10
 74
0
 42
0.0000001
 43
0.0000001
 44
0.0000000001
 40
0.0
 40
0.0
 40
0.0
 40
0.0
 40
0.3499789651
 40
0.4987607719
 40
0.6289405795
 40
0.740607676
 40
0.8355343833
 40
0.9187638003
 40
1.0
 40
1.0
 40
1.0
 40
1.0
 10
13.9632834995
 20
12.5112838834
 30
0.0
 10
13.9637713475
 20
12.5107094333
 30
0.0
 10
13.9644418196
 20
12.5098668659
 30
0.0
 10
13.9651724288
 20
12.508724978
 30
0.0
 10
13.9655585469
 20
12.5079757047
 30
0.0
 10
13.9658025185
 20
12.5072895611
 30
0.0
 10
13.9658910302
 20
12.5066653314
 30
0.0
 10
13.9657962728
 20
12.5061025497
 30
0.0
 10
13.9655959006
 20
12.5057965406
 30
0.0
 10
13.9654743408
 20
12.5056707409
 30
0.0
  0
SPLINE
  5
427
100
AcDbEntity
  8
0
100
AcDbSpline
 62
7
  6
CONTINUOUS
 70
0
 71
3
 72
10
 73
6
 74
0
 42
0.0000001
 43
0.0000001
 44
0.0000000001
 40
0.0
 40
0.0
 40
0.0
 40
0.0
 40
0.496179288
 40
0.7473546099
 40
1.0
 40
1.0
 40
1.0
 40
1.0
 10
13.994048388
 20
12.5345041193
 30
0.0
 10
13.9895447624
 20
12.5299728476
 30
0.0
 10
13.9821590012
 20
12.5237319815
 30
0.0
 10
13.9715923612
 20
12.5163724049
 30
0.0
 10
13.9660815015
 20
12.512943143
 30
0.0
 10
13.9632834995
 20
12.5112838834
 30
0.0
  0
SPLINE
  5
428
100
AcDbEntity
  8
0
100
AcDbSpline
 62
7
  6
CONTINUOUS
 70
0
 71
3
 72
9
 73
5
 74
0
 42
0.0000001
 43
0.0000001
 44
0.0000000001
 40
0.0
 40
0.0
 40
0.0
 40
0.0
 40
0.2539976113
 40
1.0
 40
1.0
 40
1.0
 40
1.0
 10
14.8839001324
 20
12.3575294277
 30
0.0
 10
14.8735103023
 20
12.3579785942
 30
0.0
 10
14.8325880751
 20
12.3593156953
 30
0.0
 10
14.7916048192
 20
12.358906988
 30
0.0
 10
14.7610919998
 20
12.3575294277
 30
0.0
  0
SPLINE
  5
429
100
AcDbEntity
  8
0
100
AcDbSpline
 62
7
  6
CONTINUOUS
 70
0
 71
3
 72
19
 73
15
 74
0
 42
0.0000001
 43
0.0000001
 44
0.0000000001
 40
0.0
 40
0.0
 40
0.0
 40
0.0
 40
0.0270575816
 40
0.061226586
 40
0.1027987805
 40
0.1515765964
 40
0.2070780935
 40
0.2686290703
 40
0.3354085527
 40
0.4064839195
 40
0.557379549
 40
0.7125858937
 40
0.8630271984
 40
1.0
 40
1.0
 40
1.0
 40
1.0
 10
13.8737508843
 20
12.6213953369
 30
0.0
 10
13.8743049156
 20
12.6215400789
 30
0.0
 10
13.8755013011
 20
12.6220769019
 30
0.0
 10
13.8772993656
 20
12.6233098428
 30
0.0
 10
13.8792870169
 20
12.6250476596
 30
0.0
 10
13.8814341954
 20
12.6272684215
 30
0.0
 10
13.8837104829
 20
12.6299421166
 30
0.0
 10
13.8860801807
 20
12.6330293034
 30
0.0
 10
13.8885067057
 20
12.6364833425
 30
0.0
 10
13.8918337104
 20
12.6416104813
 30
0.0
 10
13.8958413056
 20
12.648520288
 30
0.0
 10
13.9002008073
 20
12.6571486715
 30
0.0
 10
13.9039342069
 20
12.6657453162
 30
0.0
 10
13.9059926803
 20
12.6714763735
 30
0.0
 10
13.9068485403
 20
12.6742459375
 30
0.0
  0
SPLINE
  5
42A
100
AcDbEntity
  8
0
100
AcDbSpline
 62
7
  6
CONTINUOUS
 70
0
 71
3
 72
9
 73
5
 74
0
 42
0.0000001
 43
0.0000001
 44
0.0000000001
 40
0.0
 40
0.0
 40
0.0
 40
0.0
 40
0.2572628905
 40
1.0
 40
1.0
 40
1.0
 40
1.0
 10
14.4380144049
 20
12.2934163
 30
0.0
 10
14.4304029221
 20
12.2903876926
 30
0.0
 10
14.4010174283
 20
12.2781214534
 30
0.0
 10
14.3724635379
 20
12.2638252539
 30
0.0
 10
14.3519955668
 20
12.2519756355
 30
0.0
  0
SPLINE
  5
42B
100
AcDbEntity
  8
0
100
AcDbSpline
 62
7
  6
CONTINUOUS
 70
0
 71
3
 72
23
 73
19
 74
0
 42
0.0000001
 43
0.0000001
 44
0.0000000001
 40
0.0
 40
0.0
 40
0.0
 40
0.0
 40
0.0653211102
 40
0.1326895615
 40
0.2014597608
 40
0.2709399268
 40
0.3404412008
 40
0.4093146208
 40
0.4769828835
 40
0.5429690869
 40
0.6069220026
 40
0.668632169
 40
0.7280485098
 40
0.7852874706
 40
0.8406305645
 40
0.8945004752
 40
0.9474268068
 40
1.0
 40
1.0
 40
1.0
 40
1.0
 10
14.7804310841
 20
12.0908523418
 30
0.0
 10
14.7848479754
 20
12.0908523418
 30
0.0
 10
14.7938256598
 20
12.0913316219
 30
0.0
 10
14.8073121686
 20
12.0933831303
 30
0.0
 10
14.8208221672
 20
12.0967518981
 30
0.0
 10
14.8341021725
 20
12.1013924708
 30
0.0
 10
14.8469042611
 20
12.1072423353
 30
0.0
 10
14.8589874498
 20
12.1142221453
 30
0.0
 10
14.870122711
 20
12.1222353644
 30
0.0
 10
14.8800965932
 20
12.1311678456
 30
0.0
 10
14.8887149305
 20
12.1408870712
 30
0.0
 10
14.8958065651
 20
12.1512415745
 30
0.0
 10
14.901227446
 20
12.1620606538
 30
0.0
 10
14.9048650067
 20
12.1731554681
 30
0.0
 10
14.9066424122
 20
12.1843204598
 30
0.0
 10
14.9065216271
 20
12.1953386582
 30
0.0
 10
14.9045095748
 20
12.2059809254
 30
0.0
 10
14.9019354988
 20
12.2126826639
 30
0.0
 10
14.9003694911
 20
12.2158740493
 30
0.0
  0
SPLINE
  5
42C
100
AcDbEntity
  8
0
100
AcDbSpline
 62
7
  6
CONTINUOUS
 70
0
 71
3
 72
44
 73
40
 74
0
 42
0.0000001
 43
0.0000001
 44
0.0000000001
 40
0.0
 40
0.0
 40
0.0
 40
0.0
 40
0.0265303677
 40
0.054367551
 40
0.0835250792
 40
0.1139806821
 40
0.1456817059
 40
0.1785492708
 40
0.2124823646
 40
0.2473613739
 40
0.2830513068
 40
0.3194047192
 40
0.3562644291
 40
0.3934660719
 40
0.4308405456
 40
0.4682163867
 40
0.5054221133
 40
0.5422885673
 40
0.5786512899
 40
0.6143529652
 40
0.6492459736
 40
0.6831951022
 40
0.7160804708
 40
0.747800738
 40
0.7782766617
 40
0.8074550794
 40
0.8353133425
 40
0.8618641591
 40
0.8746682409
 40
0.8871690948
 40
0.8993804683
 40
0.9113191448
 40
0.9344499825
 40
0.945702215
 40
0.9567795229
 40
0.9677133738
 40
0.9785375173
 40
0.9892874643
 40
1.0
 40
1.0
 40
1.0
 40
1.0
 10
15.9967229073
 20
11.7243238622
 30
0.0
 10
15.9886473408
 20
11.7407801364
 30
0.0
 10
15.9703859469
 20
11.7736833992
 30
0.0
 10
15.9379475482
 20
11.8214937065
 30
0.0
 10
15.9000357047
 20
11.8686226755
 30
0.0
 10
15.8569127194
 20
11.9147505678
 30
0.0
 10
15.8088707504
 20
11.9595715803
 30
0.0
 10
15.7562357862
 20
12.0027844148
 30
0.0
 10
15.6993646337
 20
12.0440980936
 30
0.0
 10
15.6386431065
 20
12.0832332993
 30
0.0
 10
15.5744834488
 20
12.1199248672
 30
0.0
 10
15.5073215859
 20
12.1539237377
 30
0.0
 10
15.4376141388
 20
12.1849988566
 30
0.0
 10
15.3658352714
 20
12.2129388712
 30
0.0
 10
15.2924734016
 20
12.2375536658
 30
0.0
 10
15.2180278031
 20
12.2586757195
 30
0.0
 10
15.1430051273
 20
12.2761612847
 30
0.0
 10
15.0679158654
 20
12.2898913799
 30
0.0
 10
14.9932707782
 20
12.2997725882
 30
0.0
 10
14.9195773142
 20
12.3057376505
 30
0.0
 10
14.8473360475
 20
12.3077458418
 30
0.0
 10
14.777037146
 20
12.3057831044
 30
0.0
 10
14.7091569759
 20
12.2998619531
 30
0.0
 10
14.6441546469
 20
12.2900209872
 30
0.0
 10
14.5824694549
 20
12.2763244781
 30
0.0
 10
14.5245162418
 20
12.2588602839
 30
0.0
 10
14.4706897032
 20
12.237742204
 30
0.0
 10
14.4290746587
 20
12.2169586157
 30
0.0
 10
14.3982939278
 20
12.1985940849
 30
0.0
 10
14.3767397069
 20
12.1841728058
 30
0.0
 10
14.3564759007
 20
12.1689614169
 30
0.0
 10
14.3314953436
 20
12.1478904525
 30
0.0
 10
14.3088751855
 20
12.1251092841
 30
0.0
 10
14.289005444
 20
12.1007583974
 30
0.0
 10
14.2756799583
 20
12.0820102283
 30
0.0
 10
14.263823896
 20
12.0626463315
 30
0.0
 10
14.253457098
 20
12.0426992191
 30
0.0
 10
14.2445993624
 20
12.0222051156
 30
0.0
 10
14.239706601
 20
12.0081900301
 30
0.0
 10
14.2375212082
 20
12.0011182654
 30
0.0
  0
SPLINE
  5
42D
100
AcDbEntity
  8
0
100
AcDbSpline
 62
7
  6
CONTINUOUS
 70
0
 71
3
 72
15
 73
11
 74
0
 42
0.0000001
 43
0.0000001
 44
0.0000000001
 40
0.0
 40
0.0
 40
0.0
 40
0.0
 40
0.1717871137
 40
0.3291974651
 40
0.471914042
 40
0.6002194464
 40
0.7149761451
 40
0.8178423816
 40
0.9115539341
 40
1.0
 40
1.0
 40
1.0
 40
1.0
 10
15.9299025159
 20
11.5080929965
 30
0.0
 10
15.9307558551
 20
11.5063540741
 30
0.0
 10
15.9324822338
 20
11.5030650023
 30
0.0
 10
15.9352656818
 20
11.498524569
 30
0.0
 10
15.9381174905
 20
11.4946173792
 30
0.0
 10
15.9410239293
 20
11.4913690677
 30
0.0
 10
15.9439754468
 20
11.4887998363
 30
0.0
 10
15.9469685318
 20
11.4869302422
 30
0.0
 10
15.9499969443
 20
11.4857853389
 30
0.0
 10
15.9520584163
 20
11.4855228851
 30
0.0
 10
15.9530557066
 20
11.4855228829
 30
0.0
  0
SPLINE
  5
42E
100
AcDbEntity
  8
0
100
AcDbSpline
 62
7
  6
CONTINUOUS
 70
0
 71
3
 72
11
 73
7
 74
0
 42
0.0000001
 43
0.0000001
 44
0.0000000001
 40
0.0
 40
0.0
 40
0.0
 40
0.0
 40
0.1943001438
 40
0.4220553876
 40
0.6895690377
 40
1.0
 40
1.0
 40
1.0
 40
1.0
 10
13.9930436629
 20
12.7196851003
 30
0.0
 10
13.9922745956
 20
12.7197181403
 30
0.0
 10
13.9905914311
 20
12.719529413
 30
0.0
 10
13.9879917264
 20
12.7186496871
 30
0.0
 10
13.9851501606
 20
12.7171755068
 30
0.0
 10
13.9832452954
 20
12.7158978302
 30
0.0
 10
13.9822516659
 20
12.7151730799
 30
0.0
  0
SPLINE
  5
42F
100
AcDbEntity
  8
0
100
AcDbSpline
 62
7
  6
CONTINUOUS
 70
0
 71
3
 72
9
 73
5
 74
0
 42
0.0000001
 43
0.0000001
 44
0.0000000001
 40
0.0
 40
0.0
 40
0.0
 40
0.0
 40
0.2435576777
 40
1.0
 40
1.0
 40
1.0
 40
1.0
 10
15.9870724982
 20
11.1427342262
 30
0.0
 10
15.9803340352
 20
11.1388959401
 30
0.0
 10
15.9523851203
 20
11.1236344475
 30
0.0
 10
15.9233781409
 20
11.1103336082
 30
0.0
 10
15.90105366
 20
11.1012935616
 30
0.0
  0
SPLINE
  5
430
100
AcDbEntity
  8
0
100
AcDbSpline
 62
7
  6
CONTINUOUS
 70
0
 71
3
 72
15
 73
11
 74
0
 42
0.0000001
 43
0.0000001
 44
0.0000000001
 40
0.0
 40
0.0
 40
0.0
 40
0.0
 40
0.1381471093
 40
0.2714984926
 40
0.4004145631
 40
0.5254157731
 40
0.6471149348
 40
0.7662296118
 40
0.8835676259
 40
1.0
 40
1.0
 40
1.0
 40
1.0
 10
14.4839491908
 20
11.455055237
 30
0.0
 10
14.4801531203
 20
11.4627908154
 30
0.0
 10
14.4732406797
 20
11.4782714842
 30
0.0
 10
14.4648875862
 20
11.5018373756
 30
0.0
 10
14.4587741865
 20
11.5252389953
 30
0.0
 10
14.4549280014
 20
11.5483845491
 30
0.0
 10
14.4533676403
 20
11.571185657
 30
0.0
 10
14.4541036205
 20
11.5935532234
 30
0.0
 10
14.4571356452
 20
11.6153942436
 30
0.0
 10
14.4606881203
 20
11.629570698
 30
0.0
 10
14.462832312
 20
11.636509316
 30
0.0
  0
SPLINE
  5
431
100
AcDbEntity
  8
0
100
AcDbSpline
 62
7
  6
CONTINUOUS
 70
0
 71
3
 72
47
 73
43
 74
0
 42
0.0000001
 43
0.0000001
 44
0.0000000001
 40
0.0
 40
0.0
 40
0.0
 40
0.0
 40
0.0278044274
 40
0.0572326671
 40
0.0882900745
 40
0.1209220102
 40
0.1550254879
 40
0.1904569652
 40
0.227040037
 40
0.2645721598
 40
0.3028304957
 40
0.3415774406
 40
0.3805658022
 40
0.419543724
 40
0.458259549
 40
0.496466683
 40
0.5339285573
 40
0.5704237973
 40
0.6057517403
 40
0.6397384771
 40
0.6722435451
 40
0.7031675258
 40
0.7324607159
 40
0.7465013542
 40
0.7601436714
 40
0.7862743843
 40
0.7988153482
 40
0.8110377397
 40
0.8229748691
 40
0.834665227
 40
0.846152296
 40
0.8574838835
 40
0.8687112938
 40
0.8798882954
 40
0.8910698536
 40
0.9023108349
 40
0.9136646741
 40
0.9251821486
 40
0.9369104414
 40
0.9488922949
 40
0.9737464766
 40
1.0
 40
1.0
 40
1.0
 40
1.0
 10
15.8828105755
 20
11.455055237
 30
0.0
 10
15.8735246847
 20
11.4739778928
 30
0.0
 10
15.8520523946
 20
11.5118017763
 30
0.0
 10
15.8130755667
 20
11.566337118
 30
0.0
 10
15.7668055946
 20
11.619774222
 30
0.0
 10
15.7136904781
 20
11.6716061342
 30
0.0
 10
15.6542349932
 20
11.7213514105
 30
0.0
 10
15.5890052726
 20
11.7685400835
 30
0.0
 10
15.518622626
 20
11.8127252021
 30
0.0
 10
15.4437584582
 20
11.8534862873
 30
0.0
 10
15.36512772
 20
11.8904344963
 30
0.0
 10
15.2834820846
 20
11.9232167189
 30
0.0
 10
15.1996025286
 20
11.9515193349
 30
0.0
 10
15.1142916639
 20
11.9750714973
 30
0.0
 10
15.0283658153
 20
11.9936479153
 30
0.0
 10
14.9426468783
 20
12.0070709068
 30
0.0
 10
14.8579541409
 20
12.0152120488
 30
0.0
 10
14.7750961638
 20
12.0179932197
 30
0.0
 10
14.6948624652
 20
12.0153868799
 30
0.0
 10
14.6180163808
 20
12.0074161178
 30
0.0
 10
14.5452848973
 20
11.9941522735
 30
0.0
 10
14.4773613202
 20
11.9757159668
 30
0.0
 10
14.4245602066
 20
11.9559000919
 30
0.0
 10
14.3854452278
 20
11.9375293083
 30
0.0
 10
14.3495314957
 20
11.9181472723
 30
0.0
 10
14.3163042506
 20
11.896268762
 30
0.0
 10
14.2863548492
 20
11.8719054569
 30
0.0
 10
14.2660321759
 20
11.85286748
 30
0.0
 10
14.24759731
 20
11.8328637302
 30
0.0
 10
14.2310960659
 20
11.8119402723
 30
0.0
 10
14.2165703531
 20
11.7901479514
 30
0.0
 10
14.204057484
 20
11.7675396528
 30
0.0
 10
14.1935903353
 20
11.7441709478
 30
0.0
 10
14.185195141
 20
11.7201004534
 30
0.0
 10
14.1788941976
 20
11.6953883246
 30
0.0
 10
14.1747022934
 20
11.6700970703
 30
0.0
 10
14.1726292783
 20
11.6442901058
 30
0.0
 10
14.172679025
 20
11.6180321235
 30
0.0
 10
14.174849446
 20
11.5913870041
 30
0.0
 10
14.1806305193
 20
11.5549962886
 30
0.0
 10
14.1933451253
 20
11.5087183677
 30
0.0
 10
14.2084573452
 20
11.4729224055
 30
0.0
 10
14.217225278
 20
11.455055237
 30
0.0
  0
SPLINE
  5
432
100
AcDbEntity
  8
0
100
AcDbSpline
 62
7
  6
CONTINUOUS
 70
0
 71
3
 72
10
 73
6
 74
0
 42
0.0000001
 43
0.0000001
 44
0.0000000001
 40
0.0
 40
0.0
 40
0.0
 40
0.0
 40
0.4827258304
 40
0.7370541807
 40
1.0
 40
1.0
 40
1.0
 40
1.0
 10
14.217225278
 20
11.455055237
 30
0.0
 10
14.2286382029
 20
11.4317981413
 30
0.0
 10
14.2487116318
 20
11.397535249
 30
0.0
 10
14.2799651155
 20
11.3538900204
 30
0.0
 10
14.2974226722
 20
11.3322797974
 30
0.0
 10
14.3065811529
 20
11.321543968
 30
0.0
  0
SPLINE
  5
433
100
AcDbEntity
  8
0
100
AcDbSpline
 62
7
  6
CONTINUOUS
 70
0
 71
3
 72
29
 73
25
 74
0
 42
0.0000001
 43
0.0000001
 44
0.0000000001
 40
0.0
 40
0.0
 40
0.0
 40
0.0
 40
0.0214558549
 40
0.0432079549
 40
0.0655328871
 40
0.0886716227
 40
0.1128201128
 40
0.1381253183
 40
0.1646851159
 40
0.192552983
 40
0.2217416012
 40
0.2522279613
 40
0.3168234671
 40
0.3856623453
 40
0.4577278594
 40
0.5318037505
 40
0.6065583722
 40
0.6806231662
 40
0.752667656
 40
0.8214763121
 40
0.8860346402
 40
0.9165003337
 40
0.945666949
 40
1.0
 40
1.0
 40
1.0
 40
1.0
 10
13.8710957972
 20
12.480913191
 30
0.0
 10
13.8704152264
 20
12.4787106576
 30
0.0
 10
13.8687192254
 20
12.4743686483
 30
0.0
 10
13.8652366847
 20
12.4682237374
 30
0.0
 10
13.8608354739
 20
12.4624705517
 30
0.0
 10
13.8555519321
 20
12.4571498439
 30
0.0
 10
13.8494257045
 20
12.4522955028
 30
0.0
 10
13.8425007168
 20
12.4479384808
 30
0.0
 10
13.8348254378
 20
12.4441051945
 30
0.0
 10
13.8264520723
 20
12.4408199699
 30
0.0
 10
13.8174370106
 20
12.4381033392
 30
0.0
 10
13.8043924246
 20
12.435207355
 30
0.0
 10
13.7868433613
 20
12.4331871117
 30
0.0
 10
13.7647213037
 20
12.4332445454
 30
0.0
 10
13.7417174793
 20
12.4357340833
 30
0.0
 10
13.7184486742
 20
12.4405887969
 30
0.0
 10
13.6955365395
 20
12.4476786236
 30
0.0
 10
13.6735956775
 20
12.4568132658
 30
0.0
 10
13.6532125203
 20
12.4677488758
 30
0.0
 10
13.6349333225
 20
12.4801930818
 30
0.0
 10
13.6216030964
 20
12.4917684031
 30
0.0
 10
13.6124819144
 20
12.5015242346
 30
0.0
 10
13.6048034497
 20
12.5110691292
 30
0.0
 10
13.6000140112
 20
12.5187293852
 30
0.0
 10
13.5974422505
 20
12.5239700824
 30
0.0
  0
SPLINE
  5
434
100
AcDbEntity
  8
0
100
AcDbSpline
 62
7
  6
CONTINUOUS
 70
0
 71
3
 72
23
 73
19
 74
0
 42
0.0000001
 43
0.0000001
 44
0.0000000001
 40
0.0
 40
0.0
 40
0.0
 40
0.0
 40
0.048803693
 40
0.1001371091
 40
0.154022368
 40
0.2104051525
 40
0.2691680197
 40
0.330139069
 40
0.393101091
 40
0.4577992524
 40
0.5239481361
 40
0.5912381345
 40
0.6593413985
 40
0.7279174647
 40
0.7966186757
 40
0.8650954856
 40
0.933001739
 40
1.0
 40
1.0
 40
1.0
 40
1.0
 10
15.921581486
 20
11.481166134
 30
0.0
 10
15.913070477
 20
11.4985097468
 30
0.0
 10
15.8937027366
 20
11.53318477
 30
0.0
 10
15.8590798107
 20
11.5834626823
 30
0.0
 10
15.8184248044
 20
11.632945967
 30
0.0
 10
15.7720486743
 20
11.6812634466
 30
0.0
 10
15.7202992404
 20
11.7280608071
 30
0.0
 10
15.6635650671
 20
11.772989783
 30
0.0
 10
15.6022719452
 20
11.8157153566
 30
0.0
 10
15.5368802953
 20
11.8559175602
 30
0.0
 10
15.4678817739
 20
11.8932946463
 30
0.0
 10
15.3957955945
 20
11.9275655561
 30
0.0
 10
15.3211645932
 20
11.9584722909
 30
0.0
 10
15.2445509668
 20
11.9857820208
 30
0.0
 10
15.1665322908
 20
12.009288902
 30
0.0
 10
15.0876957342
 20
12.0288158899
 30
0.0
 10
15.0086384094
 20
12.0442154254
 30
0.0
 10
14.9557353593
 20
12.0517162956
 30
0.0
 10
14.9293856451
 20
12.0547331301
 30
0.0
  0
SPLINE
  5
435
100
AcDbEntity
  8
0
100
AcDbSpline
 62
7
  6
CONTINUOUS
 70
0
 71
3
 72
26
 73
22
 74
0
 42
0.0000001
 43
0.0000001
 44
0.0000000001
 40
0.0
 40
0.0
 40
0.0
 40
0.0
 40
0.0795008074
 40
0.1573653123
 40
0.2333178556
 40
0.3071101958
 40
0.3785270793
 40
0.4473923702
 40
0.5135758535
 40
0.5770007966
 40
0.6376522668
 40
0.6669597172
 40
0.6956013465
 40
0.7509527656
 40
0.8039447431
 40
0.854892712
 40
0.9042042139
 40
0.9284100212
 40
0.952396807
 40
0.9762356626
 40
1.0
 40
1.0
 40
1.0
 40
1.0
 10
14.9293856451
 20
12.0547331301
 30
0.0
 10
14.906079739
 20
12.0574014725
 30
0.0
 10
14.8598135978
 20
12.0615883452
 30
0.0
 10
14.7909970845
 20
12.064377854
 30
0.0
 10
14.7238090012
 20
12.0636030291
 30
0.0
 10
14.6586605796
 20
12.0592677928
 30
0.0
 10
14.5959474589
 20
12.0513976702
 30
0.0
 10
14.5360508774
 20
12.0400390655
 30
0.0
 10
14.4793331957
 20
12.025258127
 30
0.0
 10
14.4261411219
 20
12.007141963
 30
0.0
 10
14.3845491243
 20
11.9891483901
 30
0.0
 10
14.3534161686
 20
11.973142591
 30
0.0
 10
14.3244095305
 20
11.9565019152
 30
0.0
 10
14.2908120725
 20
11.9338994782
 30
0.0
 10
14.2547163931
 20
11.9036484099
 30
0.0
 10
14.2235359404
 20
11.8707544093
 30
0.0
 10
14.2016825876
 20
11.8411023017
 30
0.0
 10
14.1869674612
 20
11.816359168
 30
0.0
 10
14.1773349251
 20
11.7973942355
 30
0.0
 10
14.1690587506
 20
11.7779423988
 30
0.0
 10
14.1644501364
 20
11.7646600302
 30
0.0
 10
14.162379787
 20
11.7579605372
 30
0.0
  0
SPLINE
  5
436
100
AcDbEntity
  8
0
100
AcDbSpline
 62
7
  6
CONTINUOUS
 70
0
 71
3
 72
13
 73
9
 74
0
 42
0.0000001
 43
0.0000001
 44
0.0000000001
 40
0.0
 40
0.0
 40
0.0
 40
0.0
 40
0.2714078112
 40
0.5251930288
 40
0.6469450451
 40
0.7661184609
 40
0.8835128954
 40
1.0
 40
1.0
 40
1.0
 40
1.0
 10
13.5974422505
 20
12.5239700824
 30
0.0
 10
13.5956734287
 20
12.5275745624
 30
0.0
 10
13.5927389284
 20
12.5348075818
 30
0.0
 10
13.5906855073
 20
12.5442139601
 30
0.0
 10
13.5901858946
 20
12.551526308
 30
0.0
 10
13.5903602405
 20
12.5568340207
 30
0.0
 10
13.5910797908
 20
12.5620166133
 30
0.0
 10
13.5919227483
 20
12.565380519
 30
0.0
 10
13.5924314938
 20
12.5670269739
 30
0.0
  0
SPLINE
  5
437
100
AcDbEntity
  8
0
100
AcDbSpline
 62
7
  6
CONTINUOUS
 70
0
 71
3
 72
21
 73
17
 74
0
 42
0.0000001
 43
0.0000001
 44
0.0000000001
 40
0.0
 40
0.0
 40
0.0
 40
0.0
 40
0.2049253893
 40
0.3880798274
 40
0.470728122
 40
0.5471007291
 40
0.6170187509
 40
0.6803931887
 40
0.7372254963
 40
0.78766062
 40
0.8320277808
 40
0.8709480163
 40
0.905442258
 40
0.9370642341
 40
0.9678529955
 40
1.0
 40
1.0
 40
1.0
 40
1.0
 10
13.9938875441
 20
12.6722576334
 30
0.0
 10
13.9949292549
 20
12.6756286107
 30
0.0
 10
13.9967648919
 20
12.682056131
 30
0.0
 10
13.9985643558
 20
12.6899646061
 30
0.0
 10
13.9995556714
 20
12.695773334
 30
0.0
 10
14.0000576144
 20
12.6996842936
 30
0.0
 10
14.0003420429
 20
12.7032846368
 30
0.0
 10
14.0004083328
 20
12.7065596766
 30
0.0
 10
14.0002559234
 20
12.7094968395
 30
0.0
 10
13.9998856174
 20
12.7120856967
 30
0.0
 10
13.9992966194
 20
12.7143181968
 30
0.0
 10
13.9984872503
 20
12.7161883262
 30
0.0
 10
13.9974502716
 20
12.7176878581
 30
0.0
 10
13.9961780702
 20
12.718798615
 30
0.0
 10
13.9946810039
 20
12.7194913343
 30
0.0
 10
13.9935966379
 20
12.7196613439
 30
0.0
 10
13.9930436629
 20
12.7196851003
 30
0.0
  0
SPLINE
  5
438
100
AcDbEntity
  8
0
100
AcDbSpline
 62
7
  6
CONTINUOUS
 70
0
 71
3
 72
15
 73
11
 74
0
 42
0.0000001
 43
0.0000001
 44
0.0000000001
 40
0.0
 40
0.0
 40
0.0
 40
0.0
 40
0.123568237
 40
0.2517050808
 40
0.3823513538
 40
0.5133973513
 40
0.6427253833
 40
0.7682522354
 40
0.8879719892
 40
1.0
 40
1.0
 40
1.0
 40
1.0
 10
13.9496843242
 20
12.5793742287
 30
0.0
 10
13.9519875395
 20
12.5829442472
 30
0.0
 10
13.9565448017
 20
12.5903036226
 30
0.0
 10
13.9630947536
 20
12.6017040322
 30
0.0
 10
13.9694066637
 20
12.6135302607
 30
0.0
 10
13.9753725644
 20
12.6255804006
 30
0.0
 10
13.9808907476
 20
12.6376488277
 30
0.0
 10
13.9858674849
 20
12.6495296075
 30
0.0
 10
13.9902184549
 20
12.6610196631
 30
0.0
 10
13.9927503295
 20
12.6685776057
 30
0.0
 10
13.9938875441
 20
12.6722576334
 30
0.0
  0
SPLINE
  5
439
100
AcDbEntity
  8
0
100
AcDbSpline
 62
7
  6
CONTINUOUS
 70
0
 71
3
 72
19
 73
15
 74
0
 42
0.0000001
 43
0.0000001
 44
0.0000000001
 40
0.0
 40
0.0
 40
0.0
 40
0.0
 40
0.0279538613
 40
0.0596400902
 40
0.0957647709
 40
0.1367495801
 40
0.1828220796
 40
0.2340592301
 40
0.2904463148
 40
0.3518892531
 40
0.4892999617
 40
0.6446489149
 40
0.8157426648
 40
1.0
 40
1.0
 40
1.0
 40
1.0
 10
13.9046372231
 20
12.533918291
 30
0.0
 10
13.9052471234
 20
12.533892089
 30
0.0
 10
13.9065568625
 20
12.5339973398
 30
0.0
 10
13.9085830129
 20
12.5345467931
 30
0.0
 10
13.910771688
 20
12.5354871725
 30
0.0
 10
13.9131169407
 20
12.5368129732
 30
0.0
 10
13.9156122695
 20
12.538519418
 30
0.0
 10
13.9182488117
 20
12.5405999323
 30
0.0
 10
13.921015912
 20
12.5430467403
 30
0.0
 10
13.9250153136
 20
12.5469316475
 30
0.0
 10
13.9302288135
 20
12.5526554293
 30
0.0
 10
13.9365969406
 20
12.5605385977
 30
0.0
 10
13.9431811654
 20
12.5695449227
 30
0.0
 10
13.9475028996
 20
12.5759929877
 30
0.0
 10
13.9496843242
 20
12.5793742287
 30
0.0
  0
SPLINE
  5
43A
100
AcDbEntity
  8
0
100
AcDbSpline
 62
7
  6
CONTINUOUS
 70
0
 71
3
 72
14
 73
10
 74
0
 42
0.0000001
 43
0.0000001
 44
0.0000000001
 40
0.0
 40
0.0
 40
0.0
 40
0.0
 40
0.1128402252
 40
0.227185433
 40
0.3443967841
 40
0.4655768479
 40
0.5915064787
 40
0.7226067261
 40
1.0
 40
1.0
 40
1.0
 40
1.0
 10
14.7121326487
 20
12.1265590473
 30
0.0
 10
14.7134771977
 20
12.1238193671
 30
0.0
 10
14.7166588092
 20
12.1185226695
 30
0.0
 10
14.7227446408
 20
12.1114186533
 30
0.0
 10
14.7300601562
 20
12.1052341578
 30
0.0
 10
14.7384867172
 20
12.1000610639
 30
0.0
 10
14.7478970548
 20
12.0959695984
 30
0.0
 10
14.7618132851
 20
12.091956181
 30
0.0
 10
14.7729288232
 20
12.0908523418
 30
0.0
 10
14.7804310841
 20
12.0908523418
 30
0.0
  0
SPLINE
  5
43B
100
AcDbEntity
  8
0
100
AcDbSpline
 62
7
  6
CONTINUOUS
 70
0
 71
3
 72
16
 73
12
 74
0
 42
0.0000001
 43
0.0000001
 44
0.0000000001
 40
0.0
 40
0.0
 40
0.0
 40
0.0
 40
0.1100895962
 40
0.2217005855
 40
0.3367544967
 40
0.4567914789
 40
0.5190614106
 40
0.5829252169
 40
0.7155263919
 40
0.8546934696
 40
1.0
 40
1.0
 40
1.0
 40
1.0
 10
14.7133421492
 20
12.124094361
 30
0.0
 10
14.7146167361
 20
12.1214968487
 30
0.0
 10
14.7176581756
 20
12.1164842081
 30
0.0
 10
14.7235383075
 20
12.1098127903
 30
0.0
 10
14.730652561
 20
12.104055818
 30
0.0
 10
14.7374392221
 20
12.1001202465
 30
0.0
 10
14.7433449755
 20
12.0974686714
 30
0.0
 10
14.7497234169
 20
12.0950985364
 30
0.0
 10
14.7582688818
 20
12.092819063
 30
0.0
 10
14.7691293943
 20
12.0911979203
 30
0.0
 10
14.7766121322
 20
12.0908523418
 30
0.0
 10
14.7804310841
 20
12.0908523418
 30
0.0
  0
SPLINE
  5
43C
100
AcDbEntity
  8
0
100
AcDbSpline
 62
7
  6
CONTINUOUS
 70
0
 71
3
 72
29
 73
25
 74
0
 42
0.0000001
 43
0.0000001
 44
0.0000000001
 40
0.0
 40
0.0
 40
0.0
 40
0.0
 40
0.0214558549
 40
0.0432079549
 40
0.0655328871
 40
0.0886716227
 40
0.1128201128
 40
0.1381253183
 40
0.1646851159
 40
0.192552983
 40
0.2217416012
 40
0.2522279613
 40
0.3168234671
 40
0.3856623453
 40
0.4577278594
 40
0.5318037505
 40
0.6065583722
 40
0.6806231662
 40
0.752667656
 40
0.8214763121
 40
0.8860346402
 40
0.9165003337
 40
0.945666949
 40
1.0
 40
1.0
 40
1.0
 40
1.0
 10
14.9736862811
 20
13.5935105201
 30
0.0
 10
14.9730057104
 20
13.5913079866
 30
0.0
 10
14.9713097094
 20
13.5869659773
 30
0.0
 10
14.9678271687
 20
13.5808210665
 30
0.0
 10
14.9634259579
 20
13.5750678807
 30
0.0
 10
14.9581424161
 20
13.5697471729
 30
0.0
 10
14.9520161885
 20
13.5648928319
 30
0.0
 10
14.9450912008
 20
13.5605358099
 30
0.0
 10
14.9374159218
 20
13.5567025236
 30
0.0
 10
14.9290425563
 20
13.5534172989
 30
0.0
 10
14.9200274946
 20
13.5507006683
 30
0.0
 10
14.9069829086
 20
13.547804684
 30
0.0
 10
14.8894338453
 20
13.5457844408
 30
0.0
 10
14.8673117877
 20
13.5458418744
 30
0.0
 10
14.8443079633
 20
13.5483314124
 30
0.0
 10
14.8210391582
 20
13.5531861259
 30
0.0
 10
14.7981270235
 20
13.5602759527
 30
0.0
 10
14.7761861614
 20
13.5694105948
 30
0.0
 10
14.7558030043
 20
13.5803462048
 30
0.0
 10
14.7375238065
 20
13.5927904108
 30
0.0
 10
14.7241935804
 20
13.6043657321
 30
0.0
 10
14.7150723984
 20
13.6141215636
 30
0.0
 10
14.7073939336
 20
13.6236664583
 30
0.0
 10
14.7026044952
 20
13.6313267142
 30
0.0
 10
14.7000327345
 20
13.6365674115
 30
0.0
  0
SPLINE
  5
43D
100
AcDbEntity
  8
0
100
AcDbSpline
 62
7
  6
CONTINUOUS
 70
0
 71
3
 72
24
 73
20
 74
0
 42
0.0000001
 43
0.0000001
 44
0.0000000001
 40
0.0
 40
0.0
 40
0.0
 40
0.0
 40
0.0759067114
 40
0.1486093906
 40
0.2181374457
 40
0.251751985
 40
0.2846233712
 40
0.3482371137
 40
0.4093056331
 40
0.4682406579
 40
0.52555264
 40
0.5818358211
 40
0.637741869
 40
0.6939444722
 40
0.7510998834
 40
0.8098110503
 40
0.8705989495
 40
0.9338891118
 40
1.0
 40
1.0
 40
1.0
 40
1.0
 10
15.5885464185
 20
10.9254025454
 30
0.0
 10
15.6059195925
 20
10.9301196519
 30
0.0
 10
15.6396329423
 20
10.940520415
 30
0.0
 10
15.687817254
 20
10.9594898146
 30
0.0
 10
15.7252780644
 20
10.9779493585
 30
0.0
 10
15.7531741288
 20
10.9941680508
 30
0.0
 10
15.7790905021
 20
11.0109291566
 30
0.0
 10
15.8089461525
 20
11.0335164292
 30
0.0
 10
15.8407016151
 20
11.0634467316
 30
0.0
 10
15.8677957561
 20
11.0957421411
 30
0.0
 10
15.8900465251
 20
11.1302142587
 30
0.0
 10
15.9073006285
 20
11.1666536265
 30
0.0
 10
15.9194377696
 20
11.2048279368
 30
0.0
 10
15.9263779128
 20
11.2444874229
 30
0.0
 10
15.928084284
 20
11.2853731467
 30
0.0
 10
15.9245607445
 20
11.3272244896
 30
0.0
 10
15.9158466014
 20
11.3697862043
 30
0.0
 10
15.9020127787
 20
11.4128012475
 30
0.0
 10
15.8897178352
 20
11.4409797215
 30
0.0
 10
15.8828105755
 20
11.455055237
 30
0.0
  0
SPLINE
  5
43E
100
AcDbEntity
  8
0
100
AcDbSpline
 62
7
  6
CONTINUOUS
 70
0
 71
3
 72
11
 73
7
 74
0
 42
0.0000001
 43
0.0000001
 44
0.0000000001
 40
0.0
 40
0.0
 40
0.0
 40
0.0
 40
0.2531021925
 40
0.4962371156
 40
0.7404212936
 40
1.0
 40
1.0
 40
1.0
 40
1.0
 10
13.8973483523
 20
12.5305155068
 30
0.0
 10
13.897359933
 20
12.5307420822
 30
0.0
 10
13.8974230401
 20
12.5311859136
 30
0.0
 10
13.8976535338
 20
12.5318134207
 30
0.0
 10
13.8980176806
 20
12.5323821575
 30
0.0
 10
13.8983517895
 20
12.5326941015
 30
0.0
 10
13.8985389147
 20
12.5328323856
 30
0.0
  0
SPLINE
  5
43F
100
AcDbEntity
  8
0
100
AcDbSpline
 62
7
  6
CONTINUOUS
 70
0
 71
3
 72
12
 73
8
 74
0
 42
0.0000001
 43
0.0000001
 44
0.0000000001
 40
0.0
 40
0.0
 40
0.0
 40
0.0
 40
0.1796371431
 40
0.283543678
 40
0.3981166053
 40
0.6682867682
 40
1.0
 40
1.0
 40
1.0
 40
1.0
 10
13.8985389147
 20
12.5328323856
 30
0.0
 10
13.8988420168
 20
12.5330563756
 30
0.0
 10
13.8993832038
 20
12.5333247143
 30
0.0
 10
13.9001766591
 20
12.533584565
 30
0.0
 10
13.9011762545
 20
12.5338197482
 30
0.0
 10
13.9026778721
 20
12.5339685579
 30
0.0
 10
13.9039419182
 20
12.5339481621
 30
0.0
 10
13.9046372231
 20
12.533918291
 30
0.0
  0
SPLINE
  5
440
100
AcDbEntity
  8
0
100
AcDbSpline
 62
7
  6
CONTINUOUS
 70
0
 71
3
 72
15
 73
11
 74
0
 42
0.0000001
 43
0.0000001
 44
0.0000000001
 40
0.0
 40
0.0
 40
0.0
 40
0.0
 40
0.1164322847
 40
0.2337702206
 40
0.3528850171
 40
0.4745837462
 40
0.5995857904
 40
0.7285025014
 40
0.8618493803
 40
1.0
 40
1.0
 40
1.0
 40
1.0
 10
15.9537938213
 20
11.2043717308
 30
0.0
 10
15.9570646961
 20
11.2149560327
 30
0.0
 10
15.9624834014
 20
11.2365812101
 30
0.0
 10
15.967108555
 20
11.2698979916
 30
0.0
 10
15.9682314426
 20
11.3040179695
 30
0.0
 10
15.9658512918
 20
11.3387993902
 30
0.0
 10
15.9599838741
 20
11.3741062132
 30
0.0
 10
15.9506585218
 20
11.4098033331
 30
0.0
 10
15.9379168061
 20
11.445751384
 30
0.0
 10
15.9273722498
 20
11.4693657981
 30
0.0
 10
15.921581486
 20
11.481166134
 30
0.0
  0
SPLINE
  5
441
100
AcDbEntity
  8
0
100
AcDbSpline
 62
7
  6
CONTINUOUS
 70
0
 71
3
 72
15
 73
11
 74
0
 42
0.0000001
 43
0.0000001
 44
0.0000000001
 40
0.0
 40
0.0
 40
0.0
 40
0.0
 40
0.1164322847
 40
0.2337702206
 40
0.3528850171
 40
0.4745837462
 40
0.5995857904
 40
0.7285025014
 40
0.8618493803
 40
1.0
 40
1.0
 40
1.0
 40
1.0
 10
16.0289352426
 20
11.447529459
 30
0.0
 10
16.0322061173
 20
11.4581137609
 30
0.0
 10
16.0376248226
 20
11.4797389383
 30
0.0
 10
16.0422499762
 20
11.5130557198
 30
0.0
 10
16.0433728639
 20
11.5471756977
 30
0.0
 10
16.040992713
 20
11.5819571184
 30
0.0
 10
16.0351252953
 20
11.6172639414
 30
0.0
 10
16.025799943
 20
11.6529610613
 30
0.0
 10
16.0130582273
 20
11.6889091122
 30
0.0
 10
16.002513671
 20
11.7125235263
 30
0.0
 10
15.9967229073
 20
11.7243238622
 30
0.0
  0
SPLINE
  5
442
100
AcDbEntity
  8
0
100
AcDbSpline
 62
7
  6
CONTINUOUS
 70
0
 71
3
 72
14
 73
10
 74
0
 42
0.0000001
 43
0.0000001
 44
0.0000000001
 40
0.0
 40
0.0
 40
0.0
 40
0.0
 40
0.0871039897
 40
0.1865838779
 40
0.2982658129
 40
0.4200670346
 40
0.5519477659
 40
0.6935718023
 40
1.0
 40
1.0
 40
1.0
 40
1.0
 10
13.9046372231
 20
12.533918291
 30
0.0
 10
13.905328093
 20
12.5338886105
 30
0.0
 10
13.9068063119
 20
12.5337800442
 30
0.0
 10
13.9091558955
 20
12.5334793172
 30
0.0
 10
13.9117628037
 20
12.5330393321
 30
0.0
 10
13.9146103396
 20
12.5324859046
 30
0.0
 10
13.9176762372
 20
12.5318144528
 30
0.0
 10
13.9221533378
 20
12.5307401878
 30
0.0
 10
13.9255950865
 20
12.5298402117
 30
0.0
 10
13.9279423405
 20
12.529201154
 30
0.0
  0
SPLINE
  5
443
100
AcDbEntity
  8
0
100
AcDbSpline
 62
7
  6
CONTINUOUS
 70
0
 71
3
 72
16
 73
12
 74
0
 42
0.0000001
 43
0.0000001
 44
0.0000000001
 40
0.0
 40
0.0
 40
0.0
 40
0.0
 40
0.1238024254
 40
0.2478481594
 40
0.3721603246
 40
0.49681867
 40
0.621887788
 40
0.7473761499
 40
0.810311173
 40
0.8733997952
 40
1.0
 40
1.0
 40
1.0
 40
1.0
 10
13.9279423405
 20
12.529201154
 30
0.0
 10
13.928544631
 20
12.5313850531
 30
0.0
 10
13.9298159262
 20
12.5357393546
 30
0.0
 10
13.931913159
 20
12.5422193426
 30
0.0
 10
13.9342120109
 20
12.548647816
 30
0.0
 10
13.9367715728
 20
12.554997781
 30
0.0
 10
13.9395876476
 20
12.561261262
 30
0.0
 10
13.9421285266
 20
12.5664063098
 30
0.0
 10
13.9443091704
 20
12.5704597994
 30
0.0
 10
13.9466020662
 20
12.5744742152
 30
0.0
 10
13.9484284282
 20
12.577427571
 30
0.0
 10
13.9496843242
 20
12.5793742287
 30
0.0
  0
SPLINE
  5
444
100
AcDbEntity
  8
0
100
AcDbSpline
 62
7
  6
CONTINUOUS
 70
0
 71
3
 72
19
 73
15
 74
0
 42
0.0000001
 43
0.0000001
 44
0.0000000001
 40
0.0
 40
0.0
 40
0.0
 40
0.0
 40
0.0319845015
 40
0.069241995
 40
0.1118616941
 40
0.1597394127
 40
0.2126468197
 40
0.2702688488
 40
0.3322242048
 40
0.3980785047
 40
0.5395093851
 40
0.6902879145
 40
0.8455587538
 40
1.0
 40
1.0
 40
1.0
 40
1.0
 10
14.0565220349
 20
12.6851509792
 30
0.0
 10
14.0569202267
 20
12.6838017663
 30
0.0
 10
14.0574967708
 20
12.680795976
 30
0.0
 10
14.0577857431
 20
12.6758759233
 30
0.0
 10
14.0575589025
 20
12.6702539586
 30
0.0
 10
14.0568136658
 20
12.6639859171
 30
0.0
 10
14.0555527364
 20
12.6571298872
 30
0.0
 10
14.0537836519
 20
12.6497496753
 30
0.0
 10
14.0515199765
 20
12.6419117998
 30
0.0
 10
14.0477768039
 20
12.6306744491
 30
0.0
 10
14.0419832765
 20
12.6160167811
 30
0.0
 10
14.0336739455
 20
12.5981653308
 30
0.0
 10
14.0241761868
 20
12.5802677728
 30
0.0
 10
14.0172152953
 20
12.5685517677
 30
0.0
 10
14.0136054517
 20
12.5627977165
 30
0.0
  0
SPLINE
  5
445
100
AcDbEntity
  8
0
100
AcDbSpline
 62
7
  6
CONTINUOUS
 70
0
 71
3
 72
13
 73
9
 74
0
 42
0.0000001
 43
0.0000001
 44
0.0000000001
 40
0.0
 40
0.0
 40
0.0
 40
0.0
 40
0.2714078112
 40
0.5251930288
 40
0.6469450451
 40
0.7661184609
 40
0.8835128954
 40
1.0
 40
1.0
 40
1.0
 40
1.0
 10
16.8945901539
 20
12.5239700824
 30
0.0
 10
16.8928213321
 20
12.5275745624
 30
0.0
 10
16.8898868318
 20
12.5348075818
 30
0.0
 10
16.8878334108
 20
12.5442139601
 30
0.0
 10
16.887333798
 20
12.551526308
 30
0.0
 10
16.8875081439
 20
12.5568340207
 30
0.0
 10
16.8882276942
 20
12.5620166133
 30
0.0
 10
16.8890706517
 20
12.565380519
 30
0.0
 10
16.8895793972
 20
12.5670269739
 30
0.0
  0
SPLINE
  5
446
100
AcDbEntity
  8
0
100
AcDbSpline
 62
7
  6
CONTINUOUS
 70
0
 71
3
 72
11
 73
7
 74
0
 42
0.0000001
 43
0.0000001
 44
0.0000000001
 40
0.0
 40
0.0
 40
0.0
 40
0.0
 40
0.2249199305
 40
0.4674747404
 40
0.7263025381
 40
1.0
 40
1.0
 40
1.0
 40
1.0
 10
16.5072804415
 20
12.7713257274
 30
0.0
 10
16.5078044099
 20
12.7715483749
 30
0.0
 10
16.5089138379
 20
12.7719624817
 30
0.0
 10
16.5106597514
 20
12.7725386616
 30
0.0
 10
16.5125438468
 20
12.773087407
 30
0.0
 10
16.5138519298
 20
12.7734140235
 30
0.0
 10
16.514526576
 20
12.7735714715
 30
0.0
  0
SPLINE
  5
447
100
AcDbEntity
  8
0
100
AcDbSpline
 62
7
  6
CONTINUOUS
 70
0
 71
3
 72
9
 73
5
 74
0
 42
0.0000001
 43
0.0000001
 44
0.0000000001
 40
0.0
 40
0.0
 40
0.0
 40
0.0
 40
0.2448243543
 40
1.0
 40
1.0
 40
1.0
 40
1.0
 10
16.5469204743
 20
12.779999786
 30
0.0
 10
16.5463900627
 20
12.779999786
 30
0.0
 10
16.5442238101
 20
12.7799402283
 30
0.0
 10
16.542065268
 20
12.7796488762
 30
0.0
 10
16.5404638362
 20
12.7793139184
 30
0.0
  0
SPLINE
  5
448
100
AcDbEntity
  8
0
100
AcDbSpline
 62
7
  6
CONTINUOUS
 70
0
 71
3
 72
15
 73
11
 74
0
 42
0.0000001
 43
0.0000001
 44
0.0000000001
 40
0.0
 40
0.0
 40
0.0
 40
0.0
 40
0.1413598997
 40
0.2789406036
 40
0.4121621253
 40
0.5405497575
 40
0.6637171759
 40
0.7813996362
 40
0.8934820983
 40
1.0
 40
1.0
 40
1.0
 40
1.0
 10
15.0260944269
 20
13.814435294
 30
0.0
 10
15.03467612
 20
13.8095080723
 30
0.0
 10
15.0513497656
 20
13.7993220848
 30
0.0
 10
15.0750753118
 20
13.7828749858
 30
0.0
 10
15.0970375596
 20
13.7655658534
 30
0.0
 10
15.1170686026
 20
13.7475269443
 30
0.0
 10
15.135016015
 20
13.7288934329
 30
0.0
 10
15.1507440632
 20
13.7098042006
 30
0.0
 10
15.1641298347
 20
13.6904040226
 30
0.0
 10
15.1716117101
 20
13.6770205557
 30
0.0
 10
15.1748966443
 20
13.6703265635
 30
0.0
  0
SPLINE
  5
449
100
AcDbEntity
  8
0
100
AcDbSpline
 62
7
  6
CONTINUOUS
 70
0
 71
3
 72
14
 73
10
 74
0
 42
0.0000001
 43
0.0000001
 44
0.0000000001
 40
0.0
 40
0.0
 40
0.0
 40
0.0
 40
0.1191429979
 40
0.2411798975
 40
0.3655304238
 40
0.4915944141
 40
0.6187352381
 40
0.7462992646
 40
1.0
 40
1.0
 40
1.0
 40
1.0
 10
16.9310335541
 20
12.779999786
 30
0.0
 10
16.9408356216
 20
12.779999786
 30
0.0
 10
16.9606819756
 20
12.7794057247
 30
0.0
 10
16.9906579413
 20
12.7768253457
 30
0.0
 10
17.0210167855
 20
12.772562777
 30
0.0
 10
17.0515245996
 20
12.766651443
 30
0.0
 10
17.0819509937
 20
12.7591353975
 30
0.0
 10
17.1220141177
 20
12.7470772034
 30
0.0
 10
17.1513571933
 20
12.7357924004
 30
0.0
 10
17.1704246936
 20
12.7273021408
 30
0.0
  0
SPLINE
  5
44A
100
AcDbEntity
  8
0
100
AcDbSpline
 62
7
  6
CONTINUOUS
 70
0
 71
3
 72
9
 73
5
 74
0
 42
0.0000001
 43
0.0000001
 44
0.0000000001
 40
0.0
 40
0.0
 40
0.0
 40
0.0
 40
0.5231765196
 40
1.0
 40
1.0
 40
1.0
 40
1.0
 10
15.3039654521
 20
13.406194212
 30
0.0
 10
15.3037093278
 20
13.4070722833
 30
0.0
 10
15.3031618865
 20
13.4087345449
 30
0.0
 10
15.3024764993
 20
13.4103461533
 30
0.0
 10
15.302109252
 20
13.4110945247
 30
0.0
  0
SPLINE
  5
44B
100
AcDbEntity
  8
0
100
AcDbSpline
 62
7
  6
CONTINUOUS
 70
0
 71
3
 72
14
 73
10
 74
0
 42
0.0000001
 43
0.0000001
 44
0.0000000001
 40
0.0
 40
0.0
 40
0.0
 40
0.0
 40
0.2155373415
 40
0.3320267054
 40
0.4544573409
 40
0.5827617641
 40
0.7167110753
 40
0.8559533143
 40
1.0
 40
1.0
 40
1.0
 40
1.0
 10
13.4428943492
 20
12.7273021408
 30
0.0
 10
13.4540689487
 20
12.7361403477
 30
0.0
 10
13.4730410941
 20
12.7476169656
 30
0.0
 10
13.5007115978
 20
12.7593540272
 30
0.0
 10
13.5238392221
 20
12.766838144
 30
0.0
 10
13.5486046693
 20
12.7727067723
 30
0.0
 10
13.5748297245
 20
12.7769234271
 30
0.0
 10
13.6023118729
 20
12.7794552288
 30
0.0
 10
13.6210433176
 20
12.779999786
 30
0.0
 10
13.6305649923
 20
12.779999786
 30
0.0
  0
SPLINE
  5
44C
100
AcDbEntity
  8
0
100
AcDbSpline
 62
7
  6
CONTINUOUS
 70
0
 71
3
 72
11
 73
7
 74
0
 42
0.0000001
 43
0.0000001
 44
0.0000000001
 40
0.0
 40
0.0
 40
0.0
 40
0.0
 40
0.2502602712
 40
0.5008383624
 40
0.7509836209
 40
1.0
 40
1.0
 40
1.0
 40
1.0
 10
14.6272315963
 20
13.3724560102
 30
0.0
 10
14.6278933785
 20
13.3731315192
 30
0.0
 10
14.629198116
 20
13.374503034
 30
0.0
 10
14.631070346
 20
13.3766365407
 30
0.0
 10
14.6328580041
 20
13.3788350477
 30
0.0
 10
14.6340002736
 20
13.3803364834
 30
0.0
 10
14.6345577505
 20
13.3810945203
 30
0.0
  0
SPLINE
  5
44D
100
AcDbEntity
  8
0
100
AcDbSpline
 62
7
  6
CONTINUOUS
 70
0
 71
3
 72
15
 73
11
 74
0
 42
0.0000001
 43
0.0000001
 44
0.0000000001
 40
0.0
 40
0.0
 40
0.0
 40
0.0
 40
0.1795149639
 40
0.3386213558
 40
0.4782656179
 40
0.6003081164
 40
0.707890264
 40
0.805900094
 40
0.9008896398
 40
1.0
 40
1.0
 40
1.0
 40
1.0
 10
13.8973049682
 20
12.5476188549
 30
0.0
 10
13.8973071966
 20
12.5465899829
 30
0.0
 10
13.8973761819
 20
12.5446481128
 30
0.0
 10
13.8977159757
 20
12.5419236776
 30
0.0
 10
13.8982863611
 20
12.5395734657
 30
0.0
 10
13.89908906
 20
12.5376041924
 30
0.0
 10
13.9001317005
 20
12.5360239769
 30
0.0
 10
13.9014238904
 20
12.5348517882
 30
0.0
 10
13.9029560757
 20
12.534120697
 30
0.0
 10
13.9040697042
 20
12.5339426723
 30
0.0
 10
13.9046372231
 20
12.533918291
 30
0.0
  0
SPLINE
  5
44E
100
AcDbEntity
  8
0
100
AcDbSpline
 62
7
  6
CONTINUOUS
 70
0
 71
3
 72
11
 73
7
 74
0
 42
0.0000001
 43
0.0000001
 44
0.0000000001
 40
0.0
 40
0.0
 40
0.0
 40
0.0
 40
0.2467034626
 40
0.4947581469
 40
0.745477483
 40
1.0
 40
1.0
 40
1.0
 40
1.0
 10
14.5005360264
 20
13.7764310744
 30
0.0
 10
14.5015804853
 20
13.7798111525
 30
0.0
 10
14.5039827002
 20
13.7864990347
 30
0.0
 10
14.50848943
 20
13.7962079532
 30
0.0
 10
14.5138911344
 20
13.8055781703
 30
0.0
 10
14.5180407652
 20
13.8115297093
 30
0.0
 10
14.5202496854
 20
13.814435294
 30
0.0
  0
SPLINE
  5
44F
100
AcDbEntity
  8
0
100
AcDbSpline
 62
7
  6
CONTINUOUS
 70
0
 71
3
 72
13
 73
9
 74
0
 42
0.0000001
 43
0.0000001
 44
0.0000000001
 40
0.0
 40
0.0
 40
0.0
 40
0.0
 40
0.2714078112
 40
0.5251930288
 40
0.6469450451
 40
0.7661184609
 40
0.8835128954
 40
1.0
 40
1.0
 40
1.0
 40
1.0
 10
14.7000327345
 20
13.6365674115
 30
0.0
 10
14.6982639126
 20
13.6401718914
 30
0.0
 10
14.6953294123
 20
13.6474049108
 30
0.0
 10
14.6932759913
 20
13.6568112892
 30
0.0
 10
14.6927763786
 20
13.6641236371
 30
0.0
 10
14.6929507245
 20
13.6694313498
 30
0.0
 10
14.6936702748
 20
13.6746139423
 30
0.0
 10
14.6945132322
 20
13.677977848
 30
0.0
 10
14.6950219778
 20
13.6796243029
 30
0.0
  0
LINE
  5
450
100
AcDbEntity
  8
0
100
AcDbLine
 62
7
  6
CONTINUOUS
 10
15.3215730092
 20
13.3724560102
 11
15.3162096472
 21
13.3810945203
  0
SPLINE
  5
451
100
AcDbEntity
  8
0
100
AcDbSpline
 62
7
  6
CONTINUOUS
 70
0
 71
3
 72
13
 73
9
 74
0
 42
0.0000001
 43
0.0000001
 44
0.0000000001
 40
0.0
 40
0.0
 40
0.0
 40
0.0
 40
0.2505531306
 40
0.5083807004
 40
0.6374726063
 40
0.7642150468
 40
0.8862248917
 40
1.0
 40
1.0
 40
1.0
 40
1.0
 10
15.3162096472
 20
13.3810945203
 30
0.0
 10
15.3149558556
 20
13.3830689121
 30
0.0
 10
15.3124904893
 20
13.3871265888
 30
0.0
 10
15.309700244
 20
13.3923863662
 30
0.0
 10
15.3076176659
 20
13.3967058462
 30
0.0
 10
15.3061863606
 20
13.3999303665
 30
0.0
 10
15.3049486655
 20
13.4030814819
 30
0.0
 10
15.3042628509
 20
13.4051746393
 30
0.0
 10
15.3039654521
 20
13.406194212
 30
0.0
  0
SPLINE
  5
452
100
AcDbEntity
  8
0
100
AcDbSpline
 62
7
  6
CONTINUOUS
 70
0
 71
3
 72
16
 73
12
 74
0
 42
0.0000001
 43
0.0000001
 44
0.0000000001
 40
0.0
 40
0.0
 40
0.0
 40
0.0
 40
0.1230703299
 40
0.1848295602
 40
0.2467482171
 40
0.3710409843
 40
0.4958548054
 40
0.6211816449
 40
0.7470365745
 40
0.8733270003
 40
1.0
 40
1.0
 40
1.0
 40
1.0
 10
13.9496843242
 20
12.5793742287
 30
0.0
 10
13.9509455893
 20
12.5813292087
 30
0.0
 10
13.9528969702
 20
12.5842291955
 30
0.0
 10
13.9556320963
 20
12.5880081399
 30
0.0
 10
13.958473507
 20
12.5917370376
 30
0.0
 10
13.9621928915
 20
12.5962928557
 30
0.0
 10
13.9668554875
 20
12.6016202618
 30
0.0
 10
13.971731429
 20
12.6067943822
 30
0.0
 10
13.9768126515
 20
12.6118061573
 30
0.0
 10
13.98204867
 20
12.6166926136
 30
0.0
 10
13.985629001
 20
12.6198636384
 30
0.0
 10
13.9874425545
 20
12.6214273823
 30
0.0
  0
SPLINE
  5
453
100
AcDbEntity
  8
0
100
AcDbSpline
 62
7
  6
CONTINUOUS
 70
0
 71
3
 72
16
 73
12
 74
0
 42
0.0000001
 43
0.0000001
 44
0.0000000001
 40
0.0
 40
0.0
 40
0.0
 40
0.0
 40
0.1283906398
 40
0.2559645774
 40
0.3826429809
 40
0.5082554889
 40
0.6328261956
 40
0.7563766972
 40
0.8177170823
 40
0.8787525651
 40
1.0
 40
1.0
 40
1.0
 40
1.0
 10
13.9874425545
 20
12.6214273823
 30
0.0
 10
13.9874226953
 20
12.623628874
 30
0.0
 10
13.987443851
 20
12.6280186441
 30
0.0
 10
13.9876547205
 20
12.6345773763
 30
0.0
 10
13.9880537381
 20
12.641080153
 30
0.0
 10
13.9886999915
 20
12.6475118315
 30
0.0
 10
13.9895924193
 20
12.6538593861
 30
0.0
 10
13.9905258432
 20
12.6590849136
 30
0.0
 10
13.9914192417
 20
12.6632067198
 30
0.0
 10
13.9924146135
 20
12.6672643454
 30
0.0
 10
13.9932736973
 20
12.6702712245
 30
0.0
 10
13.9938875441
 20
12.6722576334
 30
0.0
  0
SPLINE
  5
454
100
AcDbEntity
  8
0
100
AcDbSpline
 62
7
  6
CONTINUOUS
 70
0
 71
3
 72
9
 73
5
 74
0
 42
0.0000001
 43
0.0000001
 44
0.0000000001
 40
0.0
 40
0.0
 40
0.0
 40
0.0
 40
0.2544031164
 40
1.0
 40
1.0
 40
1.0
 40
1.0
 10
15.7448133574
 20
12.0781299909
 30
0.0
 10
15.7531020835
 20
12.0725117722
 30
0.0
 10
15.7854449404
 20
12.0500794097
 30
0.0
 10
15.8168158808
 20
12.0262380993
 30
0.0
 10
15.8395245862
 20
12.0076490664
 30
0.0
  0
SPLINE
  5
455
100
AcDbEntity
  8
0
100
AcDbSpline
 62
7
  6
CONTINUOUS
 70
0
 71
3
 72
14
 73
10
 74
0
 42
0.0000001
 43
0.0000001
 44
0.0000000001
 40
0.0
 40
0.0
 40
0.0
 40
0.0
 40
0.3349072497
 40
0.4828436545
 40
0.616437097
 40
0.7350450277
 40
0.8383140228
 40
0.9263418641
 40
1.0
 40
1.0
 40
1.0
 40
1.0
 10
13.9068485403
 20
12.6742459375
 30
0.0
 10
13.907397449
 20
12.6760222068
 30
0.0
 10
13.9081158045
 20
12.6786080366
 30
0.0
 10
13.9088137538
 20
12.6819591658
 30
0.0
 10
13.9091544859
 20
12.6841553937
 30
0.0
 10
13.9093325192
 20
12.6861222273
 30
0.0
 10
13.9093469928
 20
12.6878452817
 30
0.0
 10
13.9091980005
 20
12.6893117252
 30
0.0
 10
13.9089699751
 20
12.6901866707
 30
0.0
 10
13.9088194868
 20
12.6905668643
 30
0.0
  0
SPLINE
  5
456
100
AcDbEntity
  8
0
100
AcDbSpline
 62
7
  6
CONTINUOUS
 70
0
 71
3
 72
16
 73
12
 74
0
 42
0.0000001
 43
0.0000001
 44
0.0000000001
 40
0.0
 40
0.0
 40
0.0
 40
0.0
 40
0.1276048717
 40
0.1910283457
 40
0.2541889947
 40
0.3798651802
 40
0.5048689326
 40
0.6292607095
 40
0.7531633277
 40
0.8767220794
 40
1.0
 40
1.0
 40
1.0
 40
1.0
 10
13.9938875441
 20
12.6722576334
 30
0.0
 10
13.9944966263
 20
12.6742286241
 30
0.0
 10
13.9954715948
 20
12.6771606133
 30
0.0
 10
13.9969195483
 20
12.6810069348
 30
0.0
 10
13.998464418
 20
12.6847817964
 30
0.0
 10
14.0005694171
 20
12.6894004619
 30
0.0
 10
14.0033089335
 20
12.694811866
 30
0.0
 10
14.0062737394
 20
12.7000709859
 30
0.0
 10
14.0094609147
 20
12.7051701567
 30
0.0
 10
14.0128129337
 20
12.7101400191
 30
0.0
 10
14.0151529592
 20
12.7133735756
 30
0.0
 10
14.0163487804
 20
12.7149679633
 30
0.0
  0
SPLINE
  5
457
100
AcDbEntity
  8
0
100
AcDbSpline
 62
7
  6
CONTINUOUS
 70
0
 71
3
 72
15
 73
11
 74
0
 42
0.0000001
 43
0.0000001
 44
0.0000000001
 40
0.0
 40
0.0
 40
0.0
 40
0.0
 40
0.1780641037
 40
0.3411490367
 40
0.4887476985
 40
0.6206069437
 40
0.7367614623
 40
0.8377460128
 40
0.9247515059
 40
1.0
 40
1.0
 40
1.0
 40
1.0
 10
13.9460059158
 20
12.6905215399
 30
0.0
 10
13.9467961477
 20
12.6913893115
 30
0.0
 10
13.9483412235
 20
12.6930240445
 30
0.0
 10
13.9506587254
 20
12.6952635165
 30
0.0
 10
13.952865242
 20
12.697173989
 30
0.0
 10
13.9549487075
 20
12.6987461056
 30
0.0
 10
13.9568992057
 20
12.6999720613
 30
0.0
 10
13.9587094539
 20
12.7008465011
 30
0.0
 10
13.9603734249
 20
12.7013639057
 30
0.0
 10
13.9614495777
 20
12.7014705096
 30
0.0
 10
13.961945103
 20
12.7014492212
 30
0.0
  0
SPLINE
  5
458
100
AcDbEntity
  8
0
100
AcDbSpline
 62
7
  6
CONTINUOUS
 70
0
 71
3
 72
9
 73
5
 74
0
 42
0.0000001
 43
0.0000001
 44
0.0000000001
 40
0.0
 40
0.0
 40
0.0
 40
0.0
 40
0.2564124952
 40
1.0
 40
1.0
 40
1.0
 40
1.0
 10
15.9018605478
 20
11.1039046513
 30
0.0
 10
15.9092050204
 20
11.1068787126
 30
0.0
 10
15.9376726798
 20
11.1189030592
 30
0.0
 10
15.965414453
 20
11.1326707737
 30
0.0
 10
15.9854303028
 20
11.1439573273
 30
0.0
  0
SPLINE
  5
459
100
AcDbEntity
  8
0
100
AcDbSpline
 62
7
  6
CONTINUOUS
 70
0
 71
3
 72
29
 73
25
 74
0
 42
0.0000001
 43
0.0000001
 44
0.0000000001
 40
0.0
 40
0.0
 40
0.0
 40
0.0
 40
0.0214558549
 40
0.0432079549
 40
0.0655328871
 40
0.0886716227
 40
0.1128201128
 40
0.1381253183
 40
0.1646851159
 40
0.192552983
 40
0.2217416012
 40
0.2522279613
 40
0.3168234671
 40
0.3856623453
 40
0.4577278594
 40
0.5318037505
 40
0.6065583722
 40
0.6806231662
 40
0.752667656
 40
0.8214763121
 40
0.8860346402
 40
0.9165003337
 40
0.945666949
 40
1.0
 40
1.0
 40
1.0
 40
1.0
 10
17.1682437006
 20
12.480913191
 30
0.0
 10
17.1675631298
 20
12.4787106576
 30
0.0
 10
17.1658671288
 20
12.4743686483
 30
0.0
 10
17.1623845881
 20
12.4682237374
 30
0.0
 10
17.1579833773
 20
12.4624705517
 30
0.0
 10
17.1526998355
 20
12.4571498439
 30
0.0
 10
17.1465736079
 20
12.4522955028
 30
0.0
 10
17.1396486202
 20
12.4479384808
 30
0.0
 10
17.1319733412
 20
12.4441051945
 30
0.0
 10
17.1235999757
 20
12.4408199699
 30
0.0
 10
17.114584914
 20
12.4381033392
 30
0.0
 10
17.101540328
 20
12.435207355
 30
0.0
 10
17.0839912647
 20
12.4331871117
 30
0.0
 10
17.0618692071
 20
12.4332445454
 30
0.0
 10
17.0388653827
 20
12.4357340833
 30
0.0
 10
17.0155965776
 20
12.4405887969
 30
0.0
 10
16.9926844429
 20
12.4476786236
 30
0.0
 10
16.9707435809
 20
12.4568132658
 30
0.0
 10
16.9503604237
 20
12.4677488758
 30
0.0
 10
16.9320812259
 20
12.4801930818
 30
0.0
 10
16.9187509998
 20
12.4917684031
 30
0.0
 10
16.9096298178
 20
12.5015242346
 30
0.0
 10
16.9019513531
 20
12.5110691292
 30
0.0
 10
16.8971619146
 20
12.5187293852
 30
0.0
 10
16.8945901539
 20
12.5239700824
 30
0.0
  0
SPLINE
  5
45A
100
AcDbEntity
  8
0
100
AcDbSpline
 62
7
  6
CONTINUOUS
 70
0
 71
3
 72
19
 73
15
 74
0
 42
0.0000001
 43
0.0000001
 44
0.0000000001
 40
0.0
 40
0.0
 40
0.0
 40
0.0
 40
0.0383816535
 40
0.07508484
 40
0.111694185
 40
0.1498191309
 40
0.1908859444
 40
0.2360188005
 40
0.2860337688
 40
0.3414754565
 40
0.4698482029
 40
0.6225717132
 40
0.7995906191
 40
1.0
 40
1.0
 40
1.0
 40
1.0
 10
13.899611381
 20
12.5704685294
 30
0.0
 10
13.8993015536
 20
12.57048184
 30
0.0
 10
13.8986955603
 20
12.5705624793
 30
0.0
 10
13.8978393896
 20
12.5708692925
 30
0.0
 10
13.8970739421
 20
12.5713574003
 30
0.0
 10
13.896406019
 20
12.5720217344
 30
0.0
 10
13.8958364729
 20
12.5728552167
 30
0.0
 10
13.8953642364
 20
12.5738534079
 30
0.0
 10
13.8949881519
 20
12.5750133799
 30
0.0
 10
13.8945951767
 20
12.576864094
 30
0.0
 10
13.8943828012
 20
12.5795854584
 30
0.0
 10
13.8945145593
 20
12.5832892094
 30
0.0
 10
13.895023673
 20
12.5875463088
 30
0.0
 10
13.8955789172
 20
12.5905466975
 30
0.0
 10
13.8959120761
 20
12.5921313059
 30
0.0
  0
SPLINE
  5
45B
100
AcDbEntity
  8
0
100
AcDbSpline
 62
7
  6
CONTINUOUS
 70
0
 71
3
 72
17
 73
13
 74
0
 42
0.0000001
 43
0.0000001
 44
0.0000000001
 40
0.0
 40
0.0
 40
0.0
 40
0.0
 40
0.1843026406
 40
0.3554578996
 40
0.5108448866
 40
0.6482972815
 40
0.7661283122
 40
0.8173818992
 40
0.8634654985
 40
0.9044632312
 40
0.9406010811
 40
1.0
 40
1.0
 40
1.0
 40
1.0
 10
13.9313732468
 20
12.6025186582
 30
0.0
 10
13.929835233
 20
12.6001347136
 30
0.0
 10
13.926787996
 20
12.5955882182
 30
0.0
 10
13.9221456683
 20
12.5892382683
 30
0.0
 10
13.9176554979
 20
12.5836791898
 30
0.0
 10
13.9133947467
 20
12.5790038305
 30
0.0
 10
13.90995107
 20
12.5757663384
 30
0.0
 10
13.9073496491
 20
12.5737125953
 30
0.0
 10
13.9055907601
 20
12.5725097231
 30
0.0
 10
13.9039352326
 20
12.5715742113
 30
0.0
 10
13.9020066981
 20
12.5707449379
 30
0.0
 10
13.9005248817
 20
12.5704292844
 30
0.0
 10
13.899611381
 20
12.5704685294
 30
0.0
  0
SPLINE
  5
45C
100
AcDbEntity
  8
0
100
AcDbSpline
 62
7
  6
CONTINUOUS
 70
0
 71
3
 72
15
 73
11
 74
0
 42
0.0000001
 43
0.0000001
 44
0.0000000001
 40
0.0
 40
0.0
 40
0.0
 40
0.0
 40
0.1120236856
 40
0.231750651
 40
0.3572740182
 40
0.4866027573
 40
0.6176496464
 40
0.7482918752
 40
0.8764366828
 40
1.0
 40
1.0
 40
1.0
 40
1.0
 10
13.9625401078
 20
12.6680090041
 30
0.0
 10
13.9617383102
 20
12.665414386
 30
0.0
 10
13.9599530781
 20
12.660085368
 30
0.0
 10
13.9568853557
 20
12.6519839363
 30
0.0
 10
13.9533762346
 20
12.6436069544
 30
0.0
 10
13.9494855376
 20
12.6350977518
 30
0.0
 10
13.9452790701
 20
12.6266015024
 30
0.0
 10
13.9408286758
 20
12.618262911
 30
0.0
 10
13.9362103868
 20
12.6102247475
 30
0.0
 10
13.932997136
 20
12.605035711
 30
0.0
 10
13.9313732468
 20
12.6025186582
 30
0.0
  0
SPLINE
  5
45D
100
AcDbEntity
  8
0
100
AcDbSpline
 62
7
  6
CONTINUOUS
 70
0
 71
3
 72
20
 73
16
 74
0
 42
0.0000001
 43
0.0000001
 44
0.0000000001
 40
0.0
 40
0.0
 40
0.0
 40
0.0
 40
0.0321435273
 40
0.0629348625
 40
0.0945609958
 40
0.129057319
 40
0.1679770639
 40
0.2123477746
 40
0.2627817201
 40
0.3196186993
 40
0.3829932177
 40
0.4529182693
 40
0.6119022245
 40
0.7950765151
 40
1.0
 40
1.0
 40
1.0
 40
1.0
 10
13.961945103
 20
12.7014492212
 30
0.0
 10
13.962334939
 20
12.7014324734
 30
0.0
 10
13.9630994524
 20
12.7013125185
 30
0.0
 10
13.9641550049
 20
12.7008241475
 30
0.0
 10
13.965052165
 20
12.7000410341
 30
0.0
 10
13.9657832662
 20
12.6989836706
 30
0.0
 10
13.9663539988
 20
12.697665092
 30
0.0
 10
13.9667690702
 20
12.6960909786
 30
0.0
 10
13.9670304439
 20
12.6942656492
 30
0.0
 10
13.9671376669
 20
12.6921947264
 30
0.0
 10
13.9670912038
 20
12.6898854836
 30
0.0
 10
13.9668108441
 20
12.6863468796
 30
0.0
 10
13.9660421662
 20
12.6813971958
 30
0.0
 10
13.9645692302
 20
12.6749179711
 30
0.0
 10
13.9632745652
 20
12.6703857091
 30
0.0
 10
13.9625401078
 20
12.6680090041
 30
0.0
  0
SPLINE
  5
45E
100
AcDbEntity
  8
0
100
AcDbSpline
 62
7
  6
CONTINUOUS
 70
0
 71
3
 72
9
 73
5
 74
0
 42
0.0000001
 43
0.0000001
 44
0.0000000001
 40
0.0
 40
0.0
 40
0.0
 40
0.0
 40
0.2570859751
 40
1.0
 40
1.0
 40
1.0
 40
1.0
 10
16.0534662772
 20
11.7657676813
 30
0.0
 10
16.0573159924
 20
11.7591482056
 30
0.0
 10
16.0718402295
 20
11.7331429914
 30
0.0
 10
16.0845065293
 20
11.7060839744
 30
0.0
 10
16.0926138292
 20
11.6854942873
 30
0.0
  0
SPLINE
  5
45F
100
AcDbEntity
  8
0
100
AcDbSpline
 62
7
  6
CONTINUOUS
 70
0
 71
3
 72
9
 73
5
 74
0
 42
0.0000001
 43
0.0000001
 44
0.0000000001
 40
0.0
 40
0.0
 40
0.0
 40
0.0
 40
0.2429814205
 40
1.0
 40
1.0
 40
1.0
 40
1.0
 10
16.0918069414
 20
11.6828831976
 30
0.0
 10
16.0890657321
 20
11.6898449041
 30
0.0
 10
16.0771761198
 20
11.7182550549
 30
0.0
 10
16.0629455339
 20
11.7456678794
 30
0.0
 10
16.0511346925
 20
11.7657645267
 30
0.0
  0
SPLINE
  5
460
100
AcDbEntity
  8
0
100
AcDbSpline
 62
7
  6
CONTINUOUS
 70
0
 71
3
 72
9
 73
5
 74
0
 42
0.0000001
 43
0.0000001
 44
0.0000000001
 40
0.0
 40
0.0
 40
0.0
 40
0.0
 40
0.243159598
 40
1.0
 40
1.0
 40
1.0
 40
1.0
 10
14.3528024546
 20
12.2545867252
 30
0.0
 10
14.3592917211
 20
12.2583435867
 30
0.0
 10
14.386275603
 20
12.2732788631
 30
0.0
 10
14.4143669661
 20
12.2861864763
 30
0.0
 10
14.4360161911
 20
12.2949045269
 30
0.0
  0
SPLINE
  5
461
100
AcDbEntity
  8
0
100
AcDbSpline
 62
7
  6
CONTINUOUS
 70
0
 71
3
 72
30
 73
26
 74
0
 42
0.0000001
 43
0.0000001
 44
0.0000000001
 40
0.0
 40
0.0
 40
0.0
 40
0.0
 40
0.0155008869
 40
0.0315038406
 40
0.0484552744
 40
0.0667116976
 40
0.0865324593
 40
0.1080866167
 40
0.1314708859
 40
0.1567202204
 40
0.1838248651
 40
0.212734645
 40
0.2433711923
 40
0.2756289041
 40
0.3444762885
 40
0.4180964604
 40
0.4950963971
 40
0.5739568634
 40
0.6530924075
 40
0.730908052
 40
0.8058550183
 40
0.8764905584
 40
0.9415385528
 40
0.9716528104
 40
1.0
 40
1.0
 40
1.0
 40
1.0
 10
15.9551177579
 20
11.6938561314
 30
0.0
 10
15.9540696539
 20
11.6938561885
 30
0.0
 10
15.9519338523
 20
11.6936408959
 30
0.0
 10
15.9487816555
 20
11.6926838316
 30
0.0
 10
15.9456816248
 20
11.6911058268
 30
0.0
 10
15.942652022
 20
11.6889247015
 30
0.0
 10
15.9397065103
 20
11.6861573169
 30
0.0
 10
15.9368582143
 20
11.6828218502
 30
0.0
 10
15.9341217434
 20
11.6789373515
 30
0.0
 10
15.9315108454
 20
11.6745264641
 30
0.0
 10
15.929040686
 20
11.6696141153
 30
0.0
 10
15.9267247452
 20
11.664228971
 30
0.0
 10
15.9245769496
 20
11.6584021705
 30
0.0
 10
15.9218959081
 20
11.6499045124
 30
0.0
 10
15.9190852061
 20
11.6384151548
 30
0.0
 10
15.9166175019
 20
11.6237711484
 30
0.0
 10
15.9150458024
 20
11.6083239086
 30
0.0
 10
15.9144080738
 20
11.5924377368
 30
0.0
 10
15.9147198827
 20
11.5764866543
 30
0.0
 10
15.915973675
 20
11.5608469735
 30
0.0
 10
15.9181388181
 20
11.5458861876
 30
0.0
 10
15.9211632469
 20
11.5319566018
 30
0.0
 10
15.9244172427
 20
11.5212110601
 30
0.0
 10
15.9274308405
 20
11.513419159
 30
0.0
 10
15.9290581205
 20
11.5098136935
 30
0.0
 10
15.9299025159
 20
11.5080929965
 30
0.0
  0
SPLINE
  5
462
100
AcDbEntity
  8
0
100
AcDbSpline
 62
7
  6
CONTINUOUS
 70
0
 71
3
 72
27
 73
23
 74
0
 42
0.0000001
 43
0.0000001
 44
0.0000000001
 40
0.0
 40
0.0
 40
0.0
 40
0.0
 40
0.0172476251
 40
0.0349467744
 40
0.0534423298
 40
0.0730208666
 40
0.1161842889
 40
0.1401019027
 40
0.1656435663
 40
0.2215844783
 40
0.2837776853
 40
0.3515394165
 40
0.4238796509
 40
0.499579094
 40
0.5772566774
 40
0.6554251377
 40
0.7325323648
 40
0.8070104857
 40
0.8773309077
 40
0.9420649968
 40
0.9719554131
 40
1.0
 40
1.0
 40
1.0
 40
1.0
 10
15.9530557067
 20
11.6938562163
 30
0.0
 10
15.9518732287
 20
11.6938562166
 30
0.0
 10
15.9494723628
 20
11.6936424771
 30
0.0
 10
15.9459167311
 20
11.6926940439
 30
0.0
 10
15.9424124314
 20
11.6911261692
 30
0.0
 10
15.9376967324
 20
11.6881328573
 30
0.0
 10
15.9333601678
 20
11.6839812417
 30
0.0
 10
15.9294468802
 20
11.6789756825
 30
0.0
 10
15.9255103647
 20
11.6729046811
 30
0.0
 10
15.9211631516
 20
11.6640257674
 30
0.0
 10
15.9170140857
 20
11.6519485373
 30
0.0
 10
15.9138818679
 20
11.6384157024
 30
0.0
 10
15.9118274876
 20
11.6237472276
 30
0.0
 10
15.9108691027
 20
11.6082882333
 30
0.0
 10
15.9109850614
 20
11.5924025799
 30
0.0
 10
15.9121186673
 20
11.576461614
 30
0.0
 10
15.9141851261
 20
11.5608366646
 30
0.0
 10
15.9170785281
 20
11.5458910716
 30
0.0
 10
15.9206798218
 20
11.5319749352
 30
0.0
 10
15.9242539004
 20
11.5212336099
 30
0.0
 10
15.9274017446
 20
11.5134325177
 30
0.0
 10
15.9290554819
 20
11.5098190703
 30
0.0
 10
15.9299025159
 20
11.5080929965
 30
0.0
  0
SPLINE
  5
463
100
AcDbEntity
  8
0
100
AcDbSpline
 62
7
  6
CONTINUOUS
 70
0
 71
3
 72
15
 73
11
 74
0
 42
0.0000001
 43
0.0000001
 44
0.0000000001
 40
0.0
 40
0.0
 40
0.0
 40
0.0
 40
0.1639548592
 40
0.315439414
 40
0.4543919391
 40
0.5813360806
 40
0.697309758
 40
0.80398505
 40
0.9038199876
 40
1.0
 40
1.0
 40
1.0
 40
1.0
 10
15.9299025159
 20
11.5080929965
 30
0.0
 10
15.9307578737
 20
11.5063499606
 30
0.0
 10
15.9325138369
 20
11.5030485429
 30
0.0
 10
15.9354088597
 20
11.4985052026
 30
0.0
 10
15.9384453128
 20
11.4945944033
 30
0.0
 10
15.9416046137
 20
11.4913433805
 30
0.0
 10
15.9448698081
 20
11.488774609
 30
0.0
 10
15.9482258596
 20
11.4869118278
 30
0.0
 10
15.9516503332
 20
11.4857784067
 30
0.0
 10
15.9539787668
 20
11.4855230299
 30
0.0
 10
15.9551177579
 20
11.4855229679
 30
0.0
  0
SPLINE
  5
464
100
AcDbEntity
  8
0
100
AcDbSpline
 62
7
  6
CONTINUOUS
 70
0
 71
3
 72
42
 73
38
 74
0
 42
0.0000001
 43
0.0000001
 44
0.0000000001
 40
0.0
 40
0.0
 40
0.0
 40
0.0
 40
0.0107127614
 40
0.0214629484
 40
0.032287314
 40
0.0432214015
 40
0.0655390514
 40
0.0886703514
 40
0.1006092867
 40
0.1128208934
 40
0.1381178787
 40
0.164669241
 40
0.1925280768
 40
0.2217071217
 40
0.2521837028
 40
0.2839046461
 40
0.3167907061
 40
0.3507405391
 40
0.3856342658
 40
0.4213366752
 40
0.4577001472
 40
0.4945673672
 40
0.5317738659
 40
0.5691504541
 40
0.6065256807
 40
0.6437280767
 40
0.6805885403
 40
0.7169426965
 40
0.7526333577
 40
0.787513107
 40
0.8214469279
 40
0.8543152048
 40
0.8860168595
 40
0.9164731572
 40
0.9456310998
 40
0.9734693195
 40
1.0
 40
1.0
 40
1.0
 40
1.0
 10
15.6372035415
 20
11.273601158
 30
0.0
 10
15.6357709282
 20
11.2689652122
 30
0.0
 10
15.6325636318
 20
11.2597774433
 30
0.0
 10
15.6267566386
 20
11.2463426297
 30
0.0
 10
15.619960599
 20
11.2332657829
 30
0.0
 10
15.609529022
 20
11.216227799
 30
0.0
 10
15.5939640295
 20
11.1958774615
 30
0.0
 10
15.5755991412
 20
11.1773849106
 30
0.0
 10
15.5592218634
 20
11.1635703794
 30
0.0
 10
15.5413015117
 20
11.150118094
 30
0.0
 10
15.5166947749
 20
11.1346348674
 30
0.0
 10
15.484350347
 20
11.11848194
 30
0.0
 10
15.4490620318
 20
11.1046366625
 30
0.0
 10
15.411071044
 20
11.0931882708
 30
0.0
 10
15.37063278
 20
11.0842093581
 30
0.0
 10
15.3280201687
 20
11.0777580977
 30
0.0
 10
15.2835209248
 20
11.0738764539
 30
0.0
 10
15.2374360967
 20
11.0725897758
 30
0.0
 10
15.1900779427
 20
11.073906252
 30
0.0
 10
15.1417677958
 20
11.0778166719
 30
0.0
 10
15.0928338025
 20
11.084294338
 30
0.0
 10
15.0436086243
 20
11.093295163
 30
0.0
 10
14.9944271066
 20
11.1047579048
 30
0.0
 10
14.9456239062
 20
11.1186045689
 30
0.0
 10
14.8975311598
 20
11.1347409224
 30
0.0
 10
14.8504761543
 20
11.15305715
 30
0.0
 10
14.8047790754
 20
11.1734286156
 30
0.0
 10
14.7607507661
 20
11.1957167633
 30
0.0
 10
14.7186905543
 20
11.2197701227
 30
0.0
 10
14.6788842185
 20
11.2454254342
 30
0.0
 10
14.6416019861
 20
11.2725088476
 30
0.0
 10
14.6070968512
 20
11.3008372795
 30
0.0
 10
14.5756026001
 20
11.3302199076
 30
0.0
 10
14.5473332062
 20
11.3604593074
 30
0.0
 10
14.5224796432
 20
11.3913549587
 30
0.0
 10
14.5012145993
 20
11.4226973733
 30
0.0
 10
14.4892431253
 20
11.4442673329
 30
0.0
 10
14.4839491908
 20
11.455055237
 30
0.0
  0
SPLINE
  5
465
100
AcDbEntity
  8
0
100
AcDbSpline
 62
7
  6
CONTINUOUS
 70
0
 71
3
 72
20
 73
16
 74
0
 42
0.0000001
 43
0.0000001
 44
0.0000000001
 40
0.0
 40
0.0
 40
0.0
 40
0.0
 40
0.1701038747
 40
0.3204634102
 40
0.3884967883
 40
0.4520686506
 40
0.5673989087
 40
0.6206861258
 40
0.6721333089
 40
0.7227753495
 40
0.7737066208
 40
0.8260000859
 40
0.8806274272
 40
0.9384117283
 40
1.0
 40
1.0
 40
1.0
 40
1.0
 10
15.933779607
 20
11.5107040862
 30
0.0
 10
15.934990188
 20
11.5082371815
 30
0.0
 10
15.9374927945
 20
11.5036924999
 30
0.0
 10
15.9411981008
 20
11.4985973513
 30
0.0
 10
15.944326935
 20
11.4952776202
 30
0.0
 10
15.9473269606
 20
11.4926441615
 30
0.0
 10
15.9505381435
 20
11.4906181673
 30
0.0
 10
15.9538886815
 20
11.4893956557
 30
0.0
 10
15.9563597061
 20
11.4888991307
 30
0.0
 10
15.9588405496
 20
11.4888035938
 30
0.0
 10
15.9613178479
 20
11.4891104577
 30
0.0
 10
15.9637782322
 20
11.4898165209
 30
0.0
 10
15.9662105898
 20
11.4909157861
 30
0.0
 10
15.9686049664
 20
11.4924011914
 30
0.0
 10
15.970119175
 20
11.493602326
 30
0.0
 10
15.970867504
 20
11.4942579754
 30
0.0
  0
LINE
  5
466
100
AcDbEntity
  8
0
100
AcDbLine
 62
7
  6
CONTINUOUS
 10
15.9720778902
 20
11.4953756765
 11
15.9747894901
 21
11.4983118389
  0
SPLINE
  5
467
100
AcDbEntity
  8
0
100
AcDbSpline
 62
7
  6
CONTINUOUS
 70
0
 71
3
 72
21
 73
17
 74
0
 42
0.0000001
 43
0.0000001
 44
0.0000000001
 40
0.0
 40
0.0
 40
0.0
 40
0.0
 40
0.1324791223
 40
0.2011722612
 40
0.2707161812
 40
0.4097732241
 40
0.4782475821
 40
0.5452167546
 40
0.6102088695
 40
0.6728594848
 40
0.7329432624
 40
0.7904050264
 40
0.8453866578
 40
0.8982430094
 40
0.9495365447
 40
1.0
 40
1.0
 40
1.0
 40
1.0
 10
14.7804310841
 20
12.0908523418
 30
0.0
 10
14.7893548316
 20
12.0908523418
 30
0.0
 10
14.8029496151
 20
12.0924563967
 30
0.0
 10
14.8205490072
 20
12.0973008083
 30
0.0
 10
14.8380035874
 20
12.1040220465
 30
0.0
 10
14.8543876239
 20
12.113254989
 30
0.0
 10
14.8689860635
 20
12.1246428989
 30
0.0
 10
14.8787380987
 20
12.1340184018
 30
0.0
 10
14.8871630261
 20
12.1440971445
 30
0.0
 10
14.8941088241
 20
12.1547008775
 30
0.0
 10
14.8994465641
 20
12.1656410985
 30
0.0
 10
14.9030742804
 20
12.1767240607
 30
0.0
 10
14.9049174316
 20
12.1877515156
 30
0.0
 10
14.9049296968
 20
12.1985235232
 30
0.0
 10
14.9030999258
 20
12.2088318061
 30
0.0
 10
14.9006575947
 20
12.2152872205
 30
0.0
 10
14.8991600035
 20
12.2183387425
 30
0.0
  0
SPLINE
  5
468
100
AcDbEntity
  8
0
100
AcDbSpline
 62
7
  6
CONTINUOUS
 70
0
 71
3
 72
9
 73
5
 74
0
 42
0.0000001
 43
0.0000001
 44
0.0000000001
 40
0.0
 40
0.0
 40
0.0
 40
0.0
 40
0.2437908251
 40
1.0
 40
1.0
 40
1.0
 40
1.0
 10
14.0842279126
 20
11.7657671428
 30
0.0
 10
14.0869772672
 20
11.7590287924
 30
0.0
 10
14.0987658852
 20
11.7315987917
 30
0.0
 10
14.1125315074
 20
11.705030171
 30
0.0
 10
14.1238431347
 20
11.6854942873
 30
0.0
  0
SPLINE
  5
469
100
AcDbEntity
  8
0
100
AcDbSpline
 62
7
  6
CONTINUOUS
 70
0
 71
3
 72
9
 73
5
 74
0
 42
0.0000001
 43
0.0000001
 44
0.0000000001
 40
0.0
 40
0.0
 40
0.0
 40
0.0
 40
0.2566549364
 40
1.0
 40
1.0
 40
1.0
 40
1.0
 10
14.123036247
 20
11.6828831976
 30
0.0
 10
14.1190766634
 20
11.6897216446
 30
0.0
 10
14.1040881211
 20
11.7166162294
 30
0.0
 10
14.0909085049
 20
11.7445327468
 30
0.0
 10
14.0823639981
 20
11.7657645267
 30
0.0
  0
SPLINE
  5
46A
100
AcDbEntity
  8
0
100
AcDbSpline
 62
7
  6
CONTINUOUS
 70
0
 71
3
 72
21
 73
17
 74
0
 42
0.0000001
 43
0.0000001
 44
0.0000000001
 40
0.0
 40
0.0
 40
0.0
 40
0.0
 40
0.1321180863
 40
0.2006088284
 40
0.2699590485
 40
0.4087279171
 40
0.4771330585
 40
0.544099003
 40
0.609158467
 40
0.6719444517
 40
0.7322201069
 40
0.7899085971
 40
0.8451195347
 40
0.8981660655
 40
0.9495635923
 40
1.0
 40
1.0
 40
1.0
 40
1.0
 10
14.7802211656
 20
12.0955354647
 30
0.0
 10
14.7887506801
 20
12.0955354647
 30
0.0
 10
14.8017430711
 20
12.0970493429
 30
0.0
 10
14.8185777211
 20
12.1016268891
 30
0.0
 10
14.8352920875
 20
12.1079819723
 30
0.0
 10
14.851012679
 20
12.1167191222
 30
0.0
 10
14.8650726908
 20
12.1275059509
 30
0.0
 10
14.8745052604
 20
12.1363998529
 30
0.0
 10
14.8826997996
 20
12.1459739298
 30
0.0
 10
14.8895121644
 20
12.1560628064
 30
0.0
 10
14.8948192958
 20
12.1664913068
 30
0.0
 10
14.8985229461
 20
12.1770791402
 30
0.0
 10
14.9005501059
 20
12.1876417312
 30
0.0
 10
14.9008535489
 20
12.1979930415
 30
0.0
 10
14.8994177543
 20
12.2079392427
 30
0.0
 10
14.8972991231
 20
12.2142096324
 30
0.0
 10
14.8959736965
 20
12.2171838288
 30
0.0
  0
SPLINE
  5
46B
100
AcDbEntity
  8
0
100
AcDbSpline
 62
7
  6
CONTINUOUS
 70
0
 71
3
 72
14
 73
10
 74
0
 42
0.0000001
 43
0.0000001
 44
0.0000000001
 40
0.0
 40
0.0
 40
0.0
 40
0.0
 40
0.113351741
 40
0.2279121875
 40
0.3451118017
 40
0.466135239
 40
0.5918464682
 40
0.722745572
 40
1.0
 40
1.0
 40
1.0
 40
1.0
 10
14.8959736965
 20
12.2171838288
 30
0.0
 10
14.8947638598
 20
12.2198986468
 30
0.0
 10
14.8918591394
 20
12.2251603432
 30
0.0
 10
14.8861868905
 20
12.2322624219
 30
0.0
 10
14.8792853645
 20
12.238481266
 30
0.0
 10
14.8712690214
 20
12.2437223202
 30
0.0
 10
14.8622614058
 20
12.247912942
 30
0.0
 10
14.848872719
 20
12.2521014337
 30
0.0
 10
14.8381217951
 20
12.2533691383
 30
0.0
 10
14.8308529344
 20
12.2534911884
 30
0.0
  0
SPLINE
  5
46C
100
AcDbEntity
  8
0
100
AcDbSpline
 62
7
  6
CONTINUOUS
 70
0
 71
3
 72
22
 73
18
 74
0
 42
0.0000001
 43
0.0000001
 44
0.0000000001
 40
0.0
 40
0.0
 40
0.0
 40
0.0
 40
0.1328536311
 40
0.2017567812
 40
0.2714998848
 40
0.4108465531
 40
0.4793834773
 40
0.5463432469
 40
0.6112499408
 40
0.6737430666
 40
0.7336110003
 40
0.790823684
 40
0.8455599504
 40
0.8982215444
 40
0.9494224966
 40
0.9747430576
 40
1.0
 40
1.0
 40
1.0
 40
1.0
 10
14.8290378741
 20
12.2535063915
 30
0.0
 10
14.8202826467
 20
12.2535063915
 30
0.0
 10
14.8069426367
 20
12.2519112814
 30
0.0
 10
14.7896900388
 20
12.2471000847
 30
0.0
 10
14.7725999882
 20
12.2404297195
 30
0.0
 10
14.75659318
 20
12.2312748312
 30
0.0
 10
14.7423898237
 20
12.2199950881
 30
0.0
 10
14.7329465266
 20
12.2107237977
 30
0.0
 10
14.7248390646
 20
12.2007719347
 30
0.0
 10
14.7182177451
 20
12.1903199786
 30
0.0
 10
14.7132091898
 20
12.1795583615
 30
0.0
 10
14.7099122871
 20
12.1686829408
 30
0.0
 10
14.7083986073
 20
12.1578927331
 30
0.0
 10
14.7087080925
 20
12.1473932161
 30
0.0
 10
14.7105026827
 20
12.1390160261
 30
0.0
 10
14.7128261784
 20
12.1327154074
 30
0.0
 10
14.7142739294
 20
12.1297062342
 30
0.0
 10
14.7150660953
 20
12.1282423632
 30
0.0
  0
SPLINE
  5
46D
100
AcDbEntity
  8
0
100
AcDbSpline
 62
7
  6
CONTINUOUS
 70
0
 71
3
 72
14
 73
10
 74
0
 42
0.0000001
 43
0.0000001
 44
0.0000000001
 40
0.0
 40
0.0
 40
0.0
 40
0.0
 40
0.1127004747
 40
0.22714515
 40
0.3445733695
 40
0.4659738618
 40
0.5920379086
 40
0.7231252699
 40
1.0
 40
1.0
 40
1.0
 40
1.0
 10
14.7150660953
 20
12.1282423632
 30
0.0
 10
14.7164331242
 20
12.1257161829
 30
0.0
 10
14.7196138728
 20
12.1208428538
 30
0.0
 10
14.7255568119
 20
12.1143299436
 30
0.0
 10
14.7326031535
 20
12.1086699399
 30
0.0
 10
14.7406461385
 20
12.1039416081
 30
0.0
 10
14.7495720513
 20
12.1002054154
 30
0.0
 10
14.7627078131
 20
12.0965447019
 30
0.0
 10
14.7731645919
 20
12.0955354647
 30
0.0
 10
14.7802211656
 20
12.0955354647
 30
0.0
  0
ELLIPSE
  5
46E
100
AcDbEntity
  8
0
100
AcDbEllipse
 62
7
  6
CONTINUOUS
 10
6.0708720839
 20
12.2879249611
 30
0.0
 11
1.3778095763
 21
0.6537677062
 31
0.0
 40
0.3419987131
 41
2.148675031
 42
2.171819153
  0
ELLIPSE
  5
46F
100
AcDbEntity
  8
0
100
AcDbEllipse
 62
7
  6
CONTINUOUS
 10
6.0708720839
 20
12.526753935
 30
0.0
 11
1.3778095763
 21
-0.6537677062
 31
0.0
 40
0.3419987131
 41
-2.171819153
 42
-2.148675031
  0
ELLIPSE
  5
470
100
AcDbEntity
  8
0
100
AcDbEllipse
 62
7
  6
CONTINUOUS
 10
15.185010774
 20
11.891892251
 30
0.0
 11
1.2767857903
 21
-0.5953839379
 31
0.0
 40
0.1168359196
 41
2.8906880741
 42
2.913832196
  0
ELLIPSE
  5
471
100
AcDbEntity
  8
0
100
AcDbEllipse
 62
7
  6
CONTINUOUS
 10
15.185010774
 20
11.891892251
 30
0.0
 11
1.2370254775
 21
0.8721025679
 31
0.0
 40
0.8726840024
 41
-4.3256782094
 42
-4.3025340874
  0
ENDSEC
  0
SECTION
  2
OBJECTS
  0
DICTIONARY
  5
C
100
AcDbDictionary
280
0
281
1
  3
ACAD_GROUP
350
D
  3
ACAD_MLINESTYLE
350
17
  3
ACAD_LAYOUT
350
1A
  3
ACAD_PLOTSETTINGS
350
19
  3
ACAD_PLOTSTYLENAME
350
E
  0
DICTIONARY
  5
D
102
{ACAD_REACTORS
330
C
102
}
100
AcDbDictionary
280
0
281
1
  0
ACDBDICTIONARYWDFLT
  5
E
102
{ACAD_REACTORS
330
C
102
}
100
AcDbDictionary
281
1
  3
Normal
350
F
100
AcDbDictionaryWithDefault
340
F
  0
DICTIONARY
  5
17
102
{ACAD_REACTORS
330
C
102
}
100
AcDbDictionary
280
0
281
1
  3
Standard
350
18
  0
DICTIONARY
  5
19
102
{ACAD_REACTORS
330
C
102
}
100
AcDbDictionary
281
1
  0
DICTIONARY
  5
1A
102
{ACAD_REACTORS
330
C
102
}
100
AcDbDictionary
281
1
  3
Model
350
472
  3
Layout1
350
473
  0
ACDBPLACEHOLDER
  5
F
102
{ACAD_REACTORS
330
E
102
}
  0
MLINESTYLE
  5
18
102
{ACAD_REACTORS
330
17
102
}
100
AcDbMlineStyle
  2
STANDARD
 70
0
  3

 62
256
 51
90.0
 52
90.0
 71
2
 49
0.5
 62
256
  6
BYLAYER
 49
-0.5
 62
256
  6
BYLAYER
  0
LAYOUT
  5
472
102
{ACAD_REACTORS
330
1A
102
}
100
AcDbPlotSettings
  1

  2
none_device
  4
ANSI_C_(22.00_x_17.00_Inches)
  6

 40
0.0
 41
0.0
 42
0.0
 43
0.0
 44
558.8
 45
431.8
 46
0.0
 47
0.0
 48
0.0
 49
0.0
140
0.0
141
0.0
142
1.0
143
1.0
 70
1024
 72
0
 73
0
 74
0
  7

 75
0
147
1.0
148
0.0
149
0.0
100
AcDbLayout
  1
Model
 70
0
 71
0
 10
0.0
 20
0.0
 11
22.0
 21
17.0
 12
0.0
 22
0.0
 32
0.0
 14
0.0
 24
0.0
 34
0.0
 15
0.0
 25
0.0
 35
0.0
146
0.0
 13
0.0
 23
0.0
 33
0.0
 16
1.0
 26
0.0
 36
0.0
 17
0.0
 27
1.0
 37
0.0
 76
0
330
217
345
0
346
0
  0
LAYOUT
  5
473
102
{ACAD_REACTORS
330
1A
102
}
100
AcDbPlotSettings
  1

  2
none_device
  4
ANSI_C_(22.00_x_17.00_Inches)
  6

 40
0.0
 41
0.0
 42
0.0
 43
0.0
 44
558.8
 45
431.8
 46
0.0
 47
0.0
 48
0.0
 49
0.0
140
0.0
141
0.0
142
1.0
143
1.0
 70
0
 72
0
 73
0
 74
0
  7

 75
0
147
1.0
148
0.0
149
0.0
100
AcDbLayout
  1
Layout1
 70
0
 71
1
 10
0.0
 20
0.0
 11
22.0
 21
17.0
 12
0.0
 22
0.0
 32
0.0
 14
0.0
 24
0.0
 34
0.0
 15
0.0
 25
0.0
 35
0.0
146
0.0
 13
0.0
 23
0.0
 33
0.0
 16
1.0
 26
0.0
 36
0.0
 17
0.0
 27
1.0
 37
0.0
 76
0
330
218
345
0
346
0
  0
ENDSEC
  0
EOF