999
DXF file: _cgs_temp_output.dxf
999
Pro/ENGINEER 2016360 by Parametric Technology Corporation
  0
SECTION
  2
HEADER
  9
$ACADVER
  1
AC1021
  9
$DWGCODEPAGE
  3
ANSI_1252
  9
$EXTMAX
 10
22.0
 20
17.0
 30
0.0
  9
$EXTMIN
 10
0.0
 20
0.0
 30
0.0
  9
$LIMMIN
 10
0.0
 20
0.0
  9
$LIMMAX
 10
22.0
 20
17.0
  9
$VIEWCTR
 10
11.0
 20
8.5
  9
$VIEWSIZE
 40
17.0
  9
$CLAYER
  8
0
  9
$LTSCALE
 40
1.21
  9
$CELTYPE
  6
BYLAYER
  9
$DIMSCALE
 40
1.0
  9
$DIMASZ
 40
0.1875
  9
$DIMEXO
 40
0.0625
  9
$DIMDLI
 40
0.836
  9
$DIMEXE
 40
0.125
  9
$DIMCEN
 40
0.198
  9
$DIMLFAC
 40
1.0
  9
$DIMBLK
  1
_CLOSED
  9
$DIMALT
 70
0
  9
$DIMALTF
 40
25.4
  9
$DIMTXT
 40
0.15625
  9
$DIMTOL
 70
0
  9
$DIMLIM
 70
0
  9
$DIMTFAC
 40
1.0
  9
$DIMGAP
 40
0.09
  9
$DIMDSEP
 70
46
  9
$AUNITS
 70
0
  9
$PDMODE
 70
3
  9
$PDSIZE
 40
0.3125
  9
$HANDSEED
  5
357
  9
$TILEMODE
 70
1
  9
$MEASUREMENT
 70
0
  9
$INSUNITS
 70
1
  0
ENDSEC
  0
SECTION
  2
CLASSES
  0
CLASS
  1
ACDBDICTIONARYWDFLT
  2
AcDbDictionaryWithDefault
  3
AutoCAD 2000
 90
0
 91
1
280
0
281
0
  0
CLASS
  1
ACDBPLACEHOLDER
  2
AcDbPlaceHolder
  3
AutoCAD 2000
 90
0
 91
1
280
0
281
0
  0
CLASS
  1
LAYOUT
  2
AcDbLayout
  3
AutoCAD 2000
 90
0
 91
0
280
0
281
0
  0
ENDSEC
  0
SECTION
  2
TABLES
  0
TABLE
  2
VPORT
  5
8
100
AcDbSymbolTable
 70
2
  0
VPORT
  5
1F4
100
AcDbSymbolTableRecord
100
AcDbViewportTableRecord
  2
*ACTIVE
 70
0
 10
0.0
 20
0.0
 11
1.0
 21
1.0
 12
11.0
 22
8.5
 13
0.0
 23
0.0
 14
1.0
 24
1.0
 15
0.0
 25
0.0
 16
0.0
 26
0.0
 36
1.0
 17
0.0
 27
0.0
 37
0.0
 40
17.0
 41
1.2941176471
 42
50.0
 43
0.0
 44
0.0
 50
0.0
 51
0.0
 71
0
 72
100
 73
1
 74
1
 75
0
 76
0
 77
0
 78
0
  0
ENDTAB
  0
TABLE
  2
LTYPE
  5
5
100
AcDbSymbolTable
 70
6
  0
LTYPE
  5
14
100
AcDbSymbolTableRecord
100
AcDbLinetypeTableRecord
  2
BYBLOCK
 70
0
  3

 72
65
 73
0
 40
0.0
  0
LTYPE
  5
15
100
AcDbSymbolTableRecord
100
AcDbLinetypeTableRecord
  2
BYLAYER
 70
0
  3

 72
65
 73
0
 40
0.0
  0
LTYPE
  5
16
100
AcDbSymbolTableRecord
100
AcDbLinetypeTableRecord
  2
CONTINUOUS
 70
64
  3
Solid line
 72
65
 73
0
 40
0.0
  0
LTYPE
  5
1F5
100
AcDbSymbolTableRecord
100
AcDbLinetypeTableRecord
  2
CENTER
 70
64
  3
____ _ ____ _ ____ _ ____ _ ____ _ ____ _ ____
 72
65
 73
4
 40
0.6
 49
0.375
 74
0
 49
-0.075
 74
0
 49
0.075
 74
0
 49
-0.075
 74
0
  0
LTYPE
  5
1F6
100
AcDbSymbolTableRecord
100
AcDbLinetypeTableRecord
  2
HIDDEN
 70
64
  3
- - - - - - - - - - - - - - - - - - - -
 72
65
 73
2
 40
0.2
 49
0.1
 74
0
 49
-0.1
 74
0
  0
LTYPE
  5
1F7
100
AcDbSymbolTableRecord
100
AcDbLinetypeTableRecord
  2
PHANTOM
 70
64
  3
_____ _ _ _____ _ _ _____ _ _ _____
 72
65
 73
6
 40
0.8
 49
0.45
 74
0
 49
-0.05
 74
0
 49
0.1
 74
0
 49
-0.05
 74
0
 49
0.1
 74
0
 49
-0.05
 74
0
  0
LTYPE
  5
1F8
100
AcDbSymbolTableRecord
100
AcDbLinetypeTableRecord
  2
DOT
 70
64
  3
. . . . . . . . . . . . . . . . . . . .
 72
65
 73
2
 40
0.2
 49
0.1
 74
0
 49
-0.1
 74
0
  0
LTYPE
  5
1F9
100
AcDbSymbolTableRecord
100
AcDbLinetypeTableRecord
  2
DASHED
 70
64
  3
- - - - - - - - - - - - - - - - - - - -
 72
65
 73
2
 40
0.2
 49
0.1
 74
0
 49
-0.1
 74
0
  0
ENDTAB
  0
TABLE
  2
LAYER
  5
2
100
AcDbSymbolTable
 70
36
  0
LAYER
  5
10
100
AcDbSymbolTableRecord
100
AcDbLayerTableRecord
  2
0
 70
0
 62
7
  6
CONTINUOUS
370
-3
390
F
  0
LAYER
  5
1FA
100
AcDbSymbolTableRecord
100
AcDbLayerTableRecord
  2
DEFAULT_1
 70
0
 62
7
  6
CENTER
370
-3
390
F
  0
LAYER
  5
1FB
100
AcDbSymbolTableRecord
100
AcDbLayerTableRecord
  2
DEFAULT_2
 70
0
 62
8
  6
HIDDEN
370
-3
390
F
  0
LAYER
  5
1FC
100
AcDbSymbolTableRecord
100
AcDbLayerTableRecord
  2
DEFAULT_3
 70
0
 62
7
  6
PHANTOM
370
-3
390
F
  0
LAYER
  5
1FD
100
AcDbSymbolTableRecord
100
AcDbLayerTableRecord
  2
01_ALL_DTM_PLN
 70
0
 62
7
  6
CONTINUOUS
370
-3
390
F
  0
LAYER
  5
1FE
100
AcDbSymbolTableRecord
100
AcDbLayerTableRecord
  2
01__ASM_ALL_DTM_PLN
 70
0
 62
7
  6
CONTINUOUS
370
-3
390
F
  0
LAYER
  5
1FF
100
AcDbSymbolTableRecord
100
AcDbLayerTableRecord
  2
01__ASM_DEF_DTM_PLN
 70
0
 62
7
  6
CONTINUOUS
370
-3
390
F
  0
LAYER
  5
200
100
AcDbSymbolTableRecord
100
AcDbLayerTableRecord
  2
01___PRT_ALL_DTM_PLN
 70
0
 62
7
  6
CONTINUOUS
370
-3
390
F
  0
LAYER
  5
201
100
AcDbSymbolTableRecord
100
AcDbLayerTableRecord
  2
01___PRT_DEF_DTM_PLN
 70
0
 62
7
  6
CONTINUOUS
370
-3
390
F
  0
LAYER
  5
202
100
AcDbSymbolTableRecord
100
AcDbLayerTableRecord
  2
02_ALL_AXES
 70
0
 62
7
  6
CONTINUOUS
370
-3
390
F
  0
LAYER
  5
203
100
AcDbSymbolTableRecord
100
AcDbLayerTableRecord
  2
02__ASM_ALL_AXES
 70
0
 62
7
  6
CONTINUOUS
370
-3
390
F
  0
LAYER
  5
204
100
AcDbSymbolTableRecord
100
AcDbLayerTableRecord
  2
02___PRT_ALL_AXES
 70
0
 62
7
  6
CONTINUOUS
370
-3
390
F
  0
LAYER
  5
205
100
AcDbSymbolTableRecord
100
AcDbLayerTableRecord
  2
03_ALL_CURVES
 70
0
 62
7
  6
CONTINUOUS
370
-3
390
F
  0
LAYER
  5
206
100
AcDbSymbolTableRecord
100
AcDbLayerTableRecord
  2
03__ASM_ALL_CURVES
 70
0
 62
7
  6
CONTINUOUS
370
-3
390
F
  0
LAYER
  5
207
100
AcDbSymbolTableRecord
100
AcDbLayerTableRecord
  2
03___PRT_ALL_CURVES
 70
0
 62
7
  6
CONTINUOUS
370
-3
390
F
  0
LAYER
  5
208
100
AcDbSymbolTableRecord
100
AcDbLayerTableRecord
  2
04_ALL_DTM_PNT
 70
0
 62
7
  6
CONTINUOUS
370
-3
390
F
  0
LAYER
  5
209
100
AcDbSymbolTableRecord
100
AcDbLayerTableRecord
  2
04__ASM_ALL_DTM_PNT
 70
0
 62
7
  6
CONTINUOUS
370
-3
390
F
  0
LAYER
  5
20A
100
AcDbSymbolTableRecord
100
AcDbLayerTableRecord
  2
04___PRT_ALL_DTM_PNT
 70
0
 62
7
  6
CONTINUOUS
370
-3
390
F
  0
LAYER
  5
20B
100
AcDbSymbolTableRecord
100
AcDbLayerTableRecord
  2
05_ALL_DTM_CSYS
 70
0
 62
7
  6
CONTINUOUS
370
-3
390
F
  0
LAYER
  5
20C
100
AcDbSymbolTableRecord
100
AcDbLayerTableRecord
  2
05__ASM_ALL_DTM_CSYS
 70
0
 62
7
  6
CONTINUOUS
370
-3
390
F
  0
LAYER
  5
20D
100
AcDbSymbolTableRecord
100
AcDbLayerTableRecord
  2
05__ASM_DEF_DTM_CSYS
 70
0
 62
7
  6
CONTINUOUS
370
-3
390
F
  0
LAYER
  5
20E
100
AcDbSymbolTableRecord
100
AcDbLayerTableRecord
  2
05___PRT_ALL_DTM_CSYS
 70
0
 62
7
  6
CONTINUOUS
370
-3
390
F
  0
LAYER
  5
20F
100
AcDbSymbolTableRecord
100
AcDbLayerTableRecord
  2
05___PRT_DEF_DTM_CSYS
 70
0
 62
7
  6
CONTINUOUS
370
-3
390
F
  0
LAYER
  5
210
100
AcDbSymbolTableRecord
100
AcDbLayerTableRecord
  2
06_ALL_SURFS
 70
0
 62
7
  6
CONTINUOUS
370
-3
390
F
  0
LAYER
  5
211
100
AcDbSymbolTableRecord
100
AcDbLayerTableRecord
  2
06__ASM_ALL_SURFS
 70
0
 62
7
  6
CONTINUOUS
370
-3
390
F
  0
LAYER
  5
212
100
AcDbSymbolTableRecord
100
AcDbLayerTableRecord
  2
06___PRT_ALL_SURFS
 70
0
 62
7
  6
CONTINUOUS
370
-3
390
F
  0
LAYER
  5
213
100
AcDbSymbolTableRecord
100
AcDbLayerTableRecord
  2
07__ASM_ALL_SKELETONS
 70
0
 62
7
  6
CONTINUOUS
370
-3
390
F
  0
LAYER
  5
214
100
AcDbSymbolTableRecord
100
AcDbLayerTableRecord
  2
SHELL
 70
0
 62
7
  6
CONTINUOUS
370
-3
390
F
  0
ENDTAB
  0
TABLE
  2
STYLE
  5
3
100
AcDbSymbolTable
 70
1
  0
STYLE
  5
11
100
AcDbSymbolTableRecord
100
AcDbTextStyleTableRecord
  2
STANDARD
 70
0
 40
0.0
 41
0.8
 50
0.0
 71
0
 42
0.2
  3
txt
  4

  0
STYLE
  5
215
100
AcDbSymbolTableRecord
100
AcDbTextStyleTableRecord
  2
TEXTSTYLE_1
 70
0
 40
0.0
 41
0.8
 50
0.0
 71
0
 42
0.2
  3
gdt
  4

  0
ENDTAB
  0
TABLE
  2
VIEW
  5
6
100
AcDbSymbolTable
 70
0
  0
ENDTAB
  0
TABLE
  2
UCS
  5
7
100
AcDbSymbolTable
 70
0
  0
ENDTAB
  0
TABLE
  2
APPID
  5
9
100
AcDbSymbolTable
 70
1
  0
APPID
  5
216
100
AcDbSymbolTableRecord
100
AcDbRegAppTableRecord
  2
ACAD
 70
0
  0
ENDTAB
  0
TABLE
  2
BLOCK_RECORD
  5
1
100
AcDbSymbolTable
 70
0
  0
BLOCK_RECORD
  5
217
100
AcDbSymbolTableRecord
100
AcDbBlockTableRecord
  2
*Model_Space
  0
BLOCK_RECORD
  5
218
100
AcDbSymbolTableRecord
100
AcDbBlockTableRecord
  2
*Paper_Space
  0
ENDTAB
  0
TABLE
  2
DIMSTYLE
  5
A
100
AcDbSymbolTable
 70
1
100
AcDbDimStyleTable
 71
0
  0
DIMSTYLE
105
219
100
AcDbSymbolTableRecord
100
AcDbDimStyleTableRecord
  2
STANDARD
 70
0
  3

  4

 40
1.0
 41
0.1875
 42
0.0625
 43
0.38
 44
0.125
 45
0.0
 46
0.0
 47
0.0001
 48
0.0001
140
0.15625
141
0.09
142
0.0
143
25.4
144
1.0
145
0.0
146
1.0
147
0.09
 71
0.0
 72
0.0
 73
1
 74
1
 75
0
 76
0
 77
0
 78
4
 79
1
170
0
171
3
172
0
173
0
174
0
175
0
176
0
177
0
178
0
270
2
179
4
271
4
272
4
273
2
274
2
275
0
280
0
281
0
282
0
283
1
284
4
285
0
286
0
287
3
288
0
340
11
278
46
  0
ENDTAB
  0
ENDSEC
  0
SECTION
  2
BLOCKS
  0
BLOCK
  5
20
100
AcDbEntity
  8
0
100
AcDbBlockBegin
  2
*Model_Space
 70
0
 10
0.0
 20
0.0
 30
0.0
  3
*Model_Space
  1

  0
ENDBLK
  5
21
100
AcDbEntity
  8
0
100
AcDbBlockEnd
  0
BLOCK
  5
1C
100
AcDbEntity
  8
0
100
AcDbBlockBegin
  2
*Paper_Space
 70
0
 10
0.0
 20
0.0
 30
0.0
  3
*Paper_Space
  1

  0
ENDBLK
  5
1D
100
AcDbEntity
  8
0
100
AcDbBlockEnd
  0
ENDSEC
  0
SECTION
  2
ENTITIES
  0
MTEXT
  5
21A
100
AcDbEntity
  8
0
100
AcDbMText
 62
7
  6
CONTINUOUS
  7
STANDARD
 71
1
 72
1
 10
15.9560215477
 20
0.9479130325
 30
0.0
 11
1.0
 21
0.0
 31
0.0
 44
0.9
  1
SCALE: 1:1.000
 40
0.3
 41
3.36
  0
LINE
  5
21B
100
AcDbEntity
  8
0
100
AcDbLine
 62
7
  6
CONTINUOUS
 10
0.0
 20
0.0
 11
0.0
 21
17.0
  0
LINE
  5
21C
100
AcDbEntity
  8
0
100
AcDbLine
 62
7
  6
CONTINUOUS
 10
0.0
 20
0.0
 11
22.0
 21
0.0
  0
LINE
  5
21D
100
AcDbEntity
  8
0
100
AcDbLine
 62
7
  6
CONTINUOUS
 10
0.0
 20
17.0
 11
22.0
 21
17.0
  0
LINE
  5
21E
100
AcDbEntity
  8
0
100
AcDbLine
 62
7
  6
CONTINUOUS
 10
22.0
 20
0.0
 11
22.0
 21
17.0
  0
LINE
  5
21F
100
AcDbEntity
  8
0
100
AcDbLine
 62
7
  6
CONTINUOUS
 10
4.4736160878
 20
7.106160407
 11
4.544326766
 21
7.1768710851
  0
LINE
  5
220
100
AcDbEntity
  8
0
100
AcDbLine
 62
7
  6
CONTINUOUS
 10
4.6976406698
 20
7.1208813817
 11
4.5296057912
 21
6.9528465031
  0
LINE
  5
221
100
AcDbEntity
  8
0
100
AcDbLine
 62
7
  6
CONTINUOUS
 10
4.5597063385
 20
6.7814216177
 11
4.8690655552
 21
7.0907808345
  0
LINE
  5
222
100
AcDbEntity
  8
0
100
AcDbLine
 62
7
  6
CONTINUOUS
 10
4.5392016999
 20
6.6725286315
 11
4.9779585414
 21
7.111285473
  0
LINE
  5
223
100
AcDbEntity
  8
0
100
AcDbLine
 62
7
  6
CONTINUOUS
 10
4.6936984496
 20
6.5325246546
 11
4.7276181257
 21
6.5664443306
  0
LINE
  5
224
100
AcDbEntity
  8
0
100
AcDbLine
 62
7
  6
CONTINUOUS
 10
5.0840428423
 20
6.9228690472
 11
5.1179625184
 21
6.9567887233
  0
LINE
  5
225
100
AcDbEntity
  8
0
100
AcDbLine
 62
7
  6
CONTINUOUS
 10
5.1179625184
 20
6.9567887233
 11
5.1179625184
 21
6.971281496
  0
LINE
  5
226
100
AcDbEntity
  8
0
100
AcDbLine
 62
7
  6
CONTINUOUS
 10
5.6303672762
 20
7.7701198968
 11
5.6303672762
 21
7.2521707043
  0
LINE
  5
227
100
AcDbEntity
  8
0
100
AcDbLine
 62
7
  6
CONTINUOUS
 10
4.3803672762
 20
5.0871071949
 11
3.9318101177
 21
4.8281325986
  0
LINE
  5
228
100
AcDbEntity
  8
0
100
AcDbLine
 62
7
  6
CONTINUOUS
 10
7.3803672762
 20
4.2210817911
 11
7.8289244347
 21
3.9621071949
  0
LINE
  5
229
100
AcDbEntity
  8
0
100
AcDbLine
 62
7
  6
CONTINUOUS
 10
4.6792056787
 20
6.5325246528
 11
4.5392016958
 21
6.6725286357
  0
LINE
  5
22A
100
AcDbEntity
  8
0
100
AcDbLine
 62
7
  6
CONTINUOUS
 10
4.6936984496
 20
6.5325246546
 11
4.6991167078
 21
6.5271063964
  0
LINE
  5
22B
100
AcDbEntity
  8
0
100
AcDbLine
 62
7
  6
CONTINUOUS
 10
4.5597063385
 20
6.7814216177
 11
4.6039005123
 21
6.7372274439
  0
LINE
  5
22C
100
AcDbEntity
  8
0
100
AcDbLine
 62
7
  6
CONTINUOUS
 10
4.7143859468
 20
6.9361012261
 11
4.7585801207
 21
6.8919070523
  0
LINE
  5
22D
100
AcDbEntity
  8
0
100
AcDbLine
 62
7
  6
CONTINUOUS
 10
4.778174374
 20
6.8723127989
 11
4.8646458724
 21
6.7858413005
  0
LINE
  5
22E
100
AcDbEntity
  8
0
100
AcDbLine
 62
7
  6
CONTINUOUS
 10
4.913259729
 20
7.0465866606
 11
4.8690655552
 21
7.0907808345
  0
LINE
  5
22F
100
AcDbEntity
  8
0
100
AcDbLine
 62
7
  6
CONTINUOUS
 10
6.6303672762
 20
7.2521707043
 11
6.6303672762
 21
7.7701198968
  0
LINE
  5
230
100
AcDbEntity
  8
0
100
AcDbLine
 62
7
  6
CONTINUOUS
 10
4.4318101177
 20
3.9621071949
 11
4.8803672762
 21
4.2210817911
  0
LINE
  5
231
100
AcDbEntity
  8
0
100
AcDbLine
 62
7
  6
CONTINUOUS
 10
8.3289244347
 20
4.8281325986
 11
7.8803672762
 21
5.0871071949
  0
LINE
  5
232
100
AcDbEntity
  8
0
100
AcDbLine
 62
7
  6
CONTINUOUS
 10
5.1179625184
 20
6.9567887233
 11
5.1233807765
 21
6.9513704651
  0
LINE
  5
233
100
AcDbEntity
  8
0
100
AcDbLine
 62
7
  6
CONTINUOUS
 10
5.1179625201
 20
6.9712814943
 11
4.9779585372
 21
7.1112854771
  0
LINE
  5
234
100
AcDbEntity
  8
0
100
AcDbLine
 62
7
  6
CONTINUOUS
 10
4.6936984496
 20
6.5325246546
 11
4.6792056769
 21
6.5325246546
  0
LINE
  5
235
100
AcDbEntity
  8
0
100
AcDbLine
 62
7
  6
CONTINUOUS
 10
3.5083720839
 20
14.1312977814
 11
3.5083720839
 21
13.6625477814
  0
LINE
  5
236
100
AcDbEntity
  8
0
100
AcDbLine
 62
7
  6
CONTINUOUS
 10
3.6223149253
 20
13.6125477814
 11
3.6223149253
 21
13.6625477814
  0
LINE
  5
237
100
AcDbEntity
  8
0
100
AcDbLine
 62
7
  6
CONTINUOUS
 10
4.3208720839
 20
13.5875477814
 11
4.3208720839
 21
12.0187977814
  0
LINE
  5
238
100
AcDbEntity
  8
0
100
AcDbLine
 62
7
  6
CONTINUOUS
 10
4.4458720839
 20
11.9437977814
 11
4.4458720839
 21
11.2687977814
  0
LINE
  5
239
100
AcDbEntity
  8
0
100
AcDbLine
 62
7
  6
CONTINUOUS
 10
7.4958720839
 20
11.0687977814
 11
4.6458720839
 21
11.0687977814
  0
LINE
  5
23A
100
AcDbEntity
  8
0
100
AcDbLine
 62
7
  6
CONTINUOUS
 10
4.8095703629
 20
12.81750241
 11
4.8095703629
 21
13.0700931528
  0
LINE
  5
23B
100
AcDbEntity
  8
0
100
AcDbLine
 62
7
  6
CONTINUOUS
 10
4.5168136326
 20
13.0836490262
 11
4.6548907545
 21
13.1963885241
  0
LINE
  5
23C
100
AcDbEntity
  8
0
100
AcDbLine
 62
7
  6
CONTINUOUS
 10
4.8537645367
 20
13.0700931528
 11
4.8537645367
 21
12.81750241
  0
LINE
  5
23D
100
AcDbEntity
  8
0
100
AcDbLine
 62
7
  6
CONTINUOUS
 10
4.6548907545
 20
12.6912070386
 11
4.8095703629
 21
12.81750241
  0
LINE
  5
23E
100
AcDbEntity
  8
0
100
AcDbLine
 62
7
  6
CONTINUOUS
 10
4.8537645367
 20
12.81750241
 11
4.6990849284
 21
12.6912070386
  0
LINE
  5
23F
100
AcDbEntity
  8
0
100
AcDbLine
 62
7
  6
CONTINUOUS
 10
4.6548907545
 20
12.6912070386
 11
4.5167890241
 21
12.8039666293
  0
LINE
  5
240
100
AcDbEntity
  8
0
100
AcDbLine
 62
7
  6
CONTINUOUS
 10
7.7458720839
 20
11.9437977814
 11
4.3958720839
 21
11.9437977814
  0
LINE
  5
241
100
AcDbEntity
  8
0
100
AcDbLine
 62
7
  6
CONTINUOUS
 10
5.5708720839
 20
13.6625477814
 11
5.5708720839
 21
13.6125477814
  0
LINE
  5
242
100
AcDbEntity
  8
0
100
AcDbLine
 62
7
  6
CONTINUOUS
 10
5.6557136809
 20
14.1312977814
 11
5.6557136809
 21
13.6625477814
  0
LINE
  5
243
100
AcDbEntity
  8
0
100
AcDbLine
 62
7
  6
CONTINUOUS
 10
4.8095703629
 20
13.0700931528
 11
4.6548907545
 21
13.1963885241
  0
LINE
  5
244
100
AcDbEntity
  8
0
100
AcDbLine
 62
7
  6
CONTINUOUS
 10
4.8537645367
 20
13.0700931528
 11
4.6990849284
 21
13.1963885241
  0
LINE
  5
245
100
AcDbEntity
  8
0
100
AcDbLine
 62
7
  6
CONTINUOUS
 10
4.7186791817
 20
12.5855543205
 11
4.8051506801
 21
12.5855543205
  0
LINE
  5
246
100
AcDbEntity
  8
0
100
AcDbLine
 62
7
  6
CONTINUOUS
 10
4.6548907545
 20
12.6912070386
 11
4.6990849284
 21
12.6912070386
  0
LINE
  5
247
100
AcDbEntity
  8
0
100
AcDbLine
 62
7
  6
CONTINUOUS
 10
5.0245291003
 20
12.7646760509
 11
4.9380576025
 21
12.7646760509
  0
LINE
  5
248
100
AcDbEntity
  8
0
100
AcDbLine
 62
7
  6
CONTINUOUS
 10
4.8537645367
 20
12.81750241
 11
4.8095703629
 21
12.81750241
  0
LINE
  5
249
100
AcDbEntity
  8
0
100
AcDbLine
 62
7
  6
CONTINUOUS
 10
6.4860304868
 20
14.1312977814
 11
6.4860304868
 21
13.6625477814
  0
LINE
  5
24A
100
AcDbEntity
  8
0
100
AcDbLine
 62
7
  6
CONTINUOUS
 10
6.5708720839
 20
13.6125477814
 11
6.5708720839
 21
13.6625477814
  0
LINE
  5
24B
100
AcDbEntity
  8
0
100
AcDbLine
 62
7
  6
CONTINUOUS
 10
4.8095703629
 20
13.0700931528
 11
4.8537645367
 21
13.0700931528
  0
LINE
  5
24C
100
AcDbEntity
  8
0
100
AcDbLine
 62
7
  6
CONTINUOUS
 10
4.9380576024
 20
13.1229195118
 11
5.0245291008
 21
13.1229195118
  0
LINE
  5
24D
100
AcDbEntity
  8
0
100
AcDbLine
 62
7
  6
CONTINUOUS
 10
4.6548907545
 20
13.1963885241
 11
4.6990849284
 21
13.1963885241
  0
LINE
  5
24E
100
AcDbEntity
  8
0
100
AcDbLine
 62
7
  6
CONTINUOUS
 10
4.7186791817
 20
13.3020412423
 11
4.8051506801
 21
13.3020412423
  0
LINE
  5
24F
100
AcDbEntity
  8
0
100
AcDbLine
 62
7
  6
CONTINUOUS
 10
6.4958720839
 20
13.5375477814
 11
5.6458720839
 21
13.5375477814
  0
LINE
  5
250
100
AcDbEntity
  8
0
100
AcDbLine
 62
7
  6
CONTINUOUS
 10
3.6973149253
 20
13.5375477814
 11
4.3208720839
 21
13.5375477814
  0
LINE
  5
251
100
AcDbEntity
  8
0
100
AcDbLine
 62
7
  6
CONTINUOUS
 10
7.8208720839
 20
13.5375477814
 11
8.444429127
 21
13.5375477814
  0
LINE
  5
252
100
AcDbEntity
  8
0
100
AcDbLine
 62
7
  6
CONTINUOUS
 10
8.6333720839
 20
13.6625477814
 11
6.4860304868
 21
13.6625477814
  0
LINE
  5
253
100
AcDbEntity
  8
0
100
AcDbLine
 62
7
  6
CONTINUOUS
 10
5.6557136809
 20
13.6625477814
 11
3.5083720839
 21
13.6625477814
  0
LINE
  5
254
100
AcDbEntity
  8
0
100
AcDbLine
 62
7
  6
CONTINUOUS
 10
7.6958720839
 20
11.9437977814
 11
7.6958720839
 21
11.2687977814
  0
LINE
  5
255
100
AcDbEntity
  8
03__ASM_ALL_CURVES
100
AcDbLine
 62
8
  6
PHANTOM
 10
8.8208720839
 20
14.1312977814
 11
3.3208720839
 21
14.1312977814
  0
LINE
  5
256
100
AcDbEntity
  8
0
100
AcDbLine
 62
7
  6
CONTINUOUS
 10
3.5083720839
 20
14.1312977814
 11
8.6333720839
 21
14.1312977814
  0
LINE
  5
257
100
AcDbEntity
  8
0
100
AcDbLine
 62
7
  6
CONTINUOUS
 10
7.8208720839
 20
12.0187977814
 11
7.8208720839
 21
13.5875477814
  0
LINE
  5
258
100
AcDbEntity
  8
0
100
AcDbLine
 62
7
  6
CONTINUOUS
 10
8.5194292424
 20
13.6125477814
 11
8.5194292424
 21
13.6625477814
  0
LINE
  5
259
100
AcDbEntity
  8
0
100
AcDbLine
 62
7
  6
CONTINUOUS
 10
8.6333720839
 20
14.1312977814
 11
8.6333720839
 21
13.6625477814
  0
LINE
  5
25A
100
AcDbEntity
  8
0
100
AcDbLine
 62
7
  6
CONTINUOUS
 10
17.0916052569
 20
2.8981247044
 11
16.6228552569
 21
2.8981247044
  0
LINE
  5
25B
100
AcDbEntity
  8
0
100
AcDbLine
 62
7
  6
CONTINUOUS
 10
14.9791052569
 20
3.7106247044
 11
16.5478552569
 21
3.7106247044
  0
LINE
  5
25C
100
AcDbEntity
  8
0
100
AcDbLine
 62
7
  6
CONTINUOUS
 10
14.0291052569
 20
4.0356247044
 11
14.0291052569
 21
6.8856239125
  0
LINE
  5
25D
100
AcDbEntity
  8
0
100
AcDbLine
 62
7
  6
CONTINUOUS
 10
14.9041052569
 20
3.8356247044
 11
14.2291052569
 21
3.8356247044
  0
LINE
  5
25E
100
AcDbEntity
  8
0
100
AcDbLine
 62
7
  6
CONTINUOUS
 10
16.5728552569
 20
3.8356247044
 11
16.6228552569
 21
3.8356247044
  0
LINE
  5
25F
100
AcDbEntity
  8
0
100
AcDbLine
 62
7
  6
CONTINUOUS
 10
16.6228552569
 20
3.8367640642
 11
17.0916052569
 21
3.8367640642
  0
LINE
  5
260
100
AcDbEntity
  8
0
100
AcDbLine
 62
7
  6
CONTINUOUS
 10
16.6228552569
 20
4.5558395114
 11
17.0916052569
 21
4.5558395114
  0
LINE
  5
261
100
AcDbEntity
  8
0
100
AcDbLine
 62
7
  6
CONTINUOUS
 10
14.9041052569
 20
3.7856247142
 11
14.9041052569
 21
7.1356246947
  0
LINE
  5
262
100
AcDbEntity
  8
0
100
AcDbLine
 62
7
  6
CONTINUOUS
 10
16.4978552569
 20
3.9106247579
 11
16.4978552569
 21
4.9412735336
  0
LINE
  5
263
100
AcDbEntity
  8
0
100
AcDbLine
 62
7
  6
CONTINUOUS
 10
16.4978552569
 20
7.2354486373
 11
16.4978552569
 21
8.1356246948
  0
LINE
  5
264
100
AcDbEntity
  8
0
100
AcDbLine
 62
7
  6
CONTINUOUS
 10
16.6228552569
 20
2.8981247139
 11
16.6228552569
 21
3.8367640642
  0
LINE
  5
265
100
AcDbEntity
  8
0
100
AcDbLine
 62
7
  6
CONTINUOUS
 10
16.6228552569
 20
4.5558395114
 11
16.6228552569
 21
7.9892705378
  0
LINE
  5
266
100
AcDbEntity
  8
0
100
AcDbLine
 62
7
  6
CONTINUOUS
 10
17.0916052569
 20
8.2106245661
 11
17.0916052569
 21
2.8981247139
  0
LINE
  5
267
100
AcDbEntity
  8
03__ASM_ALL_CURVES
100
AcDbLine
 62
8
  6
PHANTOM
 10
17.0916052569
 20
2.710625771
 11
17.0916052569
 21
8.2106247044
  0
LINE
  5
268
100
AcDbEntity
  8
0
100
AcDbLine
 62
7
  6
CONTINUOUS
 10
14.9041052569
 20
7.0856247044
 11
14.2291052569
 21
7.0856247044
  0
LINE
  5
269
100
AcDbEntity
  8
0
100
AcDbLine
 62
7
  6
CONTINUOUS
 10
14.9791052569
 20
7.2106247044
 11
16.4228552569
 21
7.2106247044
  0
LINE
  5
26A
100
AcDbEntity
  8
0
100
AcDbLine
 62
7
  6
CONTINUOUS
 10
17.0916052569
 20
7.9892705378
 11
16.6228552569
 21
7.9892705378
  0
LINE
  5
26B
100
AcDbEntity
  8
0
100
AcDbLine
 62
7
  6
CONTINUOUS
 10
16.5728552569
 20
8.2106247044
 11
17.0916052569
 21
8.2106247044
  0
LINE
  5
26C
100
AcDbEntity
  8
0
100
AcDbLine
 62
7
  6
CONTINUOUS
 10
13.0228465551
 20
14.0766964177
 11
12.909377966
 21
13.7095119289
  0
LINE
  5
26D
100
AcDbEntity
  8
0
100
AcDbLine
 62
7
  6
CONTINUOUS
 10
13.3216624973
 20
13.0750314829
 11
13.3442898024
 21
13.1482534688
  0
LINE
  5
26E
100
AcDbEntity
  8
0
100
AcDbLine
 62
7
  6
CONTINUOUS
 10
13.3472121614
 20
12.9591186276
 11
13.347230382
 21
12.9537822761
  0
LINE
  5
26F
100
AcDbEntity
  8
0
100
AcDbLine
 62
7
  6
CONTINUOUS
 10
13.3471000607
 20
13.0050922652
 11
13.3472002748
 21
12.9591214332
  0
LINE
  5
270
100
AcDbEntity
  8
0
100
AcDbLine
 62
7
  6
CONTINUOUS
 10
13.5122336921
 20
13.2673322558
 11
13.5733774045
 21
13.4651933818
  0
LINE
  5
271
100
AcDbEntity
  8
0
100
AcDbLine
 62
7
  6
CONTINUOUS
 10
13.6275640075
 20
13.4377218428
 11
13.566420295
 21
13.2398607168
  0
LINE
  5
272
100
AcDbEntity
  8
0
100
AcDbLine
 62
7
  6
CONTINUOUS
 10
13.2877608828
 20
12.1820298318
 11
13.5047159708
 21
12.8840967538
  0
LINE
  5
273
100
AcDbEntity
  8
0
100
AcDbLine
 62
7
  6
CONTINUOUS
 10
13.4798271638
 20
13.4232765494
 11
13.5086636634
 21
13.4679735583
  0
LINE
  5
274
100
AcDbEntity
  8
0
100
AcDbLine
 62
7
  6
CONTINUOUS
 10
13.3863762385
 20
13.0722513064
 11
13.5122336921
 21
13.2673322558
  0
LINE
  5
275
100
AcDbEntity
  8
0
100
AcDbLine
 62
7
  6
CONTINUOUS
 10
13.566420295
 20
13.2398607168
 11
13.4405628415
 21
13.0447797674
  0
LINE
  5
276
100
AcDbEntity
  8
0
100
AcDbLine
 62
7
  6
CONTINUOUS
 10
13.3890335141
 20
12.0863743922
 11
13.2256387458
 21
11.5576287282
  0
LINE
  5
277
100
AcDbEntity
  8
0
100
AcDbLine
 62
7
  6
CONTINUOUS
 10
14.1814859412
 20
14.4600203083
 11
14.1935892573
 21
14.4991866538
  0
LINE
  5
278
100
AcDbEntity
  8
0
100
AcDbLine
 62
7
  6
CONTINUOUS
 10
14.3173834121
 20
14.8919564846
 11
14.203914823
 21
14.5247719957
  0
LINE
  5
279
100
AcDbEntity
  8
0
100
AcDbLine
 62
7
  6
CONTINUOUS
 10
13.6019403575
 20
13.5077554027
 11
13.6160973741
 21
13.5180814807
  0
LINE
  5
27A
100
AcDbEntity
  8
0
100
AcDbLine
 62
7
  6
CONTINUOUS
 10
13.8280189634
 20
13.4066170825
 11
13.8176268513
 21
13.4418283506
  0
LINE
  5
27B
100
AcDbEntity
  8
0
100
AcDbLine
 62
7
  6
CONTINUOUS
 10
15.0821558347
 20
14.8919564846
 11
14.9686872456
 21
14.5247719957
  0
LINE
  5
27C
100
AcDbEntity
  8
0
100
AcDbLine
 62
7
  6
CONTINUOUS
 10
13.3472304819
 20
12.9537822254
 11
13.4532534335
 21
12.9000306801
  0
LINE
  5
27D
100
AcDbEntity
  8
0
100
AcDbLine
 62
7
  6
CONTINUOUS
 10
13.4390124465
 20
12.949839167
 11
13.5450353981
 21
12.8960876217
  0
LINE
  5
27E
100
AcDbEntity
  8
0
100
AcDbLine
 62
7
  6
CONTINUOUS
 10
13.3216624973
 20
13.0750314829
 11
13.3758491003
 21
13.0475599439
  0
LINE
  5
27F
100
AcDbEntity
  8
0
100
AcDbLine
 62
7
  6
CONTINUOUS
 10
13.3863762385
 20
13.0722513064
 11
13.4405628415
 21
13.0447797674
  0
LINE
  5
280
100
AcDbEntity
  8
0
100
AcDbLine
 62
7
  6
CONTINUOUS
 10
14.3558474634
 20
13.9626190159
 11
14.2004155668
 21
14.2793559194
  0
LWPOLYLINE
  5
281
100
AcDbEntity
  8
0
100
AcDbPolyline
 62
7
  6
CONTINUOUS
 90
6
 70
0
 10
14.3558473999
 20
13.962619103
 10
14.3561069592
 20
13.9620702519
 10
14.3568168133
 20
13.9602783201
 10
14.3571914511
 20
13.9589673068
 10
14.3573304031
 20
13.9582385228
 10
14.3573463767
 20
13.9581077062
  0
LINE
  5
282
100
AcDbEntity
  8
0
100
AcDbLine
 62
7
  6
CONTINUOUS
 10
17.3766843347
 20
11.9143892977
 11
16.9150259918
 21
12.0653977781
  0
LINE
  5
283
100
AcDbEntity
  8
0
100
AcDbLine
 62
7
  6
CONTINUOUS
 10
13.566420295
 20
13.2398607168
 11
13.5122336921
 21
13.2673322558
  0
LINE
  5
284
100
AcDbEntity
  8
0
100
AcDbLine
 62
7
  6
CONTINUOUS
 10
13.7235360395
 20
13.1727663067
 11
13.6175130887
 21
13.2265178517
  0
LINE
  5
285
100
AcDbEntity
  8
0
100
AcDbLine
 62
7
  6
CONTINUOUS
 10
13.5733774045
 20
13.4651933818
 11
13.6275640075
 21
13.4377218428
  0
LINE
  5
286
100
AcDbEntity
  8
0
100
AcDbLine
 62
7
  6
CONTINUOUS
 10
13.704231766
 20
13.5071395949
 11
13.8102547176
 21
13.4533880495
  0
LINE
  5
287
100
AcDbEntity
  8
0
100
AcDbLine
 62
7
  6
CONTINUOUS
 10
13.4405628415
 20
13.0447797674
 11
13.3758491003
 21
13.0475599439
  0
LINE
  5
288
100
AcDbEntity
  8
0
100
AcDbLine
 62
7
  6
CONTINUOUS
 10
13.3216624973
 20
13.0750314829
 11
13.3863762385
 21
13.0722513064
  0
LINE
  5
289
100
AcDbEntity
  8
0
100
AcDbLine
 62
7
  6
CONTINUOUS
 10
15.2827737591
 20
14.0439722867
 11
15.1318301765
 21
14.3515629681
  0
LINE
  5
28A
100
AcDbEntity
  8
0
100
AcDbLine
 62
7
  6
CONTINUOUS
 10
17.1235559743
 20
12.6765896777
 11
17.5937342183
 21
12.522794337
  0
LINE
  5
28B
100
AcDbEntity
  8
0
100
AcDbLine
 62
7
  6
CONTINUOUS
 10
13.5086636634
 20
13.4679735583
 11
13.5733774045
 21
13.4651933818
  0
LINE
  5
28C
100
AcDbEntity
  8
0
100
AcDbLine
 62
7
  6
CONTINUOUS
 10
16.4941512579
 20
11.1268204349
 11
16.3307564896
 21
10.5980747709
  0
LINE
  5
28D
100
AcDbEntity
  8
0
100
AcDbLine
 62
7
  6
CONTINUOUS
 10
16.6317338377
 20
11.1486640317
 11
16.9812170921
 21
12.2795922574
  0
LINE
  5
28E
100
AcDbEntity
  8
0
100
AcDbLine
 62
7
  6
CONTINUOUS
 10
17.8418395963
 20
12.3905170443
 11
17.9553081854
 21
12.7577015332
  0
LINE
  5
28F
100
AcDbEntity
  8
0
100
AcDbLine
 62
7
  6
CONTINUOUS
 10
17.9611630786
 20
12.0668392939
 11
18.0867349839
 21
12.4731901283
  0
LINE
  5
290
100
AcDbEntity
  8
03__ASM_ALL_CURVES
100
AcDbLine
 62
8
  6
PHANTOM
 10
18.0868993458
 20
12.4731510066
 11
18.0886051291
 21
12.4780071446
  0
ARC
  5
291
100
AcDbEntity
  8
0
100
AcDbCircle
 62
7
  6
CONTINUOUS
 10
4.1818101177
 20
4.3951198968
 40
0.5
100
AcDbArc
 50
120.0
 51
300.0
  0
CIRCLE
  5
292
100
AcDbEntity
  8
0
100
AcDbCircle
 62
7
  6
CONTINUOUS
 10
4.1818101177
 20
4.3951198968
 40
0.1875
  0
ARC
  5
293
100
AcDbEntity
  8
0
100
AcDbCircle
 62
7
  6
CONTINUOUS
 10
4.3428672762
 20
5.1520591001
 40
0.075
100
AcDbArc
 50
300.0
 51
352.5575880862
  0
ARC
  5
294
100
AcDbEntity
  8
0
100
AcDbCircle
 62
7
  6
CONTINUOUS
 10
4.9178672762
 20
4.1561298858
 40
0.075
100
AcDbArc
 50
67.4424119138
 51
120.0
  0
ARC
  5
295
100
AcDbEntity
  8
0
100
AcDbCircle
 62
7
  6
CONTINUOUS
 10
4.4562759941
 20
6.8516153772
 40
0.125
100
AcDbArc
 50
325.8369362645
 51
54.0811816562
  0
ARC
  5
296
100
AcDbEntity
  8
0
100
AcDbCircle
 62
7
  6
CONTINUOUS
 10
4.7988717957
 20
7.1942111788
 40
0.125
100
AcDbArc
 50
215.9188183438
 51
304.1630637355
  0
ARC
  5
297
100
AcDbEntity
  8
0
100
AcDbCircle
 62
7
  6
CONTINUOUS
 10
4.6079663763
 20
7.1132314748
 40
0.09
100
AcDbArc
 50
4.8759654065
 51
135.0
  0
ARC
  5
298
100
AcDbEntity
  8
0
100
AcDbCircle
 62
7
  6
CONTINUOUS
 10
4.5372556982
 20
7.0425207966
 40
0.09
100
AcDbArc
 50
135.0
 51
265.1240345935
  0
ARC
  5
299
100
AcDbEntity
  8
0
100
AcDbCircle
 62
7
  6
CONTINUOUS
 10
5.5553672762
 20
7.2521707043
 40
0.075
100
AcDbArc
 50
307.4424119138
 51
360.0
  0
CIRCLE
  5
29A
100
AcDbEntity
  8
03__ASM_ALL_CURVES
100
AcDbCircle
 62
8
  6
PHANTOM
 10
6.1303672762
 20
5.5201198968
 40
2.75
  0
ARC
  5
29B
100
AcDbEntity
  8
0
100
AcDbCircle
 62
7
  6
CONTINUOUS
 10
6.1303672762
 20
5.5201198968
 40
2.5625
100
AcDbArc
 50
99.3237593433
 51
200.6762406567
  0
ARC
  5
29C
100
AcDbEntity
  8
0
100
AcDbCircle
 62
7
  6
CONTINUOUS
 10
6.1303672762
 20
5.5201198968
 40
2.5625
100
AcDbArc
 50
219.3237593433
 51
320.6762406567
  0
ARC
  5
29D
100
AcDbEntity
  8
0
100
AcDbCircle
 62
7
  6
CONTINUOUS
 10
6.1303672762
 20
5.5201198968
 40
2.5625
100
AcDbArc
 50
339.3237593433
 51
80.6762406567
  0
ARC
  5
29E
100
AcDbEntity
  8
03__ASM_ALL_CURVES
100
AcDbCircle
 62
8
  6
PHANTOM
 10
6.1303672762
 20
5.5201198968
 40
2.25
100
AcDbArc
 50
85.236487
 51
94.763513
  0
ARC
  5
29F
100
AcDbEntity
  8
03__ASM_ALL_CURVES
100
AcDbCircle
 62
8
  6
PHANTOM
 10
6.1303672762
 20
5.5201198968
 40
2.25
100
AcDbArc
 50
205.236487
 51
214.7754202591
  0
ARC
  5
2A0
100
AcDbEntity
  8
03__ASM_ALL_CURVES
100
AcDbCircle
 62
8
  6
PHANTOM
 10
6.1303672762
 20
5.5201198968
 40
2.25
100
AcDbArc
 50
325.236487
 51
334.7739731983
  0
CIRCLE
  5
2A1
100
AcDbEntity
  8
0
100
AcDbCircle
 62
7
  6
CONTINUOUS
 10
6.1303672762
 20
5.5201198968
 40
1.75
  0
CIRCLE
  5
2A2
100
AcDbEntity
  8
0
100
AcDbCircle
 62
7
  6
CONTINUOUS
 10
6.1303672762
 20
5.5201198968
 40
1.625
  0
ARC
  5
2A3
100
AcDbEntity
  8
0
100
AcDbCircle
 62
7
  6
CONTINUOUS
 10
8.0789244347
 20
4.3951198968
 40
0.5
100
AcDbArc
 50
240.0
 51
60.0
  0
CIRCLE
  5
2A4
100
AcDbEntity
  8
0
100
AcDbCircle
 62
7
  6
CONTINUOUS
 10
8.0789244347
 20
4.3951198968
 40
0.1875
  0
ARC
  5
2A5
100
AcDbEntity
  8
0
100
AcDbCircle
 62
7
  6
CONTINUOUS
 10
7.3428672762
 20
4.1561298858
 40
0.075
100
AcDbArc
 50
60.0
 51
112.5575880862
  0
ARC
  5
2A6
100
AcDbEntity
  8
0
100
AcDbCircle
 62
7
  6
CONTINUOUS
 10
7.9178672762
 20
5.1520591001
 40
0.075
100
AcDbArc
 50
187.4424119138
 51
240.0
  0
ARC
  5
2A7
100
AcDbEntity
  8
0
100
AcDbCircle
 62
7
  6
CONTINUOUS
 10
6.1303672762
 20
7.7701198968
 40
0.5
100
AcDbArc
 50
0.0
 51
180.0
  0
CIRCLE
  5
2A8
100
AcDbEntity
  8
0
100
AcDbCircle
 62
7
  6
CONTINUOUS
 10
6.1303672762
 20
7.7701198968
 40
0.1875
  0
ARC
  5
2A9
100
AcDbEntity
  8
0
100
AcDbCircle
 62
7
  6
CONTINUOUS
 10
6.7053672762
 20
7.2521707043
 40
0.075
100
AcDbArc
 50
180.0
 51
232.5575880862
  0
ARC
  5
2AA
100
AcDbEntity
  8
0
100
AcDbCircle
 62
7
  6
CONTINUOUS
 10
4.6458720839
 20
11.2687977814
 40
0.2
100
AcDbArc
 50
180.0
 51
270.0
  0
ARC
  5
2AB
100
AcDbEntity
  8
0
100
AcDbCircle
 62
7
  6
CONTINUOUS
 10
7.4958720839
 20
11.2687977814
 40
0.2
100
AcDbArc
 50
270.0
 51
360.0
  0
ARC
  5
2AC
100
AcDbEntity
  8
0
100
AcDbCircle
 62
7
  6
CONTINUOUS
 10
6.4958720839
 20
13.6125477814
 40
0.075
100
AcDbArc
 50
270.0
 51
360.0
  0
ARC
  5
2AD
100
AcDbEntity
  8
0
100
AcDbCircle
 62
7
  6
CONTINUOUS
 10
5.6458720839
 20
13.6125477814
 40
0.075
100
AcDbArc
 50
180.0
 51
270.0
  0
ARC
  5
2AE
100
AcDbEntity
  8
0
100
AcDbCircle
 62
7
  6
CONTINUOUS
 10
8.4444292424
 20
13.6125477814
 40
0.075
100
AcDbArc
 50
270.0
 51
360.0
  0
ARC
  5
2AF
100
AcDbEntity
  8
0
100
AcDbCircle
 62
7
  6
CONTINUOUS
 10
7.8958720839
 20
13.5875477814
 40
0.075
100
AcDbArc
 50
90.0
 51
180.0
  0
ARC
  5
2B0
100
AcDbEntity
  8
0
100
AcDbCircle
 62
7
  6
CONTINUOUS
 10
4.2458720839
 20
13.5875477814
 40
0.075
100
AcDbArc
 50
0.0
 51
90.0
  0
ARC
  5
2B1
100
AcDbEntity
  8
0
100
AcDbCircle
 62
7
  6
CONTINUOUS
 10
3.6973149253
 20
13.6125477814
 40
0.075
100
AcDbArc
 50
180.0
 51
270.0
  0
ARC
  5
2B2
100
AcDbEntity
  8
0
100
AcDbCircle
 62
7
  6
CONTINUOUS
 10
7.7458720839
 20
12.0187977814
 40
0.075
100
AcDbArc
 50
270.0
 51
360.0
  0
ARC
  5
2B3
100
AcDbEntity
  8
0
100
AcDbCircle
 62
7
  6
CONTINUOUS
 10
4.3958720839
 20
12.0187977814
 40
0.075
100
AcDbArc
 50
180.0
 51
270.0
  0
ARC
  5
2B4
100
AcDbEntity
  8
0
100
AcDbCircle
 62
7
  6
CONTINUOUS
 10
14.2291052569
 20
6.8856247044
 40
0.2
100
AcDbArc
 50
90.0
 51
180.0
  0
ARC
  5
2B5
100
AcDbEntity
  8
0
100
AcDbCircle
 62
7
  6
CONTINUOUS
 10
14.2291052569
 20
4.0356247044
 40
0.2
100
AcDbArc
 50
180.0
 51
270.0
  0
ARC
  5
2B6
100
AcDbEntity
  8
0
100
AcDbCircle
 62
7
  6
CONTINUOUS
 10
16.5418770715
 20
7.2157871346
 40
0.080978143
100
AcDbArc
 50
343.4168442163
 51
0.0060153054
  0
ARC
  5
2B7
100
AcDbEntity
  8
0
100
AcDbCircle
 62
7
  6
CONTINUOUS
 10
14.9791052569
 20
7.1356247044
 40
0.075
100
AcDbArc
 50
90.0
 51
180.0
  0
ARC
  5
2B8
100
AcDbEntity
  8
0
100
AcDbCircle
 62
7
  6
CONTINUOUS
 10
14.9791052569
 20
3.7856247044
 40
0.075
100
AcDbArc
 50
180.0
 51
270.0
  0
ARC
  5
2B9
100
AcDbEntity
  8
0
100
AcDbCircle
 62
7
  6
CONTINUOUS
 10
16.5728552569
 20
3.9106247044
 40
0.075
100
AcDbArc
 50
180.0
 51
270.0
  0
ARC
  5
2BA
100
AcDbEntity
  8
0
100
AcDbCircle
 62
7
  6
CONTINUOUS
 10
16.5478552569
 20
3.6356247044
 40
0.075
100
AcDbArc
 50
0.0
 51
90.0
  0
ARC
  5
2BB
100
AcDbEntity
  8
0
100
AcDbCircle
 62
7
  6
CONTINUOUS
 10
16.4228552569
 20
7.2856247044
 40
0.075
100
AcDbArc
 50
270.0
 51
360.0
  0
ARC
  5
2BC
100
AcDbEntity
  8
0
100
AcDbCircle
 62
7
  6
CONTINUOUS
 10
16.5728552569
 20
8.1356247044
 40
0.075
100
AcDbArc
 50
90.0
 51
180.0
  0
ARC
  5
2BD
100
AcDbEntity
  8
0
100
AcDbCircle
 62
7
  6
CONTINUOUS
 10
14.3514725593
 20
14.4503453858
 40
0.1652652589
100
AcDbArc
 50
153.2340909635
 51
162.8105244124
  0
ARC
  5
2BE
100
AcDbEntity
  8
0
100
AcDbCircle
 62
7
  6
CONTINUOUS
 10
14.2196255378
 20
14.0418328492
 40
0.1556648671
100
AcDbArc
 50
325.3908240661
 51
330.3119785692
  0
ARC
  5
2BF
100
AcDbEntity
  8
0
100
AcDbCircle
 62
7
  6
CONTINUOUS
 10
13.2924323218
 20
13.3986368493
 40
0.095941373
100
AcDbArc
 50
21.5879891765
 51
23.6470723784
  0
ARC
  5
2C0
100
AcDbEntity
  8
0
100
AcDbCircle
 62
7
  6
CONTINUOUS
 10
13.2521971799
 20
13.3191860334
 40
0.0958793637
100
AcDbArc
 50
282.5733848438
 51
284.6446735667
  0
ARC
  5
2C1
100
AcDbEntity
  8
0
100
AcDbCircle
 62
7
  6
CONTINUOUS
 10
13.2927403224
 20
13.398770214
 40
0.0956057414
100
AcDbArc
 50
23.6478951818
 51
24.6293515216
  0
ARC
  5
2C2
100
AcDbEntity
  8
0
100
AcDbCircle
 62
7
  6
CONTINUOUS
 10
13.2522625205
 20
13.3188948099
 40
0.0955809003
100
AcDbArc
 50
281.6005228499
 51
282.5731587795
  0
SPLINE
  5
2C3
100
AcDbEntity
  8
0
100
AcDbSpline
 62
7
  6
CONTINUOUS
 70
0
 71
3
 72
11
 73
7
 74
0
 42
0.0000001
 43
0.0000001
 44
0.0000000001
 40
0.0
 40
0.0
 40
0.0
 40
0.0
 40
0.2384597631
 40
0.4838949681
 40
0.7374976332
 40
1.0
 40
1.0
 40
1.0
 40
1.0
 10
6.6797253532
 20
7.1816570475
 30
0.0
 10
6.6779996362
 20
7.1822276306
 30
0.0
 10
6.6745561962
 20
7.1835688675
 30
0.0
 10
6.6695240926
 20
7.1860896349
 30
0.0
 10
6.6645624976
 20
7.1891135667
 30
0.0
 10
6.6613603117
 20
7.1914049233
 30
0.0
 10
6.6597716626
 20
7.1926213209
 30
0.0
  0
SPLINE
  5
2C4
100
AcDbEntity
  8
0
100
AcDbSpline
 62
7
  6
CONTINUOUS
 70
0
 71
3
 72
11
 73
7
 74
0
 42
0.0000001
 43
0.0000001
 44
0.0000000001
 40
0.0
 40
0.0
 40
0.0
 40
0.0
 40
0.2384597631
 40
0.483894968
 40
0.7374976332
 40
1.0
 40
1.0
 40
1.0
 40
1.0
 10
4.4167548558
 20
5.1651093718
 30
0.0
 10
4.4171235748
 20
5.1633295656
 30
0.0
 10
4.4176837495
 20
5.1596768406
 30
0.0
 10
4.4180167528
 20
5.1540585273
 30
0.0
 10
4.4178787485
 20
5.1482496942
 30
0.0
 10
4.4174954684
 20
5.1443308415
 30
0.0
 10
4.4172363618
 20
5.1423468322
 30
0.0
  0
SPLINE
  5
2C5
100
AcDbEntity
  8
0
100
AcDbSpline
 62
7
  6
CONTINUOUS
 70
0
 71
3
 72
11
 73
7
 74
0
 42
0.0000001
 43
0.0000001
 44
0.0000000001
 40
0.0
 40
0.0
 40
0.0
 40
0.0
 40
0.2625069425
 40
0.516096569
 40
0.761527959
 40
1.0
 40
1.0
 40
1.0
 40
1.0
 10
7.8434981906
 20
5.1423468322
 30
0.0
 10
7.8432391169
 20
5.1443308814
 30
0.0
 10
7.8428559064
 20
5.1482496729
 30
0.0
 10
7.8427177256
 20
5.1540584073
 30
0.0
 10
7.8430507062
 20
5.1596766949
 30
0.0
 10
7.8436109541
 20
5.1633294744
 30
0.0
 10
7.8439796965
 20
5.1651093718
 30
0.0
  0
SPLINE
  5
2C6
100
AcDbEntity
  8
0
100
AcDbSpline
 62
7
  6
CONTINUOUS
 70
0
 71
3
 72
32
 73
28
 74
0
 42
0.0000001
 43
0.0000001
 44
0.0000000001
 40
0.0
 40
0.0
 40
0.0
 40
0.0
 40
0.0621934342
 40
0.0932937732
 40
0.1243973616
 40
0.186619374
 40
0.2177403643
 40
0.2488684128
 40
0.280004745
 40
0.3111510415
 40
0.3734770633
 40
0.4046579142
 40
0.4358505639
 40
0.4670562833
 40
0.498276839
 40
0.5607650336
 40
0.5920320202
 40
0.6233129598
 40
0.6546091201
 40
0.6859223735
 40
0.748604579
 40
0.8113588949
 40
0.8427612346
 40
0.8741791063
 40
0.9056111778
 40
0.9370573252
 40
1.0
 40
1.0
 40
1.0
 40
1.0
 10
4.8682695387
 20
7.0015964787
 30
0.0
 10
4.8705897509
 20
7.0039166845
 30
0.0
 10
4.8741095075
 20
7.0073582476
 30
0.0
 10
4.8788873922
 20
7.0118580198
 30
0.0
 10
4.8837251874
 20
7.0162955776
 30
0.0
 10
4.8886465584
 20
7.0206427426
 30
0.0
 10
4.8936395522
 20
7.0249084729
 30
0.0
 10
4.8974217372
 20
7.0280661425
 30
0.0
 10
4.901242047
 20
7.0311797041
 30
0.0
 10
4.9063893215
 20
7.035269701
 30
0.0
 10
4.9116106928
 20
7.0392693503
 30
0.0
 10
4.9168939365
 20
7.0431900634
 30
0.0
 10
4.9208888144
 20
7.0460913474
 30
0.0
 10
4.924916699
 20
7.0489502648
 30
0.0
 10
4.9303346266
 20
7.0527027076
 30
0.0
 10
4.9358177689
 20
7.0563657607
 30
0.0
 10
4.9413520378
 20
7.059956046
 30
0.0
 10
4.9455285374
 20
7.0626152291
 30
0.0
 10
4.9497314388
 20
7.0652371082
 30
0.0
 10
4.9553738243
 20
7.0686810189
 30
0.0
 10
4.9624980966
 20
7.0728818182
 30
0.0
 10
4.9697017529
 20
7.0769542161
 30
0.0
 10
4.9755072821
 20
7.080146356
 30
0.0
 10
4.9798814175
 20
7.0825116725
 30
0.0
 10
4.984271821
 20
7.0848515665
 30
0.0
 10
4.990148745
 20
7.0879382626
 30
0.0
 10
4.9945825814
 20
7.0902061112
 30
0.0
 10
4.9975527948
 20
7.0916912195
 30
0.0
  0
SPLINE
  5
2C7
100
AcDbEntity
  8
0
100
AcDbSpline
 62
7
  6
CONTINUOUS
 70
0
 71
3
 72
32
 73
28
 74
0
 42
0.0000001
 43
0.0000001
 44
0.0000000001
 40
0.0
 40
0.0
 40
0.0
 40
0.0
 40
0.0629426788
 40
0.094388828
 40
0.1258209009
 40
0.1572387728
 40
0.1886411118
 40
0.2513954248
 40
0.3140776275
 40
0.3453908808
 40
0.3766870417
 40
0.407967982
 40
0.4392349689
 40
0.5017231616
 40
0.5329437158
 40
0.5641494344
 40
0.5953420842
 40
0.6265229362
 40
0.688848961
 40
0.7199952592
 40
0.7511315931
 40
0.7822596418
 40
0.8133806294
 40
0.8756026341
 40
0.9067062238
 40
0.9378065656
 40
1.0
 40
1.0
 40
1.0
 40
1.0
 10
4.778174374
 20
6.8723127989
 30
0.0
 10
4.7796594868
 20
6.8752830244
 30
0.0
 10
4.7819273413
 20
6.8797168793
 30
0.0
 10
4.7850140456
 20
6.8855938278
 30
0.0
 10
4.7873539461
 20
6.8899842493
 30
0.0
 10
4.7897192722
 20
6.894358401
 30
0.0
 10
4.7929114276
 20
6.9001639501
 30
0.0
 10
4.7969838495
 20
6.9073676284
 30
0.0
 10
4.8011846727
 20
6.9144919225
 30
0.0
 10
4.8046285991
 20
6.9201343277
 30
0.0
 10
4.8072504881
 20
6.9243372451
 30
0.0
 10
4.8099096808
 20
6.9285137608
 30
0.0
 10
4.8134999802
 20
6.9340480503
 30
0.0
 10
4.8171630529
 20
6.9395312094
 30
0.0
 10
4.8209155181
 20
6.9449491515
 30
0.0
 10
4.8237744511
 20
6.9489770478
 30
0.0
 10
4.8266757483
 20
6.9529719392
 30
0.0
 10
4.8305964737
 20
6.9582552051
 30
0.0
 10
4.8345961296
 20
6.963476603
 30
0.0
 10
4.8386861379
 20
6.9686239007
 30
0.0
 10
4.8417997113
 20
6.9724442251
 30
0.0
 10
4.8449573986
 20
6.9762264197
 30
0.0
 10
4.8492231641
 20
6.9812194155
 30
0.0
 10
4.8535703871
 20
6.9861407678
 30
0.0
 10
4.8580079814
 20
6.9909785628
 30
0.0
 10
4.8625077614
 20
6.9957564742
 30
0.0
 10
4.8659493207
 20
6.9992762612
 30
0.0
 10
4.8682695387
 20
7.0015964787
 30
0.0
  0
SPLINE
  5
2C8
100
AcDbEntity
  8
0
100
AcDbSpline
 62
7
  6
CONTINUOUS
 70
0
 71
3
 72
32
 73
28
 74
0
 42
0.0000001
 43
0.0000001
 44
0.0000000001
 40
0.0
 40
0.0
 40
0.0
 40
0.0
 40
0.0621934342
 40
0.0932937731
 40
0.1243973616
 40
0.186619374
 40
0.2177403643
 40
0.2488684128
 40
0.280004745
 40
0.3111510415
 40
0.3734770633
 40
0.4046579141
 40
0.4358505639
 40
0.4670562833
 40
0.498276839
 40
0.5607650335
 40
0.5920320202
 40
0.6233129597
 40
0.6546091201
 40
0.6859223735
 40
0.7486045789
 40
0.8113588949
 40
0.8427612347
 40
0.8741791064
 40
0.9056111777
 40
0.9370573248
 40
1.0
 40
1.0
 40
1.0
 40
1.0
 10
4.648891118
 20
6.782218058
 30
0.0
 10
4.6512113302
 20
6.7845382638
 30
0.0
 10
4.6547310868
 20
6.7879798269
 30
0.0
 10
4.6595089714
 20
6.7924795991
 30
0.0
 10
4.6643467666
 20
6.7969171569
 30
0.0
 10
4.6692681377
 20
6.8012643219
 30
0.0
 10
4.6742611315
 20
6.8055300522
 30
0.0
 10
4.6780433165
 20
6.8086877218
 30
0.0
 10
4.6818636263
 20
6.8118012834
 30
0.0
 10
4.6870109008
 20
6.8158912803
 30
0.0
 10
4.692232272
 20
6.8198909295
 30
0.0
 10
4.6975155158
 20
6.8238116427
 30
0.0
 10
4.7015103937
 20
6.8267129267
 30
0.0
 10
4.7055382783
 20
6.8295718441
 30
0.0
 10
4.7109562059
 20
6.8333242869
 30
0.0
 10
4.7164393481
 20
6.83698734
 30
0.0
 10
4.7219736171
 20
6.8405776253
 30
0.0
 10
4.7261501167
 20
6.8432368084
 30
0.0
 10
4.7303530181
 20
6.8458586875
 30
0.0
 10
4.7359954036
 20
6.8493025982
 30
0.0
 10
4.7431196758
 20
6.8535033976
 30
0.0
 10
4.7503233322
 20
6.8575757953
 30
0.0
 10
4.7561288616
 20
6.8607679349
 30
0.0
 10
4.760502997
 20
6.8631332514
 30
0.0
 10
4.7648934003
 20
6.8654731458
 30
0.0
 10
4.7707703236
 20
6.868559843
 30
0.0
 10
4.77520416
 20
6.8708276917
 30
0.0
 10
4.7781743741
 20
6.8723127988
 30
0.0
  0
SPLINE
  5
2C9
100
AcDbEntity
  8
0
100
AcDbSpline
 62
7
  6
CONTINUOUS
 70
0
 71
3
 72
32
 73
28
 74
0
 42
0.0000001
 43
0.0000001
 44
0.0000000001
 40
0.0
 40
0.0
 40
0.0
 40
0.0
 40
0.0629426784
 40
0.0943888279
 40
0.1258209009
 40
0.1572387728
 40
0.1886411118
 40
0.2513954248
 40
0.3140776275
 40
0.3453908808
 40
0.3766870417
 40
0.407967982
 40
0.4392349689
 40
0.5017231616
 40
0.5329437158
 40
0.5641494344
 40
0.5953420842
 40
0.6265229362
 40
0.688848961
 40
0.7199952592
 40
0.7511315931
 40
0.7822596418
 40
0.8133806294
 40
0.8756026341
 40
0.9067062238
 40
0.9378065656
 40
1.0
 40
1.0
 40
1.0
 40
1.0
 10
4.5587959533
 20
6.6529343782
 30
0.0
 10
4.5602810673
 20
6.655904603
 30
0.0
 10
4.5625489218
 20
6.6603384579
 30
0.0
 10
4.5656356249
 20
6.666215407
 30
0.0
 10
4.567975525
 20
6.6706058288
 30
0.0
 10
4.5703408512
 20
6.6749799805
 30
0.0
 10
4.5735330068
 20
6.6807855294
 30
0.0
 10
4.5776054289
 20
6.6879892076
 30
0.0
 10
4.581806252
 20
6.6951135018
 30
0.0
 10
4.5852501783
 20
6.700755907
 30
0.0
 10
4.5878720673
 20
6.7049588244
 30
0.0
 10
4.5905312601
 20
6.7091353401
 30
0.0
 10
4.5941215595
 20
6.7146696296
 30
0.0
 10
4.5977846322
 20
6.7201527886
 30
0.0
 10
4.6015370974
 20
6.7255707308
 30
0.0
 10
4.6043960303
 20
6.7295986271
 30
0.0
 10
4.6072973276
 20
6.7335935185
 30
0.0
 10
4.611218053
 20
6.7388767844
 30
0.0
 10
4.6152177088
 20
6.7440981822
 30
0.0
 10
4.6193077172
 20
6.74924548
 30
0.0
 10
4.6224212906
 20
6.7530658044
 30
0.0
 10
4.6255789779
 20
6.7568479989
 30
0.0
 10
4.6298447434
 20
6.7618409947
 30
0.0
 10
4.6341919664
 20
6.7667623471
 30
0.0
 10
4.6386295606
 20
6.7716001421
 30
0.0
 10
4.6431293407
 20
6.7763780535
 30
0.0
 10
4.6465709
 20
6.7798978404
 30
0.0
 10
4.648891118
 20
6.782218058
 30
0.0
  0
SPLINE
  5
2CA
100
AcDbEntity
  8
0
100
AcDbSpline
 62
7
  6
CONTINUOUS
 70
0
 71
3
 72
11
 73
7
 74
0
 42
0.0000001
 43
0.0000001
 44
0.0000000001
 40
0.0
 40
0.0
 40
0.0
 40
0.0
 40
0.2625069425
 40
0.516096569
 40
0.761527959
 40
1.0
 40
1.0
 40
1.0
 40
1.0
 10
5.6009628897
 20
7.1926213209
 30
0.0
 10
5.5993741895
 20
7.1914049319
 30
0.0
 10
5.5961720218
 20
7.1891136661
 30
0.0
 10
5.5912106007
 20
7.1860896309
 30
0.0
 10
5.5861785306
 20
7.1835688567
 30
0.0
 10
5.5827350068
 20
7.1822276559
 30
0.0
 10
5.5810091992
 20
7.1816570475
 30
0.0
  0
SPLINE
  5
2CB
100
AcDbEntity
  8
0
100
AcDbSpline
 62
7
  6
CONTINUOUS
 70
0
 71
3
 72
18
 73
14
 74
0
 42
0.0000001
 43
0.0000001
 44
0.0000000001
 40
0.0
 40
0.0
 40
0.0
 40
0.0
 40
0.061637494
 40
0.1233282148
 40
0.1850908921
 40
0.2469481213
 40
0.370992568
 40
0.4955859522
 40
0.5581139228
 40
0.6207948523
 40
0.7466071141
 40
0.8730197352
 40
1.0
 40
1.0
 40
1.0
 40
1.0
 10
4.7818167654
 20
6.6354277107
 30
0.0
 10
4.7794800605
 20
6.6332798249
 30
0.0
 10
4.7747164411
 20
6.6290770431
 30
0.0
 10
4.7673198678
 20
6.623062607
 30
0.0
 10
4.7596828738
 20
6.6173374258
 30
0.0
 10
4.7491912344
 20
6.6100827703
 30
0.0
 10
4.7355435029
 20
6.6017260778
 30
0.0
 10
4.7213338538
 20
6.5942977081
 30
0.0
 10
4.7096741904
 20
6.5888618282
 30
0.0
 10
4.6978063606
 20
6.5837362859
 30
0.0
 10
4.6826660637
 20
6.5779089141
 30
0.0
 10
4.664128376
 20
6.5717559385
 30
0.0
 10
4.6515832373
 20
6.5681551934
 30
0.0
 10
4.6452674517
 20
6.5664628798
 30
0.0
  0
SPLINE
  5
2CC
100
AcDbEntity
  8
0
100
AcDbSpline
 62
7
  6
CONTINUOUS
 70
0
 71
3
 72
18
 73
14
 74
0
 42
0.0000001
 43
0.0000001
 44
0.0000000001
 40
0.0
 40
0.0
 40
0.0
 40
0.0
 40
0.1269802646
 40
0.2533928859
 40
0.379205148
 40
0.4418860774
 40
0.5044140481
 40
0.6290074323
 40
0.7530518789
 40
0.8149091081
 40
0.8766717853
 40
0.9383625061
 40
1.0
 40
1.0
 40
1.0
 40
1.0
 10
5.0840242926
 20
7.0052197217
 30
0.0
 10
5.082331979
 20
6.9989039361
 30
0.0
 10
5.0787312349
 20
6.9863587971
 30
0.0
 10
5.0725782587
 20
6.9678211095
 30
0.0
 10
5.0667508871
 20
6.9526808125
 30
0.0
 10
5.0616253447
 20
6.9408129827
 30
0.0
 10
5.0561894649
 20
6.9291533192
 30
0.0
 10
5.0487610952
 20
6.91494367
 30
0.0
 10
5.0404044027
 20
6.9012959385
 30
0.0
 10
5.0331497471
 20
6.8908042992
 30
0.0
 10
5.027424566
 20
6.8831673052
 30
0.0
 10
5.0214101299
 20
6.8757707318
 30
0.0
 10
5.017207348
 20
6.8710071125
 30
0.0
 10
5.0150594623
 20
6.8686704076
 30
0.0
  0
SPLINE
  5
2CD
100
AcDbEntity
  8
0
100
AcDbSpline
 62
7
  6
CONTINUOUS
 70
0
 71
3
 72
14
 73
10
 74
0
 42
0.0000001
 43
0.0000001
 44
0.0000000001
 40
0.0
 40
0.0
 40
0.0
 40
0.0
 40
0.1234772994
 40
0.2473490651
 40
0.3716580285
 40
0.4964255599
 40
0.6216574888
 40
0.7473466018
 40
1.0
 40
1.0
 40
1.0
 40
1.0
 10
4.9720747115
 20
6.8319347978
 30
0.0
 10
4.9680608409
 20
6.8292431797
 30
0.0
 10
4.9598667494
 20
6.8240768954
 30
0.0
 10
4.947164756
 20
6.8169756163
 30
0.0
 10
4.9340864101
 20
6.8104806278
 30
0.0
 10
4.9206826803
 20
6.8045565371
 30
0.0
 10
4.906998953
 20
6.7991638965
 30
0.0
 10
4.8884048808
 20
6.7926177154
 30
0.0
 10
4.8741975732
 20
6.788400671
 30
0.0
 10
4.8646458724
 20
6.7858413005
 30
0.0
  0
SPLINE
  5
2CE
100
AcDbEntity
  8
0
100
AcDbSpline
 62
7
  6
CONTINUOUS
 70
0
 71
3
 72
14
 73
10
 74
0
 42
0.0000001
 43
0.0000001
 44
0.0000000001
 40
0.0
 40
0.0
 40
0.0
 40
0.0
 40
0.2526533979
 40
0.3783425113
 40
0.5035744404
 40
0.6283419717
 40
0.7526509351
 40
0.8765227008
 40
1.0
 40
1.0
 40
1.0
 40
1.0
 10
4.8646458719
 20
6.785841301
 30
0.0
 10
4.8620865014
 20
6.7762896002
 30
0.0
 10
4.8578694578
 20
6.7620822923
 30
0.0
 10
4.8513232764
 20
6.7434882201
 30
0.0
 10
4.8459306359
 20
6.7298044927
 30
0.0
 10
4.8400065451
 20
6.7164007629
 30
0.0
 10
4.8335115567
 20
6.7033224169
 30
0.0
 10
4.8264102775
 20
6.6906204236
 30
0.0
 10
4.8212439932
 20
6.682426332
 30
0.0
 10
4.8185523751
 20
6.6784124614
 30
0.0
  0
SPLINE
  5
2CF
100
AcDbEntity
  8
0
100
AcDbSpline
 62
7
  6
CONTINUOUS
 70
0
 71
3
 72
11
 73
7
 74
0
 42
0.0000001
 43
0.0000001
 44
0.0000000001
 40
0.0
 40
0.0
 40
0.0
 40
0.0
 40
0.2625069425
 40
0.516096569
 40
0.761527959
 40
1.0
 40
1.0
 40
1.0
 40
1.0
 10
4.9466407482
 20
4.2253915371
 30
0.0
 10
4.9484885221
 20
4.2246238769
 30
0.0
 10
4.9520739003
 20
4.2229963512
 30
0.0
 10
4.9571735022
 20
4.2202116521
 30
0.0
 10
4.9618725918
 20
4.2171141387
 30
0.0
 10
4.9647558676
 20
4.2148025599
 30
0.0
 10
4.9661129328
 20
4.2135932709
 30
0.0
  0
SPLINE
  5
2D0
100
AcDbEntity
  8
0
100
AcDbSpline
 62
7
  6
CONTINUOUS
 70
0
 71
3
 72
11
 73
7
 74
0
 42
0.0000001
 43
0.0000001
 44
0.0000000001
 40
0.0
 40
0.0
 40
0.0
 40
0.0
 40
0.2625023563
 40
0.5161050334
 40
0.761540231
 40
1.0
 40
1.0
 40
1.0
 40
1.0
 10
7.3140938041
 20
4.2253915371
 30
0.0
 10
7.3122460485
 20
4.2246239255
 30
0.0
 10
7.3086605816
 20
4.2229964312
 30
0.0
 10
7.3035609828
 20
4.2202115288
 30
0.0
 10
7.2988618832
 20
4.2171139816
 30
0.0
 10
7.2959786175
 20
4.2148024941
 30
0.0
 10
7.2946216195
 20
4.2135932709
 30
0.0
  0
SPLINE
  5
2D1
100
AcDbEntity
  8
0
100
AcDbSpline
 62
7
  6
CONTINUOUS
 70
0
 71
3
 72
40
 73
36
 74
0
 42
0.0000001
 43
0.0000001
 44
0.0000000001
 40
0.0
 40
0.0
 40
0.0
 40
0.0
 40
0.0318226543
 40
0.0636165921
 40
0.0953546502
 40
0.127016105
 40
0.1585875873
 40
0.1900642261
 40
0.2214473345
 40
0.2527454855
 40
0.2839724534
 40
0.3151440797
 40
0.3462746864
 40
0.3773789128
 40
0.4084685474
 40
0.4395523309
 40
0.4706362504
 40
0.5017228897
 40
0.5328139041
 40
0.5639083667
 40
0.5950049216
 40
0.6261015847
 40
0.6571961974
 40
0.6882873016
 40
0.7193746123
 40
0.7504591543
 40
0.7815450755
 40
0.8126379366
 40
0.8437456915
 40
0.8748806291
 40
0.9060582012
 40
0.9372935116
 40
0.9529400477
 40
0.9686076929
 40
1.0
 40
1.0
 40
1.0
 40
1.0
 10
4.3877605058
 20
12.9437977814
 30
0.0
 10
4.3877605058
 20
12.9400655678
 30
0.0
 10
4.3880204953
 20
12.9326018867
 30
0.0
 10
4.3891897512
 20
12.9214710678
 30
0.0
 10
4.3911359842
 20
12.9104679684
 30
0.0
 10
4.3938551787
 20
12.899656755
 30
0.0
 10
4.3973419868
 20
12.8891000186
 30
0.0
 10
4.4015891386
 20
12.8788604471
 30
0.0
 10
4.4065870687
 20
12.8690009646
 30
0.0
 10
4.4123230403
 20
12.859585377
 30
0.0
 10
4.4187799614
 20
12.8506786387
 30
0.0
 10
4.4259348757
 20
12.8423473104
 30
0.0
 10
4.4337572985
 20
12.8346589027
 30
0.0
 10
4.4422080509
 20
12.8276811134
 30
0.0
 10
4.4512382021
 20
12.8214800128
 30
0.0
 10
4.4607886434
 20
12.8161184944
 30
0.0
 10
4.4707900808
 20
12.8116541345
 30
0.0
 10
4.4811639302
 20
12.8081371133
 30
0.0
 10
4.4918234523
 20
12.8056084243
 30
0.0
 10
4.5026755942
 20
12.8040983058
 30
0.0
 10
4.513622839
 20
12.8036251154
 30
0.0
 10
4.5245655057
 20
12.8041946798
 30
0.0
 10
4.5354040003
 20
12.805800009
 30
0.0
 10
4.5460411288
 20
12.8084216561
 30
0.0
 10
4.5563842952
 20
12.812028313
 30
0.0
 10
4.5663475448
 20
12.8165781398
 30
0.0
 10
4.5758530487
 20
12.8220202508
 30
0.0
 10
4.5848324095
 20
12.8282964148
 30
0.0
 10
4.5932272177
 20
12.83534332
 30
0.0
 10
4.6009896254
 20
12.8430946207
 30
0.0
 10
4.6080810917
 20
12.8514824764
 30
0.0
 10
4.6134047632
 20
12.8589436667
 30
0.0
 10
4.61730132
 20
12.8651611577
 30
0.0
 10
4.6209588346
 20
12.8715430933
 30
0.0
 10
4.6234222855
 20
12.8764900846
 30
0.0
 10
4.624937548
 20
12.879845558
 30
0.0
  0
SPLINE
  5
2D2
100
AcDbEntity
  8
0
100
AcDbSpline
 62
7
  6
CONTINUOUS
 70
0
 71
3
 72
41
 73
37
 74
0
 42
0.0000001
 43
0.0000001
 44
0.0000000001
 40
0.0
 40
0.0
 40
0.0
 40
0.0
 40
0.0313916378
 40
0.0470579911
 40
0.0627039466
 40
0.0939374336
 40
0.1251131577
 40
0.1406876464
 40
0.1562535443
 40
0.1873595071
 40
0.2184497327
 40
0.2495337777
 40
0.2806167207
 40
0.3117028793
 40
0.342792968
 40
0.3738868104
 40
0.4049829372
 40
0.436079201
 40
0.4671736705
 40
0.4982649012
 40
0.5293518802
 40
0.5604364374
 40
0.5915208635
 40
0.622611516
 40
0.6537166848
 40
0.6848487729
 40
0.7160215635
 40
0.7472499453
 40
0.7785491126
 40
0.8099334368
 40
0.8414111592
 40
0.8729833368
 40
0.904645355
 40
0.9363837206
 40
0.9681776492
 40
1.0
 40
1.0
 40
1.0
 40
1.0
 10
4.624937548
 20
13.0077500047
 30
0.0
 10
4.623422307
 20
13.0111054304
 30
0.0
 10
4.6209589659
 20
13.0160522676
 30
0.0
 10
4.617301552
 20
13.0224339672
 30
0.0
 10
4.6134052178
 20
13.0286511881
 30
0.0
 10
4.6080820833
 20
13.0361118924
 30
0.0
 10
4.6021698128
 20
13.0431049866
 30
0.0
 10
4.5971066661
 20
13.0483783732
 30
0.0
 10
4.5918293585
 20
13.0534255066
 30
0.0
 10
4.5848346354
 20
13.0592974737
 30
0.0
 10
4.5758562289
 20
13.0655733005
 30
0.0
 10
4.5663513953
 20
13.071015457
 30
0.0
 10
4.5563887594
 20
13.0755654494
 30
0.0
 10
4.5460460905
 20
13.0791724403
 30
0.0
 10
4.5354093393
 20
13.0817944922
 30
0.0
 10
4.5245711159
 20
13.0834003164
 30
0.0
 10
4.513628587
 20
13.0839704133
 30
0.0
 10
4.5026813374
 20
13.0834977716
 30
0.0
 10
4.4918290504
 20
13.0819881848
 30
0.0
 10
4.481169267
 20
13.0794599733
 30
0.0
 10
4.4707950403
 20
13.075943383
 30
0.0
 10
4.4607931658
 20
13.0714793417
 30
0.0
 10
4.4512421942
 20
13.0661180567
 30
0.0
 10
4.4422114956
 20
13.0599170717
 30
0.0
 10
4.4337601453
 20
13.0529392485
 30
0.0
 10
4.4259371401
 20
13.045250718
 30
0.0
 10
4.4187816872
 20
13.0369191189
 30
0.0
 10
4.4123243026
 20
13.0280120981
 30
0.0
 10
4.4065879219
 20
13.0185961649
 30
0.0
 10
4.4015896872
 20
13.0087363112
 30
0.0
 10
4.3973422863
 20
12.9984963766
 30
0.0
 10
4.39385532
 20
12.9879393187
 30
0.0
 10
4.3911360378
 20
12.9771278558
 30
0.0
 10
4.3891897592
 20
12.9661245808
 30
0.0
 10
4.3880204944
 20
12.9549936832
 30
0.0
 10
4.3877605058
 20
12.9475299859
 30
0.0
 10
4.3877605058
 20
12.9437977814
 30
0.0
  0
SPLINE
  5
2D3
100
AcDbEntity
  8
0
100
AcDbSpline
 62
7
  6
CONTINUOUS
 70
0
 71
3
 72
28
 73
24
 74
0
 42
0.0000001
 43
0.0000001
 44
0.0000000001
 40
0.0
 40
0.0
 40
0.0
 40
0.0
 40
0.0574897049
 40
0.0865450855
 40
0.1158146089
 40
0.1749538733
 40
0.2348229272
 40
0.2650325054
 40
0.2954305739
 40
0.3567538916
 40
0.4187042594
 40
0.4499133958
 40
0.4812851458
 40
0.5444837358
 40
0.576279657
 40
0.6081940911
 40
0.6723988857
 40
0.737121206
 40
0.8023076615
 40
0.8678820163
 40
0.9007885711
 40
0.9337703599
 40
1.0
 40
1.0
 40
1.0
 40
1.0
 10
4.5893959257
 20
12.6751150127
 30
0.0
 10
4.5917322363
 20
12.6732074257
 30
0.0
 10
4.5952652949
 20
12.6703552075
 30
0.0
 10
4.6000269047
 20
12.666580697
 30
0.0
 10
4.6048798988
 20
12.6627823279
 30
0.0
 10
4.6110475105
 20
12.6580409552
 30
0.0
 10
4.6173012268
 20
12.6533313314
 30
0.0
 10
4.6223798158
 20
12.6495683549
 30
0.0
 10
4.6275402012
 20
12.6457877684
 30
0.0
 10
4.6340803887
 20
12.6410730512
 30
0.0
 10
4.640695239
 20
12.6363896801
 30
0.0
 10
4.6460526758
 20
12.6326501335
 30
0.0
 10
4.6514816664
 20
12.6288988121
 30
0.0
 10
4.6569616529
 20
12.6251672952
 30
0.0
 10
4.6624851972
 20
12.6214494742
 30
0.0
 10
4.6680651989
 20
12.6177210523
 30
0.0
 10
4.6751072549
 20
12.6130714831
 30
0.0
 10
4.6836502666
 20
12.6075276751
 30
0.0
 10
4.692292424
 20
12.6020051622
 30
0.0
 10
4.6995556218
 20
12.5974249614
 30
0.0
 10
4.7054022013
 20
12.5937660404
 30
0.0
 10
4.7112862562
 20
12.5901022322
 30
0.0
 10
4.7157159496
 20
12.5873689222
 30
0.0
 10
4.7186791818
 20
12.5855543205
 30
0.0
  0
SPLINE
  5
2D4
100
AcDbEntity
  8
0
100
AcDbSpline
 62
7
  6
CONTINUOUS
 70
0
 71
3
 72
29
 73
25
 74
0
 42
0.0000001
 43
0.0000001
 44
0.0000000001
 40
0.0
 40
0.0
 40
0.0
 40
0.0
 40
0.0558262714
 40
0.0840272881
 40
0.112386707
 40
0.1695955299
 40
0.2275897392
 40
0.2864935538
 40
0.3463737876
 40
0.3766608156
 40
0.4071615571
 40
0.4688495581
 40
0.500082062
 40
0.5315870683
 40
0.5633517752
 40
0.5953622891
 40
0.6601245621
 40
0.6929070137
 40
0.7259703329
 40
0.7928959346
 40
0.8608427049
 40
0.8952217559
 40
0.9298835377
 40
1.0
 40
1.0
 40
1.0
 40
1.0
 10
4.499300761
 20
12.7646760509
 30
0.0
 10
4.5007984861
 20
12.7628417211
 30
0.0
 10
4.5030735362
 20
12.7600976562
 30
0.0
 10
4.5061474005
 20
12.756453595
 30
0.0
 10
4.5092764164
 20
12.7527793915
 30
0.0
 10
4.5132575394
 20
12.7481709227
 30
0.0
 10
4.5181517828
 20
12.7426396752
 30
0.0
 10
4.5231953204
 20
12.7370900363
 30
0.0
 10
4.5275148018
 20
12.7324714609
 30
0.0
 10
4.5310459994
 20
12.7287658629
 30
0.0
 10
4.5346514311
 20
12.7250252009
 30
0.0
 10
4.5383183529
 20
12.7212881714
 30
0.0
 10
4.5420549645
 20
12.7175604552
 30
0.0
 10
4.544913258
 20
12.7147497204
 30
0.0
 10
4.5478139182
 20
12.7119351338
 30
0.0
 10
4.5517505596
 20
12.7081625345
 30
0.0
 10
4.5557529699
 20
12.7043962686
 30
0.0
 10
4.5598262702
 20
12.7006407976
 30
0.0
 10
4.5639936669
 20
12.6968522038
 30
0.0
 10
4.5693118685
 20
12.6921122982
 30
0.0
 10
4.5747278744
 20
12.6873990011
 30
0.0
 10
4.5791483466
 20
12.6836271781
 30
0.0
 10
4.5836645452
 20
12.6798259682
 30
0.0
 10
4.5870920506
 20
12.6769961186
 30
0.0
 10
4.5893959257
 20
12.6751150127
 30
0.0
  0
SPLINE
  5
2D5
100
AcDbEntity
  8
0
100
AcDbSpline
 62
7
  6
CONTINUOUS
 70
0
 71
3
 72
12
 73
8
 74
0
 42
0.0000001
 43
0.0000001
 44
0.0000000001
 40
0.0
 40
0.0
 40
0.0
 40
0.0
 40
0.2505468304
 40
0.5007186424
 40
0.6256841368
 40
0.7505635125
 40
1.0
 40
1.0
 40
1.0
 40
1.0
 10
4.4916663263
 20
12.8058402581
 30
0.0
 10
4.4922424141
 20
12.8023914063
 30
0.0
 10
4.4934305073
 20
12.795504969
 30
0.0
 10
4.4949932687
 20
12.7869138026
 30
0.0
 10
4.4962787098
 20
12.7800549642
 30
0.0
 10
4.4975883373
 20
12.7732111565
 30
0.0
 10
4.4986044507
 20
12.7680868564
 30
0.0
 10
4.4993006795
 20
12.7646760509
 30
0.0
  0
SPLINE
  5
2D6
100
AcDbEntity
  8
0
100
AcDbSpline
 62
7
  6
CONTINUOUS
 70
0
 71
3
 72
12
 73
8
 74
0
 42
0.0000001
 43
0.0000001
 44
0.0000000001
 40
0.0
 40
0.0
 40
0.0
 40
0.0
 40
0.2494359231
 40
0.3743151387
 40
0.4992805165
 40
0.749452437
 40
1.0
 40
1.0
 40
1.0
 40
1.0
 10
4.4993006794
 20
13.1229195118
 30
0.0
 10
4.498603722
 20
13.1195051368
 30
0.0
 10
4.4975865724
 20
13.1143754665
 30
0.0
 10
4.4962756463
 20
13.1075244786
 30
0.0
 10
4.4949889403
 20
13.1006584334
 30
0.0
 10
4.4934247158
 20
13.0920582139
 30
0.0
 10
4.4922356288
 20
13.0851644982
 30
0.0
 10
4.4916590899
 20
13.0817119933
 30
0.0
  0
SPLINE
  5
2D7
100
AcDbEntity
  8
0
100
AcDbSpline
 62
7
  6
CONTINUOUS
 70
0
 71
3
 72
29
 73
25
 74
0
 42
0.0000001
 43
0.0000001
 44
0.0000000001
 40
0.0
 40
0.0
 40
0.0
 40
0.0
 40
0.0701165884
 40
0.1047784122
 40
0.1391573994
 40
0.2071039169
 40
0.2740294246
 40
0.3070927565
 40
0.3398752423
 40
0.4046376053
 40
0.436648146
 40
0.4684128569
 40
0.4999178514
 40
0.5311503365
 40
0.5928383224
 40
0.6233390748
 40
0.6536261194
 40
0.7135063698
 40
0.7724101637
 40
0.8304043466
 40
0.8876131795
 40
0.9159726266
 40
0.944173677
 40
1.0
 40
1.0
 40
1.0
 40
1.0
 10
4.5893955019
 20
13.212480204
 30
0.0
 10
4.5870916339
 20
13.2105991011
 30
0.0
 10
4.5836641311
 20
13.2077692674
 30
0.0
 10
4.5791479447
 20
13.2039680755
 30
0.0
 10
4.5747275082
 20
13.200196267
 30
0.0
 10
4.56931156
 20
13.1954829771
 30
0.0
 10
4.5639933982
 20
13.1907430944
 30
0.0
 10
4.5598260208
 20
13.1869545182
 30
0.0
 10
4.555752732
 20
13.1831990614
 30
0.0
 10
4.5517503306
 20
13.1794328113
 30
0.0
 10
4.5478137013
 20
13.1756602258
 30
0.0
 10
4.5449130539
 20
13.1728456498
 30
0.0
 10
4.5420547755
 20
13.1700349258
 30
0.0
 10
4.538318185
 20
13.1663072232
 30
0.0
 10
4.5346512822
 20
13.162570208
 30
0.0
 10
4.5310458659
 20
13.1588295615
 30
0.0
 10
4.5275146819
 20
13.1551239783
 30
0.0
 10
4.5231952191
 20
13.150505422
 30
0.0
 10
4.5181517087
 20
13.1449558037
 30
0.0
 10
4.5132574924
 20
13.1394245767
 30
0.0
 10
4.509276388
 20
13.1348161259
 30
0.0
 10
4.5061473818
 20
13.1311419374
 30
0.0
 10
4.5030735252
 20
13.1274978902
 30
0.0
 10
4.5007984811
 20
13.1247538354
 30
0.0
 10
4.4993007611
 20
13.1229195118
 30
0.0
  0
SPLINE
  5
2D8
100
AcDbEntity
  8
0
100
AcDbSpline
 62
7
  6
CONTINUOUS
 70
0
 71
3
 72
28
 73
24
 74
0
 42
0.0000001
 43
0.0000001
 44
0.0000000001
 40
0.0
 40
0.0
 40
0.0
 40
0.0
 40
0.066229673
 40
0.0992114817
 40
0.1321180535
 40
0.1976924206
 40
0.2628788704
 40
0.3276011858
 40
0.3918059947
 40
0.4237204402
 40
0.4555163695
 40
0.5187149534
 40
0.5500866932
 40
0.5812958232
 40
0.6432462113
 40
0.7045695855
 40
0.7349676763
 40
0.7651772638
 40
0.8250462477
 40
0.8841853188
 40
0.9134547934
 40
0.9425102045
 40
1.0
 40
1.0
 40
1.0
 40
1.0
 10
4.7186791817
 20
13.3020412423
 30
0.0
 10
4.7157159377
 20
13.3002266333
 30
0.0
 10
4.7112862259
 20
13.2974933135
 30
0.0
 10
4.7054021464
 20
13.2938294923
 30
0.0
 10
4.6995555435
 20
13.2901705588
 30
0.0
 10
4.6922923202
 20
13.28559034
 30
0.0
 10
4.6836501353
 20
13.2800678038
 30
0.0
 10
4.6751070962
 20
13.2745239726
 30
0.0
 10
4.6680650151
 20
13.2698743862
 30
0.0
 10
4.6624849924
 20
13.2661459506
 30
0.0
 10
4.6569614285
 20
13.2624281161
 30
0.0
 10
4.6514814249
 20
13.2586965842
 30
0.0
 10
4.6460524187
 20
13.254945247
 30
0.0
 10
4.6406949651
 20
13.2512056846
 30
0.0
 10
4.6340800889
 20
13.2465222949
 30
0.0
 10
4.627539871
 20
13.2418075631
 30
0.0
 10
4.6223794626
 20
13.2380269625
 30
0.0
 10
4.6173008575
 20
13.2342639741
 30
0.0
 10
4.6110471348
 20
13.2295543358
 30
0.0
 10
4.604879533
 20
13.2248129327
 30
0.0
 10
4.6000265382
 20
13.2210145478
 30
0.0
 10
4.5952649058
 20
13.2172400258
 30
0.0
 10
4.5917318232
 20
13.2143878021
 30
0.0
 10
4.5893955019
 20
13.212480204
 30
0.0
  0
SPLINE
  5
2D9
100
AcDbEntity
  8
0
100
AcDbSpline
 62
7
  6
CONTINUOUS
 70
0
 71
3
 72
14
 73
10
 74
0
 42
0.0000001
 43
0.0000001
 44
0.0000000001
 40
0.0
 40
0.0
 40
0.0
 40
0.0
 40
0.2585129853
 40
0.3862689035
 40
0.5127390405
 40
0.6376626784
 40
0.7607412481
 40
0.881640222
 40
1.0
 40
1.0
 40
1.0
 40
1.0
 10
4.8051506796
 20
13.3020412423
 30
0.0
 10
4.8146741646
 20
13.2971115237
 30
0.0
 10
4.8288373126
 20
13.2896145864
 30
0.0
 10
4.8474593499
 20
13.2793365838
 30
0.0
 10
4.8611294526
 20
13.271557347
 30
0.0
 10
4.8745172637
 20
13.2636775261
 30
0.0
 10
4.8875771969
 20
13.2556999531
 30
0.0
 10
4.9002592401
 20
13.2476307428
 30
0.0
 10
4.9085232276
 20
13.2421324468
 30
0.0
 10
4.9125795192
 20
13.2393660109
 30
0.0
  0
SPLINE
  5
2DA
100
AcDbEntity
  8
0
100
AcDbSpline
 62
7
  6
CONTINUOUS
 70
0
 71
3
 72
15
 73
11
 74
0
 42
0.0000001
 43
0.0000001
 44
0.0000000001
 40
0.0
 40
0.0
 40
0.0
 40
0.0
 40
0.1508201964
 40
0.2934295181
 40
0.4279736054
 40
0.5548841137
 40
0.6747946858
 40
0.7884448011
 40
0.8966012268
 40
1.0
 40
1.0
 40
1.0
 40
1.0
 10
4.9555642699
 20
13.20682031
 30
0.0
 10
4.9597460777
 20
13.2032557981
 30
0.0
 10
4.9677414843
 20
13.1961532155
 30
0.0
 10
4.9789199697
 20
13.1852749955
 30
0.0
 10
4.9889674862
 20
13.174507431
 30
0.0
 10
4.9979306423
 20
13.1638830325
 30
0.0
 10
5.0058811097
 20
13.1534227987
 30
0.0
 10
5.0129048004
 20
13.1431369925
 30
0.0
 10
5.0190932351
 20
13.1330280045
 30
0.0
 10
5.0227973443
 20
13.1262650023
 30
0.0
 10
5.0245291008
 20
13.1229195118
 30
0.0
  0
SPLINE
  5
2DB
100
AcDbEntity
  8
0
100
AcDbSpline
 62
7
  6
CONTINUOUS
 70
0
 71
3
 72
23
 73
19
 74
0
 42
0.0000001
 43
0.0000001
 44
0.0000000001
 40
0.0
 40
0.0
 40
0.0
 40
0.0
 40
0.0608123211
 40
0.1221296665
 40
0.1839746618
 40
0.246349899
 40
0.3092283967
 40
0.3725435283
 40
0.4361843041
 40
0.5000000001
 40
0.5638156961
 40
0.6274564719
 40
0.6907716035
 40
0.7536501012
 40
0.8160253384
 40
0.8778703337
 40
0.9391876791
 40
1.0
 40
1.0
 40
1.0
 40
1.0
 10
5.0245292335
 20
12.7646760509
 30
0.0
 10
5.0270049466
 20
12.7716784156
 30
0.0
 10
5.031783232
 20
12.7858108959
 30
0.0
 10
5.0383147579
 20
12.8073139434
 30
0.0
 10
5.044137718
 20
12.829218495
 30
0.0
 10
5.0491389456
 20
12.8515218759
 30
0.0
 10
5.053199479
 20
12.8741994267
 30
0.0
 10
5.0562034247
 20
12.8971982303
 30
0.0
 10
5.0580514804
 20
12.9204345978
 30
0.0
 10
5.0586754894
 20
12.9437977814
 30
0.0
 10
5.0580514804
 20
12.9671609651
 30
0.0
 10
5.0562034247
 20
12.9903973326
 30
0.0
 10
5.053199479
 20
13.0133961362
 30
0.0
 10
5.0491389455
 20
13.036073687
 30
0.0
 10
5.044137718
 20
13.0583770679
 30
0.0
 10
5.0383147578
 20
13.0802816195
 30
0.0
 10
5.0317832322
 20
13.101784667
 30
0.0
 10
5.0270049464
 20
13.1159171472
 30
0.0
 10
5.0245292333
 20
13.1229195118
 30
0.0
  0
SPLINE
  5
2DC
100
AcDbEntity
  8
0
100
AcDbSpline
 62
7
  6
CONTINUOUS
 70
0
 71
3
 72
15
 73
11
 74
0
 42
0.0000001
 43
0.0000001
 44
0.0000000001
 40
0.0
 40
0.0
 40
0.0
 40
0.0
 40
0.1033987693
 40
0.2115551959
 40
0.3252053118
 40
0.4451158843
 40
0.5720263932
 40
0.7065704809
 40
0.8491798031
 40
1.0
 40
1.0
 40
1.0
 40
1.0
 10
5.0245291003
 20
12.7646760509
 30
0.0
 10
5.0227973439
 20
12.7613305606
 30
0.0
 10
5.0190932354
 20
12.7545675581
 30
0.0
 10
5.0129048004
 20
12.7444585705
 30
0.0
 10
5.0058811098
 20
12.7341727641
 30
0.0
 10
4.9979306423
 20
12.7237125303
 30
0.0
 10
4.9889674862
 20
12.7130881317
 30
0.0
 10
4.9789199698
 20
12.7023205672
 30
0.0
 10
4.9677414843
 20
12.6914423472
 30
0.0
 10
4.9597460777
 20
12.6843397646
 30
0.0
 10
4.9555642699
 20
12.6807752527
 30
0.0
  0
SPLINE
  5
2DD
100
AcDbEntity
  8
0
100
AcDbSpline
 62
7
  6
CONTINUOUS
 70
0
 71
3
 72
14
 73
10
 74
0
 42
0.0000001
 43
0.0000001
 44
0.0000000001
 40
0.0
 40
0.0
 40
0.0
 40
0.0
 40
0.1183597783
 40
0.2392587523
 40
0.362337322
 40
0.4872609601
 40
0.6137310969
 40
0.7414870149
 40
1.0
 40
1.0
 40
1.0
 40
1.0
 10
4.9125795192
 20
12.6482295518
 30
0.0
 10
4.9085232276
 20
12.6454631159
 30
0.0
 10
4.9002592401
 20
12.6399648199
 30
0.0
 10
4.887577197
 20
12.6318956096
 30
0.0
 10
4.8745172638
 20
12.6239180367
 30
0.0
 10
4.8611294528
 20
12.6160382158
 30
0.0
 10
4.8474593502
 20
12.6082589791
 30
0.0
 10
4.8288373128
 20
12.5979809765
 30
0.0
 10
4.8146741651
 20
12.590484039
 30
0.0
 10
4.8051506801
 20
12.5855543205
 30
0.0
  0
SPLINE
  5
2DE
100
AcDbEntity
  8
0
100
AcDbSpline
 62
7
  6
CONTINUOUS
 70
0
 71
3
 72
31
 73
27
 74
0
 42
0.0000001
 43
0.0000001
 44
0.0000000001
 40
0.0
 40
0.0
 40
0.0
 40
0.0
 40
0.0618113162
 40
0.0927589271
 40
0.1237285881
 40
0.1547192718
 40
0.1857332239
 40
0.2478404229
 40
0.3100600313
 40
0.3412125602
 40
0.3723920294
 40
0.4035961984
 40
0.4348227698
 40
0.4973418611
 40
0.5286367899
 40
0.5599554264
 40
0.5912955852
 40
0.6226547779
 40
0.6854234994
 40
0.7168325677
 40
0.7482573933
 40
0.8111461499
 40
0.8740737014
 40
0.905548821
 40
0.9370299501
 40
1.0
 40
1.0
 40
1.0
 40
1.0
 10
4.9380575209
 20
12.7646760509
 30
0.0
 10
4.9373137158
 20
12.7683199317
 30
0.0
 10
4.936230215
 20
12.7737949437
 30
0.0
 10
4.9348362903
 20
12.781107701
 30
0.0
 10
4.9338110736
 20
12.7866029213
 30
0.0
 10
4.9328066209
 20
12.7921060336
 30
0.0
 10
4.931498972
 20
12.7994581467
 30
0.0
 10
4.9299322221
 20
12.808672521
 30
0.0
 10
4.9284717102
 20
12.8179128432
 30
0.0
 10
4.9273733791
 20
12.8253258985
 30
0.0
 10
4.9265829383
 20
12.8308979664
 30
0.0
 10
4.9258243436
 20
12.8364789525
 30
0.0
 10
4.9248517798
 20
12.8439336931
 30
0.0
 10
4.9239417946
 20
12.8514020563
 30
0.0
 10
4.9231096227
 20
12.858884877
 30
0.0
 10
4.9225252023
 20
12.8645075763
 30
0.0
 10
4.9219784586
 20
12.8701379452
 30
0.0
 10
4.9212969166
 20
12.8776562245
 30
0.0
 10
4.9206861565
 20
12.8851849924
 30
0.0
 10
4.9201577744
 20
12.892723732
 30
0.0
 10
4.9196865851
 20
12.9002735027
 30
0.0
 10
4.919200271
 20
12.909722088
 30
0.0
 10
4.9188415441
 20
12.9191794294
 30
0.0
 10
4.9186415066
 20
12.9267509544
 30
0.0
 10
4.9185024436
 20
12.9343263857
 30
0.0
 10
4.9184633446
 20
12.9400093889
 30
0.0
 10
4.9184633449
 20
12.9437981272
 30
0.0
  0
SPLINE
  5
2DF
100
AcDbEntity
  8
0
100
AcDbSpline
 62
7
  6
CONTINUOUS
 70
0
 71
3
 72
28
 73
24
 74
0
 42
0.0000001
 43
0.0000001
 44
0.0000000001
 40
0.0
 40
0.0
 40
0.0
 40
0.0
 40
0.0574897049
 40
0.0865450855
 40
0.1158146089
 40
0.1749538733
 40
0.2348229272
 40
0.2650325054
 40
0.295430574
 40
0.3567538916
 40
0.4187042594
 40
0.4499133958
 40
0.4812851459
 40
0.5444837359
 40
0.5762796569
 40
0.608194091
 40
0.6723988857
 40
0.7371212062
 40
0.8023076611
 40
0.8678820156
 40
0.9007885715
 40
0.933770362
 40
1.0
 40
1.0
 40
1.0
 40
1.0
 10
4.8087743464
 20
12.6751153587
 30
0.0
 10
4.811110657
 20
12.6770229457
 30
0.0
 10
4.8146437156
 20
12.6798751638
 30
0.0
 10
4.8194053254
 20
12.6836496744
 30
0.0
 10
4.8242583195
 20
12.6874480434
 30
0.0
 10
4.8304259312
 20
12.6921894162
 30
0.0
 10
4.8366796475
 20
12.69689904
 30
0.0
 10
4.8417582365
 20
12.7006620165
 30
0.0
 10
4.8469186219
 20
12.704442603
 30
0.0
 10
4.8534588094
 20
12.7091573202
 30
0.0
 10
4.8600736597
 20
12.7138406913
 30
0.0
 10
4.8654310965
 20
12.7175802379
 30
0.0
 10
4.8708600871
 20
12.7213315593
 30
0.0
 10
4.8763400736
 20
12.7250630762
 30
0.0
 10
4.8818636179
 20
12.7287808972
 30
0.0
 10
4.8874436196
 20
12.7325093191
 30
0.0
 10
4.8944856756
 20
12.7371588883
 30
0.0
 10
4.9030286873
 20
12.7427026962
 30
0.0
 10
4.9116708446
 20
12.7482252092
 30
0.0
 10
4.9189340424
 20
12.7528054102
 30
0.0
 10
4.9247806222
 20
12.756464331
 30
0.0
 10
4.9306646773
 20
12.7601281389
 30
0.0
 10
4.9350943707
 20
12.7628614488
 30
0.0
 10
4.9380576025
 20
12.7646760509
 30
0.0
  0
SPLINE
  5
2E0
100
AcDbEntity
  8
0
100
AcDbSpline
 62
7
  6
CONTINUOUS
 70
0
 71
3
 72
29
 73
25
 74
0
 42
0.0000001
 43
0.0000001
 44
0.0000000001
 40
0.0
 40
0.0
 40
0.0
 40
0.0
 40
0.0558262666
 40
0.0840272872
 40
0.1123867085
 40
0.1695955308
 40
0.2275897387
 40
0.2864935537
 40
0.3463737878
 40
0.3766608157
 40
0.4071615569
 40
0.468849558
 40
0.500082062
 40
0.5315870684
 40
0.5633517752
 40
0.5953622891
 40
0.6601245621
 40
0.6929070137
 40
0.7259703329
 40
0.7928959346
 40
0.8608427049
 40
0.8952217559
 40
0.9298835377
 40
1.0
 40
1.0
 40
1.0
 40
1.0
 10
4.7186791817
 20
12.5855543205
 30
0.0
 10
4.720176906
 20
12.5873886506
 30
0.0
 10
4.7224519561
 20
12.5901327155
 30
0.0
 10
4.7255258211
 20
12.5937767763
 30
0.0
 10
4.7286548374
 20
12.5974509798
 30
0.0
 10
4.7326359602
 20
12.6020594487
 30
0.0
 10
4.7375302035
 20
12.6075906962
 30
0.0
 10
4.7425737411
 20
12.6131403351
 30
0.0
 10
4.7468932226
 20
12.6177589104
 30
0.0
 10
4.7504244201
 20
12.6214645085
 30
0.0
 10
4.7540298518
 20
12.6252051705
 30
0.0
 10
4.7576967736
 20
12.6289421999
 30
0.0
 10
4.7614333852
 20
12.6326699162
 30
0.0
 10
4.7642916787
 20
12.635480651
 30
0.0
 10
4.767192339
 20
12.6382952376
 30
0.0
 10
4.7711289803
 20
12.6420678369
 30
0.0
 10
4.7751313906
 20
12.6458341028
 30
0.0
 10
4.7792046909
 20
12.6495895738
 30
0.0
 10
4.7833720876
 20
12.6533781675
 30
0.0
 10
4.7886902892
 20
12.6581180732
 30
0.0
 10
4.7941062952
 20
12.6628313703
 30
0.0
 10
4.7985267673
 20
12.6666031933
 30
0.0
 10
4.8030429659
 20
12.6704044032
 30
0.0
 10
4.8064704713
 20
12.6732342527
 30
0.0
 10
4.8087743464
 20
12.6751153587
 30
0.0
  0
SPLINE
  5
2E1
100
AcDbEntity
  8
0
100
AcDbSpline
 62
7
  6
CONTINUOUS
 70
0
 71
3
 72
20
 73
16
 74
0
 42
0.0000001
 43
0.0000001
 44
0.0000000001
 40
0.0
 40
0.0
 40
0.0
 40
0.0
 40
0.0542410651
 40
0.1097502143
 40
0.1665521209
 40
0.2246529422
 40
0.3446064186
 40
0.4064180279
 40
0.4693440903
 40
0.5332971814
 40
0.5981768414
 40
0.7302199309
 40
0.7971723287
 40
0.8645526009
 40
1.0
 40
1.0
 40
1.0
 40
1.0
 10
4.7322305587
 20
13.1332408384
 30
0.0
 10
4.7351860174
 20
13.1308277165
 30
0.0
 10
4.7409851401
 20
13.1257193574
 30
0.0
 10
4.749213498
 20
13.1173672689
 30
0.0
 10
4.75703719
 20
13.1082729941
 30
0.0
 10
4.7669875251
 20
13.095074037
 30
0.0
 10
4.7758695306
 20
13.0806725102
 30
0.0
 10
4.7836439175
 20
13.0653094455
 30
0.0
 10
4.7889838022
 20
13.053150307
 30
0.0
 10
4.7937498932
 20
13.0405248254
 30
0.0
 10
4.7993448268
 20
13.0230411961
 30
0.0
 10
4.8036669108
 20
13.0049534551
 30
0.0
 10
4.8067126813
 20
12.9864594042
 30
0.0
 10
4.8089115924
 20
12.9676048092
 30
0.0
 10
4.8095703629
 20
12.9533255616
 30
0.0
 10
4.8095703629
 20
12.9437977814
 30
0.0
  0
SPLINE
  5
2E2
100
AcDbEntity
  8
0
100
AcDbSpline
 62
7
  6
CONTINUOUS
 70
0
 71
3
 72
20
 73
16
 74
0
 42
0.0000001
 43
0.0000001
 44
0.0000000001
 40
0.0
 40
0.0
 40
0.0
 40
0.0
 40
0.135447396
 40
0.2028276801
 40
0.2697800962
 40
0.401823231
 40
0.4667029083
 40
0.5306560053
 40
0.5935820588
 40
0.6553936492
 40
0.7753470818
 40
0.8334478867
 40
0.8902497831
 40
0.9457589308
 40
1.0
 40
1.0
 40
1.0
 40
1.0
 10
4.8095703629
 20
12.9437977814
 30
0.0
 10
4.8095703629
 20
12.9342700014
 30
0.0
 10
4.8089115924
 20
12.9199907531
 30
0.0
 10
4.806712681
 20
12.9011361562
 30
0.0
 10
4.8036669093
 20
12.8826421002
 30
0.0
 10
4.7993448235
 20
12.8645543537
 30
0.0
 10
4.7937498874
 20
12.8470707202
 30
0.0
 10
4.788983795
 20
12.834445238
 30
0.0
 10
4.7836439098
 20
12.8222861014
 30
0.0
 10
4.7758695243
 20
12.8069230417
 30
0.0
 10
4.7669875211
 20
12.79252152
 30
0.0
 10
4.7570371887
 20
12.779322567
 30
0.0
 10
4.7492134979
 20
12.7702282938
 30
0.0
 10
4.7409851404
 20
12.7618762057
 30
0.0
 10
4.7351860176
 20
12.7567678464
 30
0.0
 10
4.7322305587
 20
12.7543547243
 30
0.0
  0
SPLINE
  5
2E3
100
AcDbEntity
  8
0
100
AcDbSpline
 62
7
  6
CONTINUOUS
 70
0
 71
3
 72
29
 73
25
 74
0
 42
0.0000001
 43
0.0000001
 44
0.0000000001
 40
0.0
 40
0.0
 40
0.0
 40
0.0
 40
0.0701165884
 40
0.1047784122
 40
0.1391573994
 40
0.2071039169
 40
0.2740294246
 40
0.3070927565
 40
0.3398752424
 40
0.4046376053
 40
0.4366481459
 40
0.4684128568
 40
0.4999178514
 40
0.5311503366
 40
0.5928383225
 40
0.6233390747
 40
0.6536261192
 40
0.7135063699
 40
0.7724101641
 40
0.8304043458
 40
0.8876131779
 40
0.9159726274
 40
0.9441736818
 40
1.0
 40
1.0
 40
1.0
 40
1.0
 10
4.8087739227
 20
13.21248055
 30
0.0
 10
4.8064700547
 20
13.214361653
 30
0.0
 10
4.8030425518
 20
13.2171914867
 30
0.0
 10
4.7985263654
 20
13.2209926786
 30
0.0
 10
4.794105929
 20
13.2247644871
 30
0.0
 10
4.7886899808
 20
13.229477777
 30
0.0
 10
4.7833718189
 20
13.2342176597
 30
0.0
 10
4.7792044415
 20
13.2380062358
 30
0.0
 10
4.7751311527
 20
13.2417616927
 30
0.0
 10
4.7711287513
 20
13.2455279428
 30
0.0
 10
4.767192122
 20
13.2493005283
 30
0.0
 10
4.7642914746
 20
13.2521151043
 30
0.0
 10
4.7614331962
 20
13.2549258283
 30
0.0
 10
4.7576966057
 20
13.2586535308
 30
0.0
 10
4.7540297029
 20
13.2623905461
 30
0.0
 10
4.7504242867
 20
13.2661311926
 30
0.0
 10
4.7468931027
 20
13.2698367758
 30
0.0
 10
4.7425736398
 20
13.2744553321
 30
0.0
 10
4.7375301293
 20
13.2800049503
 30
0.0
 10
4.7326359132
 20
13.2855361773
 30
0.0
 10
4.728654809
 20
13.2901446283
 30
0.0
 10
4.7255258024
 20
13.2938188168
 30
0.0
 10
4.7224519452
 20
13.2974628636
 30
0.0
 10
4.7201769011
 20
13.3002069183
 30
0.0
 10
4.7186791818
 20
13.3020412423
 30
0.0
  0
SPLINE
  5
2E4
100
AcDbEntity
  8
0
100
AcDbSpline
 62
7
  6
CONTINUOUS
 70
0
 71
3
 72
28
 73
24
 74
0
 42
0.0000001
 43
0.0000001
 44
0.0000000001
 40
0.0
 40
0.0
 40
0.0
 40
0.0
 40
0.0662296709
 40
0.0992114813
 40
0.1321180542
 40
0.197692421
 40
0.2628788702
 40
0.3276011858
 40
0.3918059948
 40
0.4237204403
 40
0.4555163694
 40
0.5187149534
 40
0.5500866932
 40
0.5812958233
 40
0.6432462113
 40
0.7045695855
 40
0.7349676763
 40
0.7651772639
 40
0.8250462477
 40
0.8841853188
 40
0.9134547934
 40
0.9425102045
 40
1.0
 40
1.0
 40
1.0
 40
1.0
 10
4.9380576024
 20
13.1229195118
 30
0.0
 10
4.9350943588
 20
13.1247341212
 30
0.0
 10
4.930664647
 20
13.127467441
 30
0.0
 10
4.9247805672
 20
13.1311312617
 30
0.0
 10
4.918933964
 20
13.1347901952
 30
0.0
 10
4.9116707408
 20
13.1393704141
 30
0.0
 10
4.903028556
 20
13.1448929503
 30
0.0
 10
4.8944855169
 20
13.1504367815
 30
0.0
 10
4.8874434358
 20
13.1550863679
 30
0.0
 10
4.8818634131
 20
13.1588148035
 30
0.0
 10
4.8763398492
 20
13.162532638
 30
0.0
 10
4.8708598456
 20
13.1662641699
 30
0.0
 10
4.8654308394
 20
13.1700155071
 30
0.0
 10
4.8600733858
 20
13.1737550695
 30
0.0
 10
4.8534585096
 20
13.1784384592
 30
0.0
 10
4.8469182918
 20
13.183153191
 30
0.0
 10
4.8417578833
 20
13.1869337915
 30
0.0
 10
4.8366792783
 20
13.1906967799
 30
0.0
 10
4.8304255555
 20
13.1954064183
 30
0.0
 10
4.8242579537
 20
13.2001478214
 30
0.0
 10
4.819404959
 20
13.2039462063
 30
0.0
 10
4.8146433265
 20
13.2077207283
 30
0.0
 10
4.8111102439
 20
13.210572952
 30
0.0
 10
4.8087739227
 20
13.21248055
 30
0.0
  0
SPLINE
  5
2E5
100
AcDbEntity
  8
0
100
AcDbSpline
 62
7
  6
CONTINUOUS
 70
0
 71
3
 72
31
 73
27
 74
0
 42
0.0000001
 43
0.0000001
 44
0.0000000001
 40
0.0
 40
0.0
 40
0.0
 40
0.0
 40
0.0629700536
 40
0.0944511821
 40
0.125926299
 40
0.1888538456
 40
0.251742599
 40
0.2831674241
 40
0.314576494
 40
0.3773452218
 40
0.4087044164
 40
0.4400445752
 40
0.4713632102
 40
0.5026581368
 40
0.5651772259
 40
0.596403798
 40
0.6276079682
 40
0.658787438
 40
0.6899399663
 40
0.7521595707
 40
0.8142667644
 40
0.8452807152
 40
0.8762713997
 40
0.9072410639
 40
0.9381886786
 40
1.0
 40
1.0
 40
1.0
 40
1.0
 10
4.9184633449
 20
12.9437981272
 30
0.0
 10
4.9184633453
 20
12.9475868512
 30
0.0
 10
4.9185024275
 20
12.9532698329
 30
0.0
 10
4.9186414835
 20
12.9608452354
 30
0.0
 10
4.9188415403
 20
12.9684167303
 30
0.0
 10
4.9192003141
 20
12.9778740331
 30
0.0
 10
4.9196866394
 20
12.9873225808
 30
0.0
 10
4.9201578272
 20
12.9948723224
 30
0.0
 10
4.9206862038
 20
13.0024110338
 30
0.0
 10
4.9212969537
 20
13.0099397741
 30
0.0
 10
4.9219784904
 20
13.0174580254
 30
0.0
 10
4.922525234
 20
13.0230883726
 30
0.0
 10
4.9231096564
 20
13.0287110496
 30
0.0
 10
4.9239418325
 20
13.0361938405
 30
0.0
 10
4.9248518191
 20
13.0436621742
 30
0.0
 10
4.9258243794
 20
13.0511168863
 30
0.0
 10
4.9265829708
 20
13.0566978512
 30
0.0
 10
4.9273734085
 20
13.0622698978
 30
0.0
 10
4.9284717378
 20
13.0696829242
 30
0.0
 10
4.9299322507
 20
13.0789232093
 30
0.0
 10
4.9314990017
 20
13.0881375464
 30
0.0
 10
4.9328066486
 20
13.0954896304
 30
0.0
 10
4.933811098
 20
13.1009927218
 30
0.0
 10
4.9348363085
 20
13.1064879219
 30
0.0
 10
4.9362302241
 20
13.1138006527
 30
0.0
 10
4.9373137186
 20
13.1192756447
 30
0.0
 10
4.9380575209
 20
13.1229195118
 30
0.0
  0
SPLINE
  5
2E6
100
AcDbEntity
  8
0
100
AcDbSpline
 62
7
  6
CONTINUOUS
 70
0
 71
3
 72
23
 73
19
 74
0
 42
0.0000001
 43
0.0000001
 44
0.0000000001
 40
0.0
 40
0.0
 40
0.0
 40
0.0
 40
0.0663356271
 40
0.1312496574
 40
0.1948665377
 40
0.2573473581
 40
0.3188784979
 40
0.3796730695
 40
0.4399642775
 40
0.5000000452
 40
0.5600358061
 40
0.6203269975
 40
0.6811215478
 40
0.742652667
 40
0.8051334705
 40
0.8687503396
 40
0.9336643682
 40
1.0
 40
1.0
 40
1.0
 40
1.0
 10
4.7322305587
 20
12.7543547243
 30
0.0
 10
4.7293412914
 20
12.7519956474
 30
0.0
 10
4.7234511082
 20
12.7475353339
 30
0.0
 10
4.7142210649
 20
12.7416101246
 30
0.0
 10
4.7047331235
 20
12.7365503232
 30
0.0
 10
4.6950285973
 20
12.7323788254
 30
0.0
 10
4.6851488919
 20
12.7291143473
 30
0.0
 10
4.6751368614
 20
12.7267717442
 30
0.0
 10
4.6650360711
 20
12.7253618184
 30
0.0
 10
4.6548907473
 20
12.7248911089
 30
0.0
 10
4.6447454244
 20
12.7253618198
 30
0.0
 10
4.6346446368
 20
12.7267717464
 30
0.0
 10
4.6246326097
 20
12.7291143495
 30
0.0
 10
4.6147529076
 20
12.732378827
 30
0.0
 10
4.6050483841
 20
12.736550324
 30
0.0
 10
4.5955604442
 20
12.7416101246
 30
0.0
 10
4.5863304013
 20
12.7475353337
 30
0.0
 10
4.5804402179
 20
12.7519956472
 30
0.0
 10
4.5775509503
 20
12.7543547243
 30
0.0
  0
SPLINE
  5
2E7
100
AcDbEntity
  8
0
100
AcDbSpline
 62
7
  6
CONTINUOUS
 70
0
 71
3
 72
11
 73
7
 74
0
 42
0.0000001
 43
0.0000001
 44
0.0000000001
 40
0.0
 40
0.0
 40
0.0
 40
0.0
 40
0.2382421449
 40
0.4842864618
 40
0.7382556366
 40
1.0
 40
1.0
 40
1.0
 40
1.0
 10
4.5775509503
 20
12.7543547243
 30
0.0
 10
4.5734085447
 20
12.7577369844
 30
0.0
 10
4.5653440539
 20
12.7650587319
 30
0.0
 10
4.5541941895
 20
12.7773495192
 30
0.0
 10
4.5438870988
 20
12.7910200372
 30
0.0
 10
4.5377226198
 20
12.800836664
 30
0.0
 10
4.5347977515
 20
12.8059322702
 30
0.0
  0
SPLINE
  5
2E8
100
AcDbEntity
  8
0
100
AcDbSpline
 62
7
  6
CONTINUOUS
 70
0
 71
3
 72
15
 73
11
 74
0
 42
0.0000001
 43
0.0000001
 44
0.0000000001
 40
0.0
 40
0.0
 40
0.0
 40
0.0
 40
0.1232689593
 40
0.2480166857
 40
0.3737585792
 40
0.5000000001
 40
0.6262414209
 40
0.7519833144
 40
0.8767310407
 40
1.0
 40
1.0
 40
1.0
 40
1.0
 10
5.0412918808
 20
13.0690700913
 30
0.0
 10
5.0449938335
 20
13.059229609
 30
0.0
 10
5.0515374972
 20
13.0390774212
 30
0.0
 10
5.0586213745
 20
13.0079542136
 30
0.0
 10
5.0629242761
 20
12.9760677606
 30
0.0
 10
5.0643671597
 20
12.9437977808
 30
0.0
 10
5.062924276
 20
12.911527801
 30
0.0
 10
5.0586213743
 20
12.8796413481
 30
0.0
 10
5.0515374969
 20
12.8485181405
 30
0.0
 10
5.0449938331
 20
12.8283659527
 30
0.0
 10
5.0412918805
 20
12.8185254705
 30
0.0
  0
SPLINE
  5
2E9
100
AcDbEntity
  8
0
100
AcDbSpline
 62
7
  6
CONTINUOUS
 70
0
 71
3
 72
11
 73
7
 74
0
 42
0.0000001
 43
0.0000001
 44
0.0000000001
 40
0.0
 40
0.0
 40
0.0
 40
0.0
 40
0.2617447098
 40
0.5157140101
 40
0.761758211
 40
1.0
 40
1.0
 40
1.0
 40
1.0
 10
4.5347964078
 20
13.0816609517
 30
0.0
 10
4.5377213349
 20
13.0867568043
 30
0.0
 10
4.5438859589
 20
13.0965739019
 30
0.0
 10
4.5541933529
 20
13.1102450615
 30
0.0
 10
4.5653435927
 20
13.122536397
 30
0.0
 10
4.573408385
 20
13.129858448
 30
0.0
 10
4.5775509503
 20
13.1332408384
 30
0.0
  0
SPLINE
  5
2EA
100
AcDbEntity
  8
0
100
AcDbSpline
 62
7
  6
CONTINUOUS
 70
0
 71
3
 72
23
 73
19
 74
0
 42
0.0000001
 43
0.0000001
 44
0.0000000001
 40
0.0
 40
0.0
 40
0.0
 40
0.0
 40
0.0663363193
 40
0.1312492455
 40
0.1948666828
 40
0.2573472954
 40
0.3188785101
 40
0.3796730529
 40
0.439964255
 40
0.5000000113
 40
0.5600357618
 40
0.6203269501
 40
0.6811214759
 40
0.7426526757
 40
0.8051332795
 40
0.868750717
 40
0.9336636557
 40
1.0
 40
1.0
 40
1.0
 40
1.0
 10
4.5893957985
 20
12.6751151248
 30
0.0
 10
4.5934936287
 20
12.6717692762
 30
0.0
 10
4.601847483
 20
12.6654433004
 30
0.0
 10
4.6149382872
 20
12.6570397756
 30
0.0
 10
4.6283947248
 20
12.6498635459
 30
0.0
 10
4.6421584763
 20
12.6439472378
 30
0.0
 10
4.656170613
 20
12.6393172994
 30
0.0
 10
4.6703704498
 20
12.6359948649
 30
0.0
 10
4.6846961607
 20
12.6339952161
 30
0.0
 10
4.6990850328
 20
12.6333276362
 30
0.0
 10
4.7134739029
 20
12.6339952354
 30
0.0
 10
4.7277996082
 20
12.6359949025
 30
0.0
 10
4.7419994373
 20
12.6393173541
 30
0.0
 10
4.7560115654
 20
12.6439473081
 30
0.0
 10
4.7697753083
 20
12.6498636311
 30
0.0
 10
4.7832317393
 20
12.6570398742
 30
0.0
 10
4.7963225346
 20
12.6654434174
 30
0.0
 10
4.8046763928
 20
12.6717693937
 30
0.0
 10
4.8087742162
 20
12.6751152539
 30
0.0
  0
SPLINE
  5
2EB
100
AcDbEntity
  8
0
100
AcDbSpline
 62
7
  6
CONTINUOUS
 70
0
 71
3
 72
21
 73
17
 74
0
 42
0.0000001
 43
0.0000001
 44
0.0000000001
 40
0.0
 40
0.0
 40
0.0
 40
0.0
 40
0.0542394837
 40
0.1097455631
 40
0.1665456812
 40
0.2246440567
 40
0.3445928872
 40
0.4064020773
 40
0.4693256628
 40
0.5332762277
 40
0.5981533303
 40
0.6638452368
 40
0.7302306097
 40
0.7971801599
 40
0.8645583511
 40
1.0
 40
1.0
 40
1.0
 40
1.0
 10
4.8087742162
 20
12.6751152539
 30
0.0
 10
4.8129659067
 20
12.6785377709
 30
0.0
 10
4.8211906676
 20
12.6857827776
 30
0.0
 10
4.8328607057
 20
12.6976284009
 30
0.0
 10
4.8439568673
 20
12.7105265043
 30
0.0
 10
4.8580691706
 20
12.7292463227
 30
0.0
 10
4.8706663131
 20
12.7496716614
 30
0.0
 10
4.8816925134
 20
12.771460706
 30
0.0
 10
4.8892659736
 20
12.7887058326
 30
0.0
 10
4.8960254611
 20
12.806611817
 30
0.0
 10
4.9019430272
 20
12.8251035327
 30
0.0
 10
4.9069933658
 20
12.8441017939
 30
0.0
 10
4.9111550576
 20
12.8635253619
 30
0.0
 10
4.9144104877
 20
12.8832923334
 30
0.0
 10
4.9175289638
 20
12.910032594
 30
0.0
 10
4.9184633507
 20
12.930284803
 30
0.0
 10
4.9184633491
 20
12.9437977814
 30
0.0
  0
SPLINE
  5
2EC
100
AcDbEntity
  8
0
100
AcDbSpline
 62
7
  6
CONTINUOUS
 70
0
 71
3
 72
21
 73
17
 74
0
 42
0.0000001
 43
0.0000001
 44
0.0000000001
 40
0.0
 40
0.0
 40
0.0
 40
0.0
 40
0.1354416613
 40
0.2028198753
 40
0.2697694553
 40
0.336154861
 40
0.4018467981
 40
0.4667239228
 40
0.5306744953
 40
0.5935980708
 40
0.6554072377
 40
0.7753560069
 40
0.8334543548
 40
0.8902544518
 40
0.9457605192
 40
1.0
 40
1.0
 40
1.0
 40
1.0
 10
4.9184633491
 20
12.9437977814
 30
0.0
 10
4.9184633469
 20
12.9573107696
 30
0.0
 10
4.9175289632
 20
12.9775629952
 30
0.0
 10
4.9144104809
 20
13.004303279
 30
0.0
 10
4.9111550447
 20
13.0240702711
 30
0.0
 10
4.9069933443
 20
13.0434938598
 30
0.0
 10
4.9019429953
 20
13.0624921401
 30
0.0
 10
4.8960254176
 20
13.0809838715
 30
0.0
 10
4.8892659182
 20
13.0988898666
 30
0.0
 10
4.8816924467
 20
13.1161349986
 30
0.0
 10
4.8706662331
 20
13.1379240434
 30
0.0
 10
4.8580690774
 20
13.158349379
 30
0.0
 10
4.84395676
 20
13.1770691917
 30
0.0
 10
4.8328605873
 20
13.1899672922
 30
0.0
 10
4.8211905328
 20
13.2018129087
 30
0.0
 10
4.812965768
 20
13.2090579199
 30
0.0
 10
4.8087740681
 20
13.2124804304
 30
0.0
  0
SPLINE
  5
2ED
100
AcDbEntity
  8
0
100
AcDbSpline
 62
7
  6
CONTINUOUS
 70
0
 71
3
 72
23
 73
19
 74
0
 42
0.0000001
 43
0.0000001
 44
0.0000000001
 40
0.0
 40
0.0
 40
0.0
 40
0.0
 40
0.06633632
 40
0.1312492473
 40
0.1948666856
 40
0.2573472991
 40
0.3188785146
 40
0.3796730579
 40
0.4399642604
 40
0.5000000169
 40
0.5600357673
 40
0.6203269554
 40
0.6811214807
 40
0.74265268
 40
0.805133283
 40
0.8687507196
 40
0.9336636573
 40
1.0
 40
1.0
 40
1.0
 40
1.0
 10
4.8087740681
 20
13.2124804304
 30
0.0
 10
4.8046762378
 20
13.2158262791
 30
0.0
 10
4.7963223837
 20
13.2221522553
 30
0.0
 10
4.7832315798
 20
13.2305557811
 30
0.0
 10
4.7697751426
 20
13.2377320117
 30
0.0
 10
4.7560113913
 20
13.2436483208
 30
0.0
 10
4.7419992547
 20
13.2482782602
 30
0.0
 10
4.727799418
 20
13.2516006957
 30
0.0
 10
4.7134737072
 20
13.2536003456
 30
0.0
 10
4.6990848352
 20
13.2542679266
 30
0.0
 10
4.6846959651
 20
13.2536003284
 30
0.0
 10
4.6703702597
 20
13.2516006623
 30
0.0
 10
4.6561704304
 20
13.2482782118
 30
0.0
 10
4.6421583022
 20
13.2436482587
 30
0.0
 10
4.628394559
 20
13.2377319368
 30
0.0
 10
4.6149381279
 20
13.2305556945
 30
0.0
 10
4.6018473317
 20
13.222152153
 30
0.0
 10
4.5934934749
 20
13.2158261754
 30
0.0
 10
4.58939565
 20
13.2124803172
 30
0.0
  0
SPLINE
  5
2EE
100
AcDbEntity
  8
0
100
AcDbSpline
 62
7
  6
CONTINUOUS
 70
0
 71
3
 72
15
 73
11
 74
0
 42
0.0000001
 43
0.0000001
 44
0.0000000001
 40
0.0
 40
0.0
 40
0.0
 40
0.0
 40
0.1146958816
 40
0.2323673633
 40
0.353077601
 40
0.476820632
 40
0.6035308427
 40
0.7330862109
 40
0.8653147473
 40
1.0
 40
1.0
 40
1.0
 40
1.0
 10
4.58939565
 20
13.2124803172
 30
0.0
 10
4.5847400615
 20
13.2086790273
 30
0.0
 10
4.5756246694
 20
13.2005822556
 30
0.0
 10
4.5627801243
 20
13.1872417442
 30
0.0
 10
4.5506557951
 20
13.1726220468
 30
0.0
 10
4.539315758
 20
13.1568013262
 30
0.0
 10
4.5288183753
 20
13.1398627347
 30
0.0
 10
4.5192181072
 20
13.1218951445
 30
0.0
 10
4.5105650474
 20
13.1029937121
 30
0.0
 10
4.5055004651
 20
13.0899459724
 30
0.0
 10
4.5031336611
 20
13.0832968079
 30
0.0
  0
SPLINE
  5
2EF
100
AcDbEntity
  8
0
100
AcDbSpline
 62
7
  6
CONTINUOUS
 70
0
 71
3
 72
15
 73
11
 74
0
 42
0.0000001
 43
0.0000001
 44
0.0000000001
 40
0.0
 40
0.0
 40
0.0
 40
0.0
 40
0.1346845707
 40
0.2669124572
 40
0.3964673076
 40
0.5231772222
 40
0.6469202518
 40
0.7676308343
 40
0.8853030297
 40
1.0
 40
1.0
 40
1.0
 40
1.0
 10
4.5031408837
 20
12.8042784657
 30
0.0
 10
4.5055077372
 20
12.7976303735
 30
0.0
 10
4.510572324
 20
12.7845847498
 30
0.0
 10
4.5192251052
 20
12.7656864017
 30
0.0
 10
4.528824821
 20
12.7477217408
 30
0.0
 10
4.539321393
 20
12.730785882
 30
0.0
 10
4.5506603807
 20
12.7149676604
 30
0.0
 10
4.5627834393
 20
12.7003501901
 30
0.0
 10
4.5756265254
 20
12.6870116125
 30
0.0
 10
4.5847407881
 20
12.6789159234
 30
0.0
 10
4.5893957985
 20
12.6751151248
 30
0.0
  0
SPLINE
  5
2F0
100
AcDbEntity
  8
0
100
AcDbSpline
 62
7
  6
CONTINUOUS
 70
0
 71
3
 72
23
 73
19
 74
0
 42
0.0000001
 43
0.0000001
 44
0.0000000001
 40
0.0
 40
0.0
 40
0.0
 40
0.0
 40
0.0663356271
 40
0.1312496574
 40
0.1948665377
 40
0.2573473581
 40
0.3188784979
 40
0.3796730695
 40
0.4399642775
 40
0.5000000452
 40
0.5600358061
 40
0.6203269975
 40
0.6811215478
 40
0.742652667
 40
0.8051334705
 40
0.8687503396
 40
0.9336643682
 40
1.0
 40
1.0
 40
1.0
 40
1.0
 10
4.5775509503
 20
13.1332408384
 30
0.0
 10
4.5804402177
 20
13.1355999154
 30
0.0
 10
4.5863304009
 20
13.1400602288
 30
0.0
 10
4.5955604442
 20
13.1459854382
 30
0.0
 10
4.6050483856
 20
13.1510452395
 30
0.0
 10
4.6147529118
 20
13.1552167373
 30
0.0
 10
4.6246326171
 20
13.1584812154
 30
0.0
 10
4.6346446477
 20
13.1608238185
 30
0.0
 10
4.6447454379
 20
13.1622337444
 30
0.0
 10
4.6548907618
 20
13.1627044538
 30
0.0
 10
4.6650360847
 20
13.1622337429
 30
0.0
 10
4.6751368722
 20
13.1608238164
 30
0.0
 10
4.6851488994
 20
13.1584812133
 30
0.0
 10
4.6950286015
 20
13.1552167357
 30
0.0
 10
4.704733125
 20
13.1510452388
 30
0.0
 10
4.7142210649
 20
13.1459854381
 30
0.0
 10
4.7234511078
 20
13.140060229
 30
0.0
 10
4.7293412912
 20
13.1355999155
 30
0.0
 10
4.7322305587
 20
13.1332408384
 30
0.0
  0
SPLINE
  5
2F1
100
AcDbEntity
  8
0
100
AcDbSpline
 62
7
  6
CONTINUOUS
 70
0
 71
3
 72
13
 73
9
 74
0
 42
0.0000001
 43
0.0000001
 44
0.0000000001
 40
0.0
 40
0.0
 40
0.0
 40
0.0
 40
0.1282722293
 40
0.2562292658
 40
0.446828955
 40
0.6349502662
 40
0.8196267195
 40
1.0
 40
1.0
 40
1.0
 40
1.0
 10
4.6381454775
 20
12.9437977814
 30
0.0
 10
4.6381454775
 20
12.9409856015
 30
0.0
 10
4.6380044582
 20
12.9353670504
 30
0.0
 10
4.6372662895
 20
12.9255952631
 30
0.0
 10
4.6357296895
 20
12.9145822334
 30
0.0
 10
4.6330778754
 20
12.9025055492
 30
0.0
 10
4.6295349636
 20
12.890893816
 30
0.0
 10
4.6265650219
 20
12.8834495545
 30
0.0
 10
4.6249375372
 20
12.8798455678
 30
0.0
  0
SPLINE
  5
2F2
100
AcDbEntity
  8
0
100
AcDbSpline
 62
7
  6
CONTINUOUS
 70
0
 71
3
 72
9
 73
5
 74
0
 42
0.0000001
 43
0.0000001
 44
0.0000000001
 40
0.0
 40
0.0
 40
0.0
 40
0.0
 40
0.5108089532
 40
1.0
 40
1.0
 40
1.0
 40
1.0
 10
6.6202301609
 20
13.5875477814
 30
0.0
 10
6.6168758548
 20
13.5918386678
 30
0.0
 10
6.6102941278
 20
13.6002271429
 30
0.0
 10
6.6035972826
 20
13.608524822
 30
0.0
 10
6.6002764703
 20
13.6125469698
 30
0.0
  0
SPLINE
  5
2F3
100
AcDbEntity
  8
0
100
AcDbSpline
 62
7
  6
CONTINUOUS
 70
0
 71
3
 72
25
 73
21
 74
0
 42
0.0000001
 43
0.0000001
 44
0.0000000001
 40
0.0
 40
0.0
 40
0.0
 40
0.0
 40
0.0141445115
 40
0.0297215196
 40
0.0467624342
 40
0.0652680742
 40
0.0852179095
 40
0.1065770818
 40
0.1293017774
 40
0.1533409114
 40
0.205148983
 40
0.2615740589
 40
0.3221847992
 40
0.3865724331
 40
0.4543656935
 40
0.52523004
 40
0.598859389
 40
0.6749924936
 40
0.8338165931
 40
1.0
 40
1.0
 40
1.0
 40
1.0
 10
5.5708720839
 20
13.6591793228
 30
0.0
 10
5.5708720839
 20
13.6589170266
 30
0.0
 10
5.5708398137
 20
13.6583656952
 30
0.0
 10
5.5707126326
 20
13.6575070979
 30
0.0
 10
5.5705069505
 20
13.6565809439
 30
0.0
 10
5.5702254576
 20
13.6555905764
 30
0.0
 10
5.5698709182
 20
13.6545391782
 30
0.0
 10
5.5694460625
 20
13.6534300501
 30
0.0
 10
5.568953733
 20
13.652266426
 30
0.0
 10
5.5681917113
 20
13.6506046768
 30
0.0
 10
5.5670821767
 20
13.6484160403
 30
0.0
 10
5.5655577729
 20
13.645680488
 30
0.0
 10
5.5638276531
 20
13.6427945664
 30
0.0
 10
5.5619097132
 20
13.6397770407
 30
0.0
 10
5.5598204437
 20
13.6366442753
 30
0.0
 10
5.5575743354
 20
13.6334110312
 30
0.0
 10
5.5551842881
 20
13.630090208
 30
0.0
 10
5.5517743627
 20
13.625494508
 30
0.0
 10
5.5472259029
 20
13.6196073371
 30
0.0
 10
5.5434312711
 20
13.6149243018
 30
0.0
 10
5.5414693629
 20
13.6125477814
 30
0.0
  0
SPLINE
  5
2F4
100
AcDbEntity
  8
0
100
AcDbSpline
 62
7
  6
CONTINUOUS
 70
0
 71
3
 72
10
 73
6
 74
0
 42
0.0000001
 43
0.0000001
 44
0.0000000001
 40
0.0
 40
0.0
 40
0.0
 40
0.0
 40
0.2414975649
 40
0.6151221449
 40
1.0
 40
1.0
 40
1.0
 40
1.0
 10
5.5414676974
 20
13.6125469698
 30
0.0
 10
5.5398282484
 20
13.6105614118
 30
0.0
 10
5.5356799286
 20
13.6054811785
 30
0.0
 10
5.52903163
 20
13.5971451053
 30
0.0
 10
5.5240412775
 20
13.5907809187
 30
0.0
 10
5.5215140069
 20
13.5875477814
 30
0.0
  0
SPLINE
  5
2F5
100
AcDbEntity
  8
0
100
AcDbSpline
 62
7
  6
CONTINUOUS
 70
0
 71
3
 72
25
 73
21
 74
0
 42
0.0000001
 43
0.0000001
 44
0.0000000001
 40
0.0
 40
0.0
 40
0.0
 40
0.0
 40
0.1661834251
 40
0.3250075511
 40
0.401140665
 40
0.4747700159
 40
0.5456343714
 40
0.6134276333
 40
0.6778152656
 40
0.7384259944
 40
0.7948510764
 40
0.846659158
 40
0.8706982851
 40
0.8934229761
 40
0.9147821428
 40
0.9347319669
 40
0.9532375945
 40
0.970278496
 40
0.985855493
 40
1.0
 40
1.0
 40
1.0
 40
1.0
 10
6.6002748048
 20
13.6125477814
 30
0.0
 10
6.5983128964
 20
13.6149243021
 30
0.0
 10
6.5945182653
 20
13.6196073389
 30
0.0
 10
6.5899698029
 20
13.6254945091
 30
0.0
 10
6.5865598783
 20
13.6300902106
 30
0.0
 10
6.58416983
 20
13.6334110336
 30
0.0
 10
6.5819237217
 20
13.636644278
 30
0.0
 10
6.5798344529
 20
13.639777044
 30
0.0
 10
6.577916513
 20
13.6427945694
 30
0.0
 10
6.5761863929
 20
13.6456804907
 30
0.0
 10
6.5746619894
 20
13.6484160433
 30
0.0
 10
6.573552455
 20
13.6506046801
 30
0.0
 10
6.5727904332
 20
13.6522664292
 30
0.0
 10
6.5722981041
 20
13.6534300531
 30
0.0
 10
6.5718732485
 20
13.6545391809
 30
0.0
 10
6.5715187094
 20
13.6555905785
 30
0.0
 10
6.5712372169
 20
13.6565809454
 30
0.0
 10
6.5710315348
 20
13.6575070988
 30
0.0
 10
6.5709043539
 20
13.6583656956
 30
0.0
 10
6.5708720839
 20
13.6589170267
 30
0.0
 10
6.5708720839
 20
13.6591793228
 30
0.0
  0
SPLINE
  5
2F6
100
AcDbEntity
  8
0
100
AcDbSpline
 62
7
  6
CONTINUOUS
 70
0
 71
3
 72
12
 73
8
 74
0
 42
0.0000001
 43
0.0000001
 44
0.0000000001
 40
0.0
 40
0.0
 40
0.0
 40
0.0
 40
0.2414590651
 40
0.4274017834
 40
0.6164789545
 40
0.8076941525
 40
1.0
 40
1.0
 40
1.0
 40
1.0
 10
4.6249375372
 20
13.007749995
 30
0.0
 10
4.6271159939
 20
13.0029259071
 30
0.0
 10
4.6304658286
 20
12.9941490586
 30
0.0
 10
4.6340623975
 20
12.9811098019
 30
0.0
 10
4.6364101632
 20
12.9689075274
 30
0.0
 10
4.637829244
 20
12.9564243089
 30
0.0
 10
4.6381454775
 20
12.9480134226
 30
0.0
 10
4.6381454775
 20
12.9437977814
 30
0.0
  0
SPLINE
  5
2F7
100
AcDbEntity
  8
0
100
AcDbSpline
 62
7
  6
CONTINUOUS
 70
0
 71
3
 72
9
 73
5
 74
0
 42
0.0000001
 43
0.0000001
 44
0.0000000001
 40
0.0
 40
0.0
 40
0.0
 40
0.0
 40
0.4964693894
 40
1.0
 40
1.0
 40
1.0
 40
1.0
 10
16.5478552569
 20
7.1221618552
 30
0.0
 10
16.5522422441
 20
7.1232957464
 30
0.0
 10
16.5608965717
 20
7.1263354454
 30
0.0
 10
16.5689699525
 20
7.1306704689
 30
0.0
 10
16.5728544453
 20
7.1331261286
 30
0.0
  0
SPLINE
  5
2F8
100
AcDbEntity
  8
0
100
AcDbSpline
 62
7
  6
CONTINUOUS
 70
0
 71
3
 72
16
 73
12
 74
0
 42
0.0000001
 43
0.0000001
 44
0.0000000001
 40
0.0
 40
0.0
 40
0.0
 40
0.0
 40
0.1129861273
 40
0.2293816495
 40
0.3493122756
 40
0.4729043126
 40
0.6001653181
 40
0.730894712
 40
0.7974275992
 40
0.8645780984
 40
1.0
 40
1.0
 40
1.0
 40
1.0
 10
16.5728552569
 20
7.1331281515
 30
0.0
 10
16.575312884
 20
7.1346817168
 30
0.0
 10
16.5801808482
 20
7.1380319114
 30
0.0
 10
16.5871863591
 20
7.1436777622
 30
0.0
 10
16.5939234282
 20
7.1500479032
 30
0.0
 10
16.6003110798
 20
7.1571503962
 30
0.0
 10
16.6062389382
 20
7.1649939778
 30
0.0
 10
16.6106535024
 20
7.1720988915
 30
0.0
 10
16.613810535
 20
7.178129456
 30
0.0
 10
16.6167025934
 20
7.1844237521
 30
0.0
 10
16.6184912998
 20
7.1893358949
 30
0.0
 10
16.6194867983
 20
7.192675512
 30
0.0
  0
SPLINE
  5
2F9
100
AcDbEntity
  8
0
100
AcDbSpline
 62
7
  6
CONTINUOUS
 70
0
 71
3
 72
11
 73
7
 74
0
 42
0.0000001
 43
0.0000001
 44
0.0000000001
 40
0.0
 40
0.0
 40
0.0
 40
0.0
 40
0.2622568489
 40
0.5142117583
 40
0.7589669253
 40
1.0
 40
1.0
 40
1.0
 40
1.0
 10
16.6194867983
 20
5.0276120026
 30
0.0
 10
16.6200320518
 20
5.0266974167
 30
0.0
 10
16.6210000974
 20
5.0248408016
 30
0.0
 10
16.6220671563
 20
5.0219406071
 30
0.0
 10
16.6227116724
 20
5.0190058083
 30
0.0
 10
16.6228552569
 20
5.0170305557
 30
0.0
 10
16.6228552569
 20
5.0160519404
 30
0.0
  0
SPLINE
  5
2FA
100
AcDbEntity
  8
0
100
AcDbSpline
 62
7
  6
CONTINUOUS
 70
0
 71
3
 72
19
 73
15
 74
0
 42
0.0000001
 43
0.0000001
 44
0.0000000001
 40
0.0
 40
0.0
 40
0.0
 40
0.0
 40
0.0428361503
 40
0.0902140709
 40
0.1416035929
 40
0.1965013433
 40
0.2544356819
 40
0.314982386
 40
0.3777640759
 40
0.4424456048
 40
0.5763804177
 40
0.7148765173
 40
0.8564687711
 40
1.0
 40
1.0
 40
1.0
 40
1.0
 10
16.6194867983
 20
5.0276120026
 30
0.0
 10
16.6189573886
 20
5.0285000127
 30
0.0
 10
16.6177987484
 20
5.0303442337
 30
0.0
 10
16.6158839849
 20
5.0331755861
 30
0.0
 10
16.6137248627
 20
5.0361914368
 30
0.0
 10
16.6113480364
 20
5.0393634673
 30
0.0
 10
16.6087781634
 20
5.0426660837
 30
0.0
 10
16.6060375338
 20
5.0460761833
 30
0.0
 10
16.603147233
 20
5.0495743357
 30
0.0
 10
16.5990711342
 20
5.0543897351
 30
0.0
 10
16.5937147983
 20
5.060514762
 30
0.0
 10
16.587007918
 20
5.0679224982
 30
0.0
 10
16.5800265106
 20
5.0753922345
 30
0.0
 10
16.5752670753
 20
5.0803625842
 30
0.0
 10
16.5728552569
 20
5.0828491861
 30
0.0
  0
SPLINE
  5
2FB
100
AcDbEntity
  8
0
100
AcDbSpline
 62
7
  6
CONTINUOUS
 70
0
 71
3
 72
10
 73
6
 74
0
 42
0.0000001
 43
0.0000001
 44
0.0000000001
 40
0.0
 40
0.0
 40
0.0
 40
0.0
 40
0.2499371521
 40
0.6256435869
 40
1.0
 40
1.0
 40
1.0
 40
1.0
 10
16.5728544453
 20
5.0828516399
 30
0.0
 10
16.5708924051
 20
5.0848748164
 30
0.0
 10
16.565899779
 20
5.0898610179
 30
0.0
 10
16.5576107754
 20
5.0975116288
 30
0.0
 10
16.5511415853
 20
5.1029648184
 30
0.0
 10
16.5478552569
 20
5.1056141795
 30
0.0
  0
SPLINE
  5
2FC
100
AcDbEntity
  8
0
100
AcDbSpline
 62
7
  6
CONTINUOUS
 70
0
 71
3
 72
33
 73
29
 74
0
 42
0.0000001
 43
0.0000001
 44
0.0000000001
 40
0.0
 40
0.0
 40
0.0
 40
0.0
 40
0.0696528454
 40
0.1380937791
 40
0.2053497595
 40
0.2385451227
 40
0.271456996
 40
0.304090442
 40
0.3364515974
 40
0.4003860597
 40
0.4633349152
 40
0.5253748676
 40
0.5560818556
 40
0.5865931441
 40
0.6169199839
 40
0.6470738901
 40
0.6770666583
 40
0.7069103667
 40
0.7366173721
 40
0.7662003056
 40
0.7956720661
 40
0.825045813
 40
0.8543349638
 40
0.8835532893
 40
0.9127148161
 40
0.9418336543
 40
0.9709239759
 40
1.0
 40
1.0
 40
1.0
 40
1.0
 10
16.4383165013
 20
11.6065974135
 30
0.0
 10
16.4433787705
 20
11.5962815935
 30
0.0
 10
16.4530411095
 20
11.5756430008
 30
0.0
 10
16.4662236794
 20
11.5444268461
 30
0.0
 10
16.4760408588
 20
11.5183416224
 30
0.0
 10
16.4831504237
 20
11.497518969
 30
0.0
 10
16.4880909047
 20
11.4819951782
 30
0.0
 10
16.4926608389
 20
11.4665016617
 30
0.0
 10
16.4982350753
 20
11.445973602
 30
0.0
 10
16.5042844068
 20
11.420398359
 30
0.0
 10
16.5100764717
 20
11.3897629667
 30
0.0
 10
16.5136643267
 20
11.3643181076
 30
0.0
 10
16.5157727892
 20
11.344091512
 30
0.0
 10
16.5169719237
 20
11.3290349405
 30
0.0
 10
16.5177937188
 20
11.3140445041
 30
0.0
 10
16.5182383621
 20
11.2991236796
 30
0.0
 10
16.5183059251
 20
11.2842760712
 30
0.0
 10
16.5179965105
 20
11.2695052521
 30
0.0
 10
16.5173102122
 20
11.2548148052
 30
0.0
 10
16.5162471291
 20
11.2402083116
 30
0.0
 10
16.514807352
 20
11.2256893551
 30
0.0
 10
16.5129910011
 20
11.2112615143
 30
0.0
 10
16.5107980872
 20
11.1969283675
 30
0.0
 10
16.5082291146
 20
11.182693389
 30
0.0
 10
16.5052850998
 20
11.1685599209
 30
0.0
 10
16.5019669348
 20
11.1545312484
 30
0.0
 10
16.4982755927
 20
11.1406108186
 30
0.0
 10
16.4955662057
 20
11.1314038181
 30
0.0
 10
16.4941500361
 20
11.1268208125
 30
0.0
  0
SPLINE
  5
2FD
100
AcDbEntity
  8
0
100
AcDbSpline
 62
7
  6
CONTINUOUS
 70
0
 71
3
 72
71
 73
67
 74
0
 42
0.0000001
 43
0.0000001
 44
0.0000000001
 40
0.0
 40
0.0
 40
0.0
 40
0.0
 40
0.0140481302
 40
0.0282315415
 40
0.0425471238
 40
0.0569915136
 40
0.0715611191
 40
0.0862521433
 40
0.1010611828
 40
0.1159863045
 40
0.1310256859
 40
0.1461773345
 40
0.161439102
 40
0.176808693
 40
0.1922831871
 40
0.2078585503
 40
0.2235305134
 40
0.2392947035
 40
0.2551466564
 40
0.2710818247
 40
0.2870954467
 40
0.3031824997
 40
0.3193378745
 40
0.335556398
 40
0.3518328437
 40
0.3681619267
 40
0.3845380975
 40
0.400955592
 40
0.4174086026
 40
0.4338912922
 40
0.4503978046
 40
0.4669222634
 40
0.4834587178
 40
0.5000011741
 40
0.5165436284
 40
0.5330800767
 40
0.5496045246
 40
0.566111016
 40
0.582593675
 40
0.5990466491
 40
0.6154641051
 40
0.6318402385
 40
0.6481692857
 40
0.6644456769
 40
0.6806641275
 40
0.696819419
 40
0.7129063855
 40
0.7289199249
 40
0.7448550174
 40
0.7607068887
 40
0.7764709929
 40
0.7921428688
 40
0.8077181465
 40
0.8231925596
 40
0.8385620564
 40
0.8538236779
 40
0.8689751478
 40
0.8840143398
 40
0.8989392835
 40
0.9137481782
 40
0.9284391232
 40
0.9430087158
 40
0.9574531174
 40
0.9717686936
 40
0.9859520386
 40
1.0
 40
1.0
 40
1.0
 40
1.0
 10
13.4878242954
 20
10.6997407914
 30
0.0
 10
13.4951979214
 20
10.6916715924
 30
0.0
 10
13.5101919166
 20
10.6756151584
 30
0.0
 10
13.5332911174
 20
10.6518966708
 30
0.0
 10
13.5570908197
 20
10.6284396868
 30
0.0
 10
13.5815733997
 20
10.6052572746
 30
0.0
 10
13.6067214025
 20
10.5823623076
 30
0.0
 10
13.6325176883
 20
10.5597674426
 30
0.0
 10
13.6589463778
 20
10.5374841484
 30
0.0
 10
13.6859921409
 20
10.5155215262
 30
0.0
 10
13.7136408441
 20
10.4938877145
 30
0.0
 10
13.7418785147
 20
10.4725906923
 30
0.0
 10
13.7706911762
 20
10.4516384375
 30
0.0
 10
13.8000645567
 20
10.4310391832
 30
0.0
 10
13.8299833139
 20
10.4108016606
 30
0.0
 10
13.8604308151
 20
10.3909349091
 30
0.0
 10
13.8913897779
 20
10.3714485323
 30
0.0
 10
13.9228428359
 20
10.3523521777
 30
0.0
 10
13.954772602
 20
10.3336554627
 30
0.0
 10
13.987161666
 20
10.3153682033
 30
0.0
 10
14.0199920208
 20
10.2974997201
 30
0.0
 10
14.0532449304
 20
10.2800585318
 30
0.0
 10
14.0869016336
 20
10.2630534053
 30
0.0
 10
14.1209433384
 20
10.2464930764
 30
0.0
 10
14.1553512286
 20
10.2303862535
 30
0.0
 10
14.1901063865
 20
10.2147418941
 30
0.0
 10
14.2251891569
 20
10.199568136
 30
0.0
 10
14.2605793634
 20
10.1848726667
 30
0.0
 10
14.2962567703
 20
10.1706633618
 30
0.0
 10
14.3322011249
 20
10.1569480721
 30
0.0
 10
14.3683921599
 20
10.1437346236
 30
0.0
 10
14.4048095898
 20
10.1310310014
 30
0.0
 10
14.4414325606
 20
10.1188438398
 30
0.0
 10
14.4782400899
 20
10.1071795546
 30
0.0
 10
14.5152111988
 20
10.0960446316
 30
0.0
 10
14.5523249005
 20
10.0854455338
 30
0.0
 10
14.5895602335
 20
10.0753887501
 30
0.0
 10
14.626896258
 20
10.0658806597
 30
0.0
 10
14.6643117255
 20
10.056926145
 30
0.0
 10
14.7017854831
 20
10.0485301409
 30
0.0
 10
14.7392963835
 20
10.0406975685
 30
0.0
 10
14.7768232774
 20
10.0334333225
 30
0.0
 10
14.8143451491
 20
10.0267423928
 30
0.0
 10
14.8518411839
 20
10.0206292597
 30
0.0
 10
14.8892906962
 20
10.0150971904
 30
0.0
 10
14.9266732456
 20
10.0101495893
 30
0.0
 10
14.9639684028
 20
10.0057898244
 30
0.0
 10
15.001155743
 20
10.0020212235
 30
0.0
 10
15.0382149876
 20
9.9988472964
 30
0.0
 10
15.0751260132
 20
9.9962706111
 30
0.0
 10
15.111868897
 20
9.9942928557
 30
0.0
 10
15.1484238624
 20
9.9929158871
 30
0.0
 10
15.184771134
 20
9.9921415205
 30
0.0
 10
15.220891015
 20
9.9919715611
 30
0.0
 10
15.2567646322
 20
9.9924079132
 30
0.0
 10
15.2923743638
 20
9.9934520536
 30
0.0
 10
15.3277037834
 20
9.995105235
 30
0.0
 10
15.3627368994
 20
9.9973687604
 30
0.0
 10
15.3974577247
 20
10.000243929
 30
0.0
 10
15.4318500579
 20
10.003731997
 30
0.0
 10
15.4658961487
 20
10.0078341123
 30
0.0
 10
15.4995764077
 20
10.0125497735
 30
0.0
 10
15.5328694803
 20
10.0178781777
 30
0.0
 10
15.5657535957
 20
10.0238185245
 30
0.0
 10
15.5982067339
 20
10.030369946
 30
0.0
 10
15.6196450423
 20
10.0351678479
 30
0.0
 10
15.6302854156
 20
10.0376702306
 30
0.0
  0
SPLINE
  5
2FE
100
AcDbEntity
  8
0
100
AcDbSpline
 62
7
  6
CONTINUOUS
 70
0
 71
3
 72
16
 73
12
 74
0
 42
0.0000001
 43
0.0000001
 44
0.0000000001
 40
0.0
 40
0.0
 40
0.0
 40
0.0
 40
0.1195818531
 40
0.2406680837
 40
0.3632848032
 40
0.4251740864
 40
0.4874496724
 40
0.7404336159
 40
0.8047014987
 40
0.8693833689
 40
1.0
 40
1.0
 40
1.0
 40
1.0
 10
13.2861393706
 20
10.9897432077
 30
0.0
 10
13.2923634867
 20
10.9770597925
 30
0.0
 10
13.3054197833
 20
10.9517898873
 30
0.0
 10
13.3266192767
 20
10.9144580576
 30
0.0
 10
13.3456346012
 20
10.8837555592
 30
0.0
 10
13.3616611045
 20
10.8593968436
 30
0.0
 10
13.3868193677
 20
10.822618224
 30
0.0
 10
13.4137883239
 20
10.7867371663
 30
0.0
 10
13.4423455872
 20
10.7517984995
 30
0.0
 10
13.4621350943
 20
10.7283693568
 30
0.0
 10
13.4774437995
 20
10.7110986678
 30
0.0
 10
13.4878545887
 20
10.6997073197
 30
0.0
  0
SPLINE
  5
2FF
100
AcDbEntity
  8
0
100
AcDbSpline
 62
7
  6
CONTINUOUS
 70
0
 71
3
 72
39
 73
35
 74
0
 42
0.0000001
 43
0.0000001
 44
0.0000000001
 40
0.0
 40
0.0
 40
0.0
 40
0.0
 40
0.069567834
 40
0.1038803591
 40
0.1378810869
 40
0.1715740623
 40
0.204964287
 40
0.2380574942
 40
0.2708601725
 40
0.3356198362
 40
0.3993254617
 40
0.4308132221
 40
0.4620689402
 40
0.4931044242
 40
0.5239331929
 40
0.5392752932
 40
0.5545715669
 40
0.569823623
 40
0.5850327866
 40
0.6153271245
 40
0.6454685421
 40
0.6754718651
 40
0.7053539757
 40
0.7351309891
 40
0.7648101246
 40
0.7796155296
 40
0.7943988633
 40
0.8239019217
 40
0.8533297895
 40
0.8826949988
 40
0.9120193662
 40
0.9413277835
 40
0.9706458768
 40
1.0
 40
1.0
 40
1.0
 40
1.0
 10
15.6302460199
 20
10.037660939
 30
0.0
 10
15.6514567568
 20
10.0426485264
 30
0.0
 10
15.6829757331
 20
10.050777914
 30
0.0
 10
15.7244007812
 20
10.0629923634
 30
0.0
 10
15.754829277
 20
10.0727424628
 30
0.0
 10
15.7847423836
 20
10.0831241161
 30
0.0
 10
15.8141252073
 20
10.0941382844
 30
0.0
 10
15.8429624767
 20
10.1057862286
 30
0.0
 10
15.8804998258
 20
10.1220928174
 30
0.0
 10
15.9260145171
 20
10.1440562323
 30
0.0
 10
15.9698661825
 20
10.1683447111
 30
0.0
 10
16.0036259085
 20
10.1890627768
 30
0.0
 10
16.0281852578
 20
10.2051829565
 30
0.0
 10
16.0520603462
 20
10.2219432687
 30
0.0
 10
16.0714007061
 20
10.2364667174
 30
0.0
 10
16.0865060413
 20
10.2484039762
 30
0.0
 10
16.0976338123
 20
10.2575025342
 30
0.0
 10
16.1085751608
 20
10.2667601446
 30
0.0
 10
16.1228913754
 20
10.2792974377
 30
0.0
 10
16.1403108365
 20
10.2953644918
 30
0.0
 10
16.1604475367
 20
10.3152949919
 30
0.0
 10
16.1797653709
 20
10.3358438483
 30
0.0
 10
16.1982388293
 20
10.3570040952
 30
0.0
 10
16.215839971
 20
10.3787648456
 30
0.0
 10
16.2297722148
 20
10.3973975846
 30
0.0
 10
16.2404539456
 20
10.412580836
 30
0.0
 10
16.2508078559
 20
10.4279229981
 30
0.0
 10
16.2631598121
 20
10.4474366282
 30
0.0
 10
16.277015079
 20
10.4713790011
 30
0.0
 10
16.2898674936
 20
10.4958115285
 30
0.0
 10
16.3017005395
 20
10.5207122688
 30
0.0
 10
16.3125002728
 20
10.5460624702
 30
0.0
 10
16.3222526785
 20
10.5718432428
 30
0.0
 10
16.3280419953
 20
10.589290664
 30
0.0
 10
16.3307564896
 20
10.5980747709
 30
0.0
  0
SPLINE
  5
300
100
AcDbEntity
  8
0
100
AcDbSpline
 62
7
  6
CONTINUOUS
 70
0
 71
3
 72
34
 73
30
 74
0
 42
0.0000001
 43
0.0000001
 44
0.0000000001
 40
0.0
 40
0.0
 40
0.0
 40
0.0
 40
0.0304947168
 40
0.0609589286
 40
0.091404314
 40
0.1218423514
 40
0.1522843164
 40
0.1827412802
 40
0.2132241086
 40
0.2284788875
 40
0.2437440437
 40
0.2743078218
 40
0.3049208959
 40
0.3355874105
 40
0.3663110487
 40
0.3970950609
 40
0.4279422947
 40
0.458855224
 40
0.4898362794
 40
0.5208912857
 40
0.5520280794
 40
0.5832539453
 40
0.6145755816
 40
0.6775261473
 40
0.740926529
 40
0.8048212353
 40
0.8692662074
 40
0.9343116076
 40
1.0
 40
1.0
 40
1.0
 40
1.0
 10
13.2256387458
 20
11.5576287282
 30
0.0
 10
13.223882499
 20
11.5519455115
 30
0.0
 10
13.2205234976
 20
11.5405372314
 30
0.0
 10
13.2159456962
 20
11.5233032507
 30
0.0
 10
13.2118313109
 20
11.5059640367
 30
0.0
 10
13.2081801152
 20
11.4885258954
 30
0.0
 10
13.2049918177
 20
11.4709949039
 30
0.0
 10
13.2022661506
 20
11.4533772891
 30
0.0
 10
13.2003805652
 20
11.4386327731
 30
0.0
 10
13.1991031174
 20
11.4268018663
 30
0.0
 10
13.1979788519
 20
11.4149395582
 30
0.0
 10
13.1968617349
 20
11.4000686385
 30
0.0
 10
13.1959801267
 20
11.3821731847
 30
0.0
 10
13.1955545255
 20
11.364229865
 30
0.0
 10
13.1955825399
 20
11.3462482247
 30
0.0
 10
13.1960617651
 20
11.3282377107
 30
0.0
 10
13.1969898251
 20
11.3102077983
 30
0.0
 10
13.1983642531
 20
11.2921678854
 30
0.0
 10
13.2001830268
 20
11.2741266376
 30
0.0
 10
13.2024423222
 20
11.2560912747
 30
0.0
 10
13.2051373103
 20
11.2380676373
 30
0.0
 10
13.2082634983
 20
11.2200609301
 30
0.0
 10
13.2130081165
 20
11.1960432613
 30
0.0
 10
13.220001392
 20
11.166081113
 30
0.0
 10
13.2300314738
 20
11.1303404875
 30
0.0
 10
13.241679346
 20
11.0947872758
 30
0.0
 10
13.2549095294
 20
11.0594498328
 30
0.0
 10
13.2696875863
 20
11.0243524921
 30
0.0
 10
13.2804945317
 20
11.00124618
 30
0.0
 10
13.2861393706
 20
10.9897432077
 30
0.0
  0
SPLINE
  5
301
100
AcDbEntity
  8
0
100
AcDbSpline
 62
7
  6
CONTINUOUS
 70
0
 71
3
 72
132
 73
128
 74
0
 42
0.0000001
 43
0.0000001
 44
0.0000000001
 40
0.0
 40
0.0
 40
0.0
 40
0.0
 40
0.0053539045
 40
0.0107124918
 40
0.0133951166
 40
0.0160806693
 40
0.021462649
 40
0.0268632044
 40
0.0322868053
 40
0.037737829
 40
0.0432205543
 40
0.0487391564
 40
0.0542976883
 40
0.0598999966
 40
0.0655497419
 40
0.0712504221
 40
0.0770053745
 40
0.0828177791
 40
0.0886906614
 40
0.0946268315
 40
0.1006288207
 40
0.1128382785
 40
0.1190511017
 40
0.1253381204
 40
0.1381402382
 40
0.1446589752
 40
0.1512572598
 40
0.1579359901
 40
0.1646959331
 40
0.1715377341
 40
0.1784618732
 40
0.1854685578
 40
0.1925578456
 40
0.1997296822
 40
0.2069839096
 40
0.2143202754
 40
0.2217384354
 40
0.229237853
 40
0.2368177896
 40
0.2444774156
 40
0.2522158228
 40
0.2600320317
 40
0.2679249979
 40
0.2758935943
 40
0.2839364954
 40
0.2920522613
 40
0.3002393936
 40
0.3084963405
 40
0.3168215027
 40
0.3252132379
 40
0.333669805
 40
0.3421893075
 40
0.3507697927
 40
0.359409269
 40
0.3681057103
 40
0.3768570598
 40
0.3856612278
 40
0.3945160154
 40
0.4034191376
 40
0.4123682799
 40
0.4213611033
 40
0.4303952478
 40
0.439468336
 40
0.4485779556
 40
0.4577216074
 40
0.4668967577
 40
0.4761008561
 40
0.4853313387
 40
0.4945856312
 40
0.503861151
 40
0.5131552848
 40
0.5224653804
 40
0.531788774
 40
0.5411227945
 40
0.5504647667
 40
0.559812014
 40
0.5691618605
 40
0.5785116266
 40
0.5878586282
 40
0.5972001798
 40
0.6065335975
 40
0.6251649886
 40
0.6344579718
 40
0.6437322011
 40
0.6529850654
 40
0.6622139611
 40
0.6714162951
 40
0.6805894878
 40
0.6988379326
 40
0.7079086081
 40
0.7169402278
 40
0.7259303828
 40
0.7348766851
 40
0.7437767711
 40
0.7526283315
 40
0.7614291684
 40
0.7701771246
 40
0.7788700686
 40
0.7875058993
 40
0.7960825496
 40
0.8045979937
 40
0.8130503338
 40
0.8214378036
 40
0.8297586793
 40
0.8380112789
 40
0.846193968
 40
0.854305164
 40
0.8623433598
 40
0.8703072081
 40
0.8781954521
 40
0.886006892
 40
0.8937403912
 40
0.9013948826
 40
0.9089693768
 40
0.9164630907
 40
0.923875561
 40
0.9312064324
 40
0.9384554364
 40
0.9456223992
 40
0.9527072497
 40
0.9597100121
 40
0.9666306041
 40
0.9734688852
 40
0.9802248188
 40
0.9868984859
 40
0.9934900962
 40
1.0
 40
1.0
 40
1.0
 40
1.0
 10
13.389034736
 20
12.0863740146
 30
0.0
 10
13.3909280583
 20
12.0925011811
 30
0.0
 10
13.3949380392
 20
12.1046935541
 30
0.0
 10
13.4004989659
 20
12.1197478638
 30
0.0
 10
13.4052752468
 20
12.1316765435
 30
0.0
 10
13.4102761571
 20
12.1435431931
 30
0.0
 10
13.4169405673
 20
12.1582387548
 30
0.0
 10
13.4255843119
 20
12.1756246077
 30
0.0
 10
13.4348761805
 20
12.1927670834
 30
0.0
 10
13.444812022
 20
12.2096587004
 30
0.0
 10
13.4553877637
 20
12.226292166
 30
0.0
 10
13.4665992826
 20
12.2426601467
 30
0.0
 10
13.4784424581
 20
12.2587551478
 30
0.0
 10
13.4909115496
 20
12.274570659
 30
0.0
 10
13.5040006722
 20
12.2901002091
 30
0.0
 10
13.5177039581
 20
12.3053372858
 30
0.0
 10
13.532015538
 20
12.3202753753
 30
0.0
 10
13.5469295394
 20
12.334908006
 30
0.0
 10
13.5624400674
 20
12.3492284927
 30
0.0
 10
13.5785408816
 20
12.3632306486
 30
0.0
 10
13.6009110483
 20
12.3815714825
 30
0.0
 10
13.6243227822
 20
12.3991456296
 30
0.0
 10
13.6486941939
 20
12.4159442182
 30
0.0
 10
13.6740973427
 20
12.4324787615
 30
0.0
 10
13.7004526986
 20
12.4482021257
 30
0.0
 10
13.7276829643
 20
12.4631195852
 30
0.0
 10
13.7487486515
 20
12.4740099372
 30
0.0
 10
13.7703234674
 20
12.4845295104
 30
0.0
 10
13.7923986558
 20
12.4946738465
 30
0.0
 10
13.8149650803
 20
12.5044382282
 30
0.0
 10
13.838013383
 20
12.5138180327
 30
0.0
 10
13.8615333535
 20
12.5228098897
 30
0.0
 10
13.8855146563
 20
12.5314102453
 30
0.0
 10
13.9099469079
 20
12.5396155603
 30
0.0
 10
13.9348197323
 20
12.5474222746
 30
0.0
 10
13.9601227344
 20
12.554826871
 30
0.0
 10
13.9858454285
 20
12.5618256247
 30
0.0
 10
14.0119768212
 20
12.5684155541
 30
0.0
 10
14.0385054577
 20
12.5745944352
 30
0.0
 10
14.0654198011
 20
12.5803598262
 30
0.0
 10
14.0927082945
 20
12.5857093333
 30
0.0
 10
14.1203593843
 20
12.5906405415
 30
0.0
 10
14.1483614847
 20
12.5951510599
 30
0.0
 10
14.176702818
 20
12.5992383697
 30
0.0
 10
14.2053711583
 20
12.6029011851
 30
0.0
 10
14.2343540531
 20
12.6061383342
 30
0.0
 10
14.263638995
 20
12.6089485965
 30
0.0
 10
14.2932134747
 20
12.6113307559
 30
0.0
 10
14.3230649808
 20
12.6132836161
 30
0.0
 10
14.353180933
 20
12.6148058889
 30
0.0
 10
14.3835485102
 20
12.6158966385
 30
0.0
 10
14.4141546312
 20
12.6165560031
 30
0.0
 10
14.4449860813
 20
12.6167839507
 30
0.0
 10
14.4760296275
 20
12.6165804949
 30
0.0
 10
14.5072720368
 20
12.6159456262
 30
0.0
 10
14.5387000692
 20
12.6148793805
 30
0.0
 10
14.5703003646
 20
12.6133816391
 30
0.0
 10
14.6020594197
 20
12.6114532328
 30
0.0
 10
14.6339636014
 20
12.6090954658
 30
0.0
 10
14.6659992043
 20
12.6063095317
 30
0.0
 10
14.6981525226
 20
12.6030966534
 30
0.0
 10
14.7304098501
 20
12.5994580496
 30
0.0
 10
14.7627574555
 20
12.5953949302
 30
0.0
 10
14.7951814958
 20
12.5909085726
 30
0.0
 10
14.8276681557
 20
12.5860014096
 30
0.0
 10
14.8602035238
 20
12.5806758404
 30
0.0
 10
14.8927736725
 20
12.5749342811
 30
0.0
 10
14.9253646713
 20
12.5687791349
 30
0.0
 10
14.9579625965
 20
12.5622128409
 30
0.0
 10
14.9905534644
 20
12.555237715
 30
0.0
 10
15.0231233418
 20
12.5478566753
 30
0.0
 10
15.0556584023
 20
12.5400733918
 30
0.0
 10
15.0881447557
 20
12.5318913921
 30
0.0
 10
15.1205685189
 20
12.5233142459
 30
0.0
 10
15.1529158039
 20
12.5143455051
 30
0.0
 10
15.1851727319
 20
12.5049887508
 30
0.0
 10
15.2173253799
 20
12.4952474692
 30
0.0
 10
15.2493601282
 20
12.4851261711
 30
0.0
 10
15.2812633823
 20
12.4746295351
 30
0.0
 10
15.3130216411
 20
12.4637621629
 30
0.0
 10
15.3551273378
 20
12.4487938694
 30
0.0
 10
15.3969092212
 20
12.43309665
 30
0.0
 10
15.4383322521
 20
12.4166785074
 30
0.0
 10
15.4691622701
 20
12.4040285505
 30
0.0
 10
15.4997668844
 20
12.3910379841
 30
0.0
 10
15.530133118
 20
12.3777124318
 30
0.0
 10
15.5602479966
 20
12.364057485
 30
0.0
 10
15.5999773151
 20
12.3454526684
 30
0.0
 10
15.6392182653
 20
12.3261836111
 30
0.0
 10
15.6779348386
 20
12.3062592129
 30
0.0
 10
15.7066010768
 20
12.2910462728
 30
0.0
 10
15.7349405252
 20
12.2755410654
 30
0.0
 10
15.7629410268
 20
12.2597500727
 30
0.0
 10
15.7905903442
 20
12.2436797968
 30
0.0
 10
15.8178764051
 20
12.2273367187
 30
0.0
 10
15.8447878664
 20
12.210728259
 30
0.0
 10
15.8713134786
 20
12.1938617234
 30
0.0
 10
15.8974420184
 20
12.176744421
 30
0.0
 10
15.9231622552
 20
12.1593836484
 30
0.0
 10
15.9484629854
 20
12.141786733
 30
0.0
 10
15.9733330045
 20
12.1239608195
 30
0.0
 10
15.9977616591
 20
12.1059134666
 30
0.0
 10
16.0217389534
 20
12.0876527381
 30
0.0
 10
16.0452549007
 20
12.0691864962
 30
0.0
 10
16.0682995455
 20
12.0505226349
 30
0.0
 10
16.09086292
 20
12.0316690319
 30
0.0
 10
16.1129350965
 20
12.0126335766
 30
0.0
 10
16.1345061642
 20
11.9934239783
 30
0.0
 10
16.155567217
 20
11.9740488099
 30
0.0
 10
16.1761096143
 20
11.954516658
 30
0.0
 10
16.1961247198
 20
11.9348360436
 30
0.0
 10
16.2156039013
 20
11.9150154912
 30
0.0
 10
16.2345385417
 20
11.895063536
 30
0.0
 10
16.2529200642
 20
11.8749885477
 30
0.0
 10
16.270740394
 20
11.8547987886
 30
0.0
 10
16.287992592
 20
11.8345029018
 30
0.0
 10
16.3046698395
 20
11.8141091891
 30
0.0
 10
16.3207653708
 20
11.7936259545
 30
0.0
 10
16.3362723968
 20
11.7730614828
 30
0.0
 10
16.3511841755
 20
11.7524241135
 30
0.0
 10
16.3654935886
 20
11.7317222819
 30
0.0
 10
16.3791943843
 20
11.7109656381
 30
0.0
 10
16.3922807239
 20
11.6901646237
 30
0.0
 10
16.4047464955
 20
11.6693297438
 30
0.0
 10
16.4165856535
 20
11.6484714729
 30
0.0
 10
16.4277920316
 20
11.6276004964
 30
0.0
 10
16.4348812807
 20
11.6135976571
 30
0.0
 10
16.4383165013
 20
11.6065974135
 30
0.0
  0
SPLINE
  5
302
100
AcDbEntity
  8
03__ASM_ALL_CURVES
100
AcDbSpline
 62
8
  6
PHANTOM
 70
0
 71
3
 72
386
 73
382
 74
0
 42
0.0000001
 43
0.0000001
 44
0.0000000001
 40
0.0
 40
0.0
 40
0.0
 40
0.0
 40
0.015625
 40
0.03125
 40
0.046875
 40
0.0625
 40
0.0703125
 40
0.078125
 40
0.0859375
 40
0.09375
 40
0.1015625
 40
0.10546875
 40
0.109375
 40
0.11328125
 40
0.1171875
 40
0.12109375
 40
0.125
 40
0.126953125
 40
0.12890625
 40
0.130859375
 40
0.1328125
 40
0.134765625
 40
0.1357421875
 40
0.13671875
 40
0.1376953125
 40
0.138671875
 40
0.1396484375
 40
0.1401367188
 40
0.140625
 40
0.1411132812
 40
0.1416015625
 40
0.1418457031
 40
0.1420898438
 40
0.1423339844
 40
0.1424560547
 40
0.142578125
 40
0.1426391602
 40
0.1427001953
 40
0.1427612305
 40
0.1428222656
 40
0.1428375244
 40
0.1428527832
 40
0.1428833008
 40
0.1429138184
 40
0.1429443359
 40
0.1430053711
 40
0.1430664062
 40
0.1431884766
 40
0.1433105469
 40
0.1435546875
 40
0.1437988281
 40
0.1440429688
 40
0.14453125
 40
0.1450195312
 40
0.1455078125
 40
0.146484375
 40
0.1474609375
 40
0.1484375
 40
0.150390625
 40
0.15234375
 40
0.154296875
 40
0.15625
 40
0.158203125
 40
0.16015625
 40
0.1640625
 40
0.16796875
 40
0.171875
 40
0.1796875
 40
0.1875
 40
0.1953125
 40
0.203125
 40
0.2109375
 40
0.21875
 40
0.2265625
 40
0.234375
 40
0.2421875
 40
0.25
 40
0.25390625
 40
0.2578125
 40
0.26171875
 40
0.265625
 40
0.26953125
 40
0.271484375
 40
0.2734375
 40
0.275390625
 40
0.27734375
 40
0.2783203125
 40
0.279296875
 40
0.2802734375
 40
0.28125
 40
0.2822265625
 40
0.283203125
 40
0.2836914062
 40
0.2841796875
 40
0.2844238281
 40
0.2846679688
 40
0.2849121094
 40
0.28515625
 40
0.2852783203
 40
0.2854003906
 40
0.2855224609
 40
0.2855834961
 40
0.2856445312
 40
0.2856750488
 40
0.2857055664
 40
0.2857131958
 40
0.2857208252
 40
0.285736084
 40
0.2857666016
 40
0.2858276367
 40
0.2858886719
 40
0.2860107422
 40
0.2861328125
 40
0.2863769531
 40
0.2866210938
 40
0.287109375
 40
0.2875976562
 40
0.2880859375
 40
0.2885742188
 40
0.2890625
 40
0.2900390625
 40
0.291015625
 40
0.29296875
 40
0.294921875
 40
0.296875
 40
0.298828125
 40
0.30078125
 40
0.3046875
 40
0.30859375
 40
0.3125
 40
0.31640625
 40
0.3203125
 40
0.328125
 40
0.3359375
 40
0.34375
 40
0.359375
 40
0.3671875
 40
0.375
 40
0.3828125
 40
0.390625
 40
0.3984375
 40
0.40234375
 40
0.40625
 40
0.41015625
 40
0.4140625
 40
0.416015625
 40
0.41796875
 40
0.419921875
 40
0.421875
 40
0.4228515625
 40
0.423828125
 40
0.4248046875
 40
0.42578125
 40
0.4267578125
 40
0.4272460938
 40
0.427734375
 40
0.4279785156
 40
0.4281005859
 40
0.4282226562
 40
0.4283447266
 40
0.4284667969
 40
0.428527832
 40
0.4285583496
 40
0.4285736084
 40
0.4285888672
 40
0.4286193848
 40
0.4286499023
 40
0.4287109375
 40
0.4287719727
 40
0.4288330078
 40
0.4289550781
 40
0.4291992188
 40
0.4294433594
 40
0.4296875
 40
0.4301757812
 40
0.4306640625
 40
0.4311523438
 40
0.431640625
 40
0.4326171875
 40
0.43359375
 40
0.4345703125
 40
0.435546875
 40
0.4375
 40
0.439453125
 40
0.44140625
 40
0.443359375
 40
0.4453125
 40
0.44921875
 40
0.453125
 40
0.45703125
 40
0.4609375
 40
0.46484375
 40
0.46875
 40
0.4765625
 40
0.484375
 40
0.4921875
 40
0.5
 40
0.5078125
 40
0.515625
 40
0.5234375
 40
0.53125
 40
0.53515625
 40
0.5390625
 40
0.54296875
 40
0.546875
 40
0.55078125
 40
0.5546875
 40
0.556640625
 40
0.55859375
 40
0.560546875
 40
0.5625
 40
0.564453125
 40
0.5654296875
 40
0.56640625
 40
0.5673828125
 40
0.568359375
 40
0.5688476562
 40
0.5693359375
 40
0.5698242188
 40
0.5703125
 40
0.5705566406
 40
0.5708007812
 40
0.5710449219
 40
0.5711669922
 40
0.5712280273
 40
0.5712890625
 40
0.5713500977
 40
0.5713806152
 40
0.5714111328
 40
0.5714263916
 40
0.5714416504
 40
0.571472168
 40
0.5715332031
 40
0.5716552734
 40
0.5717773438
 40
0.5718994141
 40
0.5720214844
 40
0.572265625
 40
0.5727539062
 40
0.5732421875
 40
0.57421875
 40
0.5751953125
 40
0.576171875
 40
0.5771484375
 40
0.578125
 40
0.580078125
 40
0.58203125
 40
0.5859375
 40
0.58984375
 40
0.59375
 40
0.59765625
 40
0.6015625
 40
0.609375
 40
0.6171875
 40
0.625
 40
0.6328125
 40
0.640625
 40
0.65625
 40
0.6640625
 40
0.671875
 40
0.6796875
 40
0.68359375
 40
0.6875
 40
0.69140625
 40
0.6953125
 40
0.69921875
 40
0.703125
 40
0.705078125
 40
0.70703125
 40
0.708984375
 40
0.7099609375
 40
0.7109375
 40
0.7114257812
 40
0.7119140625
 40
0.7124023438
 40
0.712890625
 40
0.7133789062
 40
0.7136230469
 40
0.7138671875
 40
0.7139892578
 40
0.7141113281
 40
0.7141723633
 40
0.7142333984
 40
0.7142944336
 40
0.7143249512
 40
0.7143554688
 40
0.7144165039
 40
0.7144775391
 40
0.7145996094
 40
0.7147216797
 40
0.71484375
 40
0.7150878906
 40
0.7153320312
 40
0.7155761719
 40
0.7158203125
 40
0.7163085938
 40
0.716796875
 40
0.7177734375
 40
0.71875
 40
0.7197265625
 40
0.720703125
 40
0.72265625
 40
0.724609375
 40
0.7265625
 40
0.728515625
 40
0.73046875
 40
0.734375
 40
0.73828125
 40
0.7421875
 40
0.74609375
 40
0.75
 40
0.7578125
 40
0.765625
 40
0.7734375
 40
0.78125
 40
0.7890625
 40
0.796875
 40
0.8046875
 40
0.8125
 40
0.8203125
 40
0.828125
 40
0.83203125
 40
0.8359375
 40
0.83984375
 40
0.841796875
 40
0.84375
 40
0.845703125
 40
0.84765625
 40
0.849609375
 40
0.8515625
 40
0.8525390625
 40
0.853515625
 40
0.8544921875
 40
0.85546875
 40
0.8559570312
 40
0.8562011719
 40
0.8564453125
 40
0.8566894531
 40
0.8568115234
 40
0.8569335938
 40
0.8570556641
 40
0.8570861816
 40
0.8571166992
 40
0.8571472168
 40
0.8571777344
 40
0.857208252
 40
0.8572387695
 40
0.8572998047
 40
0.857421875
 40
0.8575439453
 40
0.8576660156
 40
0.8579101562
 40
0.8581542969
 40
0.8583984375
 40
0.8588867188
 40
0.859375
 40
0.8598632812
 40
0.8603515625
 40
0.861328125
 40
0.8623046875
 40
0.86328125
 40
0.8642578125
 40
0.865234375
 40
0.8671875
 40
0.869140625
 40
0.87109375
 40
0.875
 40
0.87890625
 40
0.8828125
 40
0.88671875
 40
0.890625
 40
0.8984375
 40
0.90625
 40
0.9140625
 40
0.921875
 40
0.9296875
 40
0.9375
 40
0.953125
 40
0.96875
 40
0.984375
 40
1.0
 40
1.0
 40
1.0
 40
1.0
 10
18.004030202
 20
13.3201250283
 30
0.0
 10
17.9951346013
 20
13.3337203422
 30
0.0
 10
17.9773433998
 20
13.3609109699
 30
0.0
 10
17.9506565976
 20
13.4016969114
 30
0.0
 10
17.9239697954
 20
13.4424828529
 30
0.0
 10
17.9017307936
 20
13.4764711375
 30
0.0
 10
17.8839395921
 20
13.5036617652
 30
0.0
 10
17.870596191
 20
13.5240547359
 30
0.0
 10
17.8572527899
 20
13.5444477067
 30
0.0
 10
17.8439093888
 20
13.5648406774
 30
0.0
 10
17.8327898879
 20
13.5818348197
 30
0.0
 10
17.8238942872
 20
13.5954301336
 30
0.0
 10
17.8172225867
 20
13.605626619
 30
0.0
 10
17.8105508861
 20
13.6158231043
 30
0.0
 10
17.8038791856
 20
13.6260195897
 30
0.0
 10
17.797207485
 20
13.6362160751
 30
0.0
 10
17.7916477346
 20
13.6447131463
 30
0.0
 10
17.7871999342
 20
13.6515108032
 30
0.0
 10
17.7838640839
 20
13.6566090459
 30
0.0
 10
17.7805282336
 20
13.6617072886
 30
0.0
 10
17.7771923834
 20
13.6668055312
 30
0.0
 10
17.7744125081
 20
13.6710540668
 30
0.0
 10
17.772188608
 20
13.6744528953
 30
0.0
 10
17.7705206828
 20
13.6770020166
 30
0.0
 10
17.7688527577
 20
13.679551138
 30
0.0
 10
17.7671848325
 20
13.6821002593
 30
0.0
 10
17.7657948949
 20
13.6842245271
 30
0.0
 10
17.7646829448
 20
13.6859239413
 30
0.0
 10
17.7638489823
 20
13.687198502
 30
0.0
 10
17.7630150197
 20
13.6884730627
 30
0.0
 10
17.7623200508
 20
13.6895351966
 30
0.0
 10
17.761764076
 20
13.6903849037
 30
0.0
 10
17.7613470939
 20
13.691022184
 30
0.0
 10
17.760999612
 20
13.6915532512
 30
0.0
 10
17.7607216194
 20
13.6919781042
 30
0.0
 10
17.7605478902
 20
13.6922436391
 30
0.0
 10
17.7604088697
 20
13.692456063
 30
0.0
 10
17.7603047061
 20
13.6926153918
 30
0.0
 10
17.760200154
 20
13.6927746789
 30
0.0
 10
17.760122829
 20
13.6928942615
 30
0.0
 10
17.7600695853
 20
13.6929738008
 30
0.0
 10
17.7600381219
 20
13.6930272613
 30
0.0
 10
17.759969397
 20
13.6930909208
 30
0.0
 10
17.7598937941
 20
13.6931680519
 30
0.0
 10
17.7597905918
 20
13.693270635
 30
0.0
 10
17.7596624102
 20
13.6933989524
 30
0.0
 10
17.7594568606
 20
13.6936042107
 30
0.0
 10
17.7592000807
 20
13.6938608006
 30
0.0
 10
17.7587891451
 20
13.6942713348
 30
0.0
 10
17.7582755057
 20
13.6947845059
 30
0.0
 10
17.7576591255
 20
13.6954003099
 30
0.0
 10
17.7568372898
 20
13.6962213822
 30
0.0
 10
17.7558099937
 20
13.6972477226
 30
0.0
 10
17.7545772389
 20
13.698479331
 30
0.0
 10
17.7529335657
 20
13.7001214756
 30
0.0
 10
17.7508789742
 20
13.7021741563
 30
0.0
 10
17.7484134644
 20
13.7046373732
 30
0.0
 10
17.7451261181
 20
13.7079216623
 30
0.0
 10
17.7410169351
 20
13.7120270238
 30
0.0
 10
17.7360859156
 20
13.7169534575
 30
0.0
 10
17.731154896
 20
13.7218798912
 30
0.0
 10
17.7262238765
 20
13.7268063249
 30
0.0
 10
17.7212928569
 20
13.7317327587
 30
0.0
 10
17.7147181642
 20
13.738301337
 30
0.0
 10
17.7064997982
 20
13.7465120599
 30
0.0
 10
17.6966377591
 20
13.7563649273
 30
0.0
 10
17.6834883737
 20
13.7695020839
 30
0.0
 10
17.6670516418
 20
13.7859235297
 30
0.0
 10
17.6473275636
 20
13.8056292646
 30
0.0
 10
17.6276034854
 20
13.8253349996
 30
0.0
 10
17.6078794072
 20
13.8450407345
 30
0.0
 10
17.588155329
 20
13.8647464694
 30
0.0
 10
17.5684312508
 20
13.8844522043
 30
0.0
 10
17.5487071726
 20
13.9041579392
 30
0.0
 10
17.5289830943
 20
13.9238636742
 30
0.0
 10
17.5092590161
 20
13.9435694091
 30
0.0
 10
17.4928222843
 20
13.9599908549
 30
0.0
 10
17.4796728988
 20
13.9731280115
 30
0.0
 10
17.4698108597
 20
13.9829808789
 30
0.0
 10
17.4599488206
 20
13.9928337464
 30
0.0
 10
17.4500867815
 20
14.0026866139
 30
0.0
 10
17.4418684156
 20
14.0108973367
 30
0.0
 10
17.4352937228
 20
14.0174659151
 30
0.0
 10
17.4303627033
 20
14.0223923488
 30
0.0
 10
17.4254316837
 20
14.0273187825
 30
0.0
 10
17.4213225008
 20
14.031424144
 30
0.0
 10
17.4180351544
 20
14.0347084331
 30
0.0
 10
17.4155696446
 20
14.03717165
 30
0.0
 10
17.4131041348
 20
14.0396348668
 30
0.0
 10
17.4106386251
 20
14.0420980837
 30
0.0
 10
17.4081731153
 20
14.0445613006
 30
0.0
 10
17.4061185238
 20
14.0466139813
 30
0.0
 10
17.4044748506
 20
14.0482561259
 30
0.0
 10
17.4034475549
 20
14.0492824662
 30
0.0
 10
17.4026257182
 20
14.0501035385
 30
0.0
 10
17.4020093411
 20
14.0507193428
 30
0.0
 10
17.4013929624
 20
14.0513351466
 30
0.0
 10
17.4008793186
 20
14.0518483183
 30
0.0
 10
17.400468392
 20
14.0522588513
 30
0.0
 10
17.4001602286
 20
14.052566763
 30
0.0
 10
17.3999033252
 20
14.0528233179
 30
0.0
 10
17.3996980282
 20
14.0530286476
 30
0.0
 10
17.3995692036
 20
14.0531567833
 30
0.0
 10
17.399467321
 20
14.0532597394
 30
0.0
 10
17.399407595
 20
14.0533167331
 30
0.0
 10
17.3993716222
 20
14.0533561908
 30
0.0
 10
17.3993384624
 20
14.053379006
 30
0.0
 10
17.3992819807
 20
14.0534195211
 30
0.0
 10
17.3991679185
 20
14.0535001336
 30
0.0
 10
17.3990055457
 20
14.0536155123
 30
0.0
 10
17.3987454289
 20
14.0537999964
 30
0.0
 10
17.3984203925
 20
14.0540306432
 30
0.0
 10
17.3979002731
 20
14.0543996548
 30
0.0
 10
17.3972501449
 20
14.0548609273
 30
0.0
 10
17.3962099279
 20
14.0555989588
 30
0.0
 10
17.3949096607
 20
14.0565214997
 30
0.0
 10
17.3933493383
 20
14.0576285482
 30
0.0
 10
17.3917890164
 20
14.0587355968
 30
0.0
 10
17.3902286944
 20
14.0598426454
 30
0.0
 10
17.3881482651
 20
14.0613187102
 30
0.0
 10
17.3855477284
 20
14.0631637912
 30
0.0
 10
17.3813868698
 20
14.0661159208
 30
0.0
 10
17.3761857965
 20
14.0698060827
 30
0.0
 10
17.3699445085
 20
14.0742342771
 30
0.0
 10
17.3637032205
 20
14.0786624715
 30
0.0
 10
17.3574619325
 20
14.0830906658
 30
0.0
 10
17.3491402152
 20
14.088994925
 30
0.0
 10
17.3387380686
 20
14.0963752489
 30
0.0
 10
17.3262554926
 20
14.1052316377
 30
0.0
 10
17.3137729167
 20
14.1140880264
 30
0.0
 10
17.3012903407
 20
14.1229444151
 30
0.0
 10
17.2846469061
 20
14.1347529334
 30
0.0
 10
17.2638426128
 20
14.1495135813
 30
0.0
 10
17.2388774609
 20
14.1672263588
 30
0.0
 10
17.2055905917
 20
14.1908433954
 30
0.0
 10
17.1723037225
 20
14.2144604321
 30
0.0
 10
17.1390168533
 20
14.2380774687
 30
0.0
 10
17.1140517014
 20
14.2557902461
 30
0.0
 10
17.0890865494
 20
14.2735030236
 30
0.0
 10
17.0641213975
 20
14.2912158011
 30
0.0
 10
17.0433171043
 20
14.305976449
 30
0.0
 10
17.0266736697
 20
14.3177849673
 30
0.0
 10
17.0141910937
 20
14.326641356
 30
0.0
 10
17.0017085177
 20
14.3354977447
 30
0.0
 10
16.9913063711
 20
14.3428780687
 30
0.0
 10
16.9829846538
 20
14.3487823278
 30
0.0
 10
16.9767433658
 20
14.3532105222
 30
0.0
 10
16.9705020778
 20
14.3576387166
 30
0.0
 10
16.9653010045
 20
14.3613288785
 30
0.0
 10
16.9611401459
 20
14.3642810081
 30
0.0
 10
16.9580195019
 20
14.3664951053
 30
0.0
 10
16.9548988579
 20
14.3687092025
 30
0.0
 10
16.9517782138
 20
14.3709232996
 30
0.0
 10
16.9491776776
 20
14.3727683809
 30
0.0
 10
16.9470972473
 20
14.374244445
 30
0.0
 10
16.9457969815
 20
14.3751669873
 30
0.0
 10
16.9448867891
 20
14.3758127624
 30
0.0
 10
16.9443666891
 20
14.3761817838
 30
0.0
 10
16.9439765863
 20
14.3764585299
 30
0.0
 10
16.9435865895
 20
14.3767353522
 30
0.0
 10
16.943261262
 20
14.3769658003
 30
0.0
 10
16.9430341797
 20
14.3771275786
 30
0.0
 10
16.9429197548
 20
14.377207833
 30
0.0
 10
16.9428557917
 20
14.3772547145
 30
0.0
 10
16.9427775457
 20
14.3772913369
 30
0.0
 10
16.9426846287
 20
14.3773406275
 30
0.0
 10
16.9425332282
 20
14.3774175294
 30
0.0
 10
16.9423449154
 20
14.3775143302
 30
0.0
 10
16.9421185386
 20
14.377630203
 30
0.0
 10
16.9418168429
 20
14.3777848006
 30
0.0
 10
16.9412888102
 20
14.3780552995
 30
0.0
 10
16.9405345118
 20
14.378441751
 30
0.0
 10
16.9396293392
 20
14.3789054823
 30
0.0
 10
16.9384224475
 20
14.3795237943
 30
0.0
 10
16.9369138311
 20
14.3802966831
 30
0.0
 10
16.9351034922
 20
14.3812241502
 30
0.0
 10
16.9332931531
 20
14.3821516172
 30
0.0
 10
16.9308793676
 20
14.3833882399
 30
0.0
 10
16.9278621358
 20
14.3849340182
 30
0.0
 10
16.9242414577
 20
14.3867889523
 30
0.0
 10
16.9206207795
 20
14.3886438863
 30
0.0
 10
16.9157932086
 20
14.3911171316
 30
0.0
 10
16.909758745
 20
14.3942086883
 30
0.0
 10
16.9025173887
 20
14.3979185563
 30
0.0
 10
16.8952760323
 20
14.4016284244
 30
0.0
 10
16.888034676
 20
14.4053382924
 30
0.0
 10
16.8783795342
 20
14.4102847831
 30
0.0
 10
16.866310607
 20
14.4164678965
 30
0.0
 10
16.8518278943
 20
14.4238876325
 30
0.0
 10
16.8373451817
 20
14.4313073686
 30
0.0
 10
16.822862469
 20
14.4387271046
 30
0.0
 10
16.8083797563
 20
14.4461468407
 30
0.0
 10
16.7890694728
 20
14.456039822
 30
0.0
 10
16.7649316184
 20
14.4684060488
 30
0.0
 10
16.735966193
 20
14.4832455209
 30
0.0
 10
16.7070007677
 20
14.498084993
 30
0.0
 10
16.6780353424
 20
14.5129244651
 30
0.0
 10
16.649069917
 20
14.5277639372
 30
0.0
 10
16.6201044917
 20
14.5426034093
 30
0.0
 10
16.5911390664
 20
14.5574428814
 30
0.0
 10
16.5670012119
 20
14.5698091081
 30
0.0
 10
16.5476909284
 20
14.5797020895
 30
0.0
 10
16.5332082157
 20
14.5871218256
 30
0.0
 10
16.5187255031
 20
14.5945415616
 30
0.0
 10
16.5042427904
 20
14.6019612977
 30
0.0
 10
16.4897600777
 20
14.6093810337
 30
0.0
 10
16.4776911505
 20
14.6155641471
 30
0.0
 10
16.4680360087
 20
14.6205106378
 30
0.0
 10
16.4607946524
 20
14.6242205058
 30
0.0
 10
16.4535532961
 20
14.6279303738
 30
0.0
 10
16.4463119397
 20
14.6316402419
 30
0.0
 10
16.4402774761
 20
14.6347317986
 30
0.0
 10
16.4354499053
 20
14.6372050439
 30
0.0
 10
16.4318292271
 20
14.6390599779
 30
0.0
 10
16.4282085489
 20
14.6409149119
 30
0.0
 10
16.4251913171
 20
14.6424606903
 30
0.0
 10
16.4227775317
 20
14.6436973129
 30
0.0
 10
16.4209671926
 20
14.64462478
 30
0.0
 10
16.4191568534
 20
14.6455522468
 30
0.0
 10
16.4176482378
 20
14.6463251365
 30
0.0
 10
16.4164413445
 20
14.6469434469
 30
0.0
 10
16.4155361769
 20
14.6474071832
 30
0.0
 10
16.4147818628
 20
14.6477936191
 30
0.0
 10
16.4142538582
 20
14.6480641458
 30
0.0
 10
16.4139521174
 20
14.6482186988
 30
0.0
 10
16.4137258791
 20
14.6483347084
 30
0.0
 10
16.413537133
 20
14.6484310811
 30
0.0
 10
16.4133866164
 20
14.6485088564
 30
0.0
 10
16.41329145
 20
14.648555924
 30
0.0
 10
16.4132178212
 20
14.6485971096
 30
0.0
 10
16.4131350497
 20
14.6486254027
 30
0.0
 10
16.4129917932
 20
14.6486771629
 30
0.0
 10
16.4127041486
 20
14.6487790877
 30
0.0
 10
16.4122938195
 20
14.6489255288
 30
0.0
 10
16.4118011709
 20
14.6491009005
 30
0.0
 10
16.4113085902
 20
14.6492763679
 30
0.0
 10
16.4106517922
 20
14.6495102911
 30
0.0
 10
16.4095024068
 20
14.6499196722
 30
0.0
 10
16.4078604219
 20
14.6505044941
 30
0.0
 10
16.4052332492
 20
14.6514402139
 30
0.0
 10
16.4019492823
 20
14.6526098619
 30
0.0
 10
16.3980085224
 20
14.6540134403
 30
0.0
 10
16.3940677624
 20
14.6554170185
 30
0.0
 10
16.3901270025
 20
14.6568205967
 30
0.0
 10
16.3848726558
 20
14.6586920344
 30
0.0
 10
16.3783047226
 20
14.6610313314
 30
0.0
 10
16.3677960293
 20
14.6647742067
 30
0.0
 10
16.3546601628
 20
14.6694528008
 30
0.0
 10
16.3388971229
 20
14.6750671137
 30
0.0
 10
16.3231340831
 20
14.6806814266
 30
0.0
 10
16.3073710432
 20
14.6862957395
 30
0.0
 10
16.2863536568
 20
14.69378149
 30
0.0
 10
16.2600819237
 20
14.7031386782
 30
0.0
 10
16.228555844
 20
14.714367304
 30
0.0
 10
16.1970297643
 20
14.7255959298
 30
0.0
 10
16.1655036846
 20
14.7368245556
 30
0.0
 10
16.1234689117
 20
14.7517960566
 30
0.0
 10
16.0814341388
 20
14.7667675577
 30
0.0
 10
16.0393993658
 20
14.7817390588
 30
0.0
 10
16.0078732861
 20
14.7929676846
 30
0.0
 10
15.981601553
 20
14.8023248727
 30
0.0
 10
15.9605841666
 20
14.8098106233
 30
0.0
 10
15.9448211267
 20
14.8154249362
 30
0.0
 10
15.9290580869
 20
14.8210392491
 30
0.0
 10
15.913295047
 20
14.826653562
 30
0.0
 10
15.8975320072
 20
14.8322678749
 30
0.0
 10
15.8843961406
 20
14.8369464689
 30
0.0
 10
15.8738874474
 20
14.8406893442
 30
0.0
 10
15.8660059275
 20
14.8434965007
 30
0.0
 10
15.8594379942
 20
14.8458357977
 30
0.0
 10
15.8541836476
 20
14.8477072353
 30
0.0
 10
15.850899681
 20
14.8488768839
 30
0.0
 10
15.8482725076
 20
14.8498126026
 30
0.0
 10
15.8463021277
 20
14.850514392
 30
0.0
 10
15.8443317475
 20
14.8512161801
 30
0.0
 10
15.8423613684
 20
14.8519179728
 30
0.0
 10
15.8407193824
 20
14.852502786
 30
0.0
 10
15.8394058012
 20
14.8529706681
 30
0.0
 10
15.8385847958
 20
14.8532630225
 30
0.0
 10
15.8379280307
 20
14.8534970706
 30
0.0
 10
15.837517463
 20
14.8536429752
 30
0.0
 10
15.8371892138
 20
14.8537605589
 30
0.0
 10
15.8369424657
 20
14.853846392
 30
0.0
 10
15.8367386277
 20
14.8539254099
 30
0.0
 10
15.8365682254
 20
14.8539578664
 30
0.0
 10
15.8363991036
 20
14.8539956944
 30
0.0
 10
15.8361872629
 20
14.8540411403
 30
0.0
 10
15.8358485628
 20
14.8541148815
 30
0.0
 10
15.8354251036
 20
14.8542067054
 30
0.0
 10
15.8349169886
 20
14.854317045
 30
0.0
 10
15.8342394893
 20
14.8544641117
 30
0.0
 10
15.8333926195
 20
14.8546479632
 30
0.0
 10
15.8323763739
 20
14.8548685773
 30
0.0
 10
15.8313601287
 20
14.8550891934
 30
0.0
 10
15.8300051351
 20
14.8553833475
 30
0.0
 10
15.8283113931
 20
14.8557510404
 30
0.0
 10
15.8256014058
 20
14.8563393489
 30
0.0
 10
15.8222139217
 20
14.8570747346
 30
0.0
 10
15.8181489408
 20
14.8579571974
 30
0.0
 10
15.8140839599
 20
14.8588396602
 30
0.0
 10
15.8086639854
 20
14.8600162772
 30
0.0
 10
15.8018890172
 20
14.8614870485
 30
0.0
 10
15.7937590554
 20
14.8632519741
 30
0.0
 10
15.7856290936
 20
14.8650168997
 30
0.0
 10
15.7774991318
 20
14.8667818252
 30
0.0
 10
15.7666591828
 20
14.8691350593
 30
0.0
 10
15.7531092464
 20
14.872076602
 30
0.0
 10
15.7368493228
 20
14.8756064531
 30
0.0
 10
15.7205893992
 20
14.8791363043
 30
0.0
 10
15.7043294756
 20
14.8826661554
 30
0.0
 10
15.6826495775
 20
14.8873726236
 30
0.0
 10
15.6555497048
 20
14.8932557089
 30
0.0
 10
15.6230298576
 20
14.9003154112
 30
0.0
 10
15.5905100105
 20
14.9073751135
 30
0.0
 10
15.5579901633
 20
14.9144348158
 30
0.0
 10
15.5254703161
 20
14.9214945181
 30
0.0
 10
15.4929504689
 20
14.9285542204
 30
0.0
 10
15.4604306217
 20
14.9356139227
 30
0.0
 10
15.4279107745
 20
14.942673625
 30
0.0
 10
15.3953909273
 20
14.9497333273
 30
0.0
 10
15.3682910546
 20
14.9556164125
 30
0.0
 10
15.3466111565
 20
14.9603228807
 30
0.0
 10
15.3303512329
 20
14.9638527319
 30
0.0
 10
15.3168012966
 20
14.9667942745
 30
0.0
 10
15.3059613475
 20
14.9691475086
 30
0.0
 10
15.2978313857
 20
14.9709124342
 30
0.0
 10
15.2897014239
 20
14.9726773598
 30
0.0
 10
15.2815714621
 20
14.9744422853
 30
0.0
 10
15.2734415003
 20
14.9762072109
 30
0.0
 10
15.2666665322
 20
14.9776779822
 30
0.0
 10
15.2612465576
 20
14.9788545993
 30
0.0
 10
15.2571815767
 20
14.9797370621
 30
0.0
 10
15.2531165958
 20
14.9806195248
 30
0.0
 10
15.2497291117
 20
14.9813549108
 30
0.0
 10
15.2473578729
 20
14.9818696801
 30
0.0
 10
15.2460028792
 20
14.9821638355
 30
0.0
 10
15.2449866342
 20
14.9823844476
 30
0.0
 10
15.2441397626
 20
14.9825683051
 30
0.0
 10
15.243462267
 20
14.9827153597
 30
0.0
 10
15.2429541407
 20
14.9828257362
 30
0.0
 10
15.2425730591
 20
14.982908274
 30
0.0
 10
15.2423189842
 20
14.98296368
 30
0.0
 10
15.2421919834
 20
14.9829907029
 30
0.0
 10
15.24206484
 20
14.9830203701
 30
0.0
 10
15.2419390462
 20
14.9830250146
 30
0.0
 10
15.2418128914
 20
14.9830363526
 30
0.0
 10
15.2416448109
 20
14.9830491352
 30
0.0
 10
15.2413506114
 20
14.9830725925
 30
0.0
 10
15.240930357
 20
14.9831055342
 30
0.0
 10
15.2404260386
 20
14.9831453076
 30
0.0
 10
15.2397536187
 20
14.9831982539
 30
0.0
 10
15.2389130922
 20
14.9832644658
 30
0.0
 10
15.2379044611
 20
14.9833439077
 30
0.0
 10
15.2365596194
 20
14.9834498346
 30
0.0
 10
15.2348785673
 20
14.9835822417
 30
0.0
 10
15.2328613048
 20
14.9837411309
 30
0.0
 10
15.2308440423
 20
14.9839000199
 30
0.0
 10
15.228154359
 20
14.9841118719
 30
0.0
 10
15.2247922548
 20
14.984376687
 30
0.0
 10
15.2207577298
 20
14.984694465
 30
0.0
 10
15.2167232048
 20
14.9850122431
 30
0.0
 10
15.2126886799
 20
14.9853300212
 30
0.0
 10
15.2073093132
 20
14.9857537252
 30
0.0
 10
15.2005851049
 20
14.9862833553
 30
0.0
 10
15.1925160549
 20
14.9869189115
 30
0.0
 10
15.1817573216
 20
14.9877663196
 30
0.0
 10
15.1683089049
 20
14.9888255798
 30
0.0
 10
15.1521708049
 20
14.9900966921
 30
0.0
 10
15.1360327049
 20
14.9913678043
 30
0.0
 10
15.119894605
 20
14.9926389165
 30
0.0
 10
15.0983771383
 20
14.9943337329
 30
0.0
 10
15.071480305
 20
14.9964522533
 30
0.0
 10
15.039204105
 20
14.9989944777
 30
0.0
 10
15.0069279051
 20
15.0015367022
 30
0.0
 10
14.9746517051
 20
15.0040789267
 30
0.0
 10
14.9423755051
 20
15.0066211512
 30
0.0
 10
14.8993405718
 20
15.0100107838
 30
0.0
 10
14.8455469052
 20
15.0142478246
 30
0.0
 10
14.7809945053
 20
15.0193322736
 30
0.0
 10
14.7164421054
 20
15.0244167226
 30
0.0
 10
14.6734071721
 20
15.0278063552
 30
0.0
 10
14.6518897054
 20
15.0295011715
 30
0.0
  0
LINE
  5
303
100
AcDbEntity
  8
03__ASM_ALL_CURVES
100
AcDbLine
 62
8
  6
PHANTOM
 10
14.6518897947
 20
15.0295011711
 11
14.6126850707
 21
15.0295013275
  0
SPLINE
  5
304
100
AcDbEntity
  8
03__ASM_ALL_CURVES
100
AcDbSpline
 62
8
  6
PHANTOM
 70
0
 71
3
 72
403
 73
399
 74
0
 42
0.0000001
 43
0.0000001
 44
0.0000000001
 40
0.0
 40
0.0
 40
0.0
 40
0.0
 40
0.015625
 40
0.03125
 40
0.046875
 40
0.0625
 40
0.0703125
 40
0.078125
 40
0.0859375
 40
0.09375
 40
0.1015625
 40
0.10546875
 40
0.109375
 40
0.11328125
 40
0.1171875
 40
0.12109375
 40
0.125
 40
0.12890625
 40
0.130859375
 40
0.1328125
 40
0.134765625
 40
0.1357421875
 40
0.13671875
 40
0.1376953125
 40
0.138671875
 40
0.1396484375
 40
0.1401367188
 40
0.140625
 40
0.1411132812
 40
0.1416015625
 40
0.1418457031
 40
0.1420898438
 40
0.1423339844
 40
0.1424560547
 40
0.142578125
 40
0.1427001953
 40
0.1427612305
 40
0.1428222656
 40
0.1428375244
 40
0.1428527832
 40
0.1428833008
 40
0.1429138184
 40
0.1429443359
 40
0.1430664062
 40
0.1433105469
 40
0.1435546875
 40
0.1437988281
 40
0.1440429688
 40
0.14453125
 40
0.1450195312
 40
0.1455078125
 40
0.146484375
 40
0.1474609375
 40
0.1484375
 40
0.150390625
 40
0.15234375
 40
0.154296875
 40
0.15625
 40
0.158203125
 40
0.16015625
 40
0.1640625
 40
0.16796875
 40
0.171875
 40
0.1796875
 40
0.1875
 40
0.1953125
 40
0.203125
 40
0.2109375
 40
0.21875
 40
0.2265625
 40
0.234375
 40
0.2421875
 40
0.25
 40
0.25390625
 40
0.2578125
 40
0.26171875
 40
0.265625
 40
0.26953125
 40
0.271484375
 40
0.2734375
 40
0.275390625
 40
0.27734375
 40
0.2783203125
 40
0.279296875
 40
0.2802734375
 40
0.28125
 40
0.2822265625
 40
0.283203125
 40
0.2836914062
 40
0.2841796875
 40
0.2844238281
 40
0.2846679688
 40
0.2849121094
 40
0.28515625
 40
0.2852783203
 40
0.2854003906
 40
0.2855224609
 40
0.2855834961
 40
0.2856445312
 40
0.2856750488
 40
0.2857055664
 40
0.2857131958
 40
0.2857208252
 40
0.285736084
 40
0.2857666016
 40
0.2858276367
 40
0.2858886719
 40
0.2860107422
 40
0.2861328125
 40
0.2863769531
 40
0.2866210938
 40
0.287109375
 40
0.2875976562
 40
0.2880859375
 40
0.2885742188
 40
0.2890625
 40
0.2900390625
 40
0.291015625
 40
0.29296875
 40
0.294921875
 40
0.296875
 40
0.298828125
 40
0.30078125
 40
0.3046875
 40
0.30859375
 40
0.3125
 40
0.31640625
 40
0.3203125
 40
0.328125
 40
0.3359375
 40
0.34375
 40
0.359375
 40
0.3671875
 40
0.375
 40
0.3828125
 40
0.390625
 40
0.3984375
 40
0.40234375
 40
0.40625
 40
0.41015625
 40
0.4140625
 40
0.416015625
 40
0.41796875
 40
0.419921875
 40
0.421875
 40
0.4228515625
 40
0.423828125
 40
0.4248046875
 40
0.42578125
 40
0.4262695312
 40
0.4267578125
 40
0.4272460938
 40
0.427734375
 40
0.4279785156
 40
0.4281005859
 40
0.4282226562
 40
0.4283447266
 40
0.4284057617
 40
0.4284667969
 40
0.428527832
 40
0.4285583496
 40
0.4285736084
 40
0.4285888672
 40
0.4286193848
 40
0.4286499023
 40
0.4287109375
 40
0.4287719727
 40
0.4288330078
 40
0.4289550781
 40
0.4291992188
 40
0.4294433594
 40
0.4296875
 40
0.4299316406
 40
0.4301757812
 40
0.4306640625
 40
0.4311523438
 40
0.431640625
 40
0.4326171875
 40
0.43359375
 40
0.4345703125
 40
0.435546875
 40
0.4375
 40
0.439453125
 40
0.44140625
 40
0.443359375
 40
0.4453125
 40
0.44921875
 40
0.453125
 40
0.45703125
 40
0.4609375
 40
0.46484375
 40
0.46875
 40
0.4765625
 40
0.484375
 40
0.4921875
 40
0.5
 40
0.5078125
 40
0.515625
 40
0.5234375
 40
0.53125
 40
0.53515625
 40
0.5390625
 40
0.54296875
 40
0.546875
 40
0.55078125
 40
0.5546875
 40
0.556640625
 40
0.55859375
 40
0.560546875
 40
0.5625
 40
0.564453125
 40
0.5654296875
 40
0.56640625
 40
0.5673828125
 40
0.568359375
 40
0.5688476562
 40
0.5693359375
 40
0.5698242188
 40
0.5700683594
 40
0.5703125
 40
0.5705566406
 40
0.5708007812
 40
0.5710449219
 40
0.5711669922
 40
0.5712280273
 40
0.5712890625
 40
0.5713500977
 40
0.5713806152
 40
0.5714111328
 40
0.5714263916
 40
0.5714416504
 40
0.571472168
 40
0.5715332031
 40
0.5715942383
 40
0.5716552734
 40
0.5717773438
 40
0.5718994141
 40
0.5720214844
 40
0.572265625
 40
0.5727539062
 40
0.5732421875
 40
0.5737304688
 40
0.57421875
 40
0.5751953125
 40
0.576171875
 40
0.5771484375
 40
0.578125
 40
0.580078125
 40
0.58203125
 40
0.583984375
 40
0.5859375
 40
0.58984375
 40
0.59375
 40
0.59765625
 40
0.6015625
 40
0.609375
 40
0.6171875
 40
0.625
 40
0.6328125
 40
0.640625
 40
0.65625
 40
0.6640625
 40
0.671875
 40
0.67578125
 40
0.6796875
 40
0.68359375
 40
0.6875
 40
0.69140625
 40
0.6953125
 40
0.69921875
 40
0.701171875
 40
0.703125
 40
0.705078125
 40
0.70703125
 40
0.708984375
 40
0.7099609375
 40
0.7109375
 40
0.7114257812
 40
0.7119140625
 40
0.7124023438
 40
0.712890625
 40
0.7133789062
 40
0.7136230469
 40
0.7138671875
 40
0.7139892578
 40
0.7141113281
 40
0.7141723633
 40
0.7142333984
 40
0.714263916
 40
0.7142791748
 40
0.7142868042
 40
0.7142944336
 40
0.7143096924
 40
0.7143249512
 40
0.7143554688
 40
0.7144165039
 40
0.7144775391
 40
0.7145996094
 40
0.7147216797
 40
0.71484375
 40
0.7150878906
 40
0.7153320312
 40
0.7155761719
 40
0.7158203125
 40
0.7163085938
 40
0.716796875
 40
0.7172851562
 40
0.7177734375
 40
0.71875
 40
0.7197265625
 40
0.720703125
 40
0.7216796875
 40
0.72265625
 40
0.724609375
 40
0.7265625
 40
0.728515625
 40
0.73046875
 40
0.734375
 40
0.73828125
 40
0.7421875
 40
0.74609375
 40
0.75
 40
0.7578125
 40
0.765625
 40
0.7734375
 40
0.78125
 40
0.7890625
 40
0.796875
 40
0.8046875
 40
0.8125
 40
0.8203125
 40
0.828125
 40
0.83203125
 40
0.8359375
 40
0.83984375
 40
0.841796875
 40
0.84375
 40
0.845703125
 40
0.84765625
 40
0.849609375
 40
0.8515625
 40
0.8525390625
 40
0.853515625
 40
0.8544921875
 40
0.8549804688
 40
0.85546875
 40
0.8559570312
 40
0.8562011719
 40
0.8564453125
 40
0.8566894531
 40
0.8568115234
 40
0.8569335938
 40
0.8569946289
 40
0.8570556641
 40
0.8570861816
 40
0.8571166992
 40
0.8571472168
 40
0.8571624756
 40
0.8571777344
 40
0.857208252
 40
0.8572387695
 40
0.8572998047
 40
0.8573608398
 40
0.857421875
 40
0.8575439453
 40
0.8576660156
 40
0.8579101562
 40
0.8581542969
 40
0.8583984375
 40
0.8588867188
 40
0.859375
 40
0.8598632812
 40
0.8603515625
 40
0.861328125
 40
0.8623046875
 40
0.86328125
 40
0.8642578125
 40
0.865234375
 40
0.8671875
 40
0.869140625
 40
0.87109375
 40
0.873046875
 40
0.875
 40
0.87890625
 40
0.8828125
 40
0.88671875
 40
0.890625
 40
0.89453125
 40
0.8984375
 40
0.90625
 40
0.9140625
 40
0.921875
 40
0.9296875
 40
0.9375
 40
0.953125
 40
0.96875
 40
0.984375
 40
1.0
 40
1.0
 40
1.0
 40
1.0
 10
14.6126850701
 20
15.0295013275
 30
0.0
 10
14.5942189231
 20
15.0280392608
 30
0.0
 10
14.557286629
 20
15.0251151275
 30
0.0
 10
14.501888188
 20
15.0207289275
 30
0.0
 10
14.446489747
 20
15.0163427275
 30
0.0
 10
14.4003243795
 20
15.0126875609
 30
0.0
 10
14.3633920855
 20
15.0097634275
 30
0.0
 10
14.335692865
 20
15.0075703275
 30
0.0
 10
14.3079936445
 20
15.0053772276
 30
0.0
 10
14.280294424
 20
15.0031841276
 30
0.0
 10
14.2572117403
 20
15.0013565442
 30
0.0
 10
14.2387455933
 20
14.9998944776
 30
0.0
 10
14.224895983
 20
14.9987979276
 30
0.0
 10
14.2110463728
 20
14.9977013776
 30
0.0
 10
14.1971967625
 20
14.9966048276
 30
0.0
 10
14.1833471523
 20
14.9955082776
 30
0.0
 10
14.169497542
 20
14.9944117276
 30
0.0
 10
14.1579562002
 20
14.9934979359
 30
0.0
 10
14.1487231267
 20
14.9927669026
 30
0.0
 10
14.1417983215
 20
14.9922186276
 30
0.0
 10
14.1360276506
 20
14.9917617318
 30
0.0
 10
14.1314111138
 20
14.9913962151
 30
0.0
 10
14.1279487113
 20
14.9911220776
 30
0.0
 10
14.1244863087
 20
14.9908479401
 30
0.0
 10
14.1210239062
 20
14.9905738026
 30
0.0
 10
14.1181385707
 20
14.9903453547
 30
0.0
 10
14.1158303023
 20
14.9901625963
 30
0.0
 10
14.114099101
 20
14.9900255276
 30
0.0
 10
14.1123678998
 20
14.9898884588
 30
0.0
 10
14.1109252318
 20
14.9897742351
 30
0.0
 10
14.1097710981
 20
14.9896828553
 30
0.0
 10
14.108905496
 20
14.9896143228
 30
0.0
 10
14.1081841669
 20
14.989557205
 30
0.0
 10
14.10760709
 20
14.9895115273
 30
0.0
 10
14.1071743195
 20
14.9894772237
 30
0.0
 10
14.1068135593
 20
14.9894487818
 30
0.0
 10
14.1065252161
 20
14.9894257043
 30
0.0
 10
14.1063624801
 20
14.9894133871
 30
0.0
 10
14.1062548529
 20
14.9894041197
 30
0.0
 10
14.1061810401
 20
14.9894004624
 30
0.0
 10
14.1061038023
 20
14.9893775115
 30
0.0
 10
14.1060076113
 20
14.989354258
 30
0.0
 10
14.1058170307
 20
14.9893055477
 30
0.0
 10
14.1054030531
 20
14.9892012964
 30
0.0
 10
14.104766876
 20
14.9890400398
 30
0.0
 10
14.1040031584
 20
14.9888469048
 30
0.0
 10
14.1032395225
 20
14.98865367
 30
0.0
 10
14.1022213128
 20
14.9883960584
 30
0.0
 10
14.1009485604
 20
14.9880740321
 30
0.0
 10
14.0994212533
 20
14.9876876055
 30
0.0
 10
14.0973848453
 20
14.9871723683
 30
0.0
 10
14.0948393349
 20
14.9865283225
 30
0.0
 10
14.0917847225
 20
14.9857554672
 30
0.0
 10
14.087711906
 20
14.9847249936
 30
0.0
 10
14.0826208854
 20
14.9834369015
 30
0.0
 10
14.0765116606
 20
14.9818911911
 30
0.0
 10
14.0704024359
 20
14.9803454806
 30
0.0
 10
14.0642932111
 20
14.9787997701
 30
0.0
 10
14.0581839864
 20
14.9772540597
 30
0.0
 10
14.0500383534
 20
14.9751931124
 30
0.0
 10
14.0398563121
 20
14.9726169283
 30
0.0
 10
14.0276378626
 20
14.9695255074
 30
0.0
 10
14.0113465966
 20
14.9654036128
 30
0.0
 10
13.990982514
 20
14.9602512446
 30
0.0
 10
13.966545615
 20
14.9540684028
 30
0.0
 10
13.942108716
 20
14.9478855609
 30
0.0
 10
13.9176718169
 20
14.9417027191
 30
0.0
 10
13.8932349179
 20
14.9355198773
 30
0.0
 10
13.8687980189
 20
14.9293370354
 30
0.0
 10
13.8443611199
 20
14.9231541936
 30
0.0
 10
13.8199242208
 20
14.9169713517
 30
0.0
 10
13.7954873218
 20
14.9107885099
 30
0.0
 10
13.7751232393
 20
14.9056361417
 30
0.0
 10
13.7588319733
 20
14.9015142471
 30
0.0
 10
13.7466135237
 20
14.8984228262
 30
0.0
 10
13.7343950742
 20
14.8953314053
 30
0.0
 10
13.7221766247
 20
14.8922399844
 30
0.0
 10
13.7119945835
 20
14.8896638003
 30
0.0
 10
13.7038489504
 20
14.887602853
 30
0.0
 10
13.6977397257
 20
14.8860571425
 30
0.0
 10
13.6916305009
 20
14.8845114321
 30
0.0
 10
13.6865394803
 20
14.88322334
 30
0.0
 10
13.6824666638
 20
14.8821928664
 30
0.0
 10
13.6794120514
 20
14.8814200112
 30
0.0
 10
13.676357439
 20
14.8806471559
 30
0.0
 10
13.6733028267
 20
14.8798743007
 30
0.0
 10
13.6702482143
 20
14.8791014455
 30
0.0
 10
13.667702704
 20
14.8784573995
 30
0.0
 10
13.6656662957
 20
14.8779421626
 30
0.0
 10
13.6643935405
 20
14.8776201396
 30
0.0
 10
13.6633753365
 20
14.8773625212
 30
0.0
 10
13.6626116831
 20
14.8771693076
 30
0.0
 10
13.6618480311
 20
14.8769760929
 30
0.0
 10
13.6612116501
 20
14.8768150842
 30
0.0
 10
13.660702555
 20
14.8766862691
 30
0.0
 10
13.6603207074
 20
14.8765896803
 30
0.0
 10
13.6600025843
 20
14.8765091181
 30
0.0
 10
13.6597478993
 20
14.8764448286
 30
0.0
 10
13.6595891458
 20
14.8764042829
 30
0.0
 10
13.6594611705
 20
14.8763726816
 30
0.0
 10
13.6593911815
 20
14.8763531906
 30
0.0
 10
13.6593413456
 20
14.876342925
 30
0.0
 10
13.6593157048
 20
14.8763295678
 30
0.0
 10
13.6592695544
 20
14.8763072913
 30
0.0
 10
13.6591781615
 20
14.8762619584
 30
0.0
 10
13.6590471265
 20
14.8761976039
 30
0.0
 10
13.6588377353
 20
14.8760944095
 30
0.0
 10
13.6585759056
 20
14.8759654943
 30
0.0
 10
13.6581570287
 20
14.8757591865
 30
0.0
 10
13.6576334153
 20
14.8755013166
 30
0.0
 10
13.6567956436
 20
14.8750887165
 30
0.0
 10
13.6557484256
 20
14.8745729692
 30
0.0
 10
13.6544917654
 20
14.8739540712
 30
0.0
 10
13.6532351048
 20
14.8733351735
 30
0.0
 10
13.6519784444
 20
14.8727162757
 30
0.0
 10
13.650302897
 20
14.8718910788
 30
0.0
 10
13.6482084629
 20
14.8708595825
 30
0.0
 10
13.6448573683
 20
14.8692091886
 30
0.0
 10
13.6406685
 20
14.8671461961
 30
0.0
 10
13.635641858
 20
14.8646706051
 30
0.0
 10
13.6306152161
 20
14.8621950142
 30
0.0
 10
13.6255885741
 20
14.8597194232
 30
0.0
 10
13.6188863848
 20
14.8564186353
 30
0.0
 10
13.6105086483
 20
14.8522926503
 30
0.0
 10
13.6004553644
 20
14.8473414684
 30
0.0
 10
13.5904020804
 20
14.8423902865
 30
0.0
 10
13.5803487965
 20
14.8374391046
 30
0.0
 10
13.566944418
 20
14.8308375287
 30
0.0
 10
13.5501889448
 20
14.8225855589
 30
0.0
 10
13.530082377
 20
14.812683195
 30
0.0
 10
13.50327362
 20
14.7994800433
 30
0.0
 10
13.4764648629
 20
14.7862768915
 30
0.0
 10
13.4496561058
 20
14.7730737397
 30
0.0
 10
13.429549538
 20
14.7631713759
 30
0.0
 10
13.4094429702
 20
14.7532690121
 30
0.0
 10
13.3893364024
 20
14.7433666482
 30
0.0
 10
13.3725809292
 20
14.7351146784
 30
0.0
 10
13.3591765507
 20
14.7285131025
 30
0.0
 10
13.3491232668
 20
14.7235619206
 30
0.0
 10
13.3390699829
 20
14.7186107387
 30
0.0
 10
13.3306922463
 20
14.7144847537
 30
0.0
 10
13.323990057
 20
14.7111839658
 30
0.0
 10
13.3189634151
 20
14.7087083748
 30
0.0
 10
13.3139367731
 20
14.7062327839
 30
0.0
 10
13.3097479048
 20
14.7041697914
 30
0.0
 10
13.3063968102
 20
14.7025193974
 30
0.0
 10
13.3038834892
 20
14.701281602
 30
0.0
 10
13.3013701682
 20
14.7000438065
 30
0.0
 10
13.2992757341
 20
14.6990123102
 30
0.0
 10
13.2976001867
 20
14.6981871133
 30
0.0
 10
13.2963435263
 20
14.6975682155
 30
0.0
 10
13.2950868656
 20
14.6969493179
 30
0.0
 10
13.2940396494
 20
14.6964335692
 30
0.0
 10
13.2933065958
 20
14.6960725466
 30
0.0
 10
13.2928877116
 20
14.6958662457
 30
0.0
 10
13.2925735386
 20
14.6957115262
 30
0.0
 10
13.2923117589
 20
14.6955825737
 30
0.0
 10
13.2921022654
 20
14.6954794557
 30
0.0
 10
13.2919453357
 20
14.695401997
 30
0.0
 10
13.2918139552
 20
14.6953378303
 30
0.0
 10
13.2917231777
 20
14.6952921635
 30
0.0
 10
13.2916694486
 20
14.6952672395
 30
0.0
 10
13.2916343191
 20
14.6952305797
 30
0.0
 10
13.2915840386
 20
14.6951887733
 30
0.0
 10
13.2915071494
 20
14.6951196373
 30
0.0
 10
13.2914098166
 20
14.6950339877
 30
0.0
 10
13.2912935399
 20
14.6949308785
 30
0.0
 10
13.291138322
 20
14.6947935146
 30
0.0
 10
13.2908667756
 20
14.6945530741
 30
0.0
 10
13.2904788078
 20
14.6942096157
 30
0.0
 10
13.2900132655
 20
14.6937974536
 30
0.0
 10
13.2895477181
 20
14.6933852948
 30
0.0
 10
13.289082172
 20
14.6929731351
 30
0.0
 10
13.2884614435
 20
14.6924235891
 30
0.0
 10
13.2876855329
 20
14.6917366565
 30
0.0
 10
13.2867544402
 20
14.6909123374
 30
0.0
 10
13.2855129833
 20
14.6898132454
 30
0.0
 10
13.2839611621
 20
14.6884393803
 30
0.0
 10
13.2820989768
 20
14.6867907421
 30
0.0
 10
13.2802367914
 20
14.685142104
 30
0.0
 10
13.2777538775
 20
14.6829439198
 30
0.0
 10
13.2746502352
 20
14.6801961896
 30
0.0
 10
13.2709258644
 20
14.6768989134
 30
0.0
 10
13.2672014937
 20
14.6736016371
 30
0.0
 10
13.2634771229
 20
14.6703043609
 30
0.0
 10
13.2585112952
 20
14.6659079925
 30
0.0
 10
13.2523040106
 20
14.6604125321
 30
0.0
 10
13.244855269
 20
14.6538179796
 30
0.0
 10
13.2374065275
 20
14.6472234271
 30
0.0
 10
13.2299577859
 20
14.6406288746
 30
0.0
 10
13.2225090444
 20
14.6340343221
 30
0.0
 10
13.212577389
 20
14.6252415855
 30
0.0
 10
13.2001628198
 20
14.6142506646
 30
0.0
 10
13.1852653367
 20
14.6010615596
 30
0.0
 10
13.1703678536
 20
14.5878724546
 30
0.0
 10
13.1554703705
 20
14.5746833496
 30
0.0
 10
13.1405728874
 20
14.5614942446
 30
0.0
 10
13.1256754043
 20
14.5483051396
 30
0.0
 10
13.1107779212
 20
14.5351160346
 30
0.0
 10
13.098363352
 20
14.5241251138
 30
0.0
 10
13.0884316966
 20
14.5153323771
 30
0.0
 10
13.080982955
 20
14.5087378246
 30
0.0
 10
13.0735342135
 20
14.5021432721
 30
0.0
 10
13.0660854719
 20
14.4955487196
 30
0.0
 10
13.0586367304
 20
14.4889541671
 30
0.0
 10
13.0524294458
 20
14.4834587067
 30
0.0
 10
13.0474636181
 20
14.4790623384
 30
0.0
 10
13.0437392473
 20
14.4757650621
 30
0.0
 10
13.0400148765
 20
14.4724677859
 30
0.0
 10
13.0362905058
 20
14.4691705096
 30
0.0
 10
13.0331868635
 20
14.4664227794
 30
0.0
 10
13.0307039496
 20
14.4642245952
 30
0.0
 10
13.0288417642
 20
14.4625759571
 30
0.0
 10
13.0269795788
 20
14.460927319
 30
0.0
 10
13.0254277577
 20
14.4595534539
 30
0.0
 10
13.0241863007
 20
14.4584543618
 30
0.0
 10
13.0232552081
 20
14.4576300427
 30
0.0
 10
13.0224792974
 20
14.4569431102
 30
0.0
 10
13.0218585691
 20
14.4563935641
 30
0.0
 10
13.0213930224
 20
14.4559814047
 30
0.0
 10
13.0209274773
 20
14.4555692446
 30
0.0
 10
13.0204619264
 20
14.4551570872
 30
0.0
 10
13.0200739852
 20
14.4548136144
 30
0.0
 10
13.0198023914
 20
14.4545731996
 30
0.0
 10
13.0196472495
 20
14.4544357945
 30
0.0
 10
13.0195307393
 20
14.4543328118
 30
0.0
 10
13.0194341374
 20
14.4542467663
 30
0.0
 10
13.0193557569
 20
14.4541784381
 30
0.0
 10
13.0193092717
 20
14.4541345756
 30
0.0
 10
13.0192663519
 20
14.4541021364
 30
0.0
 10
13.0192443566
 20
14.4540600198
 30
0.0
 10
13.0192022102
 20
14.4539880058
 30
0.0
 10
13.0191439117
 20
14.4538842451
 30
0.0
 10
13.0190731358
 20
14.4537601104
 30
0.0
 10
13.0189790535
 20
14.4535944654
 30
0.0
 10
13.0188613526
 20
14.4533874545
 30
0.0
 10
13.0187201535
 20
14.453139022
 30
0.0
 10
13.0185318734
 20
14.4528077854
 30
0.0
 10
13.0182023901
 20
14.4522281183
 30
0.0
 10
13.017731696
 20
14.451400024
 30
0.0
 10
13.0171668646
 20
14.4504063102
 30
0.0
 10
13.0166020329
 20
14.4494125965
 30
0.0
 10
13.015848924
 20
14.4480876449
 30
0.0
 10
13.0149075378
 20
14.4464314554
 30
0.0
 10
13.0137778745
 20
14.4444440281
 30
0.0
 10
13.0126482111
 20
14.4424566007
 30
0.0
 10
13.0111419933
 20
14.4398066975
 30
0.0
 10
13.009259221
 20
14.4364943186
 30
0.0
 10
13.0069998943
 20
14.4325194638
 30
0.0
 10
13.0047405676
 20
14.4285446091
 30
0.0
 10
13.001728132
 20
14.4232448027
 30
0.0
 10
12.9979625875
 20
14.4166200448
 30
0.0
 10
12.993443934
 20
14.4086703353
 30
0.0
 10
12.9889252806
 20
14.4007206258
 30
0.0
 10
12.9829004093
 20
14.3901210132
 30
0.0
 10
12.9753693203
 20
14.3768714973
 30
0.0
 10
12.9663320134
 20
14.3609720783
 30
0.0
 10
12.9572947065
 20
14.3450726593
 30
0.0
 10
12.9482573996
 20
14.3291732403
 30
0.0
 10
12.9362076571
 20
14.307974015
 30
0.0
 10
12.9241579146
 20
14.2867747897
 30
0.0
 10
12.9121081721
 20
14.2655755643
 30
0.0
 10
12.9045770831
 20
14.2523260485
 30
0.0
 10
12.8985522118
 20
14.2417264358
 30
0.0
 10
12.8940335584
 20
14.2337767264
 30
0.0
 10
12.8895149049
 20
14.2258270169
 30
0.0
 10
12.8849962515
 20
14.2178773074
 30
0.0
 10
12.8804775981
 20
14.2099275979
 30
0.0
 10
12.8759589446
 20
14.2019778884
 30
0.0
 10
12.8721934001
 20
14.1953531304
 30
0.0
 10
12.8691809645
 20
14.1900533241
 30
0.0
 10
12.8669216377
 20
14.1860784694
 30
0.0
 10
12.864662311
 20
14.1821036146
 30
0.0
 10
12.8624029843
 20
14.1781287599
 30
0.0
 10
12.860520212
 20
14.1748163809
 30
0.0
 10
12.8590139942
 20
14.1721664777
 30
0.0
 10
12.8580726081
 20
14.1705102883
 30
0.0
 10
12.8573194992
 20
14.1691853367
 30
0.0
 10
12.8567546675
 20
14.168191623
 30
0.0
 10
12.8561898359
 20
14.1671979093
 30
0.0
 10
12.8556250038
 20
14.1662041957
 30
0.0
 10
12.8551543121
 20
14.1653761005
 30
0.0
 10
12.8547777548
 20
14.1647136258
 30
0.0
 10
12.8545424157
 20
14.1642995756
 30
0.0
 10
12.8543541232
 20
14.1639683434
 30
0.0
 10
12.8542364887
 20
14.1637613053
 30
0.0
 10
12.8541422706
 20
14.1635957159
 30
0.0
 10
12.8540836363
 20
14.1634921289
 30
0.0
 10
12.8540420871
 20
14.1634198057
 30
0.0
 10
12.8540220042
 20
14.1633833871
 30
0.0
 10
12.8540094147
 20
14.1633629902
 30
0.0
 10
12.8540080058
 20
14.1633384395
 30
0.0
 10
12.854002417
 20
14.1633091732
 30
0.0
 10
12.8539956111
 20
14.1632615536
 30
0.0
 10
12.8539827056
 20
14.1631785889
 30
0.0
 10
12.8539647884
 20
14.163059875
 30
0.0
 10
12.8539358307
 20
14.1628700406
 30
0.0
 10
12.8538997331
 20
14.1626327106
 30
0.0
 10
12.8538563734
 20
14.1623479304
 30
0.0
 10
12.8537985753
 20
14.161968218
 30
0.0
 10
12.8537263226
 20
14.1614935793
 30
0.0
 10
12.8536396216
 20
14.1609240121
 30
0.0
 10
12.8535529199
 20
14.1603544452
 30
0.0
 10
12.853437318
 20
14.1595950225
 30
0.0
 10
12.8532928155
 20
14.1586457442
 30
0.0
 10
12.8531194125
 20
14.1575066101
 30
0.0
 10
12.8529460095
 20
14.1563674761
 30
0.0
 10
12.8527148054
 20
14.1548486308
 30
0.0
 10
12.8524258004
 20
14.1529500741
 30
0.0
 10
12.8520789944
 20
14.150671806
 30
0.0
 10
12.8517321884
 20
14.148393538
 30
0.0
 10
12.8513853824
 20
14.14611527
 30
0.0
 10
12.8509229744
 20
14.1430775793
 30
0.0
 10
12.8503449644
 20
14.1392804659
 30
0.0
 10
12.8496513523
 20
14.1347239298
 30
0.0
 10
12.8489577403
 20
14.1301673937
 30
0.0
 10
12.8480329243
 20
14.1240920123
 30
0.0
 10
12.8468769042
 20
14.1164977855
 30
0.0
 10
12.8454896802
 20
14.1073847134
 30
0.0
 10
12.8441024561
 20
14.0982716413
 30
0.0
 10
12.8427152321
 20
14.0891585692
 30
0.0
 10
12.8408656
 20
14.0770078063
 30
0.0
 10
12.8385535599
 20
14.0618193528
 30
0.0
 10
12.8357791118
 20
14.0435932085
 30
0.0
 10
12.8330046637
 20
14.0253670642
 30
0.0
 10
12.8302302156
 20
14.00714092
 30
0.0
 10
12.8274557675
 20
13.9889147757
 30
0.0
 10
12.8246813194
 20
13.9706886315
 30
0.0
 10
12.8219068713
 20
13.9524624872
 30
0.0
 10
12.8191324232
 20
13.9342363429
 30
0.0
 10
12.8163579751
 20
13.9160101987
 30
0.0
 10
12.814045935
 20
13.9008217451
 30
0.0
 10
12.812196303
 20
13.8886709823
 30
0.0
 10
12.8108090789
 20
13.8795579102
 30
0.0
 10
12.8096530589
 20
13.8719636834
 30
0.0
 10
12.8087282428
 20
13.865888302
 30
0.0
 10
12.8080346308
 20
13.8613317659
 30
0.0
 10
12.8073410188
 20
13.8567752298
 30
0.0
 10
12.8066474068
 20
13.8522186938
 30
0.0
 10
12.8059537947
 20
13.8476621577
 30
0.0
 10
12.8053757847
 20
13.8438650443
 30
0.0
 10
12.8049133767
 20
13.8408273536
 30
0.0
 10
12.8045665707
 20
13.8385490856
 30
0.0
 10
12.8042775657
 20
13.8366505289
 30
0.0
 10
12.8040463616
 20
13.8351316835
 30
0.0
 10
12.8038729588
 20
13.8339925495
 30
0.0
 10
12.8037284558
 20
13.8330432712
 30
0.0
 10
12.8036128547
 20
13.8322838484
 30
0.0
 10
12.8035261504
 20
13.8317142818
 30
0.0
 10
12.8034539079
 20
13.8312396412
 30
0.0
 10
12.8033960892
 20
13.8308599328
 30
0.0
 10
12.8033600086
 20
13.8306226059
 30
0.0
 10
12.8033310156
 20
13.8304327652
 30
0.0
 10
12.8033131884
 20
13.8303140671
 30
0.0
 10
12.8032982544
 20
13.830219218
 30
0.0
 10
12.8032888948
 20
13.8301477818
 30
0.0
 10
12.8032752388
 20
13.8300892038
 30
0.0
 10
12.803288362
 20
13.8300384314
 30
0.0
 10
12.8032972854
 20
13.8299883419
 30
0.0
 10
12.8033098777
 20
13.8299254962
 30
0.0
 10
12.8033292217
 20
13.8298250738
 30
0.0
 10
12.8033536775
 20
13.8296995009
 30
0.0
 10
12.8033829063
 20
13.8295488327
 30
0.0
 10
12.8034219193
 20
13.829347935
 30
0.0
 10
12.8034706715
 20
13.8290968151
 30
0.0
 10
12.8035486828
 20
13.8286950221
 30
0.0
 10
12.8036461942
 20
13.8281927812
 30
0.0
 10
12.8037632092
 20
13.827590092
 30
0.0
 10
12.8039192286
 20
13.8267865064
 30
0.0
 10
12.8041142531
 20
13.8257820245
 30
0.0
 10
12.8043482824
 20
13.8245766461
 30
0.0
 10
12.8045823118
 20
13.8233712678
 30
0.0
 10
12.8048943509
 20
13.8217640966
 30
0.0
 10
12.8052843997
 20
13.8197551327
 30
0.0
 10
12.8057524584
 20
13.817344376
 30
0.0
 10
12.806220517
 20
13.8149336193
 30
0.0
 10
12.8066885757
 20
13.8125228626
 30
0.0
 10
12.8073126539
 20
13.8093085203
 30
0.0
 10
12.8080927517
 20
13.8052905925
 30
0.0
 10
12.809028869
 20
13.8004690791
 30
0.0
 10
12.8099649863
 20
13.7956475657
 30
0.0
 10
12.8109011036
 20
13.7908260523
 30
0.0
 10
12.81214926
 20
13.7843973677
 30
0.0
 10
12.8137094555
 20
13.7763615121
 30
0.0
 10
12.8155816901
 20
13.7667184853
 30
0.0
 10
12.8174539248
 20
13.7570754584
 30
0.0
 10
12.8193261594
 20
13.7474324316
 30
0.0
 10
12.821198394
 20
13.7377894048
 30
0.0
 10
12.8236947068
 20
13.7249320357
 30
0.0
 10
12.8268150978
 20
13.7088603244
 30
0.0
 10
12.8305595671
 20
13.6895742708
 30
0.0
 10
12.8343040363
 20
13.6702882171
 30
0.0
 10
12.8380485056
 20
13.6510021635
 30
0.0
 10
12.8430411312
 20
13.6252874253
 30
0.0
 10
12.8492819133
 20
13.5931440026
 30
0.0
 10
12.8567708517
 20
13.5545718954
 30
0.0
 10
12.8642597902
 20
13.5159997881
 30
0.0
 10
12.8692524159
 20
13.49028505
 30
0.0
 10
12.8717487287
 20
13.4774276809
 30
0.0
  0
SPLINE
  5
305
100
AcDbEntity
  8
03__ASM_ALL_CURVES
100
AcDbSpline
 62
8
  6
PHANTOM
 70
0
 71
3
 72
241
 73
237
 74
0
 42
0.0000001
 43
0.0000001
 44
0.0000000001
 40
0.0
 40
0.0
 40
0.0
 40
0.0
 40
0.03125
 40
0.046875
 40
0.0625
 40
0.078125
 40
0.09375
 40
0.109375
 40
0.1171875
 40
0.125
 40
0.1328125
 40
0.140625
 40
0.14453125
 40
0.1484375
 40
0.15234375
 40
0.15625
 40
0.158203125
 40
0.16015625
 40
0.162109375
 40
0.1630859375
 40
0.1640625
 40
0.1650390625
 40
0.1655273438
 40
0.166015625
 40
0.1662597656
 40
0.1665039062
 40
0.1666259766
 40
0.1666870117
 40
0.1667480469
 40
0.1668701172
 40
0.1669921875
 40
0.1674804688
 40
0.16796875
 40
0.1684570312
 40
0.1689453125
 40
0.169921875
 40
0.171875
 40
0.173828125
 40
0.17578125
 40
0.177734375
 40
0.1796875
 40
0.18359375
 40
0.1875
 40
0.1953125
 40
0.203125
 40
0.2109375
 40
0.21875
 40
0.2265625
 40
0.234375
 40
0.25
 40
0.265625
 40
0.2734375
 40
0.28125
 40
0.2890625
 40
0.296875
 40
0.3046875
 40
0.3125
 40
0.31640625
 40
0.3203125
 40
0.322265625
 40
0.32421875
 40
0.326171875
 40
0.328125
 40
0.330078125
 40
0.3310546875
 40
0.3315429688
 40
0.33203125
 40
0.3325195312
 40
0.3330078125
 40
0.3331298828
 40
0.3332519531
 40
0.3333129883
 40
0.3333740234
 40
0.3334960938
 40
0.3337402344
 40
0.333984375
 40
0.3344726562
 40
0.3349609375
 40
0.3359375
 40
0.3369140625
 40
0.337890625
 40
0.33984375
 40
0.341796875
 40
0.34375
 40
0.34765625
 40
0.3515625
 40
0.35546875
 40
0.359375
 40
0.3671875
 40
0.375
 40
0.3828125
 40
0.390625
 40
0.40625
 40
0.421875
 40
0.4375
 40
0.4453125
 40
0.453125
 40
0.4609375
 40
0.46875
 40
0.47265625
 40
0.4765625
 40
0.48046875
 40
0.484375
 40
0.48828125
 40
0.490234375
 40
0.4921875
 40
0.494140625
 40
0.4951171875
 40
0.49609375
 40
0.4970703125
 40
0.498046875
 40
0.4985351562
 40
0.4990234375
 40
0.4992675781
 40
0.4995117188
 40
0.4997558594
 40
0.4998779297
 40
0.4999389648
 40
0.5
 40
0.5000610352
 40
0.5001220703
 40
0.5002441406
 40
0.5004882812
 40
0.5007324219
 40
0.5009765625
 40
0.5014648438
 40
0.501953125
 40
0.5029296875
 40
0.50390625
 40
0.5048828125
 40
0.505859375
 40
0.5078125
 40
0.509765625
 40
0.51171875
 40
0.515625
 40
0.51953125
 40
0.5234375
 40
0.52734375
 40
0.53125
 40
0.5390625
 40
0.546875
 40
0.5546875
 40
0.5625
 40
0.578125
 40
0.59375
 40
0.609375
 40
0.6171875
 40
0.625
 40
0.6328125
 40
0.640625
 40
0.64453125
 40
0.6484375
 40
0.65234375
 40
0.65625
 40
0.658203125
 40
0.66015625
 40
0.662109375
 40
0.6630859375
 40
0.6640625
 40
0.6650390625
 40
0.6655273438
 40
0.666015625
 40
0.6662597656
 40
0.6665039062
 40
0.6666259766
 40
0.6667480469
 40
0.6668701172
 40
0.6669921875
 40
0.6674804688
 40
0.66796875
 40
0.6684570312
 40
0.6689453125
 40
0.669921875
 40
0.671875
 40
0.673828125
 40
0.67578125
 40
0.677734375
 40
0.6796875
 40
0.68359375
 40
0.6875
 40
0.6953125
 40
0.703125
 40
0.7109375
 40
0.71875
 40
0.7265625
 40
0.734375
 40
0.75
 40
0.765625
 40
0.7734375
 40
0.78125
 40
0.7890625
 40
0.796875
 40
0.8046875
 40
0.8125
 40
0.81640625
 40
0.8203125
 40
0.822265625
 40
0.82421875
 40
0.826171875
 40
0.828125
 40
0.830078125
 40
0.8310546875
 40
0.8315429688
 40
0.83203125
 40
0.8325195312
 40
0.8327636719
 40
0.8330078125
 40
0.8331298828
 40
0.8332519531
 40
0.8333129883
 40
0.8333740234
 40
0.8334960938
 40
0.8337402344
 40
0.833984375
 40
0.8344726562
 40
0.8349609375
 40
0.8359375
 40
0.8369140625
 40
0.837890625
 40
0.83984375
 40
0.841796875
 40
0.84375
 40
0.84765625
 40
0.8515625
 40
0.85546875
 40
0.859375
 40
0.8671875
 40
0.875
 40
0.8828125
 40
0.890625
 40
0.90625
 40
0.921875
 40
0.9375
 40
0.953125
 40
0.96875
 40
1.0
 40
1.0
 40
1.0
 40
1.0
 10
18.088605129
 20
12.4780071445
 30
0.0
 10
18.0907393191
 20
12.4859717264
 30
0.0
 10
18.0939406041
 20
12.4979185993
 30
0.0
 10
18.0982089843
 20
12.5138477632
 30
0.0
 10
18.1014102694
 20
12.5257946361
 30
0.0
 10
18.1046115545
 20
12.537741509
 30
0.0
 10
18.1078128395
 20
12.5496883819
 30
0.0
 10
18.1104805771
 20
12.5596441093
 30
0.0
 10
18.1126147672
 20
12.5676086913
 30
0.0
 10
18.1142154097
 20
12.5735821277
 30
0.0
 10
18.1158160523
 20
12.5795555642
 30
0.0
 10
18.1171499211
 20
12.5845334279
 30
0.0
 10
18.1182170161
 20
12.5885157189
 30
0.0
 10
18.1190173374
 20
12.5915024371
 30
0.0
 10
18.1198176587
 20
12.5944891553
 30
0.0
 10
18.120484593
 20
12.5969780872
 30
0.0
 10
18.1210181406
 20
12.5989692326
 30
0.0
 10
18.1214183009
 20
12.6004625919
 30
0.0
 10
18.1217517692
 20
12.6017070572
 30
0.0
 10
18.1220185406
 20
12.6027026313
 30
0.0
 10
18.1222186282
 20
12.6034493067
 30
0.0
 10
18.1223853393
 20
12.6040715527
 30
0.0
 10
18.122518772
 20
12.6045693125
 30
0.0
 10
18.1226020221
 20
12.6048804966
 30
0.0
 10
18.1226689552
 20
12.605129251
 30
0.0
 10
18.1227100284
 20
12.6052851625
 30
0.0
 10
18.1227403027
 20
12.6053934188
 30
0.0
 10
18.1227552194
 20
12.605456659
 30
0.0
 10
18.1227611606
 20
12.605525095
 30
0.0
 10
18.1227716551
 20
12.605608864
 30
0.0
 10
18.1227943167
 20
12.6058113714
 30
0.0
 10
18.1228293697
 20
12.6061145185
 30
0.0
 10
18.1228755008
 20
12.6065190655
 30
0.0
 10
18.1229217941
 20
12.6069235187
 30
0.0
 10
18.122983462
 20
12.6074628223
 30
0.0
 10
18.123091407
 20
12.6084065884
 30
0.0
 10
18.1232456005
 20
12.6097548337
 30
0.0
 10
18.1234306385
 20
12.6113727246
 30
0.0
 10
18.123615675
 20
12.6129906164
 30
0.0
 10
18.1238007119
 20
12.614608508
 30
0.0
 10
18.1240474276
 20
12.6167656968
 30
0.0
 10
18.1243558224
 20
12.6194621829
 30
0.0
 10
18.1248492538
 20
12.6237765605
 30
0.0
 10
18.1254660432
 20
12.6291695326
 30
0.0
 10
18.1262061905
 20
12.6356410991
 30
0.0
 10
18.1269463377
 20
12.6421126655
 30
0.0
 10
18.127686485
 20
12.648584232
 30
0.0
 10
18.1284266322
 20
12.6550557985
 30
0.0
 10
18.1294134952
 20
12.6636845538
 30
0.0
 10
18.130647074
 20
12.674470498
 30
0.0
 10
18.1318806527
 20
12.6852564421
 30
0.0
 10
18.1328675157
 20
12.6938851974
 30
0.0
 10
18.133607663
 20
12.7003567639
 30
0.0
 10
18.1343478102
 20
12.7068283304
 30
0.0
 10
18.1350879575
 20
12.7132998969
 30
0.0
 10
18.1358281047
 20
12.7197714633
 30
0.0
 10
18.1364448941
 20
12.7251644354
 30
0.0
 10
18.1369383256
 20
12.7294788131
 30
0.0
 10
18.1372467203
 20
12.7321752991
 30
0.0
 10
18.1374934361
 20
12.7343324879
 30
0.0
 10
18.1376784728
 20
12.7359503795
 30
0.0
 10
18.1378635099
 20
12.7375682712
 30
0.0
 10
18.1380485454
 20
12.7391861627
 30
0.0
 10
18.1382027469
 20
12.740534406
 30
0.0
 10
18.1383106776
 20
12.7414781756
 30
0.0
 10
18.1383723685
 20
12.7420174737
 30
0.0
 10
18.1384185911
 20
12.742421944
 30
0.0
 10
18.1384649879
 20
12.7428264265
 30
0.0
 10
18.1384992969
 20
12.7431297543
 30
0.0
 10
18.1385229295
 20
12.7433320259
 30
0.0
 10
18.1385316456
 20
12.7434162266
 30
0.0
 10
18.1385412564
 20
12.7434837718
 30
0.0
 10
18.1385412203
 20
12.7435506421
 30
0.0
 10
18.1385366752
 20
12.7436673515
 30
0.0
 10
18.1385325206
 20
12.7438342429
 30
0.0
 10
18.1385245664
 20
12.7441011777
 30
0.0
 10
18.1385150712
 20
12.7444348776
 30
0.0
 10
18.1384996287
 20
12.7449687798
 30
0.0
 10
18.1384804114
 20
12.7456361636
 30
0.0
 10
18.1384573139
 20
12.7464370215
 30
0.0
 10
18.13842653
 20
12.747504833
 30
0.0
 10
18.1383880458
 20
12.7488395971
 30
0.0
 10
18.1383418666
 20
12.7504413142
 30
0.0
 10
18.1382802938
 20
12.7525769368
 30
0.0
 10
18.1382033279
 20
12.7552464652
 30
0.0
 10
18.1381109688
 20
12.7584498992
 30
0.0
 10
18.1380186097
 20
12.7616533332
 30
0.0
 10
18.1378954642
 20
12.7659245786
 30
0.0
 10
18.1377415323
 20
12.7712636352
 30
0.0
 10
18.1375568141
 20
12.7776705033
 30
0.0
 10
18.1373720958
 20
12.7840773713
 30
0.0
 10
18.1371258049
 20
12.792619862
 30
0.0
 10
18.1368179411
 20
12.8032979754
 30
0.0
 10
18.1364485047
 20
12.8161117115
 30
0.0
 10
18.1361406409
 20
12.8267898248
 30
0.0
 10
18.13589435
 20
12.8353323155
 30
0.0
 10
18.1357096317
 20
12.8417391836
 30
0.0
 10
18.1355249135
 20
12.8481460516
 30
0.0
 10
18.1353709816
 20
12.8534851083
 30
0.0
 10
18.1352478361
 20
12.8577563536
 30
0.0
 10
18.135155477
 20
12.8609597877
 30
0.0
 10
18.1350631179
 20
12.8641632217
 30
0.0
 10
18.1349707588
 20
12.8673666557
 30
0.0
 10
18.1348937929
 20
12.870036184
 30
0.0
 10
18.1348322201
 20
12.8721718067
 30
0.0
 10
18.1347860406
 20
12.8737735237
 30
0.0
 10
18.1347475576
 20
12.8751082879
 30
0.0
 10
18.1347167712
 20
12.8761760993
 30
0.0
 10
18.1346936816
 20
12.8769769576
 30
0.0
 10
18.1346705909
 20
12.8777778166
 30
0.0
 10
18.1346513524
 20
12.8784451973
 30
0.0
 10
18.1346359532
 20
12.8789791057
 30
0.0
 10
18.1346263478
 20
12.8793127898
 30
0.0
 10
18.1346186196
 20
12.8795797569
 30
0.0
 10
18.1346129439
 20
12.8797799282
 30
0.0
 10
18.1346078306
 20
12.8799469092
 30
0.0
 10
18.1346050042
 20
12.8800634591
 30
0.0
 10
18.1346022135
 20
12.880130585
 30
0.0
 10
18.134603432
 20
12.8801794478
 30
0.0
 10
18.1345919926
 20
12.8802339743
 30
0.0
 10
18.1345811553
 20
12.8803047008
 30
0.0
 10
18.134560133
 20
12.8804293926
 30
0.0
 10
18.1345311765
 20
12.8806070426
 30
0.0
 10
18.1344959684
 20
12.8808204285
 30
0.0
 10
18.134449185
 20
12.8811048711
 30
0.0
 10
18.1343906508
 20
12.881460449
 30
0.0
 10
18.1342970268
 20
12.8820293598
 30
0.0
 10
18.1341799862
 20
12.8827405031
 30
0.0
 10
18.1340395421
 20
12.883593873
 30
0.0
 10
18.1338990967
 20
12.8844472435
 30
0.0
 10
18.1337118366
 20
12.8855850705
 30
0.0
 10
18.1334777614
 20
12.8870073544
 30
0.0
 10
18.1331968712
 20
12.8887140951
 30
0.0
 10
18.1328223509
 20
12.8909897493
 30
0.0
 10
18.1323542005
 20
12.8938343171
 30
0.0
 10
18.13179242
 20
12.8972477985
 30
0.0
 10
18.1312306396
 20
12.9006612798
 30
0.0
 10
18.1306688591
 20
12.9040747612
 30
0.0
 10
18.1299198185
 20
12.9086260696
 30
0.0
 10
18.1289835177
 20
12.9143152052
 30
0.0
 10
18.1278599568
 20
12.9211421679
 30
0.0
 10
18.1267363958
 20
12.9279691306
 30
0.0
 10
18.1252383146
 20
12.9370717475
 30
0.0
 10
18.1233657131
 20
12.9484500187
 30
0.0
 10
18.1211185912
 20
12.9621039441
 30
0.0
 10
18.1192459897
 20
12.9734822152
 30
0.0
 10
18.1177479084
 20
12.9825848322
 30
0.0
 10
18.1166243475
 20
12.9894117949
 30
0.0
 10
18.1155007866
 20
12.9962387576
 30
0.0
 10
18.1145644858
 20
13.0019278931
 30
0.0
 10
18.1138154452
 20
13.0064792016
 30
0.0
 10
18.1132536647
 20
13.0098926829
 30
0.0
 10
18.1126918843
 20
13.0133061643
 30
0.0
 10
18.1122237338
 20
13.0161507321
 30
0.0
 10
18.1118492138
 20
13.0184263864
 30
0.0
 10
18.1115683226
 20
13.0201331268
 30
0.0
 10
18.1113342505
 20
13.0215554114
 30
0.0
 10
18.111146984
 20
13.0226932372
 30
0.0
 10
18.1110065582
 20
13.0235466115
 30
0.0
 10
18.1108894601
 20
13.0242577409
 30
0.0
 10
18.1107959535
 20
13.02482668
 30
0.0
 10
18.1107371204
 20
13.0251821861
 30
0.0
 10
18.1106909505
 20
13.0254667761
 30
0.0
 10
18.1106600486
 20
13.0256442225
 30
0.0
 10
18.1106400127
 20
13.0257871469
 30
0.0
 10
18.1106121563
 20
13.0258916917
 30
0.0
 10
18.1105807047
 20
13.0259954943
 30
0.0
 10
18.110519651
 20
13.0262034813
 30
0.0
 10
18.1104272936
 20
13.0265153015
 30
0.0
 10
18.1103045943
 20
13.0269311534
 30
0.0
 10
18.1101817764
 20
13.0273469807
 30
0.0
 10
18.1100180605
 20
13.0279014258
 30
0.0
 10
18.1097315384
 20
13.0288717006
 30
0.0
 10
18.1093222312
 20
13.0302578096
 30
0.0
 10
18.1088310582
 20
13.0319211394
 30
0.0
 10
18.1083398864
 20
13.0335844696
 30
0.0
 10
18.1078487143
 20
13.0352477996
 30
0.0
 10
18.1071938183
 20
13.037465573
 30
0.0
 10
18.1063751982
 20
13.0402377898
 30
0.0
 10
18.1050654061
 20
13.0446733367
 30
0.0
 10
18.103428166
 20
13.0502177702
 30
0.0
 10
18.1014634778
 20
13.0568710905
 30
0.0
 10
18.0994987897
 20
13.0635244108
 30
0.0
 10
18.0975341015
 20
13.070177731
 30
0.0
 10
18.0955694134
 20
13.0768310513
 30
0.0
 10
18.0929498292
 20
13.085702145
 30
0.0
 10
18.0896753489
 20
13.0967910121
 30
0.0
 10
18.0864008686
 20
13.1078798792
 30
0.0
 10
18.0837812844
 20
13.1167509729
 30
0.0
 10
18.0818165963
 20
13.1234042932
 30
0.0
 10
18.0798519081
 20
13.1300576134
 30
0.0
 10
18.0778872199
 20
13.1367109337
 30
0.0
 10
18.0759225318
 20
13.143364254
 30
0.0
 10
18.0742852916
 20
13.1489086875
 30
0.0
 10
18.0729754995
 20
13.1533442344
 30
0.0
 10
18.0721568795
 20
13.1561164511
 30
0.0
 10
18.0715019834
 20
13.1583342246
 30
0.0
 10
18.0710108114
 20
13.1599975546
 30
0.0
 10
18.0705196392
 20
13.1616608847
 30
0.0
 10
18.0700284677
 20
13.1633242146
 30
0.0
 10
18.0696191562
 20
13.1647103237
 30
0.0
 10
18.0693326417
 20
13.1656805984
 30
0.0
 10
18.0691689136
 20
13.1662350436
 30
0.0
 10
18.0690461332
 20
13.1666508703
 30
0.0
 10
18.0689437663
 20
13.1669974155
 30
0.0
 10
18.0688619847
 20
13.1672746003
 30
0.0
 10
18.0688106163
 20
13.1674479576
 30
0.0
 10
18.0687701053
 20
13.1675863761
 30
0.0
 10
18.0687434541
 20
13.1676734975
 30
0.0
 10
18.0687251836
 20
13.1677417979
 30
0.0
 10
18.0686957767
 20
13.1678151972
 30
0.0
 10
18.0686391414
 20
13.1679460147
 30
0.0
 10
18.0685609329
 20
13.1681316609
 30
0.0
 10
18.0684342908
 20
13.1684293855
 30
0.0
 10
18.0682765048
 20
13.1688013048
 30
0.0
 10
18.0680237584
 20
13.1693965079
 30
0.0
 10
18.0677079245
 20
13.1701404664
 30
0.0
 10
18.0673288815
 20
13.171033236
 30
0.0
 10
18.0668235055
 20
13.1722235886
 30
0.0
 10
18.0661917805
 20
13.1737115318
 30
0.0
 10
18.0654337126
 20
13.1754970626
 30
0.0
 10
18.0644229547
 20
13.1778777706
 30
0.0
 10
18.0631595076
 20
13.1808536556
 30
0.0
 10
18.061643371
 20
13.1844247176
 30
0.0
 10
18.0601272344
 20
13.1879957796
 30
0.0
 10
18.0581057189
 20
13.1927571956
 30
0.0
 10
18.0555788246
 20
13.1987089656
 30
0.0
 10
18.0525465514
 20
13.2058510896
 30
0.0
 10
18.0495142781
 20
13.2129932136
 30
0.0
 10
18.0454712472
 20
13.2225160456
 30
0.0
 10
18.0404174585
 20
13.2344195855
 30
0.0
 10
18.034352912
 20
13.2487038335
 30
0.0
 10
18.0282883656
 20
13.2629880815
 30
0.0
 10
18.0222238192
 20
13.2772723295
 30
0.0
 10
18.0141377572
 20
13.2963179935
 30
0.0
 10
18.0080732108
 20
13.3106022415
 30
0.0
 10
18.0040301798
 20
13.3201250735
 30
0.0
  0
SPLINE
  5
306
100
AcDbEntity
  8
0
100
AcDbSpline
 62
7
  6
CONTINUOUS
 70
0
 71
3
 72
15
 73
11
 74
0
 42
0.0000001
 43
0.0000001
 44
0.0000000001
 40
0.0
 40
0.0
 40
0.0
 40
0.0
 40
0.1151636966
 40
0.2330957843
 40
0.3538422395
 40
0.4774279197
 40
0.6038580984
 40
0.733119648
 40
0.8651822051
 40
1.0
 40
1.0
 40
1.0
 40
1.0
 10
12.9974250822
 20
12.9529405394
 30
0.0
 10
13.008104521
 20
12.9311781313
 30
0.0
 10
13.0308010061
 20
12.8876527614
 30
0.0
 10
13.068258462
 20
12.8232468529
 30
0.0
 10
13.1094680894
 20
12.7590574704
 30
0.0
 10
13.1543609655
 20
12.6951910815
 30
0.0
 10
13.2028634905
 20
12.6317510677
 30
0.0
 10
13.254896188
 20
12.5688406622
 30
0.0
 10
13.3103729423
 20
12.5065631374
 30
0.0
 10
13.3492001782
 20
12.4659452591
 30
0.0
 10
13.3691497643
 20
12.4457620254
 30
0.0
  0
SPLINE
  5
307
100
AcDbEntity
  8
0
100
AcDbSpline
 62
7
  6
CONTINUOUS
 70
0
 71
3
 72
18
 73
14
 74
0
 42
0.0000001
 43
0.0000001
 44
0.0000000001
 40
0.0
 40
0.0
 40
0.0
 40
0.0
 40
0.0673128048
 40
0.1347800426
 40
0.2022866648
 40
0.2697100378
 40
0.4037550077
 40
0.5358582679
 40
0.6644984047
 40
0.7873895409
 40
0.9009865007
 40
0.9527340762
 40
1.0
 40
1.0
 40
1.0
 40
1.0
 10
13.3801924177
 20
13.437029812
 30
0.0
 10
13.382111508
 20
13.4356744216
 30
0.0
 10
13.3860411724
 20
13.4330814527
 30
0.0
 10
13.3921725145
 20
13.4295713848
 30
0.0
 10
13.3985175058
 20
13.426454039
 30
0.0
 10
13.4071933647
 20
13.4228535005
 30
0.0
 10
13.4183530682
 20
13.4194171999
 30
0.0
 10
13.4319628667
 20
13.4170443855
 30
0.0
 10
13.4453735466
 20
13.4164092835
 30
0.0
 10
13.4581117435
 20
13.4173882323
 30
0.0
 10
13.4680019206
 20
13.4193728827
 30
0.0
 10
13.4751179864
 20
13.4214898133
 30
0.0
 10
13.4783704767
 20
13.4226648065
 30
0.0
 10
13.4799048845
 20
13.4232708482
 30
0.0
  0
SPLINE
  5
308
100
AcDbEntity
  8
0
100
AcDbSpline
 62
7
  6
CONTINUOUS
 70
0
 71
3
 72
15
 73
11
 74
0
 42
0.0000001
 43
0.0000001
 44
0.0000000001
 40
0.0
 40
0.0
 40
0.0
 40
0.0
 40
0.2148225577
 40
0.4074830897
 40
0.5756467506
 40
0.7173689398
 40
0.8312056277
 40
0.9162976165
 40
0.9724373096
 40
1.0
 40
1.0
 40
1.0
 40
1.0
 10
13.4799048845
 20
13.4232708482
 30
0.0
 10
13.4809084781
 20
13.4236672353
 30
0.0
 10
13.4827978241
 20
13.4244560562
 30
0.0
 10
13.4854210979
 20
13.4256737323
 30
0.0
 10
13.4876695005
 20
13.4268224236
 30
0.0
 10
13.489529105
 20
13.4278585385
 30
0.0
 10
13.4909947069
 20
13.4287421765
 30
0.0
 10
13.4920703387
 20
13.429438624
 30
0.0
 10
13.4927678317
 20
13.4299208107
 30
0.0
 10
13.4931075627
 20
13.4301685978
 30
0.0
 10
13.4932177227
 20
13.4302524543
 30
0.0
  0
SPLINE
  5
309
100
AcDbEntity
  8
0
100
AcDbSpline
 62
7
  6
CONTINUOUS
 70
0
 71
3
 72
24
 73
20
 74
0
 42
0.0000001
 43
0.0000001
 44
0.0000000001
 40
0.0
 40
0.0
 40
0.0
 40
0.0
 40
0.0032014347
 40
0.007694837
 40
0.0141365365
 40
0.0225388705
 40
0.0329144045
 40
0.0452759308
 40
0.0596364654
 40
0.0943950025
 40
0.1372281657
 40
0.188161655
 40
0.2472064531
 40
0.3143078022
 40
0.3894003242
 40
0.4723960408
 40
0.5631422912
 40
0.7672235156
 40
1.0
 40
1.0
 40
1.0
 40
1.0
 10
13.3453544909
 20
13.1385500851
 30
0.0
 10
13.3453541176
 20
13.1385396935
 30
0.0
 10
13.3453557625
 20
13.1385990337
 30
0.0
 10
13.3453559563
 20
13.1386252747
 30
0.0
 10
13.3453569758
 20
13.138696671
 30
0.0
 10
13.3453573654
 20
13.1387751607
 30
0.0
 10
13.3453574093
 20
13.1388775582
 30
0.0
 10
13.3453566719
 20
13.138997615
 30
0.0
 10
13.3453542653
 20
13.1391974791
 30
0.0
 10
13.3453477755
 20
13.1394959608
 30
0.0
 10
13.3453334029
 20
13.1399132224
 30
0.0
 10
13.3453098204
 20
13.1404089905
 30
0.0
 10
13.3452748491
 20
13.1409831033
 30
0.0
 10
13.3452261151
 20
13.1416349259
 30
0.0
 10
13.345161278
 20
13.1423634866
 30
0.0
 10
13.345078026
 20
13.1431674302
 30
0.0
 10
13.3449335858
 20
13.1443861093
 30
0.0
 10
13.3446918659
 20
13.1460829166
 30
0.0
 10
13.3444479038
 20
13.1474809834
 30
0.0
 10
13.3443064871
 20
13.1482236969
 30
0.0
  0
SPLINE
  5
30A
100
AcDbEntity
  8
0
100
AcDbSpline
 62
7
  6
CONTINUOUS
 70
0
 71
3
 72
21
 73
17
 74
0
 42
0.0000001
 43
0.0000001
 44
0.0000000001
 40
0.0
 40
0.0
 40
0.0
 40
0.0
 40
0.0416263683
 40
0.0894043952
 40
0.1422261613
 40
0.199074742
 40
0.3214826648
 40
0.4515928088
 40
0.5185270711
 40
0.586299652
 40
0.6546873537
 40
0.7235038672
 40
0.7925871954
 40
0.8617933239
 40
0.9309772622
 40
1.0
 40
1.0
 40
1.0
 40
1.0
 10
13.3443064871
 20
13.1482236969
 30
0.0
 10
13.3440206897
 20
13.1497246919
 30
0.0
 10
13.3433072121
 20
13.1529301695
 30
0.0
 10
13.3418714085
 20
13.1579526567
 30
0.0
 10
13.3399411677
 20
13.1634044534
 30
0.0
 10
13.3365908071
 20
13.1712422262
 30
0.0
 10
13.3310947654
 20
13.1812197627
 30
0.0
 10
13.324105429
 20
13.1906817977
 30
0.0
 10
13.3175724496
 20
13.1978879083
 30
0.0
 10
13.3121983525
 20
13.2030632596
 30
0.0
 10
13.3064322809
 20
13.2079057191
 30
0.0
 10
13.300310945
 20
13.2123728648
 30
0.0
 10
13.2938740036
 20
13.2164284679
 30
0.0
 10
13.2871634759
 20
13.2200420643
 30
0.0
 10
13.2802245761
 20
13.2231887245
 30
0.0
 10
13.2754678096
 20
13.2249654457
 30
0.0
 10
13.2730655053
 20
13.2257704323
 30
0.0
  0
SPLINE
  5
30B
100
AcDbEntity
  8
0
100
AcDbSpline
 62
7
  6
CONTINUOUS
 70
0
 71
3
 72
37
 73
33
 74
0
 42
0.0000001
 43
0.0000001
 44
0.0000000001
 40
0.0
 40
0.0
 40
0.0
 40
0.0
 40
0.0592624366
 40
0.1178697198
 40
0.1473255878
 40
0.1770532222
 40
0.2071220571
 40
0.237547302
 40
0.2683039048
 40
0.2993453571
 40
0.3306186896
 40
0.3620739869
 40
0.3936694652
 40
0.4253722885
 40
0.4571569521
 40
0.4890040731
 40
0.5208984342
 40
0.5528283924
 40
0.5847853485
 40
0.6167619688
 40
0.648751921
 40
0.6807501491
 40
0.7127519877
 40
0.7447528215
 40
0.7767480946
 40
0.8087329745
 40
0.840701638
 40
0.8726474719
 40
0.9045621957
 40
0.9364359476
 40
0.9682567447
 40
1.0
 40
1.0
 40
1.0
 40
1.0
 10
13.1659218876
 20
13.3628361617
 30
0.0
 10
13.1646820136
 20
13.358823928
 30
0.0
 10
13.1624561185
 20
13.3507664923
 30
0.0
 10
13.1604271224
 20
13.3405127809
 30
0.0
 10
13.1593637006
 20
13.332231063
 30
0.0
 10
13.1588691297
 20
13.3259229869
 30
0.0
 10
13.1587120113
 20
13.3195283591
 30
0.0
 10
13.1589252948
 20
13.3130618963
 30
0.0
 10
13.1595382206
 20
13.3065513372
 30
0.0
 10
13.1605738195
 20
13.3000332559
 30
0.0
 10
13.1620477364
 20
13.2935489866
 30
0.0
 10
13.1639684688
 20
13.2871414751
 30
0.0
 10
13.1663379454
 20
13.2808532373
 30
0.0
 10
13.1691524034
 20
13.2747252977
 30
0.0
 10
13.1724032105
 20
13.2687967521
 30
0.0
 10
13.1760775488
 20
13.2631046751
 30
0.0
 10
13.1801588775
 20
13.2576839786
 30
0.0
 10
13.184627465
 20
13.2525673941
 30
0.0
 10
13.1894606386
 20
13.2477853438
 30
0.0
 10
13.1946331499
 20
13.243365955
 30
0.0
 10
13.2001173618
 20
13.2393348992
 30
0.0
 10
13.2058835642
 20
13.2357153098
 30
0.0
 10
13.2119001998
 20
13.2325276467
 30
0.0
 10
13.2181340952
 20
13.2297896236
 30
0.0
 10
13.2245506907
 20
13.227516073
 30
0.0
 10
13.2311142589
 20
13.225718849
 30
0.0
 10
13.237788117
 20
13.2244066105
 30
0.0
 10
13.2445348899
 20
13.2235848136
 30
0.0
 10
13.2513167295
 20
13.2232554405
 30
0.0
 10
13.2580958063
 20
13.2234169833
 30
0.0
 10
13.2648332004
 20
13.2240641729
 30
0.0
 10
13.269279146
 20
13.2248139872
 30
0.0
 10
13.2714825836
 20
13.225266301
 30
0.0
  0
SPLINE
  5
30C
100
AcDbEntity
  8
0
100
AcDbSpline
 62
7
  6
CONTINUOUS
 70
0
 71
3
 72
41
 73
37
 74
0
 42
0.0000001
 43
0.0000001
 44
0.0000000001
 40
0.0
 40
0.0
 40
0.0
 40
0.0
 40
0.0317194142
 40
0.0476203353
 40
0.0635388164
 40
0.095409177
 40
0.1273210499
 40
0.1432924622
 40
0.1592692786
 40
0.1912224817
 40
0.22318091
 40
0.2551351202
 40
0.2870754821
 40
0.3189919058
 40
0.3508673416
 40
0.3826828592
 40
0.4144095915
 40
0.4460036001
 40
0.4774047269
 40
0.5085259711
 40
0.5392640659
 40
0.5695277118
 40
0.5992954563
 40
0.6286816342
 40
0.6579428828
 40
0.6874020827
 40
0.7173409229
 40
0.747920236
 40
0.7791562115
 40
0.8109376211
 40
0.8430567083
 40
0.8752501574
 40
0.9072429804
 40
0.9387901075
 40
0.9697333601
 40
1.0
 40
1.0
 40
1.0
 40
1.0
 10
13.3796481151
 20
13.4386135742
 30
0.0
 10
13.3783164922
 20
13.4415181318
 30
0.0
 10
13.3760957634
 20
13.4457823061
 30
0.0
 10
13.3727146967
 20
13.4512193541
 30
0.0
 10
13.369051463
 20
13.4564896381
 30
0.0
 10
13.3639660474
 20
13.4627217699
 30
0.0
 10
13.3582608057
 20
13.4683999112
 30
0.0
 10
13.3533604339
 20
13.4725714759
 30
0.0
 10
13.3482468814
 20
13.4764855663
 30
0.0
 10
13.341481421
 20
13.4808726672
 30
0.0
 10
13.3328611047
 20
13.4852634733
 30
0.0
 10
13.3238317974
 20
13.4887340465
 30
0.0
 10
13.3144951598
 20
13.4912469581
 30
0.0
 10
13.3049563824
 20
13.4927779721
 30
0.0
 10
13.2953233198
 20
13.4933161475
 30
0.0
 10
13.2857052218
 20
13.4928648503
 30
0.0
 10
13.2762111083
 20
13.4914435284
 30
0.0
 10
13.2669482362
 20
13.4890884356
 30
0.0
 10
13.2580195351
 20
13.4858561958
 30
0.0
 10
13.2495187113
 20
13.4818246432
 30
0.0
 10
13.2415215206
 20
13.4770927194
 30
0.0
 10
13.2340722967
 20
13.4717723836
 30
0.0
 10
13.2271707411
 20
13.4659711593
 30
0.0
 10
13.220768595
 20
13.459770081
 30
0.0
 10
13.214783229
 20
13.4532099791
 30
0.0
 10
13.209123224
 20
13.4462966063
 30
0.0
 10
13.2037130688
 20
13.4390208802
 30
0.0
 10
13.1985068798
 20
13.4313809005
 30
0.0
 10
13.1934898162
 20
13.4233957431
 30
0.0
 10
13.1886726564
 20
13.4151087519
 30
0.0
 10
13.1840836252
 20
13.4065837124
 30
0.0
 10
13.1797604043
 20
13.3978970688
 30
0.0
 10
13.1757434386
 20
13.3891279155
 30
0.0
 10
13.1720698135
 20
13.3803456115
 30
0.0
 10
13.1687723944
 20
13.3716007652
 30
0.0
 10
13.1668220711
 20
13.3657491565
 30
0.0
 10
13.1659218876
 20
13.3628361617
 30
0.0
  0
SPLINE
  5
30D
100
AcDbEntity
  8
0
100
AcDbSpline
 62
7
  6
CONTINUOUS
 70
0
 71
3
 72
19
 73
15
 74
0
 42
0.0000001
 43
0.0000001
 44
0.0000000001
 40
0.0
 40
0.0
 40
0.0
 40
0.0
 40
0.1381325524
 40
0.2714520782
 40
0.4003507338
 40
0.5253320068
 40
0.58655992
 40
0.6470483037
 40
0.7068900222
 40
0.7661836308
 40
0.8250324906
 40
0.8835440669
 40
0.9418289748
 40
1.0
 40
1.0
 40
1.0
 40
1.0
 10
18.0695550587
 20
12.620813814
 30
0.0
 10
18.0726435573
 20
12.6145201156
 30
0.0
 10
18.0782673961
 20
12.601925949
 30
0.0
 10
18.0850627891
 20
12.5827533175
 30
0.0
 10
18.090036402
 20
12.5637159118
 30
0.0
 10
18.0926619837
 20
12.5479140727
 30
0.0
 10
18.0938119214
 20
12.5354420304
 30
0.0
 10
18.0942043573
 20
12.5262317667
 30
0.0
 10
18.0941317995
 20
12.5171116547
 30
0.0
 10
18.0935943889
 20
12.5080902963
 30
0.0
 10
18.09259246
 20
12.4991765237
 30
0.0
 10
18.0911269762
 20
12.4903788883
 30
0.0
 10
18.0891993369
 20
12.481706294
 30
0.0
 10
18.0876066558
 20
12.4760108814
 30
0.0
 10
18.086734969
 20
12.4731901329
 30
0.0
  0
SPLINE
  5
30E
100
AcDbEntity
  8
0
100
AcDbSpline
 62
7
  6
CONTINUOUS
 70
0
 71
3
 72
15
 73
11
 74
0
 42
0.0000001
 43
0.0000001
 44
0.0000000001
 40
0.0
 40
0.0
 40
0.0
 40
0.0
 40
0.137873763
 40
0.2722887657
 40
0.4030866299
 40
0.5301444793
 40
0.653379068
 40
0.77275121
 40
0.8882704679
 40
1.0
 40
1.0
 40
1.0
 40
1.0
 10
17.9553081854
 20
12.7577015332
 30
0.0
 10
17.961687093
 20
12.7524627299
 30
0.0
 10
17.97407117
 20
12.7418525066
 30
0.0
 10
17.9916903763
 20
12.7253501387
 30
0.0
 10
18.0080699913
 20
12.7085072863
 30
0.0
 10
18.0231565568
 20
12.6913784215
 30
0.0
 10
18.0369012239
 20
12.6740185112
 30
0.0
 10
18.0492594549
 20
12.6564828403
 30
0.0
 10
18.0601903505
 20
12.6388286344
 30
0.0
 10
18.0666081875
 20
12.6268189062
 30
0.0
 10
18.0695550587
 20
12.620813814
 30
0.0
  0
SPLINE
  5
30F
100
AcDbEntity
  8
0
100
AcDbSpline
 62
7
  6
CONTINUOUS
 70
0
 71
3
 72
19
 73
15
 74
0
 42
0.0000001
 43
0.0000001
 44
0.0000000001
 40
0.0
 40
0.0
 40
0.0
 40
0.0
 40
0.1355807443
 40
0.2676700575
 40
0.3964487069
 40
0.5221381182
 40
0.5839140663
 40
0.6450206095
 40
0.7054975674
 40
0.7653871101
 40
0.8247336587
 40
0.8835849
 40
0.9419910025
 40
1.0
 40
1.0
 40
1.0
 40
1.0
 10
17.8313312656
 20
13.3201250283
 30
0.0
 10
17.8429296326
 20
13.2964900413
 30
0.0
 10
17.8645933014
 20
13.2492088479
 30
0.0
 10
17.8926537109
 20
13.1774762732
 30
0.0
 10
17.9157892042
 20
13.1060194032
 30
0.0
 10
17.931009872
 20
13.0464782782
 30
0.0
 10
17.940628692
 20
12.9991702541
 30
0.0
 10
17.9465453115
 20
12.9640527907
 30
0.0
 10
17.9512021387
 20
12.9291158118
 30
0.0
 10
17.9545967236
 20
12.8943767519
 30
0.0
 10
17.9567272784
 20
12.8598534562
 30
0.0
 10
17.9575925704
 20
12.825563117
 30
0.0
 10
17.9571919405
 20
12.7915242839
 30
0.0
 10
17.9560776546
 20
12.7689395722
 30
0.0
 10
17.9553081854
 20
12.7577015332
 30
0.0
  0
SPLINE
  5
310
100
AcDbEntity
  8
0
100
AcDbSpline
 62
7
  6
CONTINUOUS
 70
0
 71
3
 72
39
 73
35
 74
0
 42
0.0000001
 43
0.0000001
 44
0.0000000001
 40
0.0
 40
0.0
 40
0.0
 40
0.0
 40
0.0332411532
 40
0.066766722
 40
0.1005354081
 40
0.1345046265
 40
0.1686311667
 40
0.2028711443
 40
0.2371802531
 40
0.2715139162
 40
0.305827463
 40
0.3400763003
 40
0.3742160836
 40
0.4082028927
 40
0.4419934016
 40
0.4755450592
 40
0.5088162698
 40
0.5417665765
 40
0.5743568506
 40
0.6065494874
 40
0.6383086082
 40
0.6696002723
 40
0.7003926962
 40
0.7306564866
 40
0.7603648888
 40
0.7894940407
 40
0.8180232498
 40
0.8459352859
 40
0.87321669
 40
0.8998581073
 40
0.9258546168
 40
0.951206147
 40
0.975917686
 40
1.0
 40
1.0
 40
1.0
 40
1.0
 10
15.0821558347
 20
14.8919564846
 30
0.0
 10
15.118342692
 20
14.8881536162
 30
0.0
 10
15.1909255759
 20
14.8795245921
 30
0.0
 10
15.2998306162
 20
14.8636268603
 30
0.0
 10
15.4090675344
 20
14.8447449549
 30
0.0
 10
15.518424219
 20
14.822915417
 30
0.0
 10
15.6276894636
 20
14.7981804693
 30
0.0
 10
15.7366519849
 20
14.7705879155
 30
0.0
 10
15.8451011323
 20
14.7401911083
 30
0.0
 10
15.9528272296
 20
14.7070488128
 30
0.0
 10
16.0596220014
 20
14.6712251061
 30
0.0
 10
16.1652789719
 20
14.6327892485
 30
0.0
 10
16.269593871
 20
14.5918155481
 30
0.0
 10
16.3723650285
 20
14.548383218
 30
0.0
 10
16.4733937686
 20
14.5025762216
 30
0.0
 10
16.5724847941
 20
14.4544831055
 30
0.0
 10
16.6694465695
 20
14.404196824
 30
0.0
 10
16.764091691
 20
14.3518145562
 30
0.0
 10
16.8562372505
 20
14.2974375131
 30
0.0
 10
16.9457051891
 20
14.2411707374
 30
0.0
 10
17.0323226424
 20
14.1831228933
 30
0.0
 10
17.1159222727
 20
14.12340605
 30
0.0
 10
17.1963425902
 20
14.0621354572
 30
0.0
 10
17.2734282643
 20
13.99942931
 30
0.0
 10
17.347030419
 20
13.9354085131
 30
0.0
 10
17.4170069114
 20
13.8701964334
 30
0.0
 10
17.4832225909
 20
13.803918652
 30
0.0
 10
17.5455495463
 20
13.7367027002
 30
0.0
 10
17.6038673254
 20
13.6686778285
 30
0.0
 10
17.6580631615
 20
13.5999746519
 30
0.0
 10
17.7080320512
 20
13.5307252272
 30
0.0
 10
17.7536773524
 20
13.4610616136
 30
0.0
 10
17.7949090587
 20
13.3911199747
 30
0.0
 10
17.8197182231
 20
13.3437899208
 30
0.0
 10
17.8313312656
 20
13.3201250283
 30
0.0
  0
SPLINE
  5
311
100
AcDbEntity
  8
0
100
AcDbSpline
 62
7
  6
CONTINUOUS
 70
0
 71
3
 72
42
 73
38
 74
0
 42
0.0000001
 43
0.0000001
 44
0.0000000001
 40
0.0
 40
0.0
 40
0.0
 40
0.0
 40
0.0105966092
 40
0.0212752393
 40
0.032052697
 40
0.0429464224
 40
0.0651415502
 40
0.0879845627
 40
0.1115738492
 40
0.1359881091
 40
0.14852605
 40
0.1612908763
 40
0.1875144329
 40
0.2146864747
 40
0.2428146105
 40
0.2718920843
 40
0.3018992309
 40
0.3328048566
 40
0.3645675048
 40
0.3971366401
 40
0.430453743
 40
0.4644533013
 40
0.4990637397
 40
0.534208287
 40
0.5698057813
 40
0.6057714588
 40
0.6420177046
 40
0.6784547574
 40
0.7149914154
 40
0.7515357347
 40
0.7879957164
 40
0.8242799895
 40
0.8602985098
 40
0.8959632283
 40
0.9311889134
 40
0.9658936327
 40
1.0
 40
1.0
 40
1.0
 40
1.0
 10
14.3173834121
 20
14.8919564846
 30
0.0
 10
14.3187142462
 20
14.894598175
 30
0.0
 10
14.3215265107
 20
14.8998325988
 30
0.0
 10
14.3261653581
 20
14.9074877827
 30
0.0
 10
14.3312347938
 20
14.9149656916
 30
0.0
 10
14.338605461
 20
14.9247492143
 30
0.0
 10
14.3489097165
 20
14.9365136317
 30
0.0
 10
14.362828431
 20
14.9497127919
 30
0.0
 10
14.3783246158
 20
14.9620371867
 30
0.0
 10
14.3923777586
 20
14.971457404
 30
0.0
 10
14.404324695
 20
14.9785246817
 30
0.0
 10
14.4169661961
 20
14.9853915142
 30
0.0
 10
14.4336562146
 20
14.9933351706
 30
0.0
 10
14.4548152642
 20
15.0017517731
 30
0.0
 10
14.4772052941
 20
15.009107527
 30
0.0
 10
14.5007422721
 20
15.0153755439
 30
0.0
 10
14.5253388701
 20
15.0205332128
 30
0.0
 10
14.5509035245
 20
15.0245617377
 30
0.0
 10
14.577341086
 20
15.0274464225
 30
0.0
 10
14.604553065
 20
15.0291767178
 30
0.0
 10
14.6324380234
 20
15.0297463079
 30
0.0
 10
14.6608919488
 20
15.029153155
 30
0.0
 10
14.6898086489
 20
15.0273995275
 30
0.0
 10
14.7190801519
 20
15.0244920054
 30
0.0
 10
14.7485971183
 20
15.0204414677
 30
0.0
 10
14.7782492594
 20
15.0152630578
 30
0.0
 10
14.8079257572
 20
15.0089761323
 30
0.0
 10
14.8375156835
 20
15.0016041919
 30
0.0
 10
14.8669084191
 20
14.9931747951
 30
0.0
 10
14.8959940757
 20
14.9837194563
 30
0.0
 10
14.9246639139
 20
14.9732735244
 30
0.0
 10
14.9528107529
 20
14.9618760538
 30
0.0
 10
14.9803293836
 20
14.9495696393
 30
0.0
 10
15.0071169282
 20
14.9364003023
 30
0.0
 10
15.0330734084
 20
14.9224171439
 30
0.0
 10
15.0581013447
 20
14.9076727539
 30
0.0
 10
15.074258459
 20
14.8972737281
 30
0.0
 10
15.0821558347
 20
14.8919564846
 30
0.0
  0
SPLINE
  5
312
100
AcDbEntity
  8
0
100
AcDbSpline
 62
7
  6
CONTINUOUS
 70
0
 71
3
 72
16
 73
12
 74
0
 42
0.0000001
 43
0.0000001
 44
0.0000000001
 40
0.0
 40
0.0
 40
0.0
 40
0.0
 40
0.138147879
 40
0.2054143665
 40
0.2715175405
 40
0.4004311626
 40
0.5254296028
 40
0.6471247745
 40
0.7662363488
 40
0.8835709786
 40
1.0
 40
1.0
 40
1.0
 40
1.0
 10
14.8137403254
 20
14.2536471043
 30
0.0
 10
14.8148984878
 20
14.2512870174
 30
0.0
 10
14.8164943493
 20
14.247713044
 30
0.0
 10
14.818314599
 20
14.2428761271
 30
0.0
 10
14.8198794495
 20
14.2381352747
 30
0.0
 10
14.8214208407
 20
14.2322350157
 30
0.0
 10
14.8225942664
 20
14.2251737858
 30
0.0
 10
14.8230703218
 20
14.2182174676
 30
0.0
 10
14.8228457551
 20
14.2113934808
 30
0.0
 10
14.8219207187
 20
14.2047301173
 30
0.0
 10
14.8208369426
 20
14.2004050922
 30
0.0
 10
14.8201827787
 20
14.198288228
 30
0.0
  0
SPLINE
  5
313
100
AcDbEntity
  8
0
100
AcDbSpline
 62
7
  6
CONTINUOUS
 70
0
 71
3
 72
23
 73
19
 74
0
 42
0.0000001
 43
0.0000001
 44
0.0000000001
 40
0.0
 40
0.0
 40
0.0
 40
0.0
 40
0.0721575138
 40
0.1430209688
 40
0.2125700924
 40
0.2807903219
 40
0.3476731914
 40
0.4132167314
 40
0.4774258756
 40
0.5403128749
 40
0.6018977086
 40
0.6622084883
 40
0.7212818315
 40
0.7791631956
 40
0.8359071532
 40
0.8915775663
 40
0.9462477743
 40
1.0
 40
1.0
 40
1.0
 40
1.0
 10
16.7135822295
 20
11.412383935
 30
0.0
 10
16.7381429683
 20
11.4171557436
 30
0.0
 10
16.7866880243
 20
11.4273320552
 30
0.0
 10
16.8583379729
 20
11.4446724051
 30
0.0
 10
16.9280823867
 20
11.4639311136
 30
0.0
 10
16.9958319321
 20
11.4850838082
 30
0.0
 10
17.0615008516
 20
11.5081039508
 30
0.0
 10
17.1250057449
 20
11.5329626318
 30
0.0
 10
17.1862660043
 20
11.5596286795
 30
0.0
 10
17.2452038128
 20
11.5880686856
 30
0.0
 10
17.3017442487
 20
11.6182470504
 30
0.0
 10
17.3558153578
 20
11.6501260297
 30
0.0
 10
17.4073482112
 20
11.6836657557
 30
0.0
 10
17.45627702
 20
11.7188243344
 30
0.0
 10
17.5025390004
 20
11.7555576575
 30
0.0
 10
17.5460751692
 20
11.7938202144
 30
0.0
 10
17.5868277465
 20
11.8335622073
 30
0.0
 10
17.612310316
 20
11.8612327002
 30
0.0
 10
17.6245482454
 20
11.8752901733
 30
0.0
  0
SPLINE
  5
314
100
AcDbEntity
  8
0
100
AcDbSpline
 62
7
  6
CONTINUOUS
 70
0
 71
3
 72
15
 73
11
 74
0
 42
0.0000001
 43
0.0000001
 44
0.0000000001
 40
0.0
 40
0.0
 40
0.0
 40
0.0
 40
0.1023685791
 40
0.211361991
 40
0.3269393471
 40
0.4490253525
 40
0.5775149482
 40
0.7122787819
 40
0.8531644697
 40
1.0
 40
1.0
 40
1.0
 40
1.0
 10
13.6019403557
 20
13.5077553979
 30
0.0
 10
13.6002739443
 20
13.506539925
 30
0.0
 10
13.5968894642
 20
13.5039526938
 30
0.0
 10
13.5918117977
 20
13.4997540665
 30
0.0
 10
13.5865819728
 20
13.4951224495
 30
0.0
 10
13.5812088451
 20
13.4900655765
 30
0.0
 10
13.5757013439
 20
13.484591812
 30
0.0
 10
13.570068756
 20
13.4787102403
 30
0.0
 10
13.5643205682
 20
13.4724307231
 30
0.0
 10
13.5604951944
 20
13.4680741893
 30
0.0
 10
13.558564013
 20
13.4658328629
 30
0.0
  0
SPLINE
  5
315
100
AcDbEntity
  8
0
100
AcDbSpline
 62
7
  6
CONTINUOUS
 70
0
 71
3
 72
15
 73
11
 74
0
 42
0.0000001
 43
0.0000001
 44
0.0000000001
 40
0.0
 40
0.0
 40
0.0
 40
0.0
 40
0.0937431992
 40
0.1965241215
 40
0.308475045
 40
0.429526765
 40
0.559491774
 40
0.6981100793
 40
0.8450634726
 40
1.0
 40
1.0
 40
1.0
 40
1.0
 10
13.8176268559
 20
13.4418283485
 30
0.0
 10
13.8175048469
 20
13.4422417511
 30
0.0
 10
13.8171996895
 20
13.4430941156
 30
0.0
 10
13.8166089178
 20
13.4443849127
 30
0.0
 10
13.8158718955
 20
13.4457427064
 30
0.0
 10
13.8149959426
 20
13.4471640582
 30
0.0
 10
13.8139879628
 20
13.4486457452
 30
0.0
 10
13.8128546655
 20
13.4501844441
 30
0.0
 10
13.811602672
 20
13.451776954
 30
0.0
 10
13.8107158619
 20
13.4528450423
 30
0.0
 10
13.8102547176
 20
13.4533880495
 30
0.0
  0
SPLINE
  5
316
100
AcDbEntity
  8
0
100
AcDbSpline
 62
7
  6
CONTINUOUS
 70
0
 71
3
 72
16
 73
12
 74
0
 42
0.0000001
 43
0.0000001
 44
0.0000000001
 40
0.0
 40
0.0
 40
0.0
 40
0.0
 40
0.1381476455
 40
0.2054144152
 40
0.271517717
 40
0.4004311976
 40
0.5254296722
 40
0.6471248681
 40
0.7662363863
 40
0.8835710002
 40
1.0
 40
1.0
 40
1.0
 40
1.0
 10
17.6379966186
 20
12.1557134614
 30
0.0
 10
17.639154779
 20
12.1533533786
 30
0.0
 10
17.640750637
 20
12.1497794028
 30
0.0
 10
17.6425708933
 20
12.1449424849
 30
0.0
 10
17.6441357431
 20
12.140201627
 30
0.0
 10
17.6456771334
 20
12.1343013677
 30
0.0
 10
17.6468505612
 20
12.1272401398
 30
0.0
 10
17.6473266152
 20
12.1202838215
 30
0.0
 10
17.6471020425
 20
12.1134598357
 30
0.0
 10
17.6461770035
 20
12.1067964755
 30
0.0
 10
17.6450932398
 20
12.1024714475
 30
0.0
 10
17.6444390707
 20
12.1003545854
 30
0.0
  0
SPLINE
  5
317
100
AcDbEntity
  8
0
100
AcDbSpline
 62
7
  6
CONTINUOUS
 70
0
 71
3
 72
21
 73
17
 74
0
 42
0.0000001
 43
0.0000001
 44
0.0000000001
 40
0.0
 40
0.0
 40
0.0
 40
0.0
 40
0.1309770082
 40
0.2596230226
 40
0.3231696299
 40
0.3862424717
 40
0.4488804973
 40
0.5111242468
 40
0.5730149985
 40
0.6345951236
 40
0.695907406
 40
0.756995864
 40
0.8179052909
 40
0.8786787428
 40
0.939359465
 40
1.0
 40
1.0
 40
1.0
 40
1.0
 10
16.3985681178
 20
10.8162486451
 30
0.0
 10
16.4125683455
 20
10.8275482975
 30
0.0
 10
16.4396218078
 20
10.8508287382
 30
0.0
 10
16.4712875775
 20
10.8819915406
 30
0.0
 10
16.4949570425
 20
10.9078697184
 30
0.0
 10
16.5118124125
 20
10.9276696259
 30
0.0
 10
16.5278271829
 20
10.9479276798
 30
0.0
 10
16.5429868505
 20
10.9686326966
 30
0.0
 10
16.5572772493
 20
10.9897719414
 30
0.0
 10
16.570684419
 20
11.0113317447
 30
0.0
 10
16.5831951388
 20
11.0332972053
 30
0.0
 10
16.5947968622
 20
11.0556524346
 30
0.0
 10
16.605477585
 20
11.0783803546
 30
0.0
 10
16.6152268059
 20
11.101462554
 30
0.0
 10
16.6240346886
 20
11.1248802502
 30
0.0
 10
16.629274503
 20
11.1407056215
 30
0.0
 10
16.6317338377
 20
11.1486640317
 30
0.0
  0
SPLINE
  5
318
100
AcDbEntity
  8
0
100
AcDbSpline
 62
7
  6
CONTINUOUS
 70
0
 71
3
 72
21
 73
17
 74
0
 42
0.0000001
 43
0.0000001
 44
0.0000000001
 40
0.0
 40
0.0
 40
0.0
 40
0.0
 40
0.060635085
 40
0.1213111802
 40
0.1820801928
 40
0.2429851479
 40
0.3040697542
 40
0.3653788993
 40
0.4269566162
 40
0.4888457606
 40
0.5510888955
 40
0.61372742
 40
0.6768018451
 40
0.7403513906
 40
0.8690072465
 40
1.0
 40
1.0
 40
1.0
 40
1.0
 10
13.2877608828
 20
12.1820298318
 30
0.0
 10
13.2852980194
 20
12.174060003
 30
0.0
 10
13.2806899127
 20
12.1580142644
 30
0.0
 10
13.2747441719
 20
12.1336744484
 30
0.0
 10
13.2697676342
 20
12.1090798775
 30
0.0
 10
13.2657630283
 20
12.084251737
 30
0.0
 10
13.2627317881
 20
12.059211266
 30
0.0
 10
13.2606738743
 20
12.0339793387
 30
0.0
 10
13.2595876474
 20
12.0085762798
 30
0.0
 10
13.2594707911
 20
11.9830219288
 30
0.0
 10
13.2603193096
 20
11.9573355214
 30
0.0
 10
13.262128709
 20
11.9315356355
 30
0.0
 10
13.2648933447
 20
11.9056397514
 30
0.0
 10
13.2698646075
 20
11.8708675832
 30
0.0
 10
13.2784704408
 20
11.8272079758
 30
0.0
 10
13.2877125566
 20
11.7926740012
 30
0.0
 10
13.2929182247
 20
11.7754213063
 30
0.0
  0
SPLINE
  5
319
100
AcDbEntity
  8
0
100
AcDbSpline
 62
7
  6
CONTINUOUS
 70
0
 71
3
 72
15
 73
11
 74
0
 42
0.0000001
 43
0.0000001
 44
0.0000000001
 40
0.0
 40
0.0
 40
0.0
 40
0.0
 40
0.1278936028
 40
0.2555909443
 40
0.3827617175
 40
0.5090816764
 40
0.6342419595
 40
0.7579529143
 40
0.8799501086
 40
1.0
 40
1.0
 40
1.0
 40
1.0
 10
17.3766843347
 20
11.9143892977
 30
0.0
 10
17.3868808958
 20
11.9110540017
 30
0.0
 10
17.4073919218
 20
11.9047891134
 30
0.0
 10
17.4384520954
 20
11.8966242472
 30
0.0
 10
17.4696831468
 20
11.8897249371
 30
0.0
 10
17.5009565136
 20
11.8841220109
 30
0.0
 10
17.5321455355
 20
11.8798416254
 30
0.0
 10
17.5631260852
 20
11.8769058178
 30
0.0
 10
17.5937762053
 20
11.8753326228
 30
0.0
 10
17.6140880127
 20
11.8752008786
 30
0.0
 10
17.6241567745
 20
11.8753728475
 30
0.0
  0
SPLINE
  5
31A
100
AcDbEntity
  8
0
100
AcDbSpline
 62
7
  6
CONTINUOUS
 70
0
 71
3
 72
30
 73
26
 74
0
 42
0.0000001
 43
0.0000001
 44
0.0000000001
 40
0.0
 40
0.0
 40
0.0
 40
0.0
 40
0.0717952295
 40
0.1421869421
 40
0.211109162
 40
0.2785277631
 40
0.3444428806
 40
0.4088901279
 40
0.4719410849
 40
0.5029797159
 40
0.5337116097
 40
0.5943157672
 40
0.6539221946
 40
0.683412084
 40
0.7127180261
 40
0.7418616599
 40
0.770864125
 40
0.7997461384
 40
0.8285267822
 40
0.8572242252
 40
0.8858546009
 40
0.9144343241
 40
0.9429774514
 40
0.9714907707
 40
1.0
 40
1.0
 40
1.0
 40
1.0
 10
17.6241567745
 20
11.8753728475
 30
0.0
 10
17.6340664794
 20
11.8755420997
 30
0.0
 10
17.6536879401
 20
11.8763326656
 30
0.0
 10
17.6827264966
 20
11.8789343885
 30
0.0
 10
17.7109952607
 20
11.8829497503
 30
0.0
 10
17.7383965564
 20
11.8883877416
 30
0.0
 10
17.7648382208
 20
11.8952588168
 30
0.0
 10
17.7902290607
 20
11.9035751623
 30
0.0
 10
17.8105447563
 20
11.9117661905
 30
0.0
 10
17.8261581702
 20
11.9190640551
 30
0.0
 10
17.8411894826
 20
11.9267817647
 30
0.0
 10
17.8591694657
 20
11.9373583412
 30
0.0
 10
17.8760802716
 20
11.949284208
 30
0.0
 10
17.8887875649
 20
11.9595721961
 30
0.0
 10
17.897869014
 20
11.9676351303
 30
0.0
 10
17.9065143939
 20
11.9760679512
 30
0.0
 10
17.9147035433
 20
11.9848650833
 30
0.0
 10
17.9224150164
 20
11.9940186608
 30
0.0
 10
17.9296273236
 20
12.0035179438
 30
0.0
 10
17.936318645
 20
12.0133493833
 30
0.0
 10
17.942467851
 20
12.0234964779
 30
0.0
 10
17.9480548344
 20
12.0339396484
 30
0.0
 10
17.9530604464
 20
12.0446560097
 30
0.0
 10
17.9574692035
 20
12.0556206086
 30
0.0
 10
17.960001095
 20
12.0630791137
 30
0.0
 10
17.9611630786
 20
12.0668392939
 30
0.0
  0
SPLINE
  5
31B
100
AcDbEntity
  8
0
100
AcDbSpline
 62
7
  6
CONTINUOUS
 70
0
 71
3
 72
46
 73
42
 74
0
 42
0.0000001
 43
0.0000001
 44
0.0000000001
 40
0.0
 40
0.0
 40
0.0
 40
0.0
 40
0.0107123392
 40
0.0214620918
 40
0.0322860225
 40
0.0432196785
 40
0.0542967718
 40
0.06554881
 40
0.0770046458
 40
0.0886903024
 40
0.1006287638
 40
0.1128399063
 40
0.1253405381
 40
0.1381443623
 40
0.1512622212
 40
0.1647020132
 40
0.1925597686
 40
0.2217376495
 40
0.2522130101
 40
0.2839327041
 40
0.3168174767
 40
0.3507659828
 40
0.3856583439
 40
0.4213593535
 40
0.4577213967
 40
0.4945871493
 40
0.5317921747
 40
0.5691673244
 40
0.6065411137
 40
0.643742069
 40
0.6806011099
 40
0.7169538639
 40
0.7526431421
 40
0.7875214952
 40
0.8214539656
 40
0.8543209384
 40
0.8860213938
 40
0.9164764181
 40
0.9456334421
 40
0.9734700418
 40
1.0
 40
1.0
 40
1.0
 40
1.0
 10
17.2861562925
 20
12.2110723378
 30
0.0
 10
17.2865933636
 20
12.2124866931
 30
0.0
 10
17.2875718752
 20
12.2152897262
 30
0.0
 10
17.2893434915
 20
12.2193885178
 30
0.0
 10
17.2914167814
 20
12.2233779639
 30
0.0
 10
17.2937880764
 20
12.2272507375
 30
0.0
 10
17.2964530102
 20
12.2310002968
 30
0.0
 10
17.2994069073
 20
12.2346201188
 30
0.0
 10
17.3026444609
 20
12.2381040944
 30
0.0
 10
17.3061599951
 20
12.2414463044
 30
0.0
 10
17.3099473599
 20
12.2446411215
 30
0.0
 10
17.3139999475
 20
12.2476832261
 30
0.0
 10
17.3183108033
 20
12.2505674682
 30
0.0
 10
17.3228724349
 20
12.2532891111
 30
0.0
 10
17.3276771635
 20
12.255843548
 30
0.0
 10
17.3344772605
 20
12.259059073
 30
0.0
 10
17.343555733
 20
12.2626209443
 30
0.0
 10
17.3551457934
 20
12.2661135312
 30
0.0
 10
17.3674830001
 20
12.2688529023
 30
0.0
 10
17.380483421
 20
12.2708210735
 30
0.0
 10
17.3940594714
 20
12.2720053083
 30
0.0
 10
17.4081192487
 20
12.2723978535
 30
0.0
 10
17.4225675013
 20
12.2719962162
 30
0.0
 10
17.4373061904
 20
12.2708032052
 30
0.0
 10
17.4522352023
 20
12.2688269664
 30
0.0
 10
17.4672530483
 20
12.2660809515
 30
0.0
 10
17.4822575781
 20
12.2625838426
 30
0.0
 10
17.497146696
 20
12.2583594347
 30
0.0
 10
17.5118190697
 20
12.2534364764
 30
0.0
 10
17.5261748438
 20
12.247848472
 30
0.0
 10
17.5401163346
 20
12.2416334458
 30
0.0
 10
17.5535487088
 20
12.2348336686
 30
0.0
 10
17.5663806392
 20
12.2274953538
 30
0.0
 10
17.5785249428
 20
12.2196683129
 30
0.0
 10
17.5898991729
 20
12.211405577
 30
0.0
 10
17.6004261701
 20
12.2027630094
 30
0.0
 10
17.6100345645
 20
12.193798806
 30
0.0
 10
17.6186591698
 20
12.1845732296
 30
0.0
 10
17.6262415296
 20
12.1751474392
 30
0.0
 10
17.6327292241
 20
12.1655853813
 30
0.0
 10
17.6363815005
 20
12.159004726
 30
0.0
 10
17.6379966186
 20
12.1557134614
 30
0.0
  0
SPLINE
  5
31C
100
AcDbEntity
  8
0
100
AcDbSpline
 62
7
  6
CONTINUOUS
 70
0
 71
3
 72
46
 73
42
 74
0
 42
0.0000001
 43
0.0000001
 44
0.0000000001
 40
0.0
 40
0.0
 40
0.0
 40
0.0
 40
0.0107123392
 40
0.0214620918
 40
0.0322860225
 40
0.0432196785
 40
0.0542967718
 40
0.06554881
 40
0.0770046458
 40
0.0886903024
 40
0.1006287638
 40
0.1128399063
 40
0.1253405381
 40
0.1381443623
 40
0.1512622212
 40
0.1647020132
 40
0.1925597686
 40
0.2217376495
 40
0.2522130101
 40
0.2839327041
 40
0.3168174767
 40
0.3507659828
 40
0.3856583439
 40
0.4213593535
 40
0.4577213967
 40
0.4945871493
 40
0.5317921747
 40
0.5691673244
 40
0.6065411137
 40
0.643742069
 40
0.6806011099
 40
0.7169538639
 40
0.7526431421
 40
0.7875214952
 40
0.8214539656
 40
0.8543209384
 40
0.8860213938
 40
0.9164764181
 40
0.9456334421
 40
0.9734700418
 40
1.0
 40
1.0
 40
1.0
 40
1.0
 10
14.4618999994
 20
14.3090059807
 30
0.0
 10
14.4623370705
 20
14.310420336
 30
0.0
 10
14.463315582
 20
14.3132233691
 30
0.0
 10
14.4650871983
 20
14.3173221607
 30
0.0
 10
14.4671604882
 20
14.3213116068
 30
0.0
 10
14.4695317833
 20
14.3251843804
 30
0.0
 10
14.472196717
 20
14.3289339397
 30
0.0
 10
14.4751506141
 20
14.3325537617
 30
0.0
 10
14.4783881678
 20
14.3360377373
 30
0.0
 10
14.4819037019
 20
14.3393799473
 30
0.0
 10
14.4856910667
 20
14.3425747644
 30
0.0
 10
14.4897436544
 20
14.3456168691
 30
0.0
 10
14.4940545101
 20
14.3485011111
 30
0.0
 10
14.4986161418
 20
14.351222754
 30
0.0
 10
14.5034208703
 20
14.353777191
 30
0.0
 10
14.5102209673
 20
14.3569927159
 30
0.0
 10
14.5192994399
 20
14.3605545873
 30
0.0
 10
14.5308895002
 20
14.3640471741
 30
0.0
 10
14.5432267069
 20
14.3667865452
 30
0.0
 10
14.5562271278
 20
14.3687547164
 30
0.0
 10
14.5698031783
 20
14.3699389512
 30
0.0
 10
14.5838629555
 20
14.3703314965
 30
0.0
 10
14.5983112081
 20
14.3699298591
 30
0.0
 10
14.6130498972
 20
14.3687368481
 30
0.0
 10
14.6279789091
 20
14.3667606094
 30
0.0
 10
14.6429967551
 20
14.3640145944
 30
0.0
 10
14.6580012849
 20
14.3605174855
 30
0.0
 10
14.6728904029
 20
14.3562930776
 30
0.0
 10
14.6875627765
 20
14.3513701193
 30
0.0
 10
14.7019185507
 20
14.3457821149
 30
0.0
 10
14.7158600414
 20
14.3395670888
 30
0.0
 10
14.7292924157
 20
14.3327673115
 30
0.0
 10
14.742124346
 20
14.3254289967
 30
0.0
 10
14.7542686496
 20
14.3176019558
 30
0.0
 10
14.7656428797
 20
14.3093392199
 30
0.0
 10
14.7761698769
 20
14.3006966523
 30
0.0
 10
14.7857782713
 20
14.2917324489
 30
0.0
 10
14.7944028766
 20
14.2825068726
 30
0.0
 10
14.8019852364
 20
14.2730810821
 30
0.0
 10
14.8084729309
 20
14.2635190242
 30
0.0
 10
14.8121252073
 20
14.2569383689
 30
0.0
 10
14.8137403254
 20
14.2536471043
 30
0.0
  0
SPLINE
  5
31D
100
AcDbEntity
  8
0
100
AcDbSpline
 62
7
  6
CONTINUOUS
 70
0
 71
3
 72
22
 73
18
 74
0
 42
0.0000001
 43
0.0000001
 44
0.0000000001
 40
0.0
 40
0.0
 40
0.0
 40
0.0
 40
0.0581655815
 40
0.1164450339
 40
0.1749511336
 40
0.2337944926
 40
0.2930825532
 40
0.3529186824
 40
0.4134013768
 40
0.4746235862
 40
0.5366721528
 40
0.5996274104
 40
0.6635628583
 40
0.7285450612
 40
0.7946335649
 40
0.8618802834
 40
1.0
 40
1.0
 40
1.0
 40
1.0
 10
12.9093779853
 20
13.7095119229
 30
0.0
 10
12.9049106237
 20
13.6950555767
 30
0.0
 10
12.8967480649
 20
13.665866608
 30
0.0
 10
12.8868689865
 20
13.6214195461
 30
0.0
 10
12.8793582798
 20
13.5763316841
 30
0.0
 10
12.8742235179
 20
13.5306485727
 30
0.0
 10
12.8714691675
 20
13.4844141618
 30
0.0
 10
12.871097495
 20
13.4376734096
 30
0.0
 10
12.8731083726
 20
13.3904714957
 30
0.0
 10
12.8774993762
 20
13.3428539756
 30
0.0
 10
12.8842657287
 20
13.2948666648
 30
0.0
 10
12.8934003602
 20
13.2465556617
 30
0.0
 10
12.9048940172
 20
13.1979671385
 30
0.0
 10
12.9187350576
 20
13.1491479118
 30
0.0
 10
12.9349103996
 20
13.1001432483
 30
0.0
 10
12.9597859842
 20
13.0340399633
 30
0.0
 10
12.9815965167
 20
12.9851957646
 30
0.0
 10
12.9974250822
 20
12.9529405394
 30
0.0
  0
SPLINE
  5
31E
100
AcDbEntity
  8
0
100
AcDbSpline
 62
7
  6
CONTINUOUS
 70
0
 71
3
 72
38
 73
34
 74
0
 42
0.0000001
 43
0.0000001
 44
0.0000000001
 40
0.0
 40
0.0
 40
0.0
 40
0.0
 40
0.0259061162
 40
0.0518554062
 40
0.0778906879
 40
0.1040540787
 40
0.1303866714
 40
0.1569282251
 40
0.1837168945
 40
0.2107890015
 40
0.2381788354
 40
0.2659184829
 40
0.2940377202
 40
0.3225639325
 40
0.3515220462
 40
0.3809345116
 40
0.4411898023
 40
0.4720755276
 40
0.503481079
 40
0.5354169882
 40
0.5678915738
 40
0.6009110356
 40
0.6344795533
 40
0.6685993567
 40
0.7032708038
 40
0.7384924959
 40
0.7742613537
 40
0.8105726602
 40
0.8474202559
 40
0.8847964465
 40
0.9226920177
 40
0.9610975915
 40
1.0
 40
1.0
 40
1.0
 40
1.0
 10
13.0228465744
 20
14.0766964118
 30
0.0
 10
13.026967516
 20
14.0900317457
 30
0.0
 10
13.0358835414
 20
14.1165236617
 30
0.0
 10
13.0512386986
 20
14.1555966949
 30
0.0
 10
13.0685673016
 20
14.1939885673
 30
0.0
 10
13.0878544878
 20
14.2316663479
 30
0.0
 10
13.109084305
 20
14.268599394
 30
0.0
 10
13.1322389989
 20
14.3047573234
 30
0.0
 10
13.1572992337
 20
14.3401106175
 30
0.0
 10
13.1842441755
 20
14.3746304245
 30
0.0
 10
13.2130514974
 20
14.4082886352
 30
0.0
 10
13.2436972851
 20
14.4410579583
 30
0.0
 10
13.2761562793
 20
14.4729119005
 30
0.0
 10
13.3104015694
 20
14.5038245294
 30
0.0
 10
13.3464057823
 20
14.533771451
 30
0.0
 10
13.3971190527
 20
14.5726895755
 30
0.0
 10
13.4508917932
 20
14.609245217
 30
0.0
 10
13.5073916198
 20
14.6434251343
 30
0.0
 10
13.5517176799
 20
14.6681958511
 30
0.0
 10
13.5976039218
 20
14.691867345
 30
0.0
 10
13.6450142074
 20
14.7144214025
 30
0.0
 10
13.693909606
 20
14.735839643
 30
0.0
 10
13.7442504549
 20
14.7561048334
 30
0.0
 10
13.7959957977
 20
14.7752005926
 30
0.0
 10
13.8491035534
 20
14.7931115577
 30
0.0
 10
13.9035305534
 20
14.8098232594
 30
0.0
 10
13.959232563
 20
14.8253221512
 30
0.0
 10
14.0161643072
 20
14.8395957561
 30
0.0
 10
14.0742795096
 20
14.8526325275
 30
0.0
 10
14.1335308093
 20
14.8644218704
 30
0.0
 10
14.1938704982
 20
14.8749543771
 30
0.0
 10
14.2552486815
 20
14.8842212727
 30
0.0
 10
14.2965662124
 20
14.8895172215
 30
0.0
 10
14.3173834121
 20
14.8919564846
 30
0.0
  0
SPLINE
  5
31F
100
AcDbEntity
  8
0
100
AcDbSpline
 62
7
  6
CONTINUOUS
 70
0
 71
3
 72
21
 73
17
 74
0
 42
0.0000001
 43
0.0000001
 44
0.0000000001
 40
0.0
 40
0.0
 40
0.0
 40
0.0
 40
0.0612412441
 40
0.1224928695
 40
0.1838031277
 40
0.2451858965
 40
0.3066700045
 40
0.3682875093
 40
0.4300699876
 40
0.4920533896
 40
0.5542756296
 40
0.6167767188
 40
0.679599224
 40
0.7427858554
 40
0.8704008459
 40
1.0
 40
1.0
 40
1.0
 40
1.0
 10
14.1814859412
 20
14.4600203083
 30
0.0
 10
14.1803642086
 20
14.4563903804
 30
0.0
 10
14.1783132341
 20
14.4490687408
 30
0.0
 10
14.1758239248
 20
14.4379357549
 30
0.0
 10
14.173924228
 20
14.426677972
 30
0.0
 10
14.1726156065
 20
14.4153219385
 30
0.0
 10
14.1718957743
 20
14.4038944489
 30
0.0
 10
14.1717600226
 20
14.3924204656
 30
0.0
 10
14.1722016178
 20
14.380923347
 30
0.0
 10
14.1732115035
 20
14.369424683
 30
0.0
 10
14.1747794648
 20
14.3579439323
 30
0.0
 10
14.1768939904
 20
14.3464984803
 30
0.0
 10
14.1795429024
 20
14.3351033939
 30
0.0
 10
14.1837839381
 20
14.3199467647
 30
0.0
 10
14.1903782647
 20
14.3011693064
 30
0.0
 10
14.1968735594
 20
14.2865737716
 30
0.0
 10
14.2004155668
 20
14.2793559194
 30
0.0
  0
SPLINE
  5
320
100
AcDbEntity
  8
0
100
AcDbSpline
 62
7
  6
CONTINUOUS
 70
0
 71
3
 72
15
 73
11
 74
0
 42
0.0000001
 43
0.0000001
 44
0.0000000001
 40
0.0
 40
0.0
 40
0.0
 40
0.0
 40
0.1454517144
 40
0.2852863762
 40
0.4193689842
 40
0.5475793429
 40
0.6698168123
 40
0.7859997439
 40
0.8960711088
 40
1.0
 40
1.0
 40
1.0
 40
1.0
 10
13.3538785475
 20
13.0586070522
 30
0.0
 10
13.3533244591
 20
13.0560462754
 30
0.0
 10
13.352283005
 20
13.0510136459
 30
0.0
 10
13.3508993115
 20
13.0435867914
 30
0.0
 10
13.3497261388
 20
13.0364382387
 30
0.0
 10
13.3487651374
 20
13.0295779386
 30
0.0
 10
13.3480175413
 20
13.0230154311
 30
0.0
 10
13.3474844004
 20
13.016759734
 30
0.0
 10
13.347166356
 20
13.0108196031
 30
0.0
 10
13.3470959913
 20
13.0069643536
 30
0.0
 10
13.3471000679
 20
13.0050922763
 30
0.0
  0
SPLINE
  5
321
100
AcDbEntity
  8
0
100
AcDbSpline
 62
7
  6
CONTINUOUS
 70
0
 71
3
 72
15
 73
11
 74
0
 42
0.0000001
 43
0.0000001
 44
0.0000000001
 40
0.0
 40
0.0
 40
0.0
 40
0.0
 40
0.0944158547
 40
0.1980899765
 40
0.3108431685
 40
0.4324251545
 40
0.5625145299
 40
0.7007442471
 40
0.846713241
 40
1.0
 40
1.0
 40
1.0
 40
1.0
 10
13.5376769616
 20
12.8771781535
 30
0.0
 10
13.5366217113
 20
12.8772772714
 30
0.0
 10
13.5344121147
 20
12.8775329927
 30
0.0
 10
13.530960587
 20
12.8780493512
 30
0.0
 10
13.5272243464
 20
12.8787136742
 30
0.0
 10
13.5232137306
 20
12.879521971
 30
0.0
 10
13.5189403042
 20
12.8804693906
 30
0.0
 10
13.5144167911
 20
12.8815504578
 30
0.0
 10
13.5096565832
 20
12.8827591581
 30
0.0
 10
13.5064107256
 20
12.8836254555
 30
0.0
 10
13.5047504672
 20
12.8840777695
 30
0.0
  0
SPLINE
  5
322
100
AcDbEntity
  8
0
100
AcDbSpline
 62
7
  6
CONTINUOUS
 70
0
 71
3
 72
12
 73
8
 74
0
 42
0.0000001
 43
0.0000001
 44
0.0000000001
 40
0.0
 40
0.0
 40
0.0
 40
0.0
 40
0.1103307307
 40
0.2255136904
 40
0.469049011
 40
0.7279839061
 40
1.0
 40
1.0
 40
1.0
 40
1.0
 10
13.5047504672
 20
12.8840777695
 30
0.0
 10
13.5028372605
 20
12.8845989958
 30
0.0
 10
13.4989330173
 20
12.8856876319
 30
0.0
 10
13.4908357654
 20
12.8880332978
 30
0.0
 10
13.4802145526
 20
12.8912628789
 30
0.0
 10
13.4669514457
 20
12.8954880746
 30
0.0
 10
13.4578896255
 20
12.8984793588
 30
0.0
 10
13.4532534335
 20
12.9000306801
 30
0.0
  0
SPLINE
  5
323
100
AcDbEntity
  8
0
100
AcDbSpline
 62
7
  6
CONTINUOUS
 70
0
 71
3
 72
24
 73
20
 74
0
 42
0.0000001
 43
0.0000001
 44
0.0000000001
 40
0.0
 40
0.0
 40
0.0
 40
0.0
 40
0.0792082906
 40
0.1566921543
 40
0.2326301382
 40
0.3066858851
 40
0.378537674
 40
0.4479912783
 40
0.5151959347
 40
0.5801312616
 40
0.6423863016
 40
0.7019606462
 40
0.7589366416
 40
0.8130156864
 40
0.8641694981
 40
0.9125070932
 40
0.9355427119
 40
0.9577824438
 40
1.0
 40
1.0
 40
1.0
 40
1.0
 10
13.704231766
 20
13.5071395949
 30
0.0
 10
13.702411499
 20
13.507635176
 30
0.0
 10
13.6988073484
 20
13.5086036567
 30
0.0
 10
13.6934489637
 20
13.5100130092
 30
0.0
 10
13.6882029769
 20
13.5113670629
 30
0.0
 10
13.6830784414
 20
13.5126545519
 30
0.0
 10
13.6780940858
 20
13.5138656265
 30
0.0
 10
13.673257505
 20
13.5149928942
 30
0.0
 10
13.668571838
 20
13.5160410141
 30
0.0
 10
13.6640444772
 20
13.5170107233
 30
0.0
 10
13.6596832621
 20
13.5178869206
 30
0.0
 10
13.6554969931
 20
13.5186694023
 30
0.0
 10
13.6514925332
 20
13.5193629586
 30
0.0
 10
13.6476746297
 20
13.5199554982
 30
0.0
 10
13.6440497422
 20
13.5204453848
 30
0.0
 10
13.6411503077
 20
13.5207786838
 30
0.0
 10
13.6389306865
 20
13.5209902162
 30
0.0
 10
13.6368535507
 20
13.521157836
 30
0.0
 10
13.6353206995
 20
13.5212479556
 30
0.0
 10
13.6343161199
 20
13.5212911137
 30
0.0
  0
SPLINE
  5
324
100
AcDbEntity
  8
0
100
AcDbSpline
 62
7
  6
CONTINUOUS
 70
0
 71
3
 72
22
 73
18
 74
0
 42
0.0000001
 43
0.0000001
 44
0.0000000001
 40
0.0
 40
0.0
 40
0.0
 40
0.0
 40
0.0879687998
 40
0.1722440901
 40
0.2526280029
 40
0.3291250713
 40
0.4020090182
 40
0.4715454576
 40
0.537761743
 40
0.6005680364
 40
0.6599750957
 40
0.7162705563
 40
0.7697887812
 40
0.8207101141
 40
0.8690318675
 40
0.9148044242
 40
1.0
 40
1.0
 40
1.0
 40
1.0
 10
13.6343161199
 20
13.5212911137
 30
0.0
 10
13.6337651768
 20
13.5213147818
 30
0.0
 10
13.6326859894
 20
13.5213518168
 30
0.0
 10
13.6311023707
 20
13.5213740746
 30
0.0
 10
13.6295905376
 20
13.5213593761
 30
0.0
 10
13.6281509834
 20
13.5213069121
 30
0.0
 10
13.6267812771
 20
13.5212193694
 30
0.0
 10
13.6254786935
 20
13.5210997432
 30
0.0
 10
13.6242430847
 20
13.5209476293
 30
0.0
 10
13.6230763972
 20
13.5207610184
 30
0.0
 10
13.6219794785
 20
13.5205379368
 30
0.0
 10
13.6209498798
 20
13.5202811544
 30
0.0
 10
13.6199836646
 20
13.5199941288
 30
0.0
 10
13.6190791838
 20
13.5196784026
 30
0.0
 10
13.6182383146
 20
13.5193312897
 30
0.0
 10
13.6172296214
 20
13.51883417
 30
0.0
 10
13.6165320801
 20
13.5183948324
 30
0.0
 10
13.6161008078
 20
13.5180798223
 30
0.0
  0
SPLINE
  5
325
100
AcDbEntity
  8
0
100
AcDbSpline
 62
7
  6
CONTINUOUS
 70
0
 71
3
 72
16
 73
12
 74
0
 42
0.0000001
 43
0.0000001
 44
0.0000000001
 40
0.0
 40
0.0
 40
0.0
 40
0.0
 40
0.138147879
 40
0.2054143665
 40
0.2715175405
 40
0.4004311626
 40
0.5254296028
 40
0.6471247745
 40
0.7662363488
 40
0.8835709786
 40
1.0
 40
1.0
 40
1.0
 40
1.0
 10
14.4683424527
 20
14.2536471043
 30
0.0
 10
14.4671842902
 20
14.2560071913
 30
0.0
 10
14.4655884288
 20
14.2595811647
 30
0.0
 10
14.4637681791
 20
14.2644180816
 30
0.0
 10
14.4622033286
 20
14.269158934
 30
0.0
 10
14.4606619374
 20
14.275059193
 30
0.0
 10
14.4594885116
 20
14.2821204229
 30
0.0
 10
14.4590124562
 20
14.2890767411
 30
0.0
 10
14.459237023
 20
14.2959007279
 30
0.0
 10
14.4601620594
 20
14.3025640914
 30
0.0
 10
14.4612458354
 20
14.3068891165
 30
0.0
 10
14.4618999994
 20
14.3090059807
 30
0.0
  0
LINE
  5
326
100
AcDbEntity
  8
0
100
AcDbLine
 62
7
  6
CONTINUOUS
 10
15.3386428076
 20
13.9270190768
 11
15.3229711408
 21
13.9534171154
  0
SPLINE
  5
327
100
AcDbEntity
  8
0
100
AcDbSpline
 62
7
  6
CONTINUOUS
 70
0
 71
3
 72
11
 73
7
 74
0
 42
0.0000001
 43
0.0000001
 44
0.0000000001
 40
0.0
 40
0.0
 40
0.0
 40
0.0
 40
0.2687033743
 40
0.5254426249
 40
0.7694383017
 40
1.0
 40
1.0
 40
1.0
 40
1.0
 10
15.2890109745
 20
14.0269619827
 30
0.0
 10
15.2885839619
 20
14.0285298937
 30
0.0
 10
15.2876901345
 20
14.0315803461
 30
0.0
 10
15.2861921407
 20
14.0359875025
 30
0.0
 10
15.2845751011
 20
14.0401056723
 30
0.0
 10
15.2833880305
 20
14.0427205331
 30
0.0
 10
15.2827737591
 20
14.0439722867
 30
0.0
  0
SPLINE
  5
328
100
AcDbEntity
  8
0
100
AcDbSpline
 62
7
  6
CONTINUOUS
 70
0
 71
3
 72
18
 73
14
 74
0
 42
0.0000001
 43
0.0000001
 44
0.0000000001
 40
0.0
 40
0.0
 40
0.0
 40
0.0
 40
0.124309646
 40
0.250894771
 40
0.3791200983
 40
0.508124669
 40
0.6367238262
 40
0.700375392
 40
0.7632528096
 40
0.8250434975
 40
0.8853811775
 40
0.9438556699
 40
1.0
 40
1.0
 40
1.0
 40
1.0
 10
15.3229691861
 20
13.9534190086
 30
0.0
 10
15.3212278292
 20
13.9562993507
 30
0.0
 10
15.3177801507
 20
13.9621535871
 30
0.0
 10
15.3127907903
 20
13.9711256378
 30
0.0
 10
15.3079598306
 20
13.980327957
 30
0.0
 10
15.303352826
 20
13.9897054176
 30
0.0
 10
15.2997484587
 20
13.9976235993
 30
0.0
 10
15.2970486077
 20
14.0039823545
 30
0.0
 10
15.2951432772
 20
14.0087123022
 30
0.0
 10
15.2933675923
 20
14.0133966537
 30
0.0
 10
15.2917397223
 20
14.0180082812
 30
0.0
 10
15.2902792277
 20
14.0225152299
 30
0.0
 10
15.2894104347
 20
14.0254952393
 30
0.0
 10
15.2890109745
 20
14.0269619827
 30
0.0
  0
SPLINE
  5
329
100
AcDbEntity
  8
0
100
AcDbSpline
 62
7
  6
CONTINUOUS
 70
0
 71
3
 72
9
 73
5
 74
0
 42
0.0000001
 43
0.0000001
 44
0.0000000001
 40
0.0
 40
0.0
 40
0.0
 40
0.0
 40
0.4978217441
 40
1.0
 40
1.0
 40
1.0
 40
1.0
 10
17.1007722314
 20
12.6811369233
 30
0.0
 10
17.104623505
 20
12.6808457067
 30
0.0
 10
17.112329979
 20
12.6797791638
 30
0.0
 10
17.119852974
 20
12.6778009294
 30
0.0
 10
17.1235559743
 20
12.6765896777
 30
0.0
  0
SPLINE
  5
32A
100
AcDbEntity
  8
0
100
AcDbSpline
 62
7
  6
CONTINUOUS
 70
0
 71
3
 72
16
 73
12
 74
0
 42
0.0000001
 43
0.0000001
 44
0.0000000001
 40
0.0
 40
0.0
 40
0.0
 40
0.0
 40
0.1619838007
 40
0.3152073537
 40
0.4577740374
 40
0.5888961807
 40
0.708437189
 40
0.8165813522
 40
0.9136479546
 40
0.958146418
 40
1.0
 40
1.0
 40
1.0
 40
1.0
 10
17.1007722314
 20
12.6811369233
 30
0.0
 10
17.0974173443
 20
12.6813906053
 30
0.0
 10
17.0908814715
 20
12.6817903457
 30
0.0
 10
17.0813768996
 20
12.6820941242
 30
0.0
 10
17.0725084593
 20
12.6821164279
 30
0.0
 10
17.0643428052
 20
12.6818873428
 30
0.0
 10
17.0569024034
 20
12.6814387084
 30
0.0
 10
17.0501859203
 20
12.6808006021
 30
0.0
 10
17.0450448502
 20
12.680102539
 30
0.0
 10
17.0412884975
 20
12.6794658184
 30
0.0
 10
17.039527702
 20
12.6791232423
 30
0.0
 10
17.038676822
 20
12.678945166
 30
0.0
  0
SPLINE
  5
32B
100
AcDbEntity
  8
0
100
AcDbSpline
 62
7
  6
CONTINUOUS
 70
0
 71
3
 72
12
 73
8
 74
0
 42
0.0000001
 43
0.0000001
 44
0.0000000001
 40
0.0
 40
0.0
 40
0.0
 40
0.0
 40
0.2840762294
 40
0.5448784728
 40
0.666769682
 40
0.7831356602
 40
1.0
 40
1.0
 40
1.0
 40
1.0
 10
17.0386750304
 20
12.6789460556
 30
0.0
 10
17.0373955067
 20
12.6786784547
 30
0.0
 10
17.0349602563
 20
12.6780657828
 30
0.0
 10
17.0320676726
 20
12.6770229628
 30
0.0
 10
17.0299859788
 20
12.6760492736
 30
0.0
 10
17.0281507355
 20
12.6750389569
 30
0.0
 10
17.0268859517
 20
12.6741568175
 30
0.0
 10
17.0261235375
 20
12.6735129401
 30
0.0
  0
SPLINE
  5
32C
100
AcDbEntity
  8
0
100
AcDbSpline
 62
7
  6
CONTINUOUS
 70
0
 71
3
 72
10
 73
6
 74
0
 42
0.0000001
 43
0.0000001
 44
0.0000000001
 40
0.0
 40
0.0
 40
0.0
 40
0.0
 40
0.248913194
 40
0.4990143401
 40
1.0
 40
1.0
 40
1.0
 40
1.0
 10
14.34774368
 20
13.9534171154
 30
0.0
 10
14.3461530048
 20
13.9511063311
 30
0.0
 10
14.3428875201
 20
13.946525611
 30
0.0
 10
14.3360337128
 20
13.937577382
 30
0.0
 10
14.3305158104
 20
13.9311421412
 30
0.0
 10
14.3266582147
 20
13.9270190768
 30
0.0
  0
SPLINE
  5
32D
100
AcDbEntity
  8
0
100
AcDbSpline
 62
7
  6
CONTINUOUS
 70
0
 71
3
 72
32
 73
28
 74
0
 42
0.0000001
 43
0.0000001
 44
0.0000000001
 40
0.0
 40
0.0
 40
0.0
 40
0.0
 40
0.0222573408
 40
0.04462804
 40
0.0672226234
 40
0.0901461968
 40
0.1134962401
 40
0.1373608062
 40
0.1618175135
 40
0.1869328025
 40
0.2127616321
 40
0.2393478388
 40
0.266724318
 40
0.2949135956
 40
0.3239286749
 40
0.3537734532
 40
0.3844435765
 40
0.4159272287
 40
0.4482055122
 40
0.4812533149
 40
0.5495173655
 40
0.6204266969
 40
0.6936083427
 40
0.7686363014
 40
0.8450442644
 40
0.922335787
 40
1.0
 40
1.0
 40
1.0
 40
1.0
 10
17.6444390707
 20
12.1003545854
 30
0.0
 10
17.6439107047
 20
12.0986448167
 30
0.0
 10
17.6427006452
 20
12.0952610729
 30
0.0
 10
17.640442333
 20
12.0903435554
 30
0.0
 10
17.6377448654
 20
12.0855906032
 30
0.0
 10
17.6346156375
 20
12.0810148709
 30
0.0
 10
17.6310629024
 20
12.0766277955
 30
0.0
 10
17.6270961343
 20
12.072440248
 30
0.0
 10
17.6227256218
 20
12.0684625279
 30
0.0
 10
17.6179625896
 20
12.0647043517
 30
0.0
 10
17.6128192134
 20
12.0611747407
 30
0.0
 10
17.6073084287
 20
12.0578822755
 30
0.0
 10
17.6014440659
 20
12.054834899
 30
0.0
 10
17.5952407978
 20
12.0520399154
 30
0.0
 10
17.5887140438
 20
12.0495041679
 30
0.0
 10
17.5818800579
 20
12.0472337774
 30
0.0
 10
17.5747558252
 20
12.0452342359
 30
0.0
 10
17.567359057
 20
12.0435105123
 30
0.0
 10
17.5597080477
 20
12.0420667166
 30
0.0
 10
17.5490790322
 20
12.0405029954
 30
0.0
 10
17.535271113
 20
12.0392902891
 30
0.0
 10
17.5181867797
 20
12.039005671
 30
0.0
 10
17.5005784104
 20
12.0398787112
 30
0.0
 10
17.4826208639
 20
12.0419006372
 30
0.0
 10
17.4644915447
 20
12.0450514469
 30
0.0
 10
17.4463707984
 20
12.0492995702
 30
0.0
 10
17.4344158049
 20
12.0528352545
 30
0.0
 10
17.4284808401
 20
12.054776582
 30
0.0
  0
SPLINE
  5
32E
100
AcDbEntity
  8
0
100
AcDbSpline
 62
7
  6
CONTINUOUS
 70
0
 71
3
 72
22
 73
18
 74
0
 42
0.0000001
 43
0.0000001
 44
0.0000000001
 40
0.0
 40
0.0
 40
0.0
 40
0.0
 40
0.0351652291
 40
0.0737217779
 40
0.1158802703
 40
0.1617762851
 40
0.2114857508
 40
0.2650405001
 40
0.3224361576
 40
0.3836399456
 40
0.4485953696
 40
0.5172261449
 40
0.5894397223
 40
0.6651258785
 40
0.7441622186
 40
0.8264205713
 40
1.0
 40
1.0
 40
1.0
 40
1.0
 10
13.3816437479
 20
13.433936509
 30
0.0
 10
13.3818592834
 20
13.4333918103
 30
0.0
 10
13.3822432787
 20
13.4322224778
 30
0.0
 10
13.3826701849
 20
13.4303377076
 30
0.0
 10
13.3829732773
 20
13.4282485799
 30
0.0
 10
13.3831520229
 20
13.4259592507
 30
0.0
 10
13.3832062762
 20
13.4234739769
 30
0.0
 10
13.3831358785
 20
13.4207976996
 30
0.0
 10
13.382940971
 20
13.417935814
 30
0.0
 10
13.3826219036
 20
13.4148941989
 30
0.0
 10
13.3821792868
 20
13.4116791581
 30
0.0
 10
13.3816140155
 20
13.4082973821
 30
0.0
 10
13.3809272012
 20
13.4047559765
 30
0.0
 10
13.3801203059
 20
13.4010624092
 30
0.0
 10
13.379194965
 20
13.3972243981
 30
0.0
 10
13.377780252
 20
13.391828071
 30
0.0
 10
13.3765845636
 20
13.3877362505
 30
0.0
 10
13.3757308459
 20
13.384973619
 30
0.0
  0
SPLINE
  5
32F
100
AcDbEntity
  8
0
100
AcDbSpline
 62
7
  6
CONTINUOUS
 70
0
 71
3
 72
46
 73
42
 74
0
 42
0.0000001
 43
0.0000001
 44
0.0000000001
 40
0.0
 40
0.0
 40
0.0
 40
0.0
 40
0.0107123392
 40
0.0214620918
 40
0.0322860225
 40
0.0432196785
 40
0.0542967718
 40
0.06554881
 40
0.0770046458
 40
0.0886903024
 40
0.1006287638
 40
0.1128399063
 40
0.1253405381
 40
0.1381443623
 40
0.1512622212
 40
0.1647020132
 40
0.1925597686
 40
0.2217376495
 40
0.2522130101
 40
0.2839327041
 40
0.3168174767
 40
0.3507659828
 40
0.3856583439
 40
0.4213593535
 40
0.4577213967
 40
0.4945871493
 40
0.5317921747
 40
0.5691673244
 40
0.6065411137
 40
0.643742069
 40
0.6806011099
 40
0.7169538639
 40
0.7526431421
 40
0.7875214952
 40
0.8214539656
 40
0.8543209384
 40
0.8860213938
 40
0.9164764181
 40
0.9456334421
 40
0.9734700418
 40
1.0
 40
1.0
 40
1.0
 40
1.0
 10
14.8201827787
 20
14.198288228
 30
0.0
 10
14.8197457076
 20
14.1968738727
 30
0.0
 10
14.8187671961
 20
14.1940708396
 30
0.0
 10
14.8169955797
 20
14.189972048
 30
0.0
 10
14.8149222898
 20
14.1859826019
 30
0.0
 10
14.8125509948
 20
14.1821098283
 30
0.0
 10
14.8098860611
 20
14.178360269
 30
0.0
 10
14.806932164
 20
14.174740447
 30
0.0
 10
14.8036946103
 20
14.1712564714
 30
0.0
 10
14.8001790762
 20
14.1679142614
 30
0.0
 10
14.7963917114
 20
14.1647194442
 30
0.0
 10
14.7923391237
 20
14.1616773396
 30
0.0
 10
14.7880282679
 20
14.1587930976
 30
0.0
 10
14.7834666363
 20
14.1560714547
 30
0.0
 10
14.7786619078
 20
14.1535170177
 30
0.0
 10
14.7718618107
 20
14.1503014928
 30
0.0
 10
14.7627833382
 20
14.1467396214
 30
0.0
 10
14.7511932778
 20
14.1432470346
 30
0.0
 10
14.7388560711
 20
14.1405076635
 30
0.0
 10
14.7258556502
 20
14.1385394923
 30
0.0
 10
14.7122795998
 20
14.1373552575
 30
0.0
 10
14.6982198226
 20
14.1369627122
 30
0.0
 10
14.68377157
 20
14.1373643496
 30
0.0
 10
14.6690328808
 20
14.1385573605
 30
0.0
 10
14.6541038689
 20
14.1405335993
 30
0.0
 10
14.639086023
 20
14.1432796143
 30
0.0
 10
14.6240814931
 20
14.1467767232
 30
0.0
 10
14.6091923752
 20
14.1510011311
 30
0.0
 10
14.5945200016
 20
14.1559240894
 30
0.0
 10
14.5801642274
 20
14.1615120938
 30
0.0
 10
14.5662227366
 20
14.1677271199
 30
0.0
 10
14.5527903624
 20
14.1745268972
 30
0.0
 10
14.539958432
 20
14.181865212
 30
0.0
 10
14.5278141285
 20
14.1896922529
 30
0.0
 10
14.5164398984
 20
14.1979549888
 30
0.0
 10
14.5059129011
 20
14.2065975564
 30
0.0
 10
14.4963045067
 20
14.2155617598
 30
0.0
 10
14.4876799014
 20
14.2247873361
 30
0.0
 10
14.4800975416
 20
14.2342131266
 30
0.0
 10
14.4736098472
 20
14.2437751845
 30
0.0
 10
14.4699575707
 20
14.2503558398
 30
0.0
 10
14.4683424527
 20
14.2536471043
 30
0.0
  0
SPLINE
  5
330
100
AcDbEntity
  8
0
100
AcDbSpline
 62
7
  6
CONTINUOUS
 70
0
 71
3
 72
23
 73
19
 74
0
 42
0.0000001
 43
0.0000001
 44
0.0000000001
 40
0.0
 40
0.0
 40
0.0
 40
0.0
 40
0.0922574694
 40
0.1793525384
 40
0.2613439832
 40
0.3383282642
 40
0.4104461037
 40
0.4778939158
 40
0.5409341806
 40
0.5999113335
 40
0.655264925
 40
0.7075450412
 40
0.7574177097
 40
0.8056605437
 40
0.8531384815
 40
0.9007640783
 40
0.9494402643
 40
1.0
 40
1.0
 40
1.0
 40
1.0
 10
13.3471000679
 20
13.0050922763
 30
0.0
 10
13.347103526
 20
13.0035041952
 30
0.0
 10
13.3471638107
 20
13.0004166241
 30
0.0
 10
13.3474310064
 20
12.9959245995
 30
0.0
 10
13.3478721339
 20
12.9917102434
 30
0.0
 10
13.3484867575
 20
12.9877781023
 30
0.0
 10
13.3492744402
 20
12.9841322622
 30
0.0
 10
13.3502345919
 20
12.9807764611
 30
0.0
 10
13.3513667909
 20
12.9777141473
 30
0.0
 10
13.3526705496
 20
12.9749485282
 30
0.0
 10
13.3541456748
 20
12.9724828728
 30
0.0
 10
13.3557917806
 20
12.9703206211
 30
0.0
 10
13.3576083092
 20
12.9684658571
 30
0.0
 10
13.3595934963
 20
12.9669229022
 30
0.0
 10
13.3617442413
 20
12.9656961307
 30
0.0
 10
13.3640559732
 20
12.9647885982
 30
0.0
 10
13.3665227461
 20
12.9642018264
 30
0.0
 10
13.368227415
 20
12.9640280366
 30
0.0
 10
13.369096929
 20
12.9639906818
 30
0.0
  0
SPLINE
  5
331
100
AcDbEntity
  8
0
100
AcDbSpline
 62
7
  6
CONTINUOUS
 70
0
 71
3
 72
16
 73
12
 74
0
 42
0.0000001
 43
0.0000001
 44
0.0000000001
 40
0.0
 40
0.0
 40
0.0
 40
0.0
 40
0.138147879
 40
0.2054143665
 40
0.2715175405
 40
0.4004311626
 40
0.5254296028
 40
0.6471247745
 40
0.7662363488
 40
0.8835709786
 40
1.0
 40
1.0
 40
1.0
 40
1.0
 10
17.2925987458
 20
12.1557134614
 30
0.0
 10
17.2914405834
 20
12.1580735484
 30
0.0
 10
17.2898447219
 20
12.1616475218
 30
0.0
 10
17.2880244723
 20
12.1664844387
 30
0.0
 10
17.2864596218
 20
12.1712252911
 30
0.0
 10
17.2849182306
 20
12.1771255501
 30
0.0
 10
17.2837448048
 20
12.18418678
 30
0.0
 10
17.2832687494
 20
12.1911430982
 30
0.0
 10
17.2834933162
 20
12.197967085
 30
0.0
 10
17.2844183525
 20
12.2046304485
 30
0.0
 10
17.2855021286
 20
12.2089554736
 30
0.0
 10
17.2861562925
 20
12.2110723378
 30
0.0
  0
SPLINE
  5
332
100
AcDbEntity
  8
0
100
AcDbSpline
 62
7
  6
CONTINUOUS
 70
0
 71
3
 72
22
 73
18
 74
0
 42
0.0000001
 43
0.0000001
 44
0.0000000001
 40
0.0
 40
0.0
 40
0.0
 40
0.0
 40
0.1410492449
 40
0.2109470739
 40
0.2801571377
 40
0.3484882762
 40
0.4157587593
 40
0.4817961767
 40
0.5464401738
 40
0.6095444233
 40
0.670979008
 40
0.7306329537
 40
0.7884168373
 40
0.8442662665
 40
0.8981437681
 40
0.9500458747
 40
1.0
 40
1.0
 40
1.0
 40
1.0
 10
17.4284808401
 20
12.054776582
 30
0.0
 10
17.4207336508
 20
12.0573106882
 30
0.0
 10
17.4092820909
 20
12.0615347638
 30
0.0
 10
17.3944350208
 20
12.0679977175
 30
0.0
 10
17.3836340087
 20
12.0732056836
 30
0.0
 10
17.3731819085
 20
12.078765862
 30
0.0
 10
17.3631229895
 20
12.0846546627
 30
0.0
 10
17.3535002408
 20
12.0908469631
 30
0.0
 10
17.3443546692
 20
12.097316398
 30
0.0
 10
17.3357252611
 20
12.1040354506
 30
0.0
 10
17.3276487738
 20
12.1109755801
 30
0.0
 10
17.3201596191
 20
12.1181073602
 30
0.0
 10
17.3132896726
 20
12.125400632
 30
0.0
 10
17.307068316
 20
12.1328245747
 30
0.0
 10
17.3015219436
 20
12.1403481585
 30
0.0
 10
17.2966748686
 20
12.1479391489
 30
0.0
 10
17.2938705068
 20
12.153121885
 30
0.0
 10
17.2925987458
 20
12.1557134614
 30
0.0
  0
SPLINE
  5
333
100
AcDbEntity
  8
0
100
AcDbSpline
 62
7
  6
CONTINUOUS
 70
0
 71
3
 72
38
 73
34
 74
0
 42
0.0000001
 43
0.0000001
 44
0.0000000001
 40
0.0
 40
0.0
 40
0.0
 40
0.0
 40
0.038902408
 40
0.0773079804
 40
0.1152035507
 40
0.1525797404
 40
0.1894273354
 40
0.2257386419
 40
0.2615075001
 40
0.2967291928
 40
0.3314006402
 40
0.3655204438
 40
0.3990889613
 40
0.432108423
 40
0.4645830083
 40
0.4965189177
 40
0.5279244698
 40
0.5588101962
 40
0.6190654895
 40
0.6484779562
 40
0.6774360709
 40
0.7059622842
 40
0.7340815222
 40
0.7618211701
 40
0.7892110043
 40
0.8162831112
 40
0.8430717803
 40
0.8696133336
 40
0.8959459255
 40
0.9221093155
 40
0.9481445961
 40
0.974093885
 40
1.0
 40
1.0
 40
1.0
 40
1.0
 10
14.203914823
 20
14.5247719957
 30
0.0
 10
14.1830976236
 20
14.5223327327
 30
0.0
 10
14.1417800936
 20
14.517036784
 30
0.0
 10
14.0804019119
 20
14.5077698887
 30
0.0
 10
14.0200622247
 20
14.4972373823
 30
0.0
 10
13.9608109262
 20
14.4854480399
 30
0.0
 10
13.9026957246
 20
14.4724112688
 30
0.0
 10
13.8457639805
 20
14.458137664
 30
0.0
 10
13.7900619705
 20
14.4426387724
 30
0.0
 10
13.7356349697
 20
14.4259270706
 30
0.0
 10
13.6825272134
 20
14.4080161054
 30
0.0
 10
13.6307818704
 20
14.3889203463
 30
0.0
 10
13.5804410215
 20
14.3686551561
 30
0.0
 10
13.5315456231
 20
14.3472369158
 30
0.0
 10
13.4841353376
 20
14.3246828585
 30
0.0
 10
13.4382490952
 20
14.3010113646
 30
0.0
 10
13.3939230342
 20
14.2762406475
 30
0.0
 10
13.3374232054
 20
14.242060729
 30
0.0
 10
13.2836504627
 20
14.205505086
 30
0.0
 10
13.2329371902
 20
14.1665869597
 30
0.0
 10
13.1969329761
 20
14.136640037
 30
0.0
 10
13.1626876852
 20
14.1057274069
 30
0.0
 10
13.1302286905
 20
14.0738734636
 30
0.0
 10
13.0995829024
 20
14.0411041398
 30
0.0
 10
13.0707755806
 20
14.0074459286
 30
0.0
 10
13.0438306393
 20
13.9729261213
 30
0.0
 10
13.018770405
 20
13.9375728274
 30
0.0
 10
12.9956157118
 20
13.9014148985
 30
0.0
 10
12.9743858956
 20
13.8644818531
 30
0.0
 10
12.9550987102
 20
13.8268040737
 30
0.0
 10
12.937770108
 20
13.7884122027
 30
0.0
 10
12.9224149517
 20
13.749339171
 30
0.0
 10
12.9134989266
 20
13.7228472562
 30
0.0
 10
12.9093779853
 20
13.7095119229
 30
0.0
  0
SPLINE
  5
334
100
AcDbEntity
  8
0
100
AcDbSpline
 62
7
  6
CONTINUOUS
 70
0
 71
3
 72
16
 73
12
 74
0
 42
0.0000001
 43
0.0000001
 44
0.0000000001
 40
0.0
 40
0.0
 40
0.0
 40
0.0
 40
0.1401642091
 40
0.2765226564
 40
0.4087268231
 40
0.5364851695
 40
0.6595786154
 40
0.7778699799
 40
0.8352072161
 40
0.8913361857
 40
1.0
 40
1.0
 40
1.0
 40
1.0
 10
14.9686872456
 20
14.5247719957
 30
0.0
 10
14.9780089537
 20
14.51849576
 30
0.0
 10
14.996100567
 20
14.5056619088
 30
0.0
 10
15.0218173664
 20
14.4853276083
 30
0.0
 10
15.0456304706
 20
14.4642636781
 30
0.0
 10
15.0674101714
 20
14.4425836987
 30
0.0
 10
15.0870377865
 20
14.4204048057
 30
0.0
 10
15.1016621901
 20
14.4014101237
 30
0.0
 10
15.1121549609
 20
14.3860697935
 30
0.0
 10
15.1216340298
 20
14.3709894562
 30
0.0
 10
15.1279921111
 20
14.3593841228
 30
0.0
 10
15.1318301765
 20
14.3515629681
 30
0.0
  0
SPLINE
  5
335
100
AcDbEntity
  8
0
100
AcDbSpline
 62
7
  6
CONTINUOUS
 70
0
 71
3
 72
39
 73
35
 74
0
 42
0.0000001
 43
0.0000001
 44
0.0000000001
 40
0.0
 40
0.0
 40
0.0
 40
0.0
 40
0.0240823135
 40
0.0487938517
 40
0.0741453813
 40
0.1001418907
 40
0.1267833083
 40
0.1540647127
 40
0.1819767486
 40
0.2105059575
 40
0.2396351094
 40
0.2693435122
 40
0.2996073038
 40
0.3303997292
 40
0.3616913945
 40
0.3934505165
 40
0.4256431539
 40
0.4582334284
 40
0.4911837349
 40
0.5244549449
 40
0.5580066014
 40
0.5917971089
 40
0.6257839165
 40
0.6599236983
 40
0.6941725348
 40
0.7284860817
 40
0.762819745
 40
0.7971288539
 40
0.8313688312
 40
0.8654953709
 40
0.8994645895
 40
0.9332332763
 40
0.9667588462
 40
1.0
 40
1.0
 40
1.0
 40
1.0
 10
17.7178626765
 20
12.9529405394
 30
0.0
 10
17.7062496342
 20
12.9766054315
 30
0.0
 10
17.6814404705
 20
13.0239354841
 30
0.0
 10
17.6402087653
 20
13.0938771214
 30
0.0
 10
17.5945634652
 20
13.1635407337
 30
0.0
 10
17.544594576
 20
13.2327901582
 30
0.0
 10
17.4903987399
 20
13.3014933352
 30
0.0
 10
17.4320809606
 20
13.3695182075
 30
0.0
 10
17.3697540054
 20
13.4367341594
 30
0.0
 10
17.3035383264
 20
13.5030119406
 30
0.0
 10
17.2335618338
 20
13.5682240208
 30
0.0
 10
17.1599596777
 20
13.6322448191
 30
0.0
 10
17.0828740008
 20
13.6949509686
 30
0.0
 10
17.0024536798
 20
13.756221564
 30
0.0
 10
16.9188540461
 20
13.8159384095
 30
0.0
 10
16.8322365898
 20
13.8739862552
 30
0.0
 10
16.742768649
 20
13.9302530318
 30
0.0
 10
16.6506230886
 20
13.9846300749
 30
0.0
 10
16.5559779673
 20
14.0370123421
 30
0.0
 10
16.4590161936
 20
14.0872986223
 30
0.0
 10
16.3599251709
 20
14.1353917367
 30
0.0
 10
16.2588964347
 20
14.1811987311
 30
0.0
 10
16.1561252816
 20
14.2246310593
 30
0.0
 10
16.0518103863
 20
14.2656047582
 30
0.0
 10
15.946153418
 20
14.3040406152
 30
0.0
 10
15.8393586469
 20
14.3398643218
 30
0.0
 10
15.7316325493
 20
14.3730066176
 30
0.0
 10
15.6231834021
 20
14.4034034249
 30
0.0
 10
15.5142208815
 20
14.4309959787
 30
0.0
 10
15.4049556375
 20
14.4557309265
 30
0.0
 10
15.2955989524
 20
14.4775604647
 30
0.0
 10
15.1863620322
 20
14.4964423706
 30
0.0
 10
15.0774569893
 20
14.5123401029
 30
0.0
 10
15.0048741036
 20
14.5209691272
 30
0.0
 10
14.9686872456
 20
14.5247719957
 30
0.0
  0
SPLINE
  5
336
100
AcDbEntity
  8
0
100
AcDbSpline
 62
7
  6
CONTINUOUS
 70
0
 71
3
 72
19
 73
15
 74
0
 42
0.0000001
 43
0.0000001
 44
0.0000000001
 40
0.0
 40
0.0
 40
0.0
 40
0.0
 40
0.0580089975
 40
0.1164151
 40
0.1752663412
 40
0.2346128898
 40
0.2945024325
 40
0.3549793905
 40
0.4160859336
 40
0.4778618817
 40
0.603551293
 40
0.7323299425
 40
0.8644192557
 40
1.0
 40
1.0
 40
1.0
 40
1.0
 10
17.8418395963
 20
12.3905170443
 30
0.0
 10
17.8426090655
 20
12.4017550833
 30
0.0
 10
17.8437233514
 20
12.424339795
 30
0.0
 10
17.8441239813
 20
12.4583786281
 30
0.0
 10
17.8432586893
 20
12.4926689673
 30
0.0
 10
17.8411281345
 20
12.527192263
 30
0.0
 10
17.8377335496
 20
12.5619313229
 30
0.0
 10
17.8330767224
 20
12.5968683018
 30
0.0
 10
17.8271601029
 20
12.6319857652
 30
0.0
 10
17.8175412829
 20
12.6792937893
 30
0.0
 10
17.8023206151
 20
12.7388349143
 30
0.0
 10
17.7791851218
 20
12.8102917843
 30
0.0
 10
17.7511247123
 20
12.882024359
 30
0.0
 10
17.7294610436
 20
12.9293055524
 30
0.0
 10
17.7178626765
 20
12.9529405394
 30
0.0
  0
SPLINE
  5
337
100
AcDbEntity
  8
0
100
AcDbSpline
 62
7
  6
CONTINUOUS
 70
0
 71
3
 72
15
 73
11
 74
0
 42
0.0000001
 43
0.0000001
 44
0.0000000001
 40
0.0
 40
0.0
 40
0.0
 40
0.0
 40
0.1304602002
 40
0.2602560797
 40
0.3889203081
 40
0.5159944619
 40
0.641039551
 40
0.7636402568
 40
0.8834096494
 40
1.0
 40
1.0
 40
1.0
 40
1.0
 10
17.5937342183
 20
12.522794337
 30
0.0
 10
17.6054194393
 20
12.5189721003
 30
0.0
 10
17.6285723882
 20
12.5108537351
 30
0.0
 10
17.6626221534
 20
12.4972621907
 30
0.0
 10
17.695764162
 20
12.482345807
 30
0.0
 10
17.7278175795
 20
12.4661857697
 30
0.0
 10
17.7586083279
 20
12.4488698949
 30
0.0
 10
17.7879693692
 20
12.4304919481
 30
0.0
 10
17.8157404332
 20
12.4111524202
 30
0.0
 10
17.8333486961
 20
12.3974903631
 30
0.0
 10
17.8418395963
 20
12.3905170443
 30
0.0
  0
SPLINE
  5
338
100
AcDbEntity
  8
0
100
AcDbSpline
 62
7
  6
CONTINUOUS
 70
0
 71
3
 72
15
 73
11
 74
0
 42
0.0000001
 43
0.0000001
 44
0.0000000001
 40
0.0
 40
0.0
 40
0.0
 40
0.0
 40
0.0936912801
 40
0.1945444994
 40
0.3037760358
 40
0.422310314
 40
0.5508124198
 40
0.6897456526
 40
0.8394148498
 40
1.0
 40
1.0
 40
1.0
 40
1.0
 10
13.6343161831
 20
13.5212911052
 30
0.0
 10
13.6332026834
 20
13.5213389343
 30
0.0
 10
13.630881042
 20
13.521264429
 30
0.0
 10
13.6273053502
 20
13.5206918991
 30
0.0
 10
13.6235281812
 20
13.5196592927
 30
0.0
 10
13.6195551204
 20
13.5181699763
 30
0.0
 10
13.6153906961
 20
13.5162271336
 30
0.0
 10
13.6110406644
 20
13.5138339449
 30
0.0
 10
13.6065113753
 20
13.5109943387
 30
0.0
 10
13.6034837065
 20
13.5088811109
 30
0.0
 10
13.6019403557
 20
13.5077553979
 30
0.0
  0
SPLINE
  5
339
100
AcDbEntity
  8
0
100
AcDbSpline
 62
7
  6
CONTINUOUS
 70
0
 71
3
 72
35
 73
31
 74
0
 42
0.0000001
 43
0.0000001
 44
0.0000000001
 40
0.0
 40
0.0
 40
0.0
 40
0.0
 40
0.1049732663
 40
0.204856401
 40
0.2992916426
 40
0.3879574404
 40
0.4300393645
 40
0.4705781714
 40
0.5095464511
 40
0.5469211488
 40
0.5826828119
 40
0.6168172346
 40
0.6493149431
 40
0.6801731587
 40
0.7093956122
 40
0.7369949578
 40
0.7629931843
 40
0.7874247525
 40
0.8103379646
 40
0.831799151
 40
0.8518953235
 40
0.870739393
 40
0.8884736118
 40
0.9052741006
 40
0.9213516235
 40
0.9369496526
 40
0.9523364665
 40
0.9677930301
 40
0.983595942
 40
1.0
 40
1.0
 40
1.0
 40
1.0
 10
13.6368478572
 20
13.3790087065
 30
0.0
 10
13.6384493762
 20
13.3841912255
 30
0.0
 10
13.6414622857
 20
13.3943402532
 30
0.0
 10
13.6454922802
 20
13.4092731912
 30
0.0
 10
13.6489094959
 20
13.4234931339
 30
0.0
 10
13.6512745155
 20
13.4348887202
 30
0.0
 10
13.6528362404
 20
13.4436012808
 30
0.0
 10
13.6538254208
 20
13.4498062822
 30
0.0
 10
13.6546520064
 20
13.4557896101
 30
0.0
 10
13.6553151795
 20
13.4615448961
 30
0.0
 10
13.6558141937
 20
13.4670660513
 30
0.0
 10
13.6561486171
 20
13.4723472142
 30
0.0
 10
13.6563180373
 20
13.4773828379
 30
0.0
 10
13.6563223778
 20
13.4821676263
 30
0.0
 10
13.6561615515
 20
13.4866966135
 30
0.0
 10
13.6558358106
 20
13.4909651197
 30
0.0
 10
13.6553453481
 20
13.4949688036
 30
0.0
 10
13.6546906783
 20
13.498703649
 30
0.0
 10
13.6538721686
 20
13.5021659619
 30
0.0
 10
13.6528904447
 20
13.5053523847
 30
0.0
 10
13.6517458512
 20
13.5082597711
 30
0.0
 10
13.650438908
 20
13.5108851958
 30
0.0
 10
13.6489697925
 20
13.513225602
 30
0.0
 10
13.6473389953
 20
13.5152778026
 30
0.0
 10
13.6455471705
 20
13.5170380057
 30
0.0
 10
13.6435961626
 20
13.5185023463
 30
0.0
 10
13.641488935
 20
13.5196669598
 30
0.0
 10
13.6392297023
 20
13.5205292627
 30
0.0
 10
13.6368238274
 20
13.5210879715
 30
0.0
 10
13.6351630562
 20
13.5212547218
 30
0.0
 10
13.6343161831
 20
13.5212911052
 30
0.0
  0
SPLINE
  5
33A
100
AcDbEntity
  8
0
100
AcDbSpline
 62
7
  6
CONTINUOUS
 70
0
 71
3
 72
23
 73
19
 74
0
 42
0.0000001
 43
0.0000001
 44
0.0000000001
 40
0.0
 40
0.0
 40
0.0
 40
0.0
 40
0.0610876731
 40
0.1235683942
 40
0.187192562
 40
0.2517047322
 40
0.3168449963
 40
0.3823502308
 40
0.4479555017
 40
0.5133953839
 40
0.5784052799
 40
0.6427227506
 40
0.7060888443
 40
0.7682494297
 40
0.8289565453
 40
0.8879698513
 40
0.9450579697
 40
1.0
 40
1.0
 40
1.0
 40
1.0
 10
13.5042382617
 20
13.1003585942
 30
0.0
 10
13.5076542611
 20
13.1056534512
 30
0.0
 10
13.5144657967
 20
13.1164276715
 30
0.0
 10
13.5245009083
 20
13.1329249334
 30
0.0
 10
13.5344395525
 20
13.1498911851
 30
0.0
 10
13.5442391133
 20
13.1672537982
 30
0.0
 10
13.553857638
 20
13.1849385223
 30
0.0
 10
13.5632539418
 20
13.2028696898
 30
0.0
 10
13.5723878047
 20
13.2209705727
 30
0.0
 10
13.5812201411
 20
13.2391637103
 30
0.0
 10
13.5897131697
 20
13.2573712441
 30
0.0
 10
13.597830576
 20
13.2755152528
 30
0.0
 10
13.605537669
 20
13.2935180856
 30
0.0
 10
13.6128015333
 20
13.3113027002
 30
0.0
 10
13.6195911703
 20
13.3287929853
 30
0.0
 10
13.6258776552
 20
13.3459141435
 30
0.0
 10
13.6316341924
 20
13.3625928229
 30
0.0
 10
13.6351746208
 20
13.3735941106
 30
0.0
 10
13.6368478572
 20
13.3790087065
 30
0.0
  0
SPLINE
  5
33B
100
AcDbEntity
  8
0
100
AcDbSpline
 62
7
  6
CONTINUOUS
 70
0
 71
3
 72
32
 73
28
 74
0
 42
0.0000001
 43
0.0000001
 44
0.0000000001
 40
0.0
 40
0.0
 40
0.0
 40
0.0
 40
0.0135915987
 40
0.0279927436
 40
0.0433270459
 40
0.0596948558
 40
0.0771754266
 40
0.0958286973
 40
0.1156997234
 40
0.136820741
 40
0.1592141213
 40
0.1828931725
 40
0.2078644864
 40
0.2341281387
 40
0.2616794807
 40
0.2905089097
 40
0.3206033467
 40
0.3519457808
 40
0.3845165365
 40
0.4182926955
 40
0.4893559711
 40
0.5649094115
 40
0.6446920258
 40
0.7284152246
 40
0.8157664433
 40
0.9064120385
 40
1.0
 40
1.0
 40
1.0
 40
1.0
 10
13.369096929
 20
12.9639906818
 30
0.0
 10
13.369986715
 20
12.9639524621
 30
0.0
 10
13.3718252183
 20
12.9639837953
 30
0.0
 10
13.3746474492
 20
12.9643295983
 30
0.0
 10
13.3776028865
 20
12.9649739234
 30
0.0
 10
13.3806883474
 20
12.9659151811
 30
0.0
 10
13.3839013057
 20
12.9671519983
 30
0.0
 10
13.3872388872
 20
12.9686827731
 30
0.0
 10
13.3906978898
 20
12.9705059405
 30
0.0
 10
13.3942749986
 20
12.9726194911
 30
0.0
 10
13.3979665748
 20
12.9750213199
 30
0.0
 10
13.4017689122
 20
12.9777088751
 30
0.0
 10
13.4056780039
 20
12.9806794406
 30
0.0
 10
13.4096898227
 20
12.9839298604
 30
0.0
 10
13.4138000767
 20
12.9874567879
 30
0.0
 10
13.4180044746
 20
12.9912564646
 30
0.0
 10
13.4222984883
 20
12.9953249276
 30
0.0
 10
13.4266775957
 20
12.9996578316
 30
0.0
 10
13.4311370965
 20
13.004250611
 30
0.0
 10
13.4372885547
 20
13.0108262406
 30
0.0
 10
13.445135228
 20
13.0196697717
 30
0.0
 10
13.4546419624
 20
13.0310609475
 30
0.0
 10
13.4643515684
 20
13.0433556438
 30
0.0
 10
13.4742224194
 20
13.0565014931
 30
0.0
 10
13.4842122343
 20
13.0704426332
 30
0.0
 10
13.4942781577
 20
13.0851195662
 30
0.0
 10
13.500913709
 20
13.0952054868
 30
0.0
 10
13.5042382617
 20
13.1003585942
 30
0.0
  0
SPLINE
  5
33C
100
AcDbEntity
  8
0
100
AcDbSpline
 62
7
  6
CONTINUOUS
 70
0
 71
3
 72
28
 73
24
 74
0
 42
0.0000001
 43
0.0000001
 44
0.0000000001
 40
0.0
 40
0.0
 40
0.0
 40
0.0
 40
0.0188261055
 40
0.0385596037
 40
0.0592126266
 40
0.0807950918
 40
0.1033124816
 40
0.1267648126
 40
0.1511484115
 40
0.176456154
 40
0.2026777579
 40
0.2297998718
 40
0.2866741058
 40
0.3469254519
 40
0.4103587256
 40
0.4767465291
 40
0.5458330371
 40
0.617337607
 40
0.690958327
 40
0.7663752533
 40
0.843253963
 40
0.9212472728
 40
1.0
 40
1.0
 40
1.0
 40
1.0
 10
13.8314240653
 20
13.3893571425
 30
0.0
 10
13.8317953295
 20
13.3876929247
 30
0.0
 10
13.8324606567
 20
13.3842625071
 30
0.0
 10
13.8332174887
 20
13.3789512014
 30
0.0
 10
13.8337524356
 20
13.3733621872
 30
0.0
 10
13.8340622151
 20
13.3675039138
 30
0.0
 10
13.8341437729
 20
13.3613846084
 30
0.0
 10
13.833994603
 20
13.355012946
 30
0.0
 10
13.8336124509
 20
13.348397956
 30
0.0
 10
13.8329956797
 20
13.3415489474
 30
0.0
 10
13.8321430782
 20
13.3344754466
 30
0.0
 10
13.8306673079
 20
13.3246012848
 30
0.0
 10
13.8282102279
 20
13.3117631718
 30
0.0
 10
13.8243689378
 20
13.2958614907
 30
0.0
 10
13.8196032234
 20
13.2793137737
 30
0.0
 10
13.8139361022
 20
13.2622082934
 30
0.0
 10
13.8073992755
 20
13.2446342926
 30
0.0
 10
13.8000330605
 20
13.2266817881
 30
0.0
 10
13.7918857515
 20
13.2084406255
 30
0.0
 10
13.7830129406
 20
13.1899998371
 30
0.0
 10
13.7734766712
 20
13.1714471194
 30
0.0
 10
13.7633446474
 20
13.1528684648
 30
0.0
 10
13.7562641943
 20
13.1405616878
 30
0.0
 10
13.7526416687
 20
13.1344172136
 30
0.0
  0
SPLINE
  5
33D
100
AcDbEntity
  8
0
100
AcDbSpline
 62
7
  6
CONTINUOUS
 70
0
 71
3
 72
29
 73
25
 74
0
 42
0.0000001
 43
0.0000001
 44
0.0000000001
 40
0.0
 40
0.0
 40
0.0
 40
0.0
 40
0.0795882736
 40
0.1584848673
 40
0.2363092531
 40
0.3126857834
 40
0.3872485518
 40
0.4596425847
 40
0.5295267391
 40
0.5965761445
 40
0.6604849963
 40
0.7209695841
 40
0.7498469629
 40
0.7777737579
 40
0.8047224852
 40
0.8306677405
 40
0.8555865598
 40
0.8794586914
 40
0.9022667866
 40
0.9239967587
 40
0.9446380533
 40
0.9641855338
 40
0.9826386729
 40
1.0
 40
1.0
 40
1.0
 40
1.0
 10
13.7526416687
 20
13.1344172136
 30
0.0
 10
13.7557837648
 20
13.1408244781
 30
0.0
 10
13.7619335297
 20
13.1536361904
 30
0.0
 10
13.7707759242
 20
13.1728925582
 30
0.0
 10
13.7791656292
 20
13.1920365282
 30
0.0
 10
13.7870596633
 20
13.2109698728
 30
0.0
 10
13.7944176526
 20
13.2295954442
 30
0.0
 10
13.8012020172
 20
13.2478177292
 30
0.0
 10
13.8073781629
 20
13.2655432794
 30
0.0
 10
13.8129147258
 20
13.2826812858
 30
0.0
 10
13.8177835571
 20
13.2991438614
 30
0.0
 10
13.8213168342
 20
13.3124271083
 30
0.0
 10
13.8237790585
 20
13.3226518471
 30
0.0
 10
13.8254156011
 20
13.3299813952
 30
0.0
 10
13.8268686893
 20
13.3370813776
 30
0.0
 10
13.8281364509
 20
13.343942736
 30
0.0
 10
13.8292173046
 20
13.3505566949
 30
0.0
 10
13.8301099061
 20
13.3569148192
 30
0.0
 10
13.830813122
 20
13.3630090136
 30
0.0
 10
13.831326135
 20
13.3688315068
 30
0.0
 10
13.8316482959
 20
13.3743749611
 30
0.0
 10
13.8317792607
 20
13.3796325207
 30
0.0
 10
13.8317187987
 20
13.3845973228
 30
0.0
 10
13.8315457985
 20
13.3878052172
 30
0.0
 10
13.8314240653
 20
13.3893571425
 30
0.0
  0
SPLINE
  5
33E
100
AcDbEntity
  8
0
100
AcDbSpline
 62
7
  6
CONTINUOUS
 70
0
 71
3
 72
25
 73
21
 74
0
 42
0.0000001
 43
0.0000001
 44
0.0000000001
 40
0.0
 40
0.0
 40
0.0
 40
0.0
 40
0.0958438726
 40
0.1871153963
 40
0.2736236804
 40
0.3551957542
 40
0.4316864085
 40
0.5029795185
 40
0.569008567
 40
0.6297896936
 40
0.6854618315
 40
0.7363480469
 40
0.7830355667
 40
0.826471743
 40
0.847410726
 40
0.8680879717
 40
0.8887357246
 40
0.9095997494
 40
0.9529156322
 40
1.0
 40
1.0
 40
1.0
 40
1.0
 10
13.5450353975
 20
12.896087622
 30
0.0
 10
13.545465214
 20
12.8955815049
 30
0.0
 10
13.5462941327
 20
12.8945846655
 30
0.0
 10
13.5474701262
 20
12.8930976113
 30
0.0
 10
13.548544067
 20
12.8916567501
 30
0.0
 10
13.5495106361
 20
12.8902646611
 30
0.0
 10
13.55036448
 20
12.8889240133
 30
0.0
 10
13.5511000282
 20
12.8876374807
 30
0.0
 10
13.5517114837
 20
12.8864077296
 30
0.0
 10
13.5521929277
 20
12.8852373473
 30
0.0
 10
13.5525381973
 20
12.8841287008
 30
0.0
 10
13.5527406288
 20
12.8830837265
 30
0.0
 10
13.5527927258
 20
12.8821045408
 30
0.0
 10
13.552701706
 20
12.8813354958
 30
0.0
 10
13.5525441453
 20
12.8807667259
 30
0.0
 10
13.5523855007
 20
12.8803646858
 30
0.0
 10
13.5521841637
 20
12.8799827824
 30
0.0
 10
13.5518541346
 20
12.8794952295
 30
0.0
 10
13.5513185372
 20
12.8789325252
 30
0.0
 10
13.5508029916
 20
12.8785702178
 30
0.0
 10
13.550522332
 20
12.8784039797
 30
0.0
  0
SPLINE
  5
33F
100
AcDbEntity
  8
0
100
AcDbSpline
 62
7
  6
CONTINUOUS
 70
0
 71
3
 72
14
 73
10
 74
0
 42
0.0000001
 43
0.0000001
 44
0.0000000001
 40
0.0
 40
0.0
 40
0.0
 40
0.0
 40
0.1229990436
 40
0.2466734336
 40
0.3709765119
 40
0.4958539723
 40
0.6212503386
 40
0.7471106488
 40
1.0
 40
1.0
 40
1.0
 40
1.0
 10
13.6450950277
 20
12.9738349944
 30
0.0
 10
13.6415512884
 20
12.9700119753
 30
0.0
 10
13.6342519834
 20
12.962521128
 30
0.0
 10
13.6227655246
 20
12.9517783174
 30
0.0
 10
13.6107699616
 20
12.9414850451
 30
0.0
 10
13.598324306
 20
12.9316242617
 30
0.0
 10
13.5854830006
 20
12.9221735398
 30
0.0
 10
13.5678738114
 20
12.9100679001
 30
0.0
 10
13.5542540436
 20
12.9015544248
 30
0.0
 10
13.5450353981
 20
12.8960876217
 30
0.0
  0
SPLINE
  5
340
100
AcDbEntity
  8
0
100
AcDbSpline
 62
7
  6
CONTINUOUS
 70
0
 71
3
 72
18
 73
14
 74
0
 42
0.0000001
 43
0.0000001
 44
0.0000000001
 40
0.0
 40
0.0
 40
0.0
 40
0.0
 40
0.1238413705
 40
0.2478163197
 40
0.3719973127
 40
0.4964776957
 40
0.6213735414
 40
0.6840278439
 40
0.7468384422
 40
0.8098235748
 40
0.8730008275
 40
0.9363893051
 40
1.0
 40
1.0
 40
1.0
 40
1.0
 10
13.7235360395
 20
13.1727663067
 30
0.0
 10
13.7231114485
 20
13.1662631877
 30
0.0
 10
13.7220216646
 20
13.1532639029
 30
0.0
 10
13.7195654611
 20
13.133836464
 30
0.0
 10
13.7161796318
 20
13.1145129002
 30
0.0
 10
13.7117494456
 20
13.095350279
 30
0.0
 10
13.7070966522
 20
13.0795906618
 30
0.0
 10
13.7027488785
 20
13.0671516399
 30
0.0
 10
13.6991590587
 20
13.0579050789
 30
0.0
 10
13.6952351147
 20
13.0487652964
 30
0.0
 10
13.6909703691
 20
13.0397456447
 30
0.0
 10
13.6863611945
 20
13.0308600294
 30
0.0
 10
13.6830640508
 20
13.025044719
 30
0.0
 10
13.6813589242
 20
13.0221641389
 30
0.0
  0
SPLINE
  5
341
100
AcDbEntity
  8
0
100
AcDbSpline
 62
7
  6
CONTINUOUS
 70
0
 71
3
 72
30
 73
26
 74
0
 42
0.0000001
 43
0.0000001
 44
0.0000000001
 40
0.0
 40
0.0
 40
0.0
 40
0.0
 40
0.0590403536
 40
0.0885396068
 40
0.1180325658
 40
0.1770308816
 40
0.2361366643
 40
0.2657749519
 40
0.2954925005
 40
0.325310952
 40
0.3552532854
 40
0.3853430748
 40
0.4156039553
 40
0.4460585594
 40
0.476727373
 40
0.5076280579
 40
0.5387747056
 40
0.570177216
 40
0.6018412277
 40
0.6659450625
 40
0.7310678629
 40
0.7971351136
 40
0.8640490316
 40
0.9317043349
 40
1.0
 40
1.0
 40
1.0
 40
1.0
 10
13.7235362028
 20
13.1727662239
 30
0.0
 10
13.7282443175
 20
13.1766937497
 30
0.0
 10
13.7351760884
 20
13.1827416618
 30
0.0
 10
13.7440966412
 20
13.1911498544
 30
0.0
 10
13.7527799912
 20
13.1997968374
 30
0.0
 10
13.7631612117
 20
13.2110876008
 30
0.0
 10
13.7727777357
 20
13.2230606246
 30
0.0
 10
13.7799343987
 20
13.2330699055
 30
0.0
 10
13.7850230036
 20
13.2408101417
 30
0.0
 10
13.7898076876
 20
13.2487788314
 30
0.0
 10
13.7942698388
 20
13.2569767825
 30
0.0
 10
13.7983922362
 20
13.2654020663
 30
0.0
 10
13.80215962
 20
13.2740501372
 30
0.0
 10
13.8055592009
 20
13.282913775
 30
0.0
 10
13.8085815674
 20
13.2919830706
 30
0.0
 10
13.811220912
 20
13.3012458277
 30
0.0
 10
13.8134751297
 20
13.3106879617
 30
0.0
 10
13.81534597
 20
13.3202941819
 30
0.0
 10
13.8173448941
 20
13.3333514442
 30
0.0
 10
13.818909093
 20
13.3500029941
 30
0.0
 10
13.8194047385
 20
13.3702914682
 30
0.0
 10
13.8186591734
 20
13.3908616736
 30
0.0
 10
13.8168129599
 20
13.4116235999
 30
0.0
 10
13.8140041184
 20
13.4325085268
 30
0.0
 10
13.8115843624
 20
13.4464213291
 30
0.0
 10
13.8102548799
 20
13.4533879672
 30
0.0
  0
SPLINE
  5
342
100
AcDbEntity
  8
0
100
AcDbSpline
 62
7
  6
CONTINUOUS
 70
0
 71
3
 72
32
 73
28
 74
0
 42
0.0000001
 43
0.0000001
 44
0.0000000001
 40
0.0
 40
0.0
 40
0.0
 40
0.0
 40
0.0639175714
 40
0.0957782549
 40
0.1275710672
 40
0.1909707123
 40
0.2225878366
 40
0.2541506107
 40
0.285658133
 40
0.3171105937
 40
0.379866262
 40
0.4111792566
 40
0.442450372
 40
0.47367871
 40
0.5048641435
 40
0.5671203463
 40
0.5982013443
 40
0.6292536505
 40
0.6602766356
 40
0.6912700504
 40
0.7531724329
 40
0.8149786341
 40
0.8458520982
 40
0.8767097835
 40
0.9075541411
 40
0.9383851787
 40
1.0
 40
1.0
 40
1.0
 40
1.0
 10
13.6368479358
 20
13.37900898
 30
0.0
 10
13.6377632484
 20
13.3819709311
 30
0.0
 10
13.6391852331
 20
13.38639404
 30
0.0
 10
13.6411913867
 20
13.3922474389
 30
0.0
 10
13.6432678219
 20
13.3980496207
 30
0.0
 10
13.6454517841
 20
13.4038001497
 30
0.0
 10
13.6477297412
 20
13.4095014089
 30
0.0
 10
13.6494841266
 20
13.4137458017
 30
0.0
 10
13.6512877471
 20
13.4179608317
 30
0.0
 10
13.6537592745
 20
13.4235351371
 30
0.0
 10
13.6563309654
 20
13.4290541079
 30
0.0
 10
13.6589877104
 20
13.4345222161
 30
0.0
 10
13.6610210262
 20
13.4385928685
 30
0.0
 10
13.6630986991
 20
13.4426341154
 30
0.0
 10
13.6659298273
 20
13.4479773358
 30
0.0
 10
13.668853799
 20
13.4532626591
 30
0.0
 10
13.6718513452
 20
13.4584985555
 30
0.0
 10
13.6741324765
 20
13.4623988333
 30
0.0
 10
13.6764505117
 20
13.4662723493
 30
0.0
 10
13.6795917381
 20
13.4713966372
 30
0.0
 10
13.6836198606
 20
13.477727892
 30
0.0
 10
13.6877713363
 20
13.4839717678
 30
0.0
 10
13.6911540117
 20
13.4889175189
 30
0.0
 10
13.6937176924
 20
13.4926038695
 30
0.0
 10
13.6963049554
 20
13.4962711857
 30
0.0
 10
13.6997850311
 20
13.5011341181
 30
0.0
 10
13.7024385569
 20
13.5047488966
 30
0.0
 10
13.7042316661
 20
13.5071396455
 30
0.0
  0
SPLINE
  5
343
100
AcDbEntity
  8
0
100
AcDbSpline
 62
7
  6
CONTINUOUS
 70
0
 71
3
 72
27
 73
23
 74
0
 42
0.0000001
 43
0.0000001
 44
0.0000000001
 40
0.0
 40
0.0
 40
0.0
 40
0.0
 40
0.0149446119
 40
0.0309504202
 40
0.0480398827
 40
0.0662302895
 40
0.0855344221
 40
0.1059618223
 40
0.1275173892
 40
0.1502023303
 40
0.1989513482
 40
0.2521692909
 40
0.3097777123
 40
0.3716665581
 40
0.4376979893
 40
0.5077094211
 40
0.5815170622
 40
0.6589197293
 40
0.7397014126
 40
0.8236324843
 40
0.9104825293
 40
1.0
 40
1.0
 40
1.0
 40
1.0
 10
13.550522332
 20
12.8784039797
 30
0.0
 10
13.551133711
 20
12.8786851729
 30
0.0
 10
13.5523849924
 20
12.8793002409
 30
0.0
 10
13.5542837374
 20
12.8803377986
 30
0.0
 10
13.5562673715
 20
12.881521268
 30
0.0
 10
13.5583353998
 20
12.8828503079
 30
0.0
 10
13.5604874116
 20
12.8843244815
 30
0.0
 10
13.5627228138
 20
12.8859432817
 30
0.0
 10
13.5650409198
 20
12.8877060116
 30
0.0
 10
13.5683201086
 20
12.8903102565
 30
0.0
 10
13.5726134002
 20
12.8939278972
 30
0.0
 10
13.5779619856
 20
12.8987276757
 30
0.0
 10
13.5836118912
 20
12.9040733371
 30
0.0
 10
13.5895493099
 20
12.9099512716
 30
0.0
 10
13.5957584961
 20
12.9163459183
 30
0.0
 10
13.6022218788
 20
12.9232396862
 30
0.0
 10
13.6089202741
 20
12.9306132358
 30
0.0
 10
13.6158330941
 20
12.9384456963
 30
0.0
 10
13.6229385201
 20
12.9467148454
 30
0.0
 10
13.6302139755
 20
12.9553976019
 30
0.0
 10
13.6376358353
 20
12.9644697891
 30
0.0
 10
13.6425949979
 20
12.9706730303
 30
0.0
 10
13.6450950277
 20
12.9738349944
 30
0.0
  0
SPLINE
  5
344
100
AcDbEntity
  8
0
100
AcDbSpline
 62
7
  6
CONTINUOUS
 70
0
 71
3
 72
35
 73
31
 74
0
 42
0.0000001
 43
0.0000001
 44
0.0000000001
 40
0.0
 40
0.0
 40
0.0
 40
0.0
 40
0.023178937
 40
0.0458705533
 40
0.0682108261
 40
0.0903066494
 40
0.1122169913
 40
0.1339896069
 40
0.1556992359
 40
0.1774500746
 40
0.2215672699
 40
0.2442690928
 40
0.2675568211
 40
0.2915067851
 40
0.3161738574
 40
0.3416731633
 40
0.3681847051
 40
0.3959032243
 40
0.4249529555
 40
0.4553534756
 40
0.487100287
 40
0.5548870182
 40
0.5912327539
 40
0.6293635353
 40
0.6692627998
 40
0.7108894467
 40
0.7994069357
 40
0.8465437373
 40
0.8957314693
 40
1.0
 40
1.0
 40
1.0
 40
1.0
 10
13.3472304819
 20
12.9537822254
 30
0.0
 10
13.3472411245
 20
12.9539904332
 30
0.0
 10
13.3472759793
 20
12.9544018876
 30
0.0
 10
13.347366387
 20
12.9550090656
 30
0.0
 10
13.347489849
 20
12.9556003777
 30
0.0
 10
13.3476407365
 20
12.9561779647
 30
0.0
 10
13.347819094
 20
12.9567423902
 30
0.0
 10
13.3480295285
 20
12.957292031
 30
0.0
 10
13.3482756957
 20
12.9578252024
 30
0.0
 10
13.3486577817
 20
12.9585146535
 30
0.0
 10
13.3491248723
 20
12.9591649531
 30
0.0
 10
13.3496744034
 20
12.9597615116
 30
0.0
 10
13.3501339785
 20
12.9601918654
 30
0.0
 10
13.3506345739
 20
12.960601967
 30
0.0
 10
13.3511740517
 20
12.960994181
 30
0.0
 10
13.3517545945
 20
12.9613672191
 30
0.0
 10
13.3523804211
 20
12.9617182636
 30
0.0
 10
13.3530552456
 20
12.962044387
 30
0.0
 10
13.3537797601
 20
12.9623449662
 30
0.0
 10
13.3545521014
 20
12.9626220672
 30
0.0
 10
13.3556680665
 20
12.9629699271
 30
0.0
 10
13.3568556675
 20
12.9632643686
 30
0.0
 10
13.3581128691
 20
12.9635036067
 30
0.0
 10
13.3591298423
 20
12.9636601044
 30
0.0
 10
13.3601982239
 20
12.9637910886
 30
0.0
 10
13.3617208957
 20
12.9639361557
 30
0.0
 10
13.3633134614
 20
12.9640285081
 30
0.0
 10
13.3649756344
 20
12.9640679085
 30
0.0
 10
13.3667799643
 20
12.9640702
 30
0.0
 10
13.3681600138
 20
12.9640309314
 30
0.0
 10
13.3690969777
 20
12.9639906782
 30
0.0
  0
SPLINE
  5
345
100
AcDbEntity
  8
0
100
AcDbSpline
 62
7
  6
CONTINUOUS
 70
0
 71
3
 72
11
 73
7
 74
0
 42
0.0000001
 43
0.0000001
 44
0.0000000001
 40
0.0
 40
0.0
 40
0.0
 40
0.0
 40
0.2460362835
 40
0.496598177
 40
0.7488000874
 40
1.0
 40
1.0
 40
1.0
 40
1.0
 10
13.6813589242
 20
13.0221641389
 30
0.0
 10
13.6876939664
 20
13.0310472469
 30
0.0
 10
13.7002524234
 20
13.0491408049
 30
0.0
 10
13.7184745398
 20
13.0769050108
 30
0.0
 10
13.7360499877
 20
13.1053530313
 30
0.0
 10
13.7472226497
 20
13.1246844965
 30
0.0
 10
13.7526416687
 20
13.1344172136
 30
0.0
  0
SPLINE
  5
346
100
AcDbEntity
  8
0
100
AcDbSpline
 62
7
  6
CONTINUOUS
 70
0
 71
3
 72
24
 73
20
 74
0
 42
0.0000001
 43
0.0000001
 44
0.0000000001
 40
0.0
 40
0.0
 40
0.0
 40
0.0
 40
0.042217238
 40
0.0644568683
 40
0.0874926796
 40
0.1358310144
 40
0.1869851071
 40
0.2410640376
 40
0.2980398062
 40
0.357614073
 40
0.4198691894
 40
0.484804547
 40
0.5520091212
 40
0.6214626645
 40
0.6933144793
 40
0.7673702626
 40
0.8433081919
 40
0.9207918597
 40
1.0
 40
1.0
 40
1.0
 40
1.0
 10
13.3690969777
 20
12.9639906782
 30
0.0
 10
13.3701015472
 20
12.9639475189
 30
0.0
 10
13.3716343851
 20
12.96385741
 30
0.0
 10
13.3737115108
 20
12.9636897948
 30
0.0
 10
13.3759311452
 20
12.9634782508
 30
0.0
 10
13.3788305986
 20
12.9631449258
 30
0.0
 10
13.3824554975
 20
12.9626550315
 30
0.0
 10
13.3862733905
 20
12.9620624957
 30
0.0
 10
13.3902778314
 20
12.9613689475
 30
0.0
 10
13.3944640846
 20
12.9605864684
 30
0.0
 10
13.3988252887
 20
12.9597102688
 30
0.0
 10
13.4033526384
 20
12.9587405595
 30
0.0
 10
13.4080382913
 20
12.9576924433
 30
0.0
 10
13.4128748573
 20
12.9565651786
 30
0.0
 10
13.4178592
 20
12.9553541045
 30
0.0
 10
13.4229837223
 20
12.9540666159
 30
0.0
 10
13.4282296909
 20
12.9527125657
 30
0.0
 10
13.4335880538
 20
12.9513032215
 30
0.0
 10
13.4371921876
 20
12.9503347463
 30
0.0
 10
13.4390124466
 20
12.949839167
 30
0.0
  0
SPLINE
  5
347
100
AcDbEntity
  8
0
100
AcDbSpline
 62
7
  6
CONTINUOUS
 70
0
 71
3
 72
32
 73
28
 74
0
 42
0.0000001
 43
0.0000001
 44
0.0000000001
 40
0.0
 40
0.0
 40
0.0
 40
0.0
 40
0.0618796275
 40
0.0928411402
 40
0.1238144218
 40
0.1547991477
 40
0.1857971222
 40
0.2478415752
 40
0.309961227
 40
0.3410526238
 40
0.3721655869
 40
0.4032995834
 40
0.4344537654
 40
0.4968260868
 40
0.5280503815
 40
0.5593027919
 40
0.5905828527
 40
0.6218895144
 40
0.6845827218
 40
0.7159745956
 40
0.7473994886
 40
0.7788572047
 40
0.8103467762
 40
0.8734204398
 40
0.9050098956
 40
0.9366374147
 40
1.0
 40
1.0
 40
1.0
 40
1.0
 10
13.4390124465
 20
12.949839167
 30
0.0
 10
13.4399156003
 20
12.9531139932
 30
0.0
 10
13.4413148668
 20
12.9580152715
 30
0.0
 10
13.4432499234
 20
12.9645312239
 30
0.0
 10
13.4447309716
 20
12.9694126419
 30
0.0
 10
13.4462413938
 20
12.9742871492
 30
0.0
 10
13.4483010265
 20
12.9807770873
 30
0.0
 10
13.4509708512
 20
12.9888664165
 30
0.0
 10
13.453784759
 20
12.9969123518
 30
0.0
 10
13.4561321052
 20
13.0033212658
 30
0.0
 10
13.4579393652
 20
13.0081161666
 30
0.0
 10
13.4597901101
 20
13.0128981419
 30
0.0
 10
13.4623121011
 20
13.0192601834
 30
0.0
 10
13.4649177916
 20
13.025594269
 30
0.0
 10
13.4676259112
 20
13.0318906915
 30
0.0
 10
13.4697110156
 20
13.0365966251
 30
0.0
 10
13.4718461296
 20
13.0412850417
 30
0.0
 10
13.4747571243
 20
13.0475163385
 30
0.0
 10
13.4777599819
 20
13.0537112875
 30
0.0
 10
13.4808679121
 20
13.0598609578
 30
0.0
 10
13.4832555282
 20
13.0644529408
 30
0.0
 10
13.4856959899
 20
13.0690231306
 30
0.0
 10
13.4890189329
 20
13.0750912814
 30
0.0
 10
13.4924380798
 20
13.0811147143
 30
0.0
 10
13.4959641376
 20
13.0870844126
 30
0.0
 10
13.4995701874
 20
13.093024678
 30
0.0
 10
13.5023525918
 20
13.0974357867
 30
0.0
 10
13.5042383647
 20
13.1003587624
 30
0.0
  0
SPLINE
  5
348
100
AcDbEntity
  8
0
100
AcDbSpline
 62
7
  6
CONTINUOUS
 70
0
 71
3
 72
31
 73
27
 74
0
 42
0.0000001
 43
0.0000001
 44
0.0000000001
 40
0.0
 40
0.0
 40
0.0
 40
0.0
 40
0.0614696945
 40
0.0922597355
 40
0.1230881158
 40
0.1848560607
 40
0.2467640255
 40
0.277772138
 40
0.3088182174
 40
0.3710200379
 40
0.4021720326
 40
0.4333567516
 40
0.46457575
 40
0.4958308976
 40
0.5584458147
 40
0.589800004
 40
0.6211821729
 40
0.6525937981
 40
0.6840369622
 40
0.7470205105
 40
0.8101229148
 40
0.8417135587
 40
0.8733275212
 40
0.9049623057
 40
0.9366175406
 40
1.0
 40
1.0
 40
1.0
 40
1.0
 10
13.5042383647
 20
13.1003587624
 30
0.0
 10
13.5061283067
 20
13.103288193
 30
0.0
 10
13.5090101029
 20
13.1076561284
 30
0.0
 10
13.5129529353
 20
13.1134169669
 30
0.0
 10
13.5169738026
 20
13.119144334
 30
0.0
 10
13.5221297827
 20
13.1262302091
 30
0.0
 10
13.5274309746
 20
13.1332208354
 30
0.0
 10
13.5317673726
 20
13.1387546852
 30
0.0
 10
13.5361752645
 20
13.1442531249
 30
0.0
 10
13.5406752935
 20
13.1496875568
 30
0.0
 10
13.5452534011
 20
13.1550660761
 30
0.0
 10
13.5487294445
 20
13.1590748877
 30
0.0
 10
13.5522478822
 20
13.1630543632
 30
0.0
 10
13.557001076
 20
13.1683209953
 30
0.0
 10
13.5618374354
 20
13.173522308
 30
0.0
 10
13.5667400317
 20
13.178670609
 30
0.0
 10
13.5704512289
 20
13.1825095914
 30
0.0
 10
13.5741970394
 20
13.1863218914
 30
0.0
 10
13.579242509
 20
13.1913694518
 30
0.0
 10
13.5856430555
 20
13.1976031615
 30
0.0
 10
13.5921486672
 20
13.2037391424
 30
0.0
 10
13.5974104686
 20
13.2085999627
 30
0.0
 10
13.6013837332
 20
13.2122254164
 30
0.0
 10
13.6053788911
 20
13.2158321951
 30
0.0
 10
13.6107368045
 20
13.2206179987
 30
0.0
 10
13.6147907081
 20
13.2241704662
 30
0.0
 10
13.6175130887
 20
13.2265178517
 30
0.0
  0
SPLINE
  5
349
100
AcDbEntity
  8
0
100
AcDbSpline
 62
7
  6
CONTINUOUS
 70
0
 71
3
 72
31
 73
27
 74
0
 42
0.0000001
 43
0.0000001
 44
0.0000000001
 40
0.0
 40
0.0
 40
0.0
 40
0.0
 40
0.0642893106
 40
0.0963567781
 40
0.1283811622
 40
0.1922947094
 40
0.255995255
 40
0.2877552312
 40
0.3194499794
 40
0.3510772024
 40
0.3826396887
 40
0.4141416758
 40
0.4455865342
 40
0.5082894492
 40
0.5395364009
 40
0.5707110255
 40
0.601817211
 40
0.6328585879
 40
0.6947431057
 40
0.7255793505
 40
0.7563423579
 40
0.8176612731
 40
0.8787164954
 40
0.9091406389
 40
0.9394938149
 40
1.0
 40
1.0
 40
1.0
 40
1.0
 10
13.6175129886
 20
13.2265179024
 30
0.0
 10
13.6174831536
 20
13.2298250919
 30
0.0
 10
13.6174797869
 20
13.2347823495
 30
0.0
 10
13.6175409207
 20
13.2413865736
 30
0.0
 10
13.6176383727
 20
13.2479710389
 30
0.0
 10
13.6178286127
 20
13.2561815608
 30
0.0
 10
13.6181377844
 20
13.2643750145
 30
0.0
 10
13.618467678
 20
13.2709081875
 30
0.0
 10
13.6187579205
 20
13.2757910737
 30
0.0
 10
13.6190939014
 20
13.280660842
 30
0.0
 10
13.6194735192
 20
13.2855174469
 30
0.0
 10
13.6198943654
 20
13.2903612356
 30
0.0
 10
13.6205055304
 20
13.2967962891
 30
0.0
 10
13.6211971005
 20
13.3032104428
 30
0.0
 10
13.6219891535
 20
13.309598594
 30
0.0
 10
13.6226336533
 20
13.3143668064
 30
0.0
 10
13.6233262149
 20
13.3191175825
 30
0.0
 10
13.6243091314
 20
13.3254222388
 30
0.0
 10
13.6253822301
 20
13.3316986047
 30
0.0
 10
13.6265607718
 20
13.3379410053
 30
0.0
 10
13.6278089369
 20
13.3441401877
 30
0.0
 10
13.6294976444
 20
13.3518357997
 30
0.0
 10
13.6313488679
 20
13.3594760782
 30
0.0
 10
13.6329382852
 20
13.3655389742
 30
0.0
 10
13.6345997015
 20
13.3715532004
 30
0.0
 10
13.6359289179
 20
13.3760350383
 30
0.0
 10
13.6368479358
 20
13.37900898
 30
0.0
  0
SPLINE
  5
34A
100
AcDbEntity
  8
0
100
AcDbSpline
 62
7
  6
CONTINUOUS
 70
0
 71
3
 72
11
 73
7
 74
0
 42
0.0000001
 43
0.0000001
 44
0.0000000001
 40
0.0
 40
0.0
 40
0.0
 40
0.0
 40
0.2648212712
 40
0.5197038291
 40
0.7647132901
 40
1.0
 40
1.0
 40
1.0
 40
1.0
 10
13.8314240653
 20
13.3893571425
 30
0.0
 10
13.8312443775
 20
13.3909014539
 30
0.0
 10
13.8308372049
 20
13.3939261351
 30
0.0
 10
13.8300633881
 20
13.3983497172
 30
0.0
 10
13.8291395174
 20
13.4025671704
 30
0.0
 10
13.8284099735
 20
13.4052922438
 30
0.0
 10
13.8280189642
 20
13.4066170844
 30
0.0
  0
SPLINE
  5
34B
100
AcDbEntity
  8
0
100
AcDbSpline
 62
7
  6
CONTINUOUS
 70
0
 71
3
 72
34
 73
30
 74
0
 42
0.0000001
 43
0.0000001
 44
0.0000000001
 40
0.0
 40
0.0
 40
0.0
 40
0.0
 40
0.0164035453
 40
0.0322067036
 40
0.0476637912
 40
0.0630507229
 40
0.0786486138
 40
0.0947262121
 40
0.1115267368
 40
0.129261177
 40
0.1481051844
 40
0.1682015856
 40
0.1896627622
 40
0.2125761724
 40
0.2370078116
 40
0.2630061599
 40
0.2906056562
 40
0.31982819
 40
0.3506865841
 40
0.3831844015
 40
0.4173189402
 40
0.4530807916
 40
0.4904555463
 40
0.5294241146
 40
0.6120411597
 40
0.7007075907
 40
0.7951422239
 40
0.8950274659
 40
1.0
 40
1.0
 40
1.0
 40
1.0
 10
13.5410205339
 20
13.46658347
 30
0.0
 10
13.5416176272
 20
13.4665578182
 30
0.0
 10
13.5427885899
 20
13.4664402291
 30
0.0
 10
13.5444849273
 20
13.4660462947
 30
0.0
 10
13.5460779045
 20
13.4654383164
 30
0.0
 10
13.5475636718
 20
13.4646171478
 30
0.0
 10
13.5489392976
 20
13.4635846833
 30
0.0
 10
13.5502026302
 20
13.4623435612
 30
0.0
 10
13.551352533
 20
13.4608966338
 30
0.0
 10
13.5523883228
 20
13.4592464218
 30
0.0
 10
13.5533098789
 20
13.4573953068
 30
0.0
 10
13.5541168536
 20
13.4553453428
 30
0.0
 10
13.5548090905
 20
13.4530986646
 30
0.0
 10
13.5553861769
 20
13.4506574454
 30
0.0
 10
13.5558477867
 20
13.4480240762
 30
0.0
 10
13.5561935971
 20
13.4452011518
 30
0.0
 10
13.556423266
 20
13.4421915077
 30
0.0
 10
13.556536669
 20
13.4389982022
 30
0.0
 10
13.5565335992
 20
13.4356245381
 30
0.0
 10
13.5564141474
 20
13.4320740145
 30
0.0
 10
13.5561783536
 20
13.4283503652
 30
0.0
 10
13.5558264953
 20
13.4244575086
 30
0.0
 10
13.5553589333
 20
13.4203995506
 30
0.0
 10
13.5545662018
 20
13.414662112
 30
0.0
 10
13.5532774688
 20
13.4071088425
 30
0.0
 10
13.5513100307
 20
13.3976280192
 30
0.0
 10
13.5489005469
 20
13.387601679
 30
0.0
 10
13.5460590861
 20
13.3770727909
 30
0.0
 10
13.5439347371
 20
13.369916875
 30
0.0
 10
13.5428055483
 20
13.3662628188
 30
0.0
  0
SPLINE
  5
34C
100
AcDbEntity
  8
0
100
AcDbSpline
 62
7
  6
CONTINUOUS
 70
0
 71
3
 72
23
 73
19
 74
0
 42
0.0000001
 43
0.0000001
 44
0.0000000001
 40
0.0
 40
0.0
 40
0.0
 40
0.0
 40
0.0549414749
 40
0.1120305015
 40
0.1710433768
 40
0.2317506856
 40
0.2939112209
 40
0.3572773522
 40
0.4215948367
 40
0.4866047467
 40
0.552044629
 40
0.6176498768
 40
0.6831551007
 40
0.7482952533
 40
0.8128075882
 40
0.876431231
 40
0.9389129478
 40
1.0
 40
1.0
 40
1.0
 40
1.0
 10
13.5428055483
 20
13.3662628188
 30
0.0
 10
13.541625792
 20
13.362445126
 30
0.0
 10
13.5391294876
 20
13.3546882991
 30
0.0
 10
13.5350706729
 20
13.3429284719
 30
0.0
 10
13.5306381576
 20
13.3308566193
 30
0.0
 10
13.5258509244
 20
13.3185245597
 30
0.0
 10
13.520729299
 20
13.3059849462
 30
0.0
 10
13.5152951725
 20
13.2932914807
 30
0.0
 10
13.5095717376
 20
13.2804984712
 30
0.0
 10
13.5035834595
 20
13.2676606738
 30
0.0
 10
13.4973559406
 20
13.2548330306
 30
0.0
 10
13.4909158219
 20
13.2420704359
 30
0.0
 10
13.4842906631
 20
13.2294275126
 30
0.0
 10
13.4775088197
 20
13.2169583368
 30
0.0
 10
13.4705993404
 20
13.2047163133
 30
0.0
 10
13.4635917739
 20
13.1927536765
 30
0.0
 10
13.4565161956
 20
13.181121779
 30
0.0
 10
13.4517135009
 20
13.1735250476
 30
0.0
 10
13.4493049653
 20
13.1697917811
 30
0.0
  0
SPLINE
  5
34D
100
AcDbEntity
  8
0
100
AcDbSpline
 62
7
  6
CONTINUOUS
 70
0
 71
3
 72
31
 73
27
 74
0
 42
0.0000001
 43
0.0000001
 44
0.0000000001
 40
0.0
 40
0.0
 40
0.0
 40
0.0
 40
0.09358724
 40
0.184234666
 40
0.2715853409
 40
0.3553091049
 40
0.4350918689
 40
0.5106456106
 40
0.5817091341
 40
0.6480533857
 40
0.6793958681
 40
0.7094904005
 40
0.7383198994
 40
0.7658712669
 40
0.7921350575
 40
0.8171063233
 40
0.8407855517
 40
0.8631788138
 40
0.8843000462
 40
0.9041710358
 40
0.9228244085
 40
0.9403047907
 40
0.9566727145
 40
0.9720074359
 40
0.9864087808
 40
1.0
 40
1.0
 40
1.0
 40
1.0
 10
13.4493049653
 20
13.1697917811
 30
0.0
 10
13.4469609113
 20
13.1661584621
 30
0.0
 10
13.4422822884
 20
13.1590470549
 30
0.0
 10
13.4351850133
 20
13.1486986302
 30
0.0
 10
13.4281413422
 20
13.1388689699
 30
0.0
 10
13.4211816121
 20
13.1296000902
 30
0.0
 10
13.414335546
 20
13.1209313579
 30
0.0
 10
13.4076325082
 20
13.1128995461
 30
0.0
 10
13.4011011967
 20
13.1055387743
 30
0.0
 10
13.3957275838
 20
13.0998871759
 30
0.0
 10
13.3915307776
 20
13.0957345397
 30
0.0
 10
13.3885031364
 20
13.0928659514
 30
0.0
 10
13.3855387028
 20
13.0901868707
 30
0.0
 10
13.3826406323
 20
13.0877001117
 30
0.0
 10
13.3798119909
 20
13.0854082915
 30
0.0
 10
13.3770557442
 20
13.0833138264
 30
0.0
 10
13.3743748174
 20
13.0814188566
 30
0.0
 10
13.3717719314
 20
13.0797254071
 30
0.0
 10
13.3692498058
 20
13.0782351499
 30
0.0
 10
13.3668109009
 20
13.0769497123
 30
0.0
 10
13.3644576639
 20
13.0758703638
 30
0.0
 10
13.3621922681
 20
13.074998323
 30
0.0
 10
13.3600167622
 20
13.0743346484
 30
0.0
 10
13.3579329069
 20
13.0738803644
 30
0.0
 10
13.3559430013
 20
13.0736365498
 30
0.0
 10
13.3546467196
 20
13.0736144429
 30
0.0
 10
13.3540193679
 20
13.0736413947
 30
0.0
  0
SPLINE
  5
34E
100
AcDbEntity
  8
0
100
AcDbSpline
 62
7
  6
CONTINUOUS
 70
0
 71
3
 72
32
 73
28
 74
0
 42
0.0000001
 43
0.0000001
 44
0.0000000001
 40
0.0
 40
0.0
 40
0.0
 40
0.0
 40
0.0187103402
 40
0.0368127354
 40
0.0545040522
 40
0.071997735
 40
0.0895170704
 40
0.1072843833
 40
0.125511798
 40
0.144394149
 40
0.1641054098
 40
0.1847960668
 40
0.2065937234
 40
0.2296049148
 40
0.2539161718
 40
0.2795977996
 40
0.3067057277
 40
0.335282966
 40
0.3653629255
 40
0.396969641
 40
0.4648145225
 40
0.5388869425
 40
0.6191662194
 40
0.705569464
 40
0.797963932
 40
0.8961766509
 40
1.0
 40
1.0
 40
1.0
 40
1.0
 10
13.3540193679
 20
13.0736413947
 30
0.0
 10
13.3535183483
 20
13.073662919
 30
0.0
 10
13.3525337657
 20
13.0737526438
 30
0.0
 10
13.3510983073
 20
13.0740383463
 30
0.0
 10
13.3497344478
 20
13.0744727403
 30
0.0
 10
13.3484442168
 20
13.0750556928
 30
0.0
 10
13.3472291889
 20
13.0757864359
 30
0.0
 10
13.3460908071
 20
13.0766640008
 30
0.0
 10
13.3450301418
 20
13.0776870716
 30
0.0
 10
13.3440478955
 20
13.0788542315
 30
0.0
 10
13.3431446605
 20
13.0801642024
 30
0.0
 10
13.3423207196
 20
13.0816156537
 30
0.0
 10
13.3415763332
 20
13.0832073681
 30
0.0
 10
13.3409118326
 20
13.0849381594
 30
0.0
 10
13.3403273959
 20
13.0868067502
 30
0.0
 10
13.3398233335
 20
13.0888118429
 30
0.0
 10
13.3393999284
 20
13.0909520327
 30
0.0
 10
13.3390573583
 20
13.0932257996
 30
0.0
 10
13.3387958644
 20
13.095631548
 30
0.0
 10
13.3385498164
 20
13.0990952468
 30
0.0
 10
13.3384605728
 20
13.1037485897
 30
0.0
 10
13.3386796324
 20
13.1097023976
 30
0.0
 10
13.3392223541
 20
13.1161344544
 30
0.0
 10
13.3400872423
 20
13.1230259094
 30
0.0
 10
13.3412719851
 20
13.1303567016
 30
0.0
 10
13.342773249
 20
13.1381051352
 30
0.0
 10
13.343950552
 20
13.1433914016
 30
0.0
 10
13.3445884639
 20
13.1461000106
 30
0.0
  0
SPLINE
  5
34F
100
AcDbEntity
  8
0
100
AcDbSpline
 62
7
  6
CONTINUOUS
 70
0
 71
3
 72
23
 73
19
 74
0
 42
0.0000001
 43
0.0000001
 44
0.0000000001
 40
0.0
 40
0.0
 40
0.0
 40
0.0
 40
0.0920188111
 40
0.1803328699
 40
0.2648308496
 40
0.3454137573
 40
0.4219968667
 40
0.4945103555
 40
0.56290373
 40
0.6271463011
 40
0.6872340981
 40
0.7431925808
 40
0.795086381
 40
0.8430269253
 40
0.8871862109
 40
0.9278159991
 40
0.9652662407
 40
1.0
 40
1.0
 40
1.0
 40
1.0
 10
13.4866613135
 20
13.4263760976
 30
0.0
 10
13.4880406096
 20
13.4279909258
 30
0.0
 10
13.4907731567
 20
13.431130561
 30
0.0
 10
13.4948797497
 20
13.4356580791
 30
0.0
 10
13.4989047803
 20
13.4399014045
 30
0.0
 10
13.5028413393
 20
13.44385329
 30
0.0
 10
13.506682666
 20
13.4475070622
 30
0.0
 10
13.5104222528
 20
13.4508565196
 30
0.0
 10
13.5140536933
 20
13.4538960921
 30
0.0
 10
13.5175709391
 20
13.4566206619
 30
0.0
 10
13.5209680716
 20
13.4590258031
 30
0.0
 10
13.5242396129
 20
13.461107539
 30
0.0
 10
13.5273803522
 20
13.4628625331
 30
0.0
 10
13.530385587
 20
13.4642878881
 30
0.0
 10
13.5332510255
 20
13.4653811415
 30
0.0
 10
13.5359732933
 20
13.466139951
 30
0.0
 10
13.5385482485
 20
13.4665616924
 30
0.0
 10
13.5402196507
 20
13.4666178769
 30
0.0
 10
13.5410205339
 20
13.46658347
 30
0.0
  0
SPLINE
  5
350
100
AcDbEntity
  8
0
100
AcDbSpline
 62
7
  6
CONTINUOUS
 70
0
 71
3
 72
36
 73
32
 74
0
 42
0.0000001
 43
0.0000001
 44
0.0000000001
 40
0.0
 40
0.0
 40
0.0
 40
0.0
 40
0.0325338282
 40
0.0662888542
 40
0.1011404701
 40
0.136968424
 40
0.2110298047
 40
0.2874017725
 40
0.3649683251
 40
0.4425916908
 40
0.5191330448
 40
0.5934732229
 40
0.6294800524
 40
0.6645366192
 40
0.6985180046
 40
0.7313046954
 40
0.7627831537
 40
0.7928466536
 40
0.8213964976
 40
0.8483428927
 40
0.8736061412
 40
0.8971185706
 40
0.9188268495
 40
0.9386948349
 40
0.9567082235
 40
0.9650244118
 40
0.9728854775
 40
0.9802998061
 40
0.9872789269
 40
0.9938386538
 40
1.0
 40
1.0
 40
1.0
 40
1.0
 10
13.3757308459
 20
13.384973619
 30
0.0
 10
13.3751208631
 20
13.3829997143
 30
0.0
 10
13.3738333839
 20
13.3789914862
 30
0.0
 10
13.3717467231
 20
13.3729167512
 30
0.0
 10
13.3694748466
 20
13.3666856739
 30
0.0
 10
13.3661739904
 20
13.3581068775
 30
0.0
 10
13.3616466505
 20
13.3471769478
 30
0.0
 10
13.3556939771
 20
13.3339761554
 30
0.0
 10
13.3492544306
 20
13.3207538319
 30
0.0
 10
13.3424277982
 20
13.3077150039
 30
0.0
 10
13.3353199688
 20
13.2950618039
 30
0.0
 10
13.329190941
 20
13.2848962606
 30
0.0
 10
13.3242257446
 20
13.2771107943
 30
0.0
 10
13.3205408062
 20
13.2715498333
 30
0.0
 10
13.3168696135
 20
13.2662263799
 30
0.0
 10
13.3132264299
 20
13.2611610516
 30
0.0
 10
13.309625438
 20
13.2563734591
 30
0.0
 10
13.3060806333
 20
13.2518821191
 30
0.0
 10
13.3026058123
 20
13.2477043415
 30
0.0
 10
13.2992144814
 20
13.2438561799
 30
0.0
 10
13.29591978
 20
13.2403523609
 30
0.0
 10
13.2927344479
 20
13.2372062073
 30
0.0
 10
13.2896706726
 20
13.2344294368
 30
0.0
 10
13.2867401675
 20
13.2320324873
 30
0.0
 10
13.2843583513
 20
13.2303153252
 30
0.0
 10
13.2825262401
 20
13.229149185
 30
0.0
 10
13.2812290998
 20
13.2283986017
 30
0.0
 10
13.2799732952
 20
13.2277491121
 30
0.0
 10
13.2787598643
 20
13.2272013804
 30
0.0
 10
13.2775899594
 20
13.2267559952
 30
0.0
 10
13.2768163224
 20
13.2265204874
 30
0.0
 10
13.276437767
 20
13.2264215695
 30
0.0
  0
ELLIPSE
  5
351
100
AcDbEntity
  8
0
100
AcDbEllipse
 62
7
  6
CONTINUOUS
 10
6.0708720839
 20
12.5855543205
 30
0.0
 11
1.7274030509
 21
0.8196490645
 31
0.0
 40
0.3419987131
 41
2.1009348582
 42
2.1332469688
  0
ELLIPSE
  5
352
100
AcDbEntity
  8
0
100
AcDbEllipse
 62
7
  6
CONTINUOUS
 10
6.0708720839
 20
13.3020412423
 30
0.0
 11
1.7274030509
 21
-0.8196490645
 31
0.0
 40
0.3419987131
 41
-2.1332469688
 42
-2.1009348582
  0
ELLIPSE
  5
353
100
AcDbEntity
  8
0
100
AcDbEllipse
 62
7
  6
CONTINUOUS
 10
15.096940032
 20
12.10930258
 30
0.0
 11
1.6007463639
 21
-0.7464515042
 31
0.0
 40
0.1168359196
 41
2.9292602582
 42
2.9615723688
  0
ELLIPSE
  5
354
100
AcDbEntity
  8
0
100
AcDbEllipse
 62
7
  6
CONTINUOUS
 10
15.096940032
 20
12.10930258
 30
0.0
 11
1.5508976136
 21
1.0933823239
 31
0.0
 40
0.8726840024
 41
-4.3734183822
 42
-4.3411062715
  0
ENDSEC
  0
SECTION
  2
OBJECTS
  0
DICTIONARY
  5
C
100
AcDbDictionary
280
0
281
1
  3
ACAD_GROUP
350
D
  3
ACAD_MLINESTYLE
350
17
  3
ACAD_LAYOUT
350
1A
  3
ACAD_PLOTSETTINGS
350
19
  3
ACAD_PLOTSTYLENAME
350
E
  0
DICTIONARY
  5
D
102
{ACAD_REACTORS
330
C
102
}
100
AcDbDictionary
280
0
281
1
  0
ACDBDICTIONARYWDFLT
  5
E
102
{ACAD_REACTORS
330
C
102
}
100
AcDbDictionary
281
1
  3
Normal
350
F
100
AcDbDictionaryWithDefault
340
F
  0
DICTIONARY
  5
17
102
{ACAD_REACTORS
330
C
102
}
100
AcDbDictionary
280
0
281
1
  3
Standard
350
18
  0
DICTIONARY
  5
19
102
{ACAD_REACTORS
330
C
102
}
100
AcDbDictionary
281
1
  0
DICTIONARY
  5
1A
102
{ACAD_REACTORS
330
C
102
}
100
AcDbDictionary
281
1
  3
Model
350
355
  3
Layout1
350
356
  0
ACDBPLACEHOLDER
  5
F
102
{ACAD_REACTORS
330
E
102
}
  0
MLINESTYLE
  5
18
102
{ACAD_REACTORS
330
17
102
}
100
AcDbMlineStyle
  2
STANDARD
 70
0
  3

 62
256
 51
90.0
 52
90.0
 71
2
 49
0.5
 62
256
  6
BYLAYER
 49
-0.5
 62
256
  6
BYLAYER
  0
LAYOUT
  5
355
102
{ACAD_REACTORS
330
1A
102
}
100
AcDbPlotSettings
  1

  2
none_device
  4
ANSI_C_(22.00_x_17.00_Inches)
  6

 40
0.0
 41
0.0
 42
0.0
 43
0.0
 44
558.8
 45
431.8
 46
0.0
 47
0.0
 48
0.0
 49
0.0
140
0.0
141
0.0
142
1.0
143
1.0
 70
1024
 72
0
 73
0
 74
0
  7

 75
0
147
1.0
148
0.0
149
0.0
100
AcDbLayout
  1
Model
 70
0
 71
0
 10
0.0
 20
0.0
 11
22.0
 21
17.0
 12
0.0
 22
0.0
 32
0.0
 14
0.0
 24
0.0
 34
0.0
 15
0.0
 25
0.0
 35
0.0
146
0.0
 13
0.0
 23
0.0
 33
0.0
 16
1.0
 26
0.0
 36
0.0
 17
0.0
 27
1.0
 37
0.0
 76
0
330
217
345
0
346
0
  0
LAYOUT
  5
356
102
{ACAD_REACTORS
330
1A
102
}
100
AcDbPlotSettings
  1

  2
none_device
  4
ANSI_C_(22.00_x_17.00_Inches)
  6

 40
0.0
 41
0.0
 42
0.0
 43
0.0
 44
558.8
 45
431.8
 46
0.0
 47
0.0
 48
0.0
 49
0.0
140
0.0
141
0.0
142
1.0
143
1.0
 70
0
 72
0
 73
0
 74
0
  7

 75
0
147
1.0
148
0.0
149
0.0
100
AcDbLayout
  1
Layout1
 70
0
 71
1
 10
0.0
 20
0.0
 11
22.0
 21
17.0
 12
0.0
 22
0.0
 32
0.0
 14
0.0
 24
0.0
 34
0.0
 15
0.0
 25
0.0
 35
0.0
146
0.0
 13
0.0
 23
0.0
 33
0.0
 16
1.0
 26
0.0
 36
0.0
 17
0.0
 27
1.0
 37
0.0
 76
0
330
218
345
0
346
0
  0
ENDSEC
  0
EOF