999
DXF file: _cgs_temp_output.dxf
999
Pro/ENGINEER 2016360 by Parametric Technology Corporation
  0
SECTION
  2
HEADER
  9
$ACADVER
  1
AC1021
  9
$DWGCODEPAGE
  3
ANSI_1252
  9
$EXTMAX
 10
22.0
 20
17.0
 30
0.0
  9
$EXTMIN
 10
0.0
 20
0.0
 30
0.0
  9
$LIMMIN
 10
0.0
 20
0.0
  9
$LIMMAX
 10
22.0
 20
17.0
  9
$VIEWCTR
 10
11.0
 20
8.5
  9
$VIEWSIZE
 40
17.0
  9
$CLAYER
  8
0
  9
$LTSCALE
 40
1.21
  9
$CELTYPE
  6
BYLAYER
  9
$DIMSCALE
 40
1.0
  9
$DIMASZ
 40
0.1875
  9
$DIMEXO
 40
0.0625
  9
$DIMDLI
 40
0.836
  9
$DIMEXE
 40
0.125
  9
$DIMCEN
 40
0.198
  9
$DIMLFAC
 40
1.0
  9
$DIMBLK
  1
_CLOSED
  9
$DIMALT
 70
0
  9
$DIMALTF
 40
25.4
  9
$DIMTXT
 40
0.15625
  9
$DIMTOL
 70
0
  9
$DIMLIM
 70
0
  9
$DIMTFAC
 40
1.0
  9
$DIMGAP
 40
0.09
  9
$DIMDSEP
 70
46
  9
$AUNITS
 70
0
  9
$PDMODE
 70
3
  9
$PDSIZE
 40
0.3125
  9
$HANDSEED
  5
314
  9
$TILEMODE
 70
1
  9
$MEASUREMENT
 70
0
  9
$INSUNITS
 70
1
  0
ENDSEC
  0
SECTION
  2
CLASSES
  0
CLASS
  1
ACDBDICTIONARYWDFLT
  2
AcDbDictionaryWithDefault
  3
AutoCAD 2000
 90
0
 91
1
280
0
281
0
  0
CLASS
  1
ACDBPLACEHOLDER
  2
AcDbPlaceHolder
  3
AutoCAD 2000
 90
0
 91
1
280
0
281
0
  0
CLASS
  1
LAYOUT
  2
AcDbLayout
  3
AutoCAD 2000
 90
0
 91
0
280
0
281
0
  0
ENDSEC
  0
SECTION
  2
TABLES
  0
TABLE
  2
VPORT
  5
8
100
AcDbSymbolTable
 70
2
  0
VPORT
  5
1F4
100
AcDbSymbolTableRecord
100
AcDbViewportTableRecord
  2
*ACTIVE
 70
0
 10
0.0
 20
0.0
 11
1.0
 21
1.0
 12
11.0
 22
8.5
 13
0.0
 23
0.0
 14
1.0
 24
1.0
 15
0.0
 25
0.0
 16
0.0
 26
0.0
 36
1.0
 17
0.0
 27
0.0
 37
0.0
 40
17.0
 41
1.2941176471
 42
50.0
 43
0.0
 44
0.0
 50
0.0
 51
0.0
 71
0
 72
100
 73
1
 74
1
 75
0
 76
0
 77
0
 78
0
  0
ENDTAB
  0
TABLE
  2
LTYPE
  5
5
100
AcDbSymbolTable
 70
6
  0
LTYPE
  5
14
100
AcDbSymbolTableRecord
100
AcDbLinetypeTableRecord
  2
BYBLOCK
 70
0
  3

 72
65
 73
0
 40
0.0
  0
LTYPE
  5
15
100
AcDbSymbolTableRecord
100
AcDbLinetypeTableRecord
  2
BYLAYER
 70
0
  3

 72
65
 73
0
 40
0.0
  0
LTYPE
  5
16
100
AcDbSymbolTableRecord
100
AcDbLinetypeTableRecord
  2
CONTINUOUS
 70
64
  3
Solid line
 72
65
 73
0
 40
0.0
  0
LTYPE
  5
1F5
100
AcDbSymbolTableRecord
100
AcDbLinetypeTableRecord
  2
CENTER
 70
64
  3
____ _ ____ _ ____ _ ____ _ ____ _ ____ _ ____
 72
65
 73
4
 40
0.6
 49
0.375
 74
0
 49
-0.075
 74
0
 49
0.075
 74
0
 49
-0.075
 74
0
  0
LTYPE
  5
1F6
100
AcDbSymbolTableRecord
100
AcDbLinetypeTableRecord
  2
HIDDEN
 70
64
  3
- - - - - - - - - - - - - - - - - - - -
 72
65
 73
2
 40
0.2
 49
0.1
 74
0
 49
-0.1
 74
0
  0
LTYPE
  5
1F7
100
AcDbSymbolTableRecord
100
AcDbLinetypeTableRecord
  2
PHANTOM
 70
64
  3
_____ _ _ _____ _ _ _____ _ _ _____
 72
65
 73
6
 40
0.8
 49
0.45
 74
0
 49
-0.05
 74
0
 49
0.1
 74
0
 49
-0.05
 74
0
 49
0.1
 74
0
 49
-0.05
 74
0
  0
LTYPE
  5
1F8
100
AcDbSymbolTableRecord
100
AcDbLinetypeTableRecord
  2
DOT
 70
64
  3
. . . . . . . . . . . . . . . . . . . .
 72
65
 73
2
 40
0.2
 49
0.1
 74
0
 49
-0.1
 74
0
  0
LTYPE
  5
1F9
100
AcDbSymbolTableRecord
100
AcDbLinetypeTableRecord
  2
DASHED
 70
64
  3
- - - - - - - - - - - - - - - - - - - -
 72
65
 73
2
 40
0.2
 49
0.1
 74
0
 49
-0.1
 74
0
  0
ENDTAB
  0
TABLE
  2
LAYER
  5
2
100
AcDbSymbolTable
 70
36
  0
LAYER
  5
10
100
AcDbSymbolTableRecord
100
AcDbLayerTableRecord
  2
0
 70
0
 62
7
  6
CONTINUOUS
370
-3
390
F
  0
LAYER
  5
1FA
100
AcDbSymbolTableRecord
100
AcDbLayerTableRecord
  2
DEFAULT_1
 70
0
 62
7
  6
CENTER
370
-3
390
F
  0
LAYER
  5
1FB
100
AcDbSymbolTableRecord
100
AcDbLayerTableRecord
  2
DEFAULT_2
 70
0
 62
8
  6
HIDDEN
370
-3
390
F
  0
LAYER
  5
1FC
100
AcDbSymbolTableRecord
100
AcDbLayerTableRecord
  2
DEFAULT_3
 70
0
 62
7
  6
PHANTOM
370
-3
390
F
  0
LAYER
  5
1FD
100
AcDbSymbolTableRecord
100
AcDbLayerTableRecord
  2
01_ALL_DTM_PLN
 70
0
 62
7
  6
CONTINUOUS
370
-3
390
F
  0
LAYER
  5
1FE
100
AcDbSymbolTableRecord
100
AcDbLayerTableRecord
  2
01__ASM_ALL_DTM_PLN
 70
0
 62
7
  6
CONTINUOUS
370
-3
390
F
  0
LAYER
  5
1FF
100
AcDbSymbolTableRecord
100
AcDbLayerTableRecord
  2
01__ASM_DEF_DTM_PLN
 70
0
 62
7
  6
CONTINUOUS
370
-3
390
F
  0
LAYER
  5
200
100
AcDbSymbolTableRecord
100
AcDbLayerTableRecord
  2
01___PRT_ALL_DTM_PLN
 70
0
 62
7
  6
CONTINUOUS
370
-3
390
F
  0
LAYER
  5
201
100
AcDbSymbolTableRecord
100
AcDbLayerTableRecord
  2
01___PRT_DEF_DTM_PLN
 70
0
 62
7
  6
CONTINUOUS
370
-3
390
F
  0
LAYER
  5
202
100
AcDbSymbolTableRecord
100
AcDbLayerTableRecord
  2
02_ALL_AXES
 70
0
 62
7
  6
CONTINUOUS
370
-3
390
F
  0
LAYER
  5
203
100
AcDbSymbolTableRecord
100
AcDbLayerTableRecord
  2
02__ASM_ALL_AXES
 70
0
 62
7
  6
CONTINUOUS
370
-3
390
F
  0
LAYER
  5
204
100
AcDbSymbolTableRecord
100
AcDbLayerTableRecord
  2
02___PRT_ALL_AXES
 70
0
 62
7
  6
CONTINUOUS
370
-3
390
F
  0
LAYER
  5
205
100
AcDbSymbolTableRecord
100
AcDbLayerTableRecord
  2
03_ALL_CURVES
 70
0
 62
7
  6
CONTINUOUS
370
-3
390
F
  0
LAYER
  5
206
100
AcDbSymbolTableRecord
100
AcDbLayerTableRecord
  2
03__ASM_ALL_CURVES
 70
0
 62
7
  6
CONTINUOUS
370
-3
390
F
  0
LAYER
  5
207
100
AcDbSymbolTableRecord
100
AcDbLayerTableRecord
  2
03___PRT_ALL_CURVES
 70
0
 62
7
  6
CONTINUOUS
370
-3
390
F
  0
LAYER
  5
208
100
AcDbSymbolTableRecord
100
AcDbLayerTableRecord
  2
04_ALL_DTM_PNT
 70
0
 62
7
  6
CONTINUOUS
370
-3
390
F
  0
LAYER
  5
209
100
AcDbSymbolTableRecord
100
AcDbLayerTableRecord
  2
04__ASM_ALL_DTM_PNT
 70
0
 62
7
  6
CONTINUOUS
370
-3
390
F
  0
LAYER
  5
20A
100
AcDbSymbolTableRecord
100
AcDbLayerTableRecord
  2
04___PRT_ALL_DTM_PNT
 70
0
 62
7
  6
CONTINUOUS
370
-3
390
F
  0
LAYER
  5
20B
100
AcDbSymbolTableRecord
100
AcDbLayerTableRecord
  2
05_ALL_DTM_CSYS
 70
0
 62
7
  6
CONTINUOUS
370
-3
390
F
  0
LAYER
  5
20C
100
AcDbSymbolTableRecord
100
AcDbLayerTableRecord
  2
05__ASM_ALL_DTM_CSYS
 70
0
 62
7
  6
CONTINUOUS
370
-3
390
F
  0
LAYER
  5
20D
100
AcDbSymbolTableRecord
100
AcDbLayerTableRecord
  2
05__ASM_DEF_DTM_CSYS
 70
0
 62
7
  6
CONTINUOUS
370
-3
390
F
  0
LAYER
  5
20E
100
AcDbSymbolTableRecord
100
AcDbLayerTableRecord
  2
05___PRT_ALL_DTM_CSYS
 70
0
 62
7
  6
CONTINUOUS
370
-3
390
F
  0
LAYER
  5
20F
100
AcDbSymbolTableRecord
100
AcDbLayerTableRecord
  2
05___PRT_DEF_DTM_CSYS
 70
0
 62
7
  6
CONTINUOUS
370
-3
390
F
  0
LAYER
  5
210
100
AcDbSymbolTableRecord
100
AcDbLayerTableRecord
  2
06_ALL_SURFS
 70
0
 62
7
  6
CONTINUOUS
370
-3
390
F
  0
LAYER
  5
211
100
AcDbSymbolTableRecord
100
AcDbLayerTableRecord
  2
06__ASM_ALL_SURFS
 70
0
 62
7
  6
CONTINUOUS
370
-3
390
F
  0
LAYER
  5
212
100
AcDbSymbolTableRecord
100
AcDbLayerTableRecord
  2
06___PRT_ALL_SURFS
 70
0
 62
7
  6
CONTINUOUS
370
-3
390
F
  0
LAYER
  5
213
100
AcDbSymbolTableRecord
100
AcDbLayerTableRecord
  2
07__ASM_ALL_SKELETONS
 70
0
 62
7
  6
CONTINUOUS
370
-3
390
F
  0
LAYER
  5
214
100
AcDbSymbolTableRecord
100
AcDbLayerTableRecord
  2
NONE
 70
0
 62
7
  6
CONTINUOUS
370
-3
390
F
  0
LAYER
  5
215
100
AcDbSymbolTableRecord
100
AcDbLayerTableRecord
  2
SHELL
 70
0
 62
7
  6
CONTINUOUS
370
-3
390
F
  0
LAYER
  5
216
100
AcDbSymbolTableRecord
100
AcDbLayerTableRecord
  2
_794
 70
0
 62
7
  6
CONTINUOUS
370
-3
390
F
  0
ENDTAB
  0
TABLE
  2
STYLE
  5
3
100
AcDbSymbolTable
 70
1
  0
STYLE
  5
11
100
AcDbSymbolTableRecord
100
AcDbTextStyleTableRecord
  2
STANDARD
 70
0
 40
0.0
 41
0.8
 50
0.0
 71
0
 42
0.2
  3
txt
  4

  0
STYLE
  5
217
100
AcDbSymbolTableRecord
100
AcDbTextStyleTableRecord
  2
TEXTSTYLE_1
 70
0
 40
0.0
 41
0.8
 50
0.0
 71
0
 42
0.2
  3
gdt
  4

  0
ENDTAB
  0
TABLE
  2
VIEW
  5
6
100
AcDbSymbolTable
 70
0
  0
ENDTAB
  0
TABLE
  2
UCS
  5
7
100
AcDbSymbolTable
 70
0
  0
ENDTAB
  0
TABLE
  2
APPID
  5
9
100
AcDbSymbolTable
 70
1
  0
APPID
  5
218
100
AcDbSymbolTableRecord
100
AcDbRegAppTableRecord
  2
ACAD
 70
0
  0
ENDTAB
  0
TABLE
  2
BLOCK_RECORD
  5
1
100
AcDbSymbolTable
 70
0
  0
BLOCK_RECORD
  5
219
100
AcDbSymbolTableRecord
100
AcDbBlockTableRecord
  2
*Model_Space
  0
BLOCK_RECORD
  5
21A
100
AcDbSymbolTableRecord
100
AcDbBlockTableRecord
  2
*Paper_Space
  0
ENDTAB
  0
TABLE
  2
DIMSTYLE
  5
A
100
AcDbSymbolTable
 70
1
100
AcDbDimStyleTable
 71
0
  0
DIMSTYLE
105
21B
100
AcDbSymbolTableRecord
100
AcDbDimStyleTableRecord
  2
STANDARD
 70
0
  3

  4

 40
1.0
 41
0.1875
 42
0.0625
 43
0.38
 44
0.125
 45
0.0
 46
0.0
 47
0.0001
 48
0.0001
140
0.15625
141
0.09
142
0.0
143
25.4
144
1.0
145
0.0
146
1.0
147
0.09
 71
0.0
 72
0.0
 73
1
 74
1
 75
0
 76
0
 77
0
 78
4
 79
1
170
0
171
3
172
0
173
0
174
0
175
0
176
0
177
0
178
0
270
2
179
4
271
4
272
4
273
2
274
2
275
0
280
0
281
0
282
0
283
1
284
4
285
0
286
0
287
3
288
0
340
11
278
46
  0
ENDTAB
  0
ENDSEC
  0
SECTION
  2
BLOCKS
  0
BLOCK
  5
20
100
AcDbEntity
  8
0
100
AcDbBlockBegin
  2
*Model_Space
 70
0
 10
0.0
 20
0.0
 30
0.0
  3
*Model_Space
  1

  0
ENDBLK
  5
21
100
AcDbEntity
  8
0
100
AcDbBlockEnd
  0
BLOCK
  5
1C
100
AcDbEntity
  8
0
100
AcDbBlockBegin
  2
*Paper_Space
 70
0
 10
0.0
 20
0.0
 30
0.0
  3
*Paper_Space
  1

  0
ENDBLK
  5
1D
100
AcDbEntity
  8
0
100
AcDbBlockEnd
  0
ENDSEC
  0
SECTION
  2
ENTITIES
  0
MTEXT
  5
21C
100
AcDbEntity
  8
0
100
AcDbMText
 62
7
  6
CONTINUOUS
  7
STANDARD
 71
1
 72
1
 10
15.9560215477
 20
0.9479130325
 30
0.0
 11
1.0
 21
0.0
 31
0.0
 44
0.9
  1
SCALE: 1:1.000
 40
0.3
 41
3.36
  0
LINE
  5
21D
100
AcDbEntity
  8
0
100
AcDbLine
 62
7
  6
CONTINUOUS
 10
0.0
 20
0.0
 11
0.0
 21
17.0
  0
LINE
  5
21E
100
AcDbEntity
  8
0
100
AcDbLine
 62
7
  6
CONTINUOUS
 10
0.0
 20
0.0
 11
22.0
 21
0.0
  0
LINE
  5
21F
100
AcDbEntity
  8
0
100
AcDbLine
 62
7
  6
CONTINUOUS
 10
0.0
 20
17.0
 11
22.0
 21
17.0
  0
LINE
  5
220
100
AcDbEntity
  8
0
100
AcDbLine
 62
7
  6
CONTINUOUS
 10
22.0
 20
0.0
 11
22.0
 21
17.0
  0
LINE
  5
221
100
AcDbEntity
  8
0
100
AcDbLine
 62
7
  6
CONTINUOUS
 10
4.8282301386
 20
6.7515463562
 11
4.8989408167
 21
6.8222570343
  0
LINE
  5
222
100
AcDbEntity
  8
0
100
AcDbLine
 62
7
  6
CONTINUOUS
 10
4.884219842
 20
6.5982324523
 11
5.0522547206
 21
6.7662673309
  0
LINE
  5
223
100
AcDbEntity
  8
0
100
AcDbLine
 62
7
  6
CONTINUOUS
 10
4.9143203892
 20
6.4268075669
 11
5.223679606
 21
6.7361667837
  0
LINE
  5
224
100
AcDbEntity
  8
0
100
AcDbLine
 62
7
  6
CONTINUOUS
 10
5.2678737798
 20
6.6919726099
 11
4.958514563
 21
6.3826133931
  0
LINE
  5
225
100
AcDbEntity
  8
0
100
AcDbLine
 62
7
  6
CONTINUOUS
 10
4.9645253892
 20
4.8946302923
 11
5.0057564454
 21
4.823216008
  0
LINE
  5
226
100
AcDbEntity
  8
0
100
AcDbLine
 62
7
  6
CONTINUOUS
 10
5.6303672762
 20
7.5826198968
 11
5.6303672762
 21
6.9190592271
  0
LINE
  5
227
100
AcDbEntity
  8
0
100
AcDbLine
 62
7
  6
CONTINUOUS
 10
4.6688502777
 20
5.2536629335
 11
4.0941898809
 21
4.9218825986
  0
LINE
  5
228
100
AcDbEntity
  8
0
100
AcDbLine
 62
7
  6
CONTINUOUS
 10
7.0918842746
 20
4.3876375297
 11
7.6665446715
 21
4.0558571949
  0
LINE
  5
229
100
AcDbEntity
  8
0
100
AcDbLine
 62
7
  6
CONTINUOUS
 10
4.9143203892
 20
6.4268075669
 11
4.958514563
 21
6.3826133931
  0
LINE
  5
22A
100
AcDbEntity
  8
0
100
AcDbLine
 62
7
  6
CONTINUOUS
 10
4.9823660051
 20
6.3852784554
 11
4.9717728152
 21
6.3958716453
  0
LINE
  5
22B
100
AcDbEntity
  8
0
100
AcDbLine
 62
7
  6
CONTINUOUS
 10
5.0689999976
 20
6.5814871753
 11
5.1131941714
 21
6.5372930015
  0
LINE
  5
22C
100
AcDbEntity
  8
0
100
AcDbLine
 62
7
  6
CONTINUOUS
 10
5.2546155277
 20
6.6787143577
 11
5.2652087175
 21
6.6681211679
  0
LINE
  5
22D
100
AcDbEntity
  8
0
100
AcDbLine
 62
7
  6
CONTINUOUS
 10
5.2678737798
 20
6.6919726099
 11
5.223679606
 21
6.7361667837
  0
LINE
  5
22E
100
AcDbEntity
  8
0
100
AcDbLine
 62
7
  6
CONTINUOUS
 10
6.6303672762
 20
6.9190592271
 11
6.6303672762
 21
7.5826198968
  0
LINE
  5
22F
100
AcDbEntity
  8
0
100
AcDbLine
 62
7
  6
CONTINUOUS
 10
4.5941898809
 20
4.0558571949
 11
5.1688502777
 21
4.3876375297
  0
LINE
  5
230
100
AcDbEntity
  8
0
100
AcDbLine
 62
7
  6
CONTINUOUS
 10
8.1665446715
 20
4.9218825986
 11
7.5918842746
 21
5.2536629335
  0
LINE
  5
231
100
AcDbEntity
  8
0
100
AcDbLine
 62
7
  6
CONTINUOUS
 10
3.6958720839
 20
14.0687977814
 11
3.6958720839
 21
13.6312977814
  0
LINE
  5
232
100
AcDbEntity
  8
0
100
AcDbLine
 62
7
  6
CONTINUOUS
 10
3.7846946886
 20
13.5812977814
 11
3.7846946886
 21
13.6312977814
  0
LINE
  5
233
100
AcDbEntity
  8
0
100
AcDbLine
 62
7
  6
CONTINUOUS
 10
4.6333720839
 20
13.5562977814
 11
4.6333720839
 21
12.0812977814
  0
LINE
  5
234
100
AcDbEntity
  8
0
100
AcDbLine
 62
7
  6
CONTINUOUS
 10
7.1833720839
 20
11.1312977814
 11
4.9583720839
 21
11.1312977814
  0
LINE
  5
235
100
AcDbEntity
  8
0
100
AcDbLine
 62
7
  6
CONTINUOUS
 10
4.7583720839
 20
11.3312977814
 11
4.7583720839
 21
12.0062977814
  0
LINE
  5
236
100
AcDbEntity
  8
0
100
AcDbLine
 62
7
  6
CONTINUOUS
 10
4.8715030443
 20
13.1462105581
 11
5.0095048053
 21
13.2588885241
  0
LINE
  5
237
100
AcDbEntity
  8
0
100
AcDbLine
 62
7
  6
CONTINUOUS
 10
5.1641844137
 20
12.88000241
 11
5.1641844137
 21
13.1325931528
  0
LINE
  5
238
100
AcDbEntity
  8
0
100
AcDbLine
 62
7
  6
CONTINUOUS
 10
5.2083785875
 20
13.1325931528
 11
5.2083785875
 21
12.88000241
  0
LINE
  5
239
100
AcDbEntity
  8
0
100
AcDbLine
 62
7
  6
CONTINUOUS
 10
5.0095048053
 20
12.7537070386
 11
5.1641844137
 21
12.88000241
  0
LINE
  5
23A
100
AcDbEntity
  8
0
100
AcDbLine
 62
7
  6
CONTINUOUS
 10
5.2083785875
 20
12.88000241
 11
5.0536989791
 21
12.7537070386
  0
LINE
  5
23B
100
AcDbEntity
  8
0
100
AcDbLine
 62
7
  6
CONTINUOUS
 10
7.4333720839
 20
12.0062977814
 11
4.7083720839
 21
12.0062977814
  0
LINE
  5
23C
100
AcDbEntity
  8
0
100
AcDbLine
 62
7
  6
CONTINUOUS
 10
5.5708720839
 20
13.6312977814
 11
5.5708720839
 21
13.5812977814
  0
LINE
  5
23D
100
AcDbEntity
  8
0
100
AcDbLine
 62
7
  6
CONTINUOUS
 10
5.653664489
 20
13.6312977814
 11
5.653664489
 21
14.0687977814
  0
LINE
  5
23E
100
AcDbEntity
  8
0
100
AcDbLine
 62
7
  6
CONTINUOUS
 10
5.0095048053
 20
12.7537070386
 11
4.8711951847
 21
12.8666363709
  0
LWPOLYLINE
  5
23F
100
AcDbEntity
  8
0
100
AcDbPolyline
 62
7
  6
CONTINUOUS
 90
5
 70
0
 10
7.5083720839
 20
13.4977458013
 10
7.5128720695
 20
13.5002398211
 10
7.5221925258
 20
13.5037082142
 10
7.5324419392
 20
13.5058006871
 10
7.5404613854
 20
13.5062977817
  0
LINE
  5
240
100
AcDbEntity
  8
0
100
AcDbLine
 62
7
  6
CONTINUOUS
 10
5.1641844137
 20
13.1325931528
 11
5.0095048053
 21
13.2588885241
  0
LINE
  5
241
100
AcDbEntity
  8
0
100
AcDbLine
 62
7
  6
CONTINUOUS
 10
5.0536989791
 20
13.2588885241
 11
5.2083785875
 21
13.1325931528
  0
LINE
  5
242
100
AcDbEntity
  8
0
100
AcDbLine
 62
7
  6
CONTINUOUS
 10
5.0095048053
 20
12.7537070386
 11
5.0536989791
 21
12.7537070386
  0
LINE
  5
243
100
AcDbEntity
  8
0
100
AcDbLine
 62
7
  6
CONTINUOUS
 10
6.4880796787
 20
14.0687977814
 11
6.4880796787
 21
13.6312977814
  0
LINE
  5
244
100
AcDbEntity
  8
0
100
AcDbLine
 62
7
  6
CONTINUOUS
 10
5.2083785875
 20
12.88000241
 11
5.1641844137
 21
12.88000241
  0
LINE
  5
245
100
AcDbEntity
  8
0
100
AcDbLine
 62
7
  6
CONTINUOUS
 10
6.5708720839
 20
13.5812977814
 11
6.5708720839
 21
13.6312977814
  0
LINE
  5
246
100
AcDbEntity
  8
0
100
AcDbLine
 62
7
  6
CONTINUOUS
 10
5.1641844137
 20
13.1325931528
 11
5.2083785875
 21
13.1325931528
  0
LINE
  5
247
100
AcDbEntity
  8
0
100
AcDbLine
 62
7
  6
CONTINUOUS
 10
5.0095048053
 20
13.2588885241
 11
5.0536989791
 21
13.2588885241
  0
LWPOLYLINE
  5
248
100
AcDbEntity
  8
0
100
AcDbPolyline
 62
7
  6
CONTINUOUS
 90
5
 70
0
 10
4.6012827933
 20
13.5062977817
 10
4.6095316155
 20
13.5057718215
 10
4.6199527186
 20
13.5035909553
 10
4.6293777235
 20
13.5000020218
 10
4.6333720839
 20
13.4977377599
  0
LINE
  5
249
100
AcDbEntity
  8
0
100
AcDbLine
 62
7
  6
CONTINUOUS
 10
6.4958720839
 20
13.5062977814
 11
5.6458720839
 21
13.5062977814
  0
LINE
  5
24A
100
AcDbEntity
  8
0
100
AcDbLine
 62
7
  6
CONTINUOUS
 10
3.8596946886
 20
13.5062977814
 11
4.601282812
 21
13.5062977814
  0
LINE
  5
24B
100
AcDbEntity
  8
0
100
AcDbLine
 62
7
  6
CONTINUOUS
 10
7.5404613557
 20
13.5062977814
 11
8.2820483983
 21
13.5062977814
  0
LINE
  5
24C
100
AcDbEntity
  8
0
100
AcDbLine
 62
7
  6
CONTINUOUS
 10
8.4458720778
 20
13.6312977814
 11
6.4880796787
 21
13.6312977814
  0
LINE
  5
24D
100
AcDbEntity
  8
0
100
AcDbLine
 62
7
  6
CONTINUOUS
 10
5.653664489
 20
13.6312977814
 11
3.6958720839
 21
13.6312977814
  0
LINE
  5
24E
100
AcDbEntity
  8
0
100
AcDbLine
 62
7
  6
CONTINUOUS
 10
7.3833720839
 20
11.3312977814
 11
7.3833720839
 21
12.0062977814
  0
LINE
  5
24F
100
AcDbEntity
  8
0
100
AcDbLine
 62
7
  6
CONTINUOUS
 10
7.5083720839
 20
12.0812977814
 11
7.5083720839
 21
13.5562977814
  0
LINE
  5
250
100
AcDbEntity
  8
03__ASM_ALL_CURVES
100
AcDbLine
 62
8
  6
PHANTOM
 10
8.6333720839
 20
14.0687977814
 11
3.5083720839
 21
14.0687977814
  0
LINE
  5
251
100
AcDbEntity
  8
0
100
AcDbLine
 62
7
  6
CONTINUOUS
 10
3.6958720839
 20
14.0687977814
 11
8.4458720778
 21
14.0687977814
  0
LINE
  5
252
100
AcDbEntity
  8
0
100
AcDbLine
 62
7
  6
CONTINUOUS
 10
8.3570494792
 20
13.5812977814
 11
8.3570494792
 21
13.6312977814
  0
LINE
  5
253
100
AcDbEntity
  8
0
100
AcDbLine
 62
7
  6
CONTINUOUS
 10
8.4458720839
 20
14.0687977814
 11
8.4458720839
 21
13.6312977814
  0
LINE
  5
254
100
AcDbEntity
  8
0
100
AcDbLine
 62
7
  6
CONTINUOUS
 10
17.0291052569
 20
3.0856247044
 11
16.5916052569
 21
3.0856247044
  0
LINE
  5
255
100
AcDbEntity
  8
0
100
AcDbLine
 62
7
  6
CONTINUOUS
 10
14.0916052569
 20
4.3481253197
 11
14.0916052569
 21
6.5731240892
  0
LINE
  5
256
100
AcDbEntity
  8
0
100
AcDbLine
 62
7
  6
CONTINUOUS
 10
16.5416052569
 20
3.9293747044
 11
16.5916052569
 21
3.9293747044
  0
LINE
  5
257
100
AcDbEntity
  8
0
100
AcDbLine
 62
7
  6
CONTINUOUS
 10
16.5916052569
 20
3.9302782378
 11
17.0291052569
 21
3.9302782378
  0
LINE
  5
258
100
AcDbEntity
  8
0
100
AcDbLine
 62
7
  6
CONTINUOUS
 10
15.0416052569
 20
4.0231247044
 11
16.4666052569
 21
4.0231247044
  0
LINE
  5
259
100
AcDbEntity
  8
0
100
AcDbLine
 62
7
  6
CONTINUOUS
 10
14.9666052569
 20
4.1481247044
 11
14.2916052569
 21
4.1481247044
  0
LINE
  5
25A
100
AcDbEntity
  8
0
100
AcDbLine
 62
7
  6
CONTINUOUS
 10
17.0291052569
 20
4.6529029893
 11
16.5916052569
 21
4.6529029893
  0
LINE
  5
25B
100
AcDbEntity
  8
0
100
AcDbLine
 62
7
  6
CONTINUOUS
 10
14.9666052569
 20
4.098126096
 11
14.9666052569
 21
6.8231233129
  0
LINE
  5
25C
100
AcDbEntity
  8
0
100
AcDbLine
 62
7
  6
CONTINUOUS
 10
16.4666052569
 20
4.0043751082
 11
16.4666052569
 21
5.1029046715
  0
LINE
  5
25D
100
AcDbEntity
  8
0
100
AcDbLine
 62
7
  6
CONTINUOUS
 10
16.4666052569
 20
6.9121863635
 11
16.4666052569
 21
7.9481233628
  0
LINE
  5
25E
100
AcDbEntity
  8
0
100
AcDbLine
 62
7
  6
CONTINUOUS
 10
16.5916052569
 20
3.0856261191
 11
16.5916052569
 21
3.9302782378
  0
LINE
  5
25F
100
AcDbEntity
  8
0
100
AcDbLine
 62
7
  6
CONTINUOUS
 10
16.5916052569
 20
4.6529029893
 11
16.5916052569
 21
7.7986928863
  0
LINE
  5
260
100
AcDbEntity
  8
0
100
AcDbLine
 62
7
  6
CONTINUOUS
 10
14.9666052569
 20
6.7731247044
 11
14.2916052569
 21
6.7731247044
  0
LINE
  5
261
100
AcDbEntity
  8
0
100
AcDbLine
 62
7
  6
CONTINUOUS
 10
17.0291052569
 20
8.0231233761
 11
17.0291052569
 21
3.0856261191
  0
LINE
  5
262
100
AcDbEntity
  8
03__ASM_ALL_CURVES
100
AcDbLine
 62
8
  6
PHANTOM
 10
17.0291052569
 20
2.8981249891
 11
17.0291052569
 21
8.0231247044
  0
LINE
  5
263
100
AcDbEntity
  8
0
100
AcDbLine
 62
7
  6
CONTINUOUS
 10
15.0416052569
 20
6.8981247044
 11
16.3916052569
 21
6.8981247044
  0
LINE
  5
264
100
AcDbEntity
  8
0
100
AcDbLine
 62
7
  6
CONTINUOUS
 10
17.0291052569
 20
7.7986928863
 11
16.5916052569
 21
7.7986928863
  0
LINE
  5
265
100
AcDbEntity
  8
0
100
AcDbLine
 62
7
  6
CONTINUOUS
 10
16.5416052569
 20
8.0231247044
 11
17.0291052569
 21
8.0231247044
  0
LINE
  5
266
100
AcDbEntity
  8
0
100
AcDbLine
 62
7
  6
CONTINUOUS
 10
13.2019879634
 20
13.9335289807
 11
13.0960839469
 21
13.5908234578
  0
LINE
  5
267
100
AcDbEntity
  8
0
100
AcDbLine
 62
7
  6
CONTINUOUS
 10
13.5447908115
 20
12.357033011
 11
13.5568941276
 21
12.3961993565
  0
LINE
  5
268
100
AcDbEntity
  8
0
100
AcDbLine
 62
7
  6
CONTINUOUS
 10
14.2583492296
 20
14.3193051805
 11
14.2677261275
 21
14.3429774388
  0
LINE
  5
269
100
AcDbEntity
  8
0
100
AcDbLine
 62
7
  6
CONTINUOUS
 10
13.8093340092
 20
12.9379052488
 11
13.7867140898
 21
12.8647071629
  0
LINE
  5
26A
100
AcDbEntity
  8
0
100
AcDbLine
 62
7
  6
CONTINUOUS
 10
14.2462458638
 20
14.2801388503
 11
14.2583491799
 21
14.3193051958
  0
LINE
  5
26B
100
AcDbEntity
  8
0
100
AcDbLine
 62
7
  6
CONTINUOUS
 10
14.2677261275
 20
14.3429774388
 11
14.373630144
 21
14.6856829618
  0
LINE
  5
26C
100
AcDbEntity
  8
0
100
AcDbLine
 62
7
  6
CONTINUOUS
 10
13.6165881871
 20
12.0998723371
 11
13.8444041647
 21
12.8370851107
  0
LINE
  5
26D
100
AcDbEntity
  8
0
100
AcDbLine
 62
7
  6
CONTINUOUS
 10
13.9772852846
 20
13.0570079358
 11
14.038428997
 21
13.2548690618
  0
LINE
  5
26E
100
AcDbEntity
  8
0
100
AcDbLine
 62
7
  6
CONTINUOUS
 10
13.944943282
 20
13.2130522453
 11
13.9737152559
 21
13.2576492383
  0
LINE
  5
26F
100
AcDbEntity
  8
0
100
AcDbLine
 62
7
  6
CONTINUOUS
 10
13.6151819343
 20
12.0989307379
 11
13.6157819979
 21
12.0982248089
  0
LINE
  5
270
100
AcDbEntity
  8
0
100
AcDbLine
 62
7
  6
CONTINUOUS
 10
13.6156434666
 20
12.099100901
 11
13.6162248412
 21
12.0983889347
  0
LINE
  5
271
100
AcDbEntity
  8
0
100
AcDbLine
 62
7
  6
CONTINUOUS
 10
14.0926156
 20
13.2273975228
 11
14.0314718875
 21
13.0295363968
  0
LINE
  5
272
100
AcDbEntity
  8
0
100
AcDbLine
 62
7
  6
CONTINUOUS
 10
13.7178608184
 20
12.0042168974
 11
13.5544660501
 21
11.4754712334
  0
LINE
  5
273
100
AcDbEntity
  8
0
100
AcDbLine
 62
7
  6
CONTINUOUS
 10
13.851427831
 20
12.8619269864
 11
13.9772852846
 21
13.0570079358
  0
LINE
  5
274
100
AcDbEntity
  8
0
100
AcDbLine
 62
7
  6
CONTINUOUS
 10
14.0314718875
 20
13.0295363968
 11
13.9056144339
 21
12.8344554474
  0
LINE
  5
275
100
AcDbEntity
  8
0
100
AcDbLine
 62
7
  6
CONTINUOUS
 10
15.142177428
 20
14.6856829618
 11
15.0362734115
 21
14.3429774388
  0
LINE
  5
276
100
AcDbEntity
  8
0
100
AcDbLine
 62
7
  6
CONTINUOUS
 10
13.6722522984
 20
12.5177406826
 11
13.7585698825
 21
12.5593252718
  0
LINE
  5
277
100
AcDbEntity
  8
0
100
AcDbLine
 62
7
  6
CONTINUOUS
 10
13.7867140898
 20
12.8647071629
 11
13.8409006928
 21
12.8372356239
  0
LWPOLYLINE
  5
278
100
AcDbEntity
  8
0
100
AcDbPolyline
 62
7
  6
CONTINUOUS
 90
4
 70
0
 10
14.4644388802
 20
13.6934192263
 10
14.465530816
 20
13.6908276863
 10
14.4662238507
 20
13.6883245979
 10
14.4663524108
 20
13.687496582
  0
LINE
  5
279
100
AcDbEntity
  8
0
100
AcDbLine
 62
7
  6
CONTINUOUS
 10
13.851427831
 20
12.8619269864
 11
13.9056144339
 21
12.8344554474
  0
LINE
  5
27A
100
AcDbEntity
  8
0
100
AcDbLine
 62
7
  6
CONTINUOUS
 10
14.4644368403
 20
13.6934226723
 11
14.2651754894
 21
14.0994744614
  0
LINE
  5
27B
100
AcDbEntity
  8
0
100
AcDbLine
 62
7
  6
CONTINUOUS
 10
17.2060895663
 20
11.9093356433
 11
16.6255362828
 21
12.0992346681
  0
LINE
  5
27C
100
AcDbEntity
  8
0
100
AcDbLine
 62
7
  6
CONTINUOUS
 10
14.0314718875
 20
13.0295363968
 11
13.9772852846
 21
13.0570079358
  0
LINE
  5
27D
100
AcDbEntity
  8
0
100
AcDbLine
 62
7
  6
CONTINUOUS
 10
14.038428997
 20
13.2548690618
 11
14.0926156
 21
13.2273975228
  0
LINE
  5
27E
100
AcDbEntity
  8
0
100
AcDbLine
 62
7
  6
CONTINUOUS
 10
13.9056144339
 20
12.8344554474
 11
13.8409006928
 21
12.8372356239
  0
LINE
  5
27F
100
AcDbEntity
  8
0
100
AcDbLine
 62
7
  6
CONTINUOUS
 10
13.7867140898
 20
12.8647071629
 11
13.851427831
 21
12.8619269864
  0
LINE
  5
280
100
AcDbEntity
  8
0
100
AcDbLine
 62
7
  6
CONTINUOUS
 10
13.9737152559
 20
13.2576492383
 11
14.038428997
 21
13.2548690618
  0
LINE
  5
281
100
AcDbEntity
  8
0
100
AcDbLine
 62
7
  6
CONTINUOUS
 10
16.8197398661
 20
12.715112734
 11
17.4231394498
 21
12.5177406826
  0
LINE
  5
282
100
AcDbEntity
  8
0
100
AcDbLine
 62
7
  6
CONTINUOUS
 10
15.390302369
 20
13.7769374073
 11
15.1965900991
 21
14.1716815101
  0
LINE
  5
283
100
AcDbEntity
  8
0
100
AcDbLine
 62
7
  6
CONTINUOUS
 10
16.2258405345
 20
11.2291925473
 11
16.0624457662
 21
10.7004468833
  0
LINE
  5
284
100
AcDbEntity
  8
0
100
AcDbLine
 62
7
  6
CONTINUOUS
 10
16.3634231143
 20
11.2510361441
 11
16.6902126509
 21
12.3085274721
  0
LINE
  5
285
100
AcDbEntity
  8
0
100
AcDbLine
 62
7
  6
CONTINUOUS
 10
17.7746268838
 20
12.7302286037
 11
17.6687228673
 21
12.3875230808
  0
LINE
  5
286
100
AcDbEntity
  8
0
100
AcDbLine
 62
7
  6
CONTINUOUS
 10
17.7905683101
 20
12.0617856395
 11
17.9085756428
 21
12.4436575079
  0
LINE
  5
287
100
AcDbEntity
  8
03__ASM_ALL_CURVES
100
AcDbLine
 62
8
  6
PHANTOM
 10
17.9087369391
 20
12.4436179368
 11
17.9096382036
 21
12.4461790303
  0
ARC
  5
288
100
AcDbEntity
  8
0
100
AcDbCircle
 62
7
  6
CONTINUOUS
 10
4.3441898809
 20
4.4888698968
 40
0.5
100
AcDbArc
 50
120.0
 51
300.0
  0
CIRCLE
  5
289
100
AcDbEntity
  8
0
100
AcDbCircle
 62
7
  6
CONTINUOUS
 10
4.3441898809
 20
4.4888698968
 40
0.1875
  0
ARC
  5
28A
100
AcDbEntity
  8
0
100
AcDbCircle
 62
7
  6
CONTINUOUS
 10
5.0544229496
 20
4.8989231502
 40
0.09
100
AcDbArc
 50
166.9749111655
 51
251.674275898
  0
ARC
  5
28B
100
AcDbEntity
  8
0
100
AcDbCircle
 62
7
  6
CONTINUOUS
 10
5.8088121786
 20
4.3200599353
 40
0.08
100
AcDbArc
 50
225.0
 51
287.0052499706
  0
ARC
  5
28C
100
AcDbEntity
  8
0
100
AcDbCircle
 62
7
  6
CONTINUOUS
 10
4.6313502777
 20
5.3186148388
 40
0.075
100
AcDbArc
 50
300.0
 51
348.6640500935
  0
ARC
  5
28D
100
AcDbEntity
  8
0
100
AcDbCircle
 62
7
  6
CONTINUOUS
 10
5.2063502777
 20
4.3226856244
 40
0.075
100
AcDbArc
 50
71.3359499065
 51
120.0
  0
ARC
  5
28E
100
AcDbEntity
  8
0
100
AcDbCircle
 62
7
  6
CONTINUOUS
 10
5.1534858465
 20
6.839597128
 40
0.125
100
AcDbArc
 50
215.9188183438
 51
304.1630637355
  0
ARC
  5
28F
100
AcDbEntity
  8
0
100
AcDbCircle
 62
7
  6
CONTINUOUS
 10
4.8108900449
 20
6.4970013264
 40
0.125
100
AcDbArc
 50
325.8369362645
 51
54.0811816562
  0
ARC
  5
290
100
AcDbEntity
  8
0
100
AcDbCircle
 62
7
  6
CONTINUOUS
 10
4.8918697489
 20
6.6879067459
 40
0.09
100
AcDbArc
 50
135.0
 51
265.1240345935
  0
ARC
  5
291
100
AcDbEntity
  8
0
100
AcDbCircle
 62
7
  6
CONTINUOUS
 10
4.962580427
 20
6.758617424
 40
0.09
100
AcDbArc
 50
4.8759654065
 51
135.0
  0
ARC
  5
292
100
AcDbEntity
  8
0
100
AcDbCircle
 62
7
  6
CONTINUOUS
 10
5.5553672762
 20
6.9190592271
 40
0.075
100
AcDbArc
 50
311.3359499065
 51
360.0
  0
CIRCLE
  5
293
100
AcDbEntity
  8
03__ASM_ALL_CURVES
100
AcDbCircle
 62
8
  6
PHANTOM
 10
6.1303672762
 20
5.5201198968
 40
2.5625
  0
ARC
  5
294
100
AcDbEntity
  8
0
100
AcDbCircle
 62
7
  6
CONTINUOUS
 10
6.1303672762
 20
5.5201198968
 40
2.375
100
AcDbArc
 50
100.1174382151
 51
199.8825617849
  0
ARC
  5
295
100
AcDbEntity
  8
0
100
AcDbCircle
 62
7
  6
CONTINUOUS
 10
6.1303672762
 20
5.5201198968
 40
2.375
100
AcDbArc
 50
220.1174382151
 51
319.8825617849
  0
ARC
  5
296
100
AcDbEntity
  8
0
100
AcDbCircle
 62
7
  6
CONTINUOUS
 10
6.1303672762
 20
5.5201198968
 40
2.375
100
AcDbArc
 50
340.1174382151
 51
79.8825617849
  0
ARC
  5
297
100
AcDbEntity
  8
03__ASM_ALL_CURVES
100
AcDbCircle
 62
8
  6
PHANTOM
 10
6.1303672762
 20
5.5201198968
 40
2.0625
100
AcDbArc
 50
84.8039187465
 51
95.1960812535
  0
ARC
  5
298
100
AcDbEntity
  8
03__ASM_ALL_CURVES
100
AcDbCircle
 62
8
  6
PHANTOM
 10
6.1303672762
 20
5.5201198968
 40
2.0625
100
AcDbArc
 50
204.799425648
 51
215.2006618959
  0
ARC
  5
299
100
AcDbEntity
  8
03__ASM_ALL_CURVES
100
AcDbCircle
 62
8
  6
PHANTOM
 10
6.1303672762
 20
5.5201198968
 40
2.0625
100
AcDbArc
 50
324.7993021924
 51
335.2006280839
  0
CIRCLE
  5
29A
100
AcDbEntity
  8
0
100
AcDbCircle
 62
7
  6
CONTINUOUS
 10
6.1303672762
 20
5.5201198968
 40
1.4375
  0
CIRCLE
  5
29B
100
AcDbEntity
  8
0
100
AcDbCircle
 62
7
  6
CONTINUOUS
 10
6.1303672762
 20
5.5201198968
 40
1.3125
  0
ARC
  5
29C
100
AcDbEntity
  8
0
100
AcDbCircle
 62
7
  6
CONTINUOUS
 10
7.9165446715
 20
4.4888698968
 40
0.5
100
AcDbArc
 50
240.0
 51
60.0
  0
CIRCLE
  5
29D
100
AcDbEntity
  8
0
100
AcDbCircle
 62
7
  6
CONTINUOUS
 10
7.9165446715
 20
4.4888698968
 40
0.1875
  0
ARC
  5
29E
100
AcDbEntity
  8
0
100
AcDbCircle
 62
7
  6
CONTINUOUS
 10
7.0543842746
 20
4.3226856244
 40
0.075
100
AcDbArc
 50
60.0
 51
108.6640500935
  0
ARC
  5
29F
100
AcDbEntity
  8
0
100
AcDbCircle
 62
7
  6
CONTINUOUS
 10
7.6293842746
 20
5.3186148388
 40
0.075
100
AcDbArc
 50
191.3359499065
 51
240.0
  0
ARC
  5
2A0
100
AcDbEntity
  8
0
100
AcDbCircle
 62
7
  6
CONTINUOUS
 10
6.1303672762
 20
7.5826198968
 40
0.5
100
AcDbArc
 50
0.0
 51
180.0
  0
CIRCLE
  5
2A1
100
AcDbEntity
  8
0
100
AcDbCircle
 62
7
  6
CONTINUOUS
 10
6.1303672762
 20
7.5826198968
 40
0.1875
  0
ARC
  5
2A2
100
AcDbEntity
  8
0
100
AcDbCircle
 62
7
  6
CONTINUOUS
 10
6.7053672762
 20
6.9190592271
 40
0.075
100
AcDbArc
 50
180.0
 51
228.6640500935
  0
ARC
  5
2A3
100
AcDbEntity
  8
0
100
AcDbCircle
 62
7
  6
CONTINUOUS
 10
4.9583720839
 20
11.3312977814
 40
0.2
100
AcDbArc
 50
180.0
 51
270.0
  0
ARC
  5
2A4
100
AcDbEntity
  8
0
100
AcDbCircle
 62
7
  6
CONTINUOUS
 10
7.1833720839
 20
11.3312977814
 40
0.2
100
AcDbArc
 50
270.0
 51
360.0
  0
ARC
  5
2A5
100
AcDbEntity
  8
0
100
AcDbCircle
 62
7
  6
CONTINUOUS
 10
8.2820494792
 20
13.5812977814
 40
0.075
100
AcDbArc
 50
270.0
 51
360.0
  0
ARC
  5
2A6
100
AcDbEntity
  8
0
100
AcDbCircle
 62
7
  6
CONTINUOUS
 10
7.5833720839
 20
13.5562977814
 40
0.075
100
AcDbArc
 50
90.0
 51
180.0
  0
ARC
  5
2A7
100
AcDbEntity
  8
0
100
AcDbCircle
 62
7
  6
CONTINUOUS
 10
4.5583720839
 20
13.5562977814
 40
0.075
100
AcDbArc
 50
0.0
 51
90.0
  0
ARC
  5
2A8
100
AcDbEntity
  8
0
100
AcDbCircle
 62
7
  6
CONTINUOUS
 10
3.8596946886
 20
13.5812977814
 40
0.075
100
AcDbArc
 50
180.0
 51
270.0
  0
ARC
  5
2A9
100
AcDbEntity
  8
0
100
AcDbCircle
 62
7
  6
CONTINUOUS
 10
6.4958720839
 20
13.5812977814
 40
0.075
100
AcDbArc
 50
270.0
 51
360.0
  0
ARC
  5
2AA
100
AcDbEntity
  8
0
100
AcDbCircle
 62
7
  6
CONTINUOUS
 10
5.6458720839
 20
13.5812977814
 40
0.075
100
AcDbArc
 50
180.0
 51
270.0
  0
ARC
  5
2AB
100
AcDbEntity
  8
0
100
AcDbCircle
 62
7
  6
CONTINUOUS
 10
4.7083720839
 20
12.0812977814
 40
0.075
100
AcDbArc
 50
180.0
 51
270.0
  0
ARC
  5
2AC
100
AcDbEntity
  8
0
100
AcDbCircle
 62
7
  6
CONTINUOUS
 10
7.4333720839
 20
12.0812977814
 40
0.075
100
AcDbArc
 50
270.0
 51
360.0
  0
ARC
  5
2AD
100
AcDbEntity
  8
0
100
AcDbCircle
 62
7
  6
CONTINUOUS
 10
14.2916052569
 20
6.5731247044
 40
0.2
100
AcDbArc
 50
90.0
 51
180.0
  0
ARC
  5
2AE
100
AcDbEntity
  8
0
100
AcDbCircle
 62
7
  6
CONTINUOUS
 10
14.2916052569
 20
4.3481247044
 40
0.2
100
AcDbArc
 50
180.0
 51
270.0
  0
ARC
  5
2AF
100
AcDbEntity
  8
0
100
AcDbCircle
 62
7
  6
CONTINUOUS
 10
16.5076734705
 20
6.8880642711
 40
0.0839317903
100
AcDbArc
 50
340.1496712927
 51
0.0173437636
  0
ARC
  5
2B0
100
AcDbEntity
  8
0
100
AcDbCircle
 62
7
  6
CONTINUOUS
 10
16.5416052569
 20
4.0043747044
 40
0.075
100
AcDbArc
 50
180.0
 51
270.0
  0
ARC
  5
2B1
100
AcDbEntity
  8
0
100
AcDbCircle
 62
7
  6
CONTINUOUS
 10
15.0416052569
 20
6.8231247044
 40
0.075
100
AcDbArc
 50
90.0
 51
180.0
  0
ARC
  5
2B2
100
AcDbEntity
  8
0
100
AcDbCircle
 62
7
  6
CONTINUOUS
 10
15.0416052569
 20
4.0981247044
 40
0.075
100
AcDbArc
 50
180.0
 51
270.0
  0
ARC
  5
2B3
100
AcDbEntity
  8
0
100
AcDbCircle
 62
7
  6
CONTINUOUS
 10
16.3916052569
 20
6.9731247044
 40
0.075
100
AcDbArc
 50
270.0
 51
360.0
  0
ARC
  5
2B4
100
AcDbEntity
  8
0
100
AcDbCircle
 62
7
  6
CONTINUOUS
 10
16.5416052569
 20
7.9481247044
 40
0.075
100
AcDbArc
 50
90.0
 51
180.0
  0
ARC
  5
2B5
100
AcDbEntity
  8
0
100
AcDbCircle
 62
7
  6
CONTINUOUS
 10
14.1972139979
 20
13.0064317577
 40
0.3228177201
100
AcDbArc
 50
138.2642755724
 51
139.4273097391
  0
ARC
  5
2B6
100
AcDbEntity
  8
0
100
AcDbCircle
 62
7
  6
CONTINUOUS
 10
14.1158789546
 20
12.8635064152
 40
0.3146506036
100
AcDbArc
 50
166.8023854164
 51
168.0474754416
  0
ARC
  5
2B7
100
AcDbEntity
  8
0
100
AcDbCircle
 62
7
  6
CONTINUOUS
 10
14.0923279108
 20
12.868517003
 40
0.2905724599
100
AcDbArc
 50
168.0523080555
 51
168.4497921472
  0
ARC
  5
2B8
100
AcDbEntity
  8
0
100
AcDbCircle
 62
7
  6
CONTINUOUS
 10
13.8773435982
 20
13.0745115527
 40
0.2584567222
100
AcDbArc
 50
158.6373146629
 51
159.1387629221
  0
ARC
  5
2B9
100
AcDbEntity
  8
0
100
AcDbCircle
 62
7
  6
CONTINUOUS
 10
13.8521716922
 20
13.0838466176
 40
0.2316107987
100
AcDbArc
 50
159.0792054035
 51
162.7544052855
  0
ARC
  5
2BA
100
AcDbEntity
  8
0
100
AcDbCircle
 62
7
  6
CONTINUOUS
 10
14.3252722433
 20
13.7683785299
 40
0.1580518021
100
AcDbArc
 50
328.1751885593
 51
330.1496792579
  0
ARC
  5
2BB
100
AcDbEntity
  8
0
100
AcDbCircle
 62
7
  6
CONTINUOUS
 10
14.3319923093
 20
13.7645360108
 40
0.1503107372
100
AcDbArc
 50
330.1450703365
 51
331.7875787825
  0
ARC
  5
2BC
100
AcDbEntity
  8
0
100
AcDbCircle
 62
7
  6
CONTINUOUS
 10
13.702648473
 20
12.9096369344
 40
0.1115960293
100
AcDbArc
 50
63.115623833
 51
69.3497598858
  0
ARC
  5
2BD
100
AcDbEntity
  8
0
100
AcDbCircle
 62
7
  6
CONTINUOUS
 10
13.9095877098
 20
13.3178227164
 40
0.1115459255
100
AcDbArc
 50
236.2881793152
 51
243.1174880564
  0
ARC
  5
2BE
100
AcDbEntity
  8
0
100
AcDbCircle
 62
7
  6
CONTINUOUS
 10
13.702747422
 20
12.9098912662
 40
0.1113231399
100
AcDbArc
 50
69.3514659514
 51
71.5687113085
  0
ARC
  5
2BF
100
AcDbEntity
  8
0
100
AcDbCircle
 62
7
  6
CONTINUOUS
 10
13.9094557717
 20
13.3176212203
 40
0.1113050853
100
AcDbArc
 50
234.691751852
 51
236.2871074515
  0
ARC
  5
2C0
100
AcDbEntity
  8
0
100
AcDbCircle
 62
7
  6
CONTINUOUS
 10
13.7575054953
 20
13.1883218146
 40
0.0959178895
100
AcDbArc
 50
21.5875747881
 51
23.7118977617
  0
ARC
  5
2C1
100
AcDbEntity
  8
0
100
AcDbCircle
 62
7
  6
CONTINUOUS
 10
13.7172526843
 20
13.108851139
 40
0.0958681438
100
AcDbArc
 50
282.490528636
 51
284.6440093937
  0
ARC
  5
2C2
100
AcDbEntity
  8
0
100
AcDbCircle
 62
7
  6
CONTINUOUS
 10
13.7173093433
 20
13.1085998933
 40
0.0956105906
100
AcDbArc
 50
281.5818477119
 51
282.4899419126
  0
ARC
  5
2C3
100
AcDbEntity
  8
0
100
AcDbCircle
 62
7
  6
CONTINUOUS
 10
13.7578042998
 20
13.1884516993
 40
0.0955920788
100
AcDbArc
 50
23.7126415162
 51
24.6462652707
  0
SPLINE
  5
2C4
100
AcDbEntity
  8
0
100
AcDbSpline
 62
7
  6
CONTINUOUS
 70
0
 71
3
 72
10
 73
6
 74
0
 42
0.0000001
 43
0.0000001
 44
0.0000000001
 40
0.0
 40
0.0
 40
0.0
 40
0.0
 40
0.4834781936
 40
0.7370939679
 40
1.0
 40
1.0
 40
1.0
 40
1.0
 10
7.0102704949
 20
4.3833804474
 30
0.0
 10
7.013164777
 20
4.3856207005
 30
0.0
 10
7.0179481805
 20
4.3885749413
 30
0.0
 10
7.0248304468
 20
4.3917342589
 30
0.0
 10
7.0284972944
 20
4.3931045909
 30
0.0
 10
7.0303828792
 20
4.3937414688
 30
0.0
  0
SPLINE
  5
2C5
100
AcDbEntity
  8
0
100
AcDbSpline
 62
7
  6
CONTINUOUS
 70
0
 71
3
 72
10
 73
6
 74
0
 42
0.0000001
 43
0.0000001
 44
0.0000000001
 40
0.0
 40
0.0
 40
0.0
 40
0.0
 40
0.4834781936
 40
0.7370939679
 40
1.0
 40
1.0
 40
1.0
 40
1.0
 10
6.6748609074
 20
6.8505081617
 30
0.0
 10
6.6714736503
 20
6.851894557
 30
0.0
 10
6.6665235009
 20
6.8545599855
 30
0.0
 10
6.6603463185
 20
6.8589405443
 30
0.0
 10
6.6573261524
 20
6.8614309614
 30
0.0
 10
6.6558318076
 20
6.8627454867
 30
0.0
  0
SPLINE
  5
2C6
100
AcDbEntity
  8
0
100
AcDbSpline
 62
7
  6
CONTINUOUS
 70
0
 71
3
 72
10
 73
6
 74
0
 42
0.0000001
 43
0.0000001
 44
0.0000000001
 40
0.0
 40
0.0
 40
0.0
 40
0.0
 40
0.2628956197
 40
0.5165233206
 40
1.0
 40
1.0
 40
1.0
 40
1.0
 10
7.5558474106
 20
5.3038727348
 30
0.0
 10
7.5554561719
 20
5.3058240586
 30
0.0
 10
7.5548093227
 20
5.309684797
 30
0.0
 10
7.5541044958
 20
5.3172247001
 30
0.0
 10
7.5542710805
 20
5.3228444524
 30
0.0
 10
7.5547641261
 20
5.3264710811
 30
0.0
  0
SPLINE
  5
2C7
100
AcDbEntity
  8
0
100
AcDbSpline
 62
7
  6
CONTINUOUS
 70
0
 71
3
 72
10
 73
6
 74
0
 42
0.0000001
 43
0.0000001
 44
0.0000000001
 40
0.0
 40
0.0
 40
0.0
 40
0.0
 40
0.2628956197
 40
0.5165233206
 40
1.0
 40
1.0
 40
1.0
 40
1.0
 10
5.2303516732
 20
4.3937414688
 30
0.0
 10
5.2322371886
 20
4.3931046295
 30
0.0
 10
5.2359041106
 20
4.3917344481
 30
0.0
 10
5.2427862718
 20
4.3885748945
 30
0.0
 10
5.2475698277
 20
4.3856207518
 30
0.0
 10
5.2504640574
 20
4.3833804474
 30
0.0
  0
SPLINE
  5
2C8
100
AcDbEntity
  8
0
100
AcDbSpline
 62
7
  6
CONTINUOUS
 70
0
 71
3
 72
10
 73
6
 74
0
 42
0.0000001
 43
0.0000001
 44
0.0000000001
 40
0.0
 40
0.0
 40
0.0
 40
0.0
 40
0.2629045531
 40
0.5165294281
 40
1.0
 40
1.0
 40
1.0
 40
1.0
 10
4.7048871417
 20
5.3038727348
 30
0.0
 10
4.7052783794
 20
5.3058241266
 30
0.0
 10
4.7059251206
 20
5.3096849258
 30
0.0
 10
4.7066300297
 20
5.3172248159
 30
0.0
 10
4.7064633933
 20
5.3228444907
 30
0.0
 10
4.7059704262
 20
5.3264710811
 30
0.0
  0
SPLINE
  5
2C9
100
AcDbEntity
  8
0
100
AcDbSpline
 62
7
  6
CONTINUOUS
 70
0
 71
3
 72
10
 73
6
 74
0
 42
0.0000001
 43
0.0000001
 44
0.0000000001
 40
0.0
 40
0.0
 40
0.0
 40
0.0
 40
0.2629122948
 40
0.5165496515
 40
1.0
 40
1.0
 40
1.0
 40
1.0
 10
5.6049027447
 20
6.8627454867
 30
0.0
 10
5.603408376
 20
6.8614309211
 30
0.0
 10
5.6003879802
 20
6.8589404485
 30
0.0
 10
5.5942106539
 20
6.8545601404
 30
0.0
 10
5.5892607297
 20
6.851894408
 30
0.0
 10
5.585873645
 20
6.8505081617
 30
0.0
  0
SPLINE
  5
2CA
100
AcDbEntity
  8
0
100
AcDbSpline
 62
7
  6
CONTINUOUS
 70
0
 71
3
 72
36
 73
32
 74
0
 42
0.0000001
 43
0.0000001
 44
0.0000000001
 40
0.0
 40
0.0
 40
0.0
 40
0.0
 40
0.0313902019
 40
0.0627047813
 40
0.0939422084
 40
0.1251187497
 40
0.156252667
 40
0.187360333
 40
0.2184533215
 40
0.2495402789
 40
0.2806251955
 40
0.3117129301
 40
0.3428066993
 40
0.3739051809
 40
0.4050061324
 40
0.436107546
 40
0.4672070522
 40
0.4983032935
 40
0.5293954512
 40
0.5604865609
 40
0.5915797857
 40
0.6226761253
 40
0.6537869824
 40
0.6849251398
 40
0.7161047641
 40
0.7473382321
 40
0.7786431195
 40
0.8100323088
 40
0.8730477534
 40
0.9364146656
 40
1.0
 40
1.0
 40
1.0
 40
1.0
 10
4.9795515987
 20
13.0702500047
 30
0.0
 10
4.9780366337
 20
13.0736048195
 30
0.0
 10
4.9747549937
 20
13.0801945958
 30
0.0
 10
4.9690876305
 20
13.0896539578
 30
0.0
 10
4.9626966467
 20
13.0986110749
 30
0.0
 10
4.9556060551
 20
13.106998084
 30
0.0
 10
4.9478453079
 20
13.1147486019
 30
0.0
 10
4.9394518794
 20
13.1217947956
 30
0.0
 10
4.930473984
 20
13.1280707723
 30
0.0
 10
4.9209700233
 20
13.1335130975
 30
0.0
 10
4.9110081911
 20
13.1380631417
 30
0.0
 10
4.9006663366
 20
13.1416704455
 30
0.0
 10
4.8900301029
 20
13.1442932653
 30
0.0
 10
4.8791918706
 20
13.1458993595
 30
0.0
 10
4.8682491821
 20
13.1464704043
 30
0.0
 10
4.8573016145
 20
13.145998345
 30
0.0
 10
4.8464490209
 20
13.1444889623
 30
0.0
 10
4.8357887195
 20
13.1419616678
 30
0.0
 10
4.8254139426
 20
13.1384451638
 30
0.0
 10
4.8154111238
 20
13.1339810259
 30
0.0
 10
4.8058590024
 20
13.1286197706
 30
0.0
 10
4.7968275411
 20
13.1224183603
 30
0.0
 10
4.7883754202
 20
13.1154405755
 30
0.0
 10
4.7805522485
 20
13.1077512524
 30
0.0
 10
4.7733958817
 20
13.0994195943
 30
0.0
 10
4.7669384426
 20
13.090512039
 30
0.0
 10
4.7612016433
 20
13.0810954362
 30
0.0
 10
4.754530451
 20
13.0679361199
 30
0.0
 10
4.7480714945
 20
13.0505183389
 30
0.0
 10
4.7434118977
 20
13.0286630361
 30
0.0
 10
4.7423745566
 20
13.0137542108
 30
0.0
 10
4.7423745566
 20
13.0062977814
 30
0.0
  0
SPLINE
  5
2CB
100
AcDbEntity
  8
0
100
AcDbSpline
 62
7
  6
CONTINUOUS
 70
0
 71
3
 72
36
 73
32
 74
0
 42
0.0000001
 43
0.0000001
 44
0.0000000001
 40
0.0
 40
0.0
 40
0.0
 40
0.0
 40
0.0635853848
 40
0.1269492184
 40
0.1585231927
 40
0.1900027204
 40
0.2213882485
 40
0.2526881393
 40
0.2839171661
 40
0.3150926021
 40
0.3462251053
 40
0.3773293828
 40
0.4084213888
 40
0.4395088436
 40
0.4705965757
 40
0.5016860747
 40
0.5327796337
 40
0.5638784495
 40
0.5949799724
 40
0.6260822386
 40
0.6571833252
 40
0.6882803958
 40
0.719373574
 40
0.7504638806
 40
0.7815565347
 40
0.8126569213
 40
0.8437714594
 40
0.8749113515
 40
0.9060922367
 40
0.9373365209
 40
1.0
 40
1.0
 40
1.0
 40
1.0
 10
4.7423745566
 20
13.0062977814
 30
0.0
 10
4.7423745566
 20
12.998841376
 30
0.0
 10
4.7434110209
 20
12.9839349814
 30
0.0
 10
4.7473023963
 20
12.9656898192
 30
0.0
 10
4.7519552273
 20
12.9516023221
 30
0.0
 10
4.7562021627
 20
12.9413628883
 30
0.0
 10
4.7611994777
 20
12.9315039252
 30
0.0
 10
4.766934851
 20
12.9220888101
 30
0.0
 10
4.7733911532
 20
12.9131823392
 30
0.0
 10
4.7805454836
 20
12.9048512372
 30
0.0
 10
4.7883669395
 20
12.89716298
 30
0.0
 10
4.7968165258
 20
12.8901852693
 30
0.0
 10
4.8058458186
 20
12.8839842308
 30
0.0
 10
4.8153956314
 20
12.878622238
 30
0.0
 10
4.8253964621
 20
12.8741571054
 30
0.0
 10
4.8357697756
 20
12.8706396655
 30
0.0
 10
4.8464287745
 20
12.8681102037
 30
0.0
 10
4.8572807206
 20
12.8665990513
 30
0.0
 10
4.8682282315
 20
12.8661253751
 30
0.0
 10
4.8791714949
 20
12.8666937881
 30
0.0
 10
4.8900107406
 20
12.8682986899
 30
0.0
 10
4.9006486536
 20
12.8709199473
 30
0.0
 10
4.9109927461
 20
12.8745258488
 30
0.0
 10
4.9209566327
 20
12.8790759507
 30
0.0
 10
4.9304633635
 20
12.8845177231
 30
0.0
 10
4.9394435065
 20
12.8907945139
 30
0.0
 10
4.9478393493
 20
12.8978415398
 30
0.0
 10
4.9556019054
 20
12.9055927138
 30
0.0
 10
4.9626944589
 20
12.9139818864
 30
0.0
 10
4.9712219532
 20
12.9259312515
 30
0.0
 10
4.9765273239
 20
12.9356484517
 30
0.0
 10
4.9795515987
 20
12.942345558
 30
0.0
  0
SPLINE
  5
2CC
100
AcDbEntity
  8
0
100
AcDbSpline
 62
7
  6
CONTINUOUS
 70
0
 71
3
 72
21
 73
17
 74
0
 42
0.0000001
 43
0.0000001
 44
0.0000000001
 40
0.0
 40
0.0
 40
0.0
 40
0.0
 40
0.1311786119
 40
0.1948086759
 40
0.2572990042
 40
0.3188427493
 40
0.3796495991
 40
0.4399525092
 40
0.4999999982
 40
0.5600474872
 40
0.6203503975
 40
0.6811572476
 40
0.7427009931
 40
0.8051913217
 40
0.8688213865
 40
1.0
 40
1.0
 40
1.0
 40
1.0
 10
5.0868446095
 20
12.8168547243
 30
0.0
 10
5.0811322126
 20
12.8121905718
 30
0.0
 10
5.0721222391
 20
12.8058623046
 30
0.0
 10
5.0593475744
 20
12.7990506302
 30
0.0
 10
5.0496423961
 20
12.7948788499
 30
0.0
 10
5.0397630131
 20
12.7916144139
 30
0.0
 10
5.02975088
 20
12.789271882
 30
0.0
 10
5.019650121
 20
12.7878617756
 30
0.0
 10
5.0095048056
 20
12.7873913626
 30
0.0
 10
4.9993594901
 20
12.7878617755
 30
0.0
 10
4.9892587311
 20
12.7892718819
 30
0.0
 10
4.979246598
 20
12.7916144138
 30
0.0
 10
4.9693672149
 20
12.7948788497
 30
0.0
 10
4.9596620366
 20
12.7990506301
 30
0.0
 10
4.9468873717
 20
12.8058623045
 30
0.0
 10
4.937877398
 20
12.8121905717
 30
0.0
 10
4.9321650011
 20
12.8168547243
 30
0.0
  0
LINE
  5
2CD
100
AcDbEntity
  8
0
100
AcDbLine
 62
7
  6
CONTINUOUS
 10
6.6153657151
 20
13.5562977814
 11
6.5963366153
 21
13.5812977814
  0
SPLINE
  5
2CE
100
AcDbEntity
  8
0
100
AcDbSpline
 62
7
  6
CONTINUOUS
 70
0
 71
3
 72
21
 73
17
 74
0
 42
0.0000001
 43
0.0000001
 44
0.0000000001
 40
0.0
 40
0.0
 40
0.0
 40
0.0
 40
0.1620632042
 40
0.2405244476
 40
0.3171158411
 40
0.4638790567
 40
0.5335608267
 40
0.6004203823
 40
0.6641750555
 40
0.7245451854
 40
0.7811944851
 40
0.8337789584
 40
0.8820622013
 40
0.9259927116
 40
0.9654744954
 40
1.0
 40
1.0
 40
1.0
 40
1.0
 10
6.5963366153
 20
13.5812977814
 30
0.0
 10
6.5946039747
 20
13.5835260131
 30
0.0
 10
6.5920609807
 20
13.5868555679
 30
0.0
 10
6.5887991119
 20
13.5913128231
 30
0.0
 10
6.5857654386
 20
13.5956059447
 30
0.0
 10
6.5829293045
 20
13.5998506541
 30
0.0
 10
6.5803020019
 20
13.604027497
 30
0.0
 10
6.5785038672
 20
13.6070171826
 30
0.0
 10
6.5768573458
 20
13.6099078058
 30
0.0
 10
6.5753760977
 20
13.6126866409
 30
0.0
 10
6.57407478
 20
13.6153392246
 30
0.0
 10
6.5729678884
 20
13.6178504766
 30
0.0
 10
6.5720708848
 20
13.6202089468
 30
0.0
 10
6.5714039814
 20
13.6224062458
 30
0.0
 10
6.5709865911
 20
13.6244203834
 30
0.0
 10
6.5708720839
 20
13.6257094795
 30
0.0
 10
6.5708720839
 20
13.6263107981
 30
0.0
  0
SPLINE
  5
2CF
100
AcDbEntity
  8
0
100
AcDbSpline
 62
7
  6
CONTINUOUS
 70
0
 71
3
 72
15
 73
11
 74
0
 42
0.0000001
 43
0.0000001
 44
0.0000000001
 40
0.0
 40
0.0
 40
0.0
 40
0.0
 40
0.1097107557
 40
0.2245813741
 40
0.3445661742
 40
0.4692886994
 40
0.5981115508
 40
0.7301892037
 40
0.8645165891
 40
1.0
 40
1.0
 40
1.0
 40
1.0
 10
5.0868446095
 20
13.1957408384
 30
0.0
 10
5.0928209468
 20
13.1908611795
 30
0.0
 10
5.1043109294
 20
13.1799334341
 30
0.0
 10
5.1195034002
 20
13.1609757456
 30
0.0
 10
5.1328090988
 20
13.139401885
 30
0.0
 10
5.1440060738
 20
13.1155820028
 30
0.0
 10
5.1529132146
 20
13.0899175586
 30
0.0
 10
5.1593828647
 20
13.0628409908
 30
0.0
 10
5.1633085249
 20
13.0348120167
 30
0.0
 10
5.1641844137
 20
13.0158256638
 30
0.0
 10
5.1641844137
 20
13.0062977814
 30
0.0
  0
SPLINE
  5
2D0
100
AcDbEntity
  8
0
100
AcDbSpline
 62
7
  6
CONTINUOUS
 70
0
 71
3
 72
21
 73
17
 74
0
 42
0.0000001
 43
0.0000001
 44
0.0000000001
 40
0.0
 40
0.0
 40
0.0
 40
0.0
 40
0.1311786119
 40
0.1948086759
 40
0.2572990042
 40
0.3188427493
 40
0.3796495991
 40
0.4399525092
 40
0.4999999982
 40
0.5600474872
 40
0.6203503975
 40
0.6811572476
 40
0.7427009931
 40
0.8051913217
 40
0.8688213865
 40
1.0
 40
1.0
 40
1.0
 40
1.0
 10
4.9321650011
 20
13.1957408384
 30
0.0
 10
4.937877398
 20
13.200404991
 30
0.0
 10
4.9468873715
 20
13.2067332581
 30
0.0
 10
4.9596620362
 20
13.2135449325
 30
0.0
 10
4.9693672145
 20
13.2177167128
 30
0.0
 10
4.9792465975
 20
13.2209811488
 30
0.0
 10
4.9892587306
 20
13.2233236807
 30
0.0
 10
4.9993594896
 20
13.2247337872
 30
0.0
 10
5.009504805
 20
13.2252042001
 30
0.0
 10
5.0196501205
 20
13.2247337872
 30
0.0
 10
5.0297508795
 20
13.2233236808
 30
0.0
 10
5.0397630126
 20
13.2209811489
 30
0.0
 10
5.0496423957
 20
13.217716713
 30
0.0
 10
5.059347574
 20
13.2135449327
 30
0.0
 10
5.0721222389
 20
13.2067332582
 30
0.0
 10
5.0811322126
 20
13.200404991
 30
0.0
 10
5.0868446095
 20
13.1957408384
 30
0.0
  0
SPLINE
  5
2D1
100
AcDbEntity
  8
0
100
AcDbSpline
 62
7
  6
CONTINUOUS
 70
0
 71
3
 72
11
 73
7
 74
0
 42
0.0000001
 43
0.0000001
 44
0.0000000001
 40
0.0
 40
0.0
 40
0.0
 40
0.0
 40
0.2415266103
 40
0.427521769
 40
0.6166373735
 40
1.0
 40
1.0
 40
1.0
 40
1.0
 10
4.9795515672
 20
12.9423455865
 30
0.0
 10
4.9817299397
 20
12.9471697348
 30
0.0
 10
4.9850798564
 20
12.955946267
 30
0.0
 10
4.9886764354
 20
12.9689864413
 30
0.0
 10
4.9918198805
 20
12.9853215044
 30
0.0
 10
4.9927595283
 20
12.9978961982
 30
0.0
 10
4.9927595283
 20
13.0062977814
 30
0.0
  0
SPLINE
  5
2D2
100
AcDbEntity
  8
0
100
AcDbSpline
 62
7
  6
CONTINUOUS
 70
0
 71
3
 72
15
 73
11
 74
0
 42
0.0000001
 43
0.0000001
 44
0.0000000001
 40
0.0
 40
0.0
 40
0.0
 40
0.0
 40
0.1354834092
 40
0.2698107933
 40
0.4018884455
 40
0.5307112969
 40
0.6554338224
 40
0.7754186233
 40
0.8902892429
 40
1.0
 40
1.0
 40
1.0
 40
1.0
 10
5.1641844137
 20
13.0062977814
 30
0.0
 10
5.1641844137
 20
12.9967698991
 30
0.0
 10
5.1633085249
 20
12.9777835464
 30
0.0
 10
5.1593828648
 20
12.9497545725
 30
0.0
 10
5.1529132148
 20
12.9226780048
 30
0.0
 10
5.1440060741
 20
12.8970135606
 30
0.0
 10
5.1328090992
 20
12.8731936784
 30
0.0
 10
5.1195034005
 20
12.8516198176
 30
0.0
 10
5.1043109295
 20
12.8326621288
 30
0.0
 10
5.0928209468
 20
12.8217343833
 30
0.0
 10
5.0868446095
 20
12.8168547243
 30
0.0
  0
SPLINE
  5
2D3
100
AcDbEntity
  8
0
100
AcDbSpline
 62
7
  6
CONTINUOUS
 70
0
 71
3
 72
12
 73
8
 74
0
 42
0.0000001
 43
0.0000001
 44
0.0000000001
 40
0.0
 40
0.0
 40
0.0
 40
0.0
 40
0.1282753169
 40
0.2563057862
 40
0.4469793822
 40
0.635149764
 40
1.0
 40
1.0
 40
1.0
 40
1.0
 10
4.9927595283
 20
13.0062977814
 30
0.0
 10
4.9927595283
 20
13.0091091284
 30
0.0
 10
4.9926181336
 20
13.0147275935
 30
0.0
 10
4.9918806309
 20
13.024499317
 30
0.0
 10
4.9903434164
 20
13.0355145248
 30
0.0
 10
4.9868459739
 20
13.0514433929
 30
0.0
 10
4.9828423695
 20
13.0629622795
 30
0.0
 10
4.9795515672
 20
13.0702499763
 30
0.0
  0
SPLINE
  5
2D4
100
AcDbEntity
  8
0
100
AcDbSpline
 62
7
  6
CONTINUOUS
 70
0
 71
3
 72
21
 73
17
 74
0
 42
0.0000001
 43
0.0000001
 44
0.0000000001
 40
0.0
 40
0.0
 40
0.0
 40
0.0
 40
0.0345245892
 40
0.0740062741
 40
0.1179385895
 40
0.1662227241
 40
0.2188067655
 40
0.2754558105
 40
0.3358262803
 40
0.3995810236
 40
0.4664402641
 40
0.5361217745
 40
0.6828845104
 40
0.7594757977
 40
0.8379369292
 40
1.0
 40
1.0
 40
1.0
 40
1.0
 10
5.5708720839
 20
13.6263107981
 30
0.0
 10
5.5708720839
 20
13.6257094955
 30
0.0
 10
5.5707575718
 20
13.624420417
 30
0.0
 10
5.5703401651
 20
13.62240627
 30
0.0
 10
5.5696732832
 20
13.6202089178
 30
0.0
 10
5.5687762723
 20
13.6178504069
 30
0.0
 10
5.567669351
 20
13.6153391643
 30
0.0
 10
5.5663680343
 20
13.6126865873
 30
0.0
 10
5.5648867894
 20
13.6099077476
 30
0.0
 10
5.5632402728
 20
13.6070171199
 30
0.0
 10
5.5614421367
 20
13.6040274452
 30
0.0
 10
5.5588148007
 20
13.5998506454
 30
0.0
 10
5.555978712
 20
13.5956059249
 30
0.0
 10
5.5529450748
 20
13.5913127924
 30
0.0
 10
5.549683202
 20
13.5868555477
 30
0.0
 10
5.5471401916
 20
13.5835260111
 30
0.0
 10
5.5454075524
 20
13.5812977814
 30
0.0
  0
LINE
  5
2D5
100
AcDbEntity
  8
0
100
AcDbLine
 62
7
  6
CONTINUOUS
 10
5.5454075524
 20
13.5812977814
 11
5.5263784526
 21
13.5562977814
  0
SPLINE
  5
2D6
100
AcDbEntity
  8
0
100
AcDbSpline
 62
7
  6
CONTINUOUS
 70
0
 71
3
 72
11
 73
7
 74
0
 42
0.0000001
 43
0.0000001
 44
0.0000000001
 40
0.0
 40
0.0
 40
0.0
 40
0.0
 40
0.2617361639
 40
0.5156923999
 40
0.7617608736
 40
1.0
 40
1.0
 40
1.0
 40
1.0
 10
4.8894461984
 20
13.1442231302
 30
0.0
 10
4.8923695084
 20
13.1493124793
 30
0.0
 10
4.8985304162
 20
13.1591167336
 30
0.0
 10
4.9088295651
 20
13.1727713168
 30
0.0
 10
4.9199701286
 20
13.1850477948
 30
0.0
 10
4.928026891
 20
13.1923620857
 30
0.0
 10
4.9321650011
 20
13.1957408384
 30
0.0
  0
SPLINE
  5
2D7
100
AcDbEntity
  8
0
100
AcDbSpline
 62
7
  6
CONTINUOUS
 70
0
 71
3
 72
11
 73
7
 74
0
 42
0.0000001
 43
0.0000001
 44
0.0000000001
 40
0.0
 40
0.0
 40
0.0
 40
0.0
 40
0.2382112477
 40
0.4842707737
 40
0.7382371911
 40
1.0
 40
1.0
 40
1.0
 40
1.0
 10
4.9321650011
 20
12.8168547243
 30
0.0
 10
4.928016138
 20
12.8202422569
 30
0.0
 10
4.9199390243
 20
12.8275770232
 30
0.0
 10
4.9087730596
 20
12.8398905793
 30
0.0
 10
4.8984532949
 20
12.8535886941
 30
0.0
 10
4.8922825197
 20
12.8634249387
 30
0.0
 10
4.8893551794
 20
12.8685310437
 30
0.0
  0
SPLINE
  5
2D8
100
AcDbEntity
  8
0
100
AcDbSpline
 62
7
  6
CONTINUOUS
 70
0
 71
3
 72
13
 73
9
 74
0
 42
0.0000001
 43
0.0000001
 44
0.0000000001
 40
0.0
 40
0.0
 40
0.0
 40
0.0
 40
0.246491797
 40
0.3705008018
 40
0.4952287255
 40
0.6206017084
 40
0.7465431209
 40
1.0
 40
1.0
 40
1.0
 40
1.0
 10
16.5166052569
 20
6.7910129694
 30
0.0
 10
16.5188004999
 20
6.7916829125
 30
0.0
 10
16.5220549268
 20
6.7928441917
 30
0.0
 10
16.526300583
 20
6.794645089
 30
0.0
 10
16.5294565437
 20
6.7961218203
 30
0.0
 10
16.5325719662
 20
6.7977219559
 30
0.0
 10
16.5366715693
 20
6.8000223324
 30
0.0
 10
16.539657273
 20
6.801917932
 30
0.0
 10
16.5416052569
 20
6.8032502944
 30
0.0
  0
SPLINE
  5
2D9
100
AcDbEntity
  8
0
100
AcDbSpline
 62
7
  6
CONTINUOUS
 70
0
 71
3
 72
18
 73
14
 74
0
 42
0.0000001
 43
0.0000001
 44
0.0000000001
 40
0.0
 40
0.0
 40
0.0
 40
0.0
 40
0.1143111107
 40
0.1726749132
 40
0.2318680065
 40
0.3526773427
 40
0.4766606523
 40
0.6037562522
 40
0.6684247645
 40
0.733759493
 40
0.7997032742
 40
0.8661745053
 40
1.0
 40
1.0
 40
1.0
 40
1.0
 10
16.5416052569
 20
6.8032502944
 30
0.0
 10
16.5439079515
 20
6.8048253155
 30
0.0
 10
16.5473010475
 20
6.8073319519
 30
0.0
 10
16.5516830812
 20
6.8109134531
 30
0.0
 10
16.5560716866
 20
6.8147333973
 30
0.0
 10
16.5614321455
 20
6.8198712976
 30
0.0
 10
16.5675170452
 20
6.8266165859
 30
0.0
 10
16.5722297016
 20
6.8327246365
 30
0.0
 10
16.5757563222
 20
6.8379162711
 30
0.0
 10
16.5782734928
 20
6.8419841241
 30
0.0
 10
16.5806333244
 20
6.8461959936
 30
0.0
 10
16.5835698579
 20
6.8519928714
 30
0.0
 10
16.5855073916
 20
6.8564926823
 30
0.0
 10
16.5866182737
 20
6.8595640348
 30
0.0
  0
SPLINE
  5
2DA
100
AcDbEntity
  8
0
100
AcDbSpline
 62
7
  6
CONTINUOUS
 70
0
 71
3
 72
11
 73
7
 74
0
 42
0.0000001
 43
0.0000001
 44
0.0000000001
 40
0.0
 40
0.0
 40
0.0
 40
0.0
 40
0.2667666657
 40
0.5195675293
 40
0.7623972053
 40
1.0
 40
1.0
 40
1.0
 40
1.0
 10
16.5866182737
 20
5.1941677412
 30
0.0
 10
16.587418199
 20
5.1930619295
 30
0.0
 10
16.5888425255
 20
5.1908060274
 30
0.0
 10
16.5904302809
 20
5.1872269622
 30
0.0
 10
16.5913899671
 20
5.1835834734
 30
0.0
 10
16.5916052569
 20
5.1811205218
 30
0.0
 10
16.5916052569
 20
5.1799049197
 30
0.0
  0
SPLINE
  5
2DB
100
AcDbEntity
  8
0
100
AcDbSpline
 62
7
  6
CONTINUOUS
 70
0
 71
3
 72
18
 73
14
 74
0
 42
0.0000001
 43
0.0000001
 44
0.0000000001
 40
0.0
 40
0.0
 40
0.0
 40
0.0
 40
0.044465768
 40
0.0930396237
 40
0.2002238823
 40
0.3184807196
 40
0.4452286295
 40
0.5110778897
 40
0.5782633688
 40
0.7158943885
 40
0.7860241183
 40
0.8568337196
 40
1.0
 40
1.0
 40
1.0
 40
1.0
 10
16.5866182737
 20
5.1941677412
 30
0.0
 10
16.5860320572
 20
5.194978123
 30
0.0
 10
16.5847734215
 20
5.196650566
 30
0.0
 10
16.5819901153
 20
5.200191335
 30
0.0
 10
16.578105119
 20
5.2049770891
 30
0.0
 10
16.572956328
 20
5.2109985937
 30
0.0
 10
16.5683047775
 20
5.2162195803
 30
0.0
 10
16.5643638945
 20
5.2205341069
 30
0.0
 10
16.5602210265
 20
5.2249954327
 30
0.0
 10
16.5559656888
 20
5.2294833111
 30
0.0
 10
16.5516384898
 20
5.2340151732
 30
0.0
 10
16.5472165534
 20
5.2386287108
 30
0.0
 10
16.5438648755
 20
5.2420831167
 30
0.0
 10
16.5416052569
 20
5.2443775424
 30
0.0
  0
SPLINE
  5
2DC
100
AcDbEntity
  8
0
100
AcDbSpline
 62
7
  6
CONTINUOUS
 70
0
 71
3
 72
14
 73
10
 74
0
 42
0.0000001
 43
0.0000001
 44
0.0000000001
 40
0.0
 40
0.0
 40
0.0
 40
0.0
 40
0.2489441497
 40
0.3739205929
 40
0.4991012732
 40
0.6244055314
 40
0.7497454339
 40
0.8749919681
 40
1.0
 40
1.0
 40
1.0
 40
1.0
 10
16.5416052569
 20
5.2443775424
 30
0.0
 10
16.539641945
 20
5.2463709454
 30
0.0
 10
16.5366471082
 20
5.2493203999
 30
0.0
 10
16.5325622877
 20
5.2531650788
 30
0.0
 10
16.5294469979
 20
5.2560117127
 30
0.0
 10
16.5262910761
 20
5.2588192917
 30
0.0
 10
16.5231028271
 20
5.2615912347
 30
0.0
 10
16.5198810402
 20
5.2643190472
 30
0.0
 10
16.5177027513
 20
5.2660987011
 30
0.0
 10
16.5166052569
 20
5.2669758888
 30
0.0
  0
SPLINE
  5
2DD
100
AcDbEntity
  8
0
100
AcDbSpline
 62
7
  6
CONTINUOUS
 70
0
 71
3
 72
15
 73
11
 74
0
 42
0.0000001
 43
0.0000001
 44
0.0000000001
 40
0.0
 40
0.0
 40
0.0
 40
0.0
 40
0.13811355
 40
0.2714885576
 40
0.4004246543
 40
0.5254201089
 40
0.6471125155
 40
0.7662285377
 40
0.8835680924
 40
1.0
 40
1.0
 40
1.0
 40
1.0
 10
16.1807432311
 20
11.6167047224
 30
0.0
 10
16.1888481148
 20
11.6001887057
 30
0.0
 10
16.203607109
 20
11.5671284442
 30
0.0
 10
16.2214498197
 20
11.5168013856
 30
0.0
 10
16.2345071162
 20
11.4668202031
 30
0.0
 10
16.2427214728
 20
11.4173898111
 30
0.0
 10
16.2460515844
 20
11.3686972865
 30
0.0
 10
16.2444797659
 20
11.3209299699
 30
0.0
 10
16.2380065039
 20
11.2742858096
 30
0.0
 10
16.2304183971
 20
11.244010918
 30
0.0
 10
16.2258395473
 20
11.2291928524
 30
0.0
  0
SPLINE
  5
2DE
100
AcDbEntity
  8
0
100
AcDbSpline
 62
7
  6
CONTINUOUS
 70
0
 71
3
 72
15
 73
11
 74
0
 42
0.0000001
 43
0.0000001
 44
0.0000000001
 40
0.0
 40
0.0
 40
0.0
 40
0.0
 40
0.1226643246
 40
0.2452670862
 40
0.3683754662
 40
0.4921977415
 40
0.6169162428
 40
0.7428808952
 40
0.8704292086
 40
1.0
 40
1.0
 40
1.0
 40
1.0
 10
13.5544660501
 20
11.4754712334
 30
0.0
 10
13.5485525438
 20
11.45633512
 30
0.0
 10
13.5387585006
 20
11.4174111396
 30
0.0
 10
13.530314763
 20
11.3577508364
 30
0.0
 10
13.5280943371
 20
11.2973471121
 30
0.0
 10
13.5319354783
 20
11.2366868154
 30
0.0
 10
13.541693535
 20
11.1762284441
 30
0.0
 10
13.5570737848
 20
11.1163311235
 30
0.0
 10
13.5778191248
 20
11.0572460675
 30
0.0
 10
13.5949087931
 20
11.018843553
 30
0.0
 10
13.6042292216
 20
10.9998505166
 30
0.0
  0
SPLINE
  5
2DF
100
AcDbEntity
  8
0
100
AcDbSpline
 62
7
  6
CONTINUOUS
 70
0
 71
3
 72
41
 73
37
 74
0
 42
0.0000001
 43
0.0000001
 44
0.0000000001
 40
0.0
 40
0.0
 40
0.0
 40
0.0
 40
0.0568497141
 40
0.0864429215
 40
0.1168630774
 40
0.148126477
 40
0.1802132549
 40
0.2130772242
 40
0.2466510783
 40
0.2808438844
 40
0.3155488388
 40
0.3506442061
 40
0.3859988382
 40
0.4214748558
 40
0.4569312995
 40
0.4922276534
 40
0.5272275507
 40
0.5618022746
 40
0.5958334968
 40
0.6292189762
 40
0.6618732477
 40
0.693734658
 40
0.7247648946
 40
0.7549552134
 40
0.7843258046
 40
0.812928801
 40
0.8408416719
 40
0.8681677913
 40
0.8816504577
 40
0.8950321215
 40
0.9215356891
 40
0.9478062273
 40
0.9608798505
 40
0.9739196114
 40
0.9869497961
 40
1.0
 40
1.0
 40
1.0
 40
1.0
 10
13.6042292216
 20
10.9998505166
 30
0.0
 10
13.6287443294
 20
10.9498939794
 30
0.0
 10
13.6736099517
 20
10.8774701239
 30
0.0
 10
13.7450879888
 20
10.7880915592
 30
0.0
 10
13.805992621
 20
10.7225981257
 30
0.0
 10
13.873023705
 20
10.659801096
 30
0.0
 10
13.9457872887
 20
10.5999111864
 30
0.0
 10
14.0238398577
 20
10.5431733549
 30
0.0
 10
14.1067167014
 20
10.4898431175
 30
0.0
 10
14.193917372
 20
10.440179568
 30
0.0
 10
14.2849095931
 20
10.3944469488
 30
0.0
 10
14.3791295857
 20
10.352899447
 30
0.0
 10
14.4759868339
 20
10.3157771781
 30
0.0
 10
14.5748730182
 20
10.2833079953
 30
0.0
 10
14.6751628753
 20
10.2556888851
 30
0.0
 10
14.7762279453
 20
10.2331029428
 30
0.0
 10
14.8774385577
 20
10.2156980327
 30
0.0
 10
14.9781748144
 20
10.2036018065
 30
0.0
 10
15.0778331046
 20
10.1969155521
 30
0.0
 10
15.1758319445
 20
10.1957159933
 30
0.0
 10
15.2716200974
 20
10.2000676655
 30
0.0
 10
15.364677259
 20
10.210017181
 30
0.0
 10
15.4545165189
 20
10.2256147764
 30
0.0
 10
15.5406788579
 20
10.2469089624
 30
0.0
 10
15.6227214321
 20
10.2739691166
 30
0.0
 10
15.7002009761
 20
10.3068720559
 30
0.0
 10
15.772631197
 20
10.3457131239
 30
0.0
 10
15.8285954545
 20
10.3832728685
 30
0.0
 10
15.8701249814
 20
10.416312364
 30
0.0
 10
15.9091431176
 20
10.451082437
 30
0.0
 10
15.9536942934
 20
10.4983030769
 30
0.0
 10
15.9918791942
 20
10.5504629268
 30
0.0
 10
16.0180267356
 20
10.5946074521
 30
0.0
 10
16.0353385111
 20
10.628823024
 30
0.0
 10
16.050306206
 20
10.6640990818
 30
0.0
 10
16.0586742078
 20
10.6882421158
 30
0.0
 10
16.0624457662
 20
10.7004468833
 30
0.0
  0
SPLINE
  5
2E0
100
AcDbEntity
  8
0
100
AcDbSpline
 62
7
  6
CONTINUOUS
 70
0
 71
3
 72
49
 73
45
 74
0
 42
0.0000001
 43
0.0000001
 44
0.0000000001
 40
0.0
 40
0.0
 40
0.0
 40
0.0
 40
0.0107120886
 40
0.0214616452
 40
0.032285467
 40
0.0432189445
 40
0.0542958828
 40
0.0655478394
 40
0.0770034803
 40
0.0886888828
 40
0.1006272743
 40
0.1128382581
 40
0.1253385653
 40
0.1381422841
 40
0.1512599978
 40
0.164699469
 40
0.192556931
 40
0.2217342671
 40
0.2368148821
 40
0.2522142553
 40
0.28393352
 40
0.3002379648
 40
0.31682168
 40
0.3507698388
 40
0.385661608
 40
0.4213621925
 40
0.4577236812
 40
0.4945889036
 40
0.5317933729
 40
0.5691678512
 40
0.6065409874
 40
0.6437412441
 40
0.6805997202
 40
0.716951791
 40
0.7526405829
 40
0.7875184775
 40
0.8214502352
 40
0.8543168855
 40
0.8860172068
 40
0.9164711504
 40
0.9312156696
 40
0.9456327248
 40
0.973474734
 40
1.0
 40
1.0
 40
1.0
 40
1.0
 10
13.7178618056
 20
12.0042165923
 30
0.0
 10
13.720921089
 20
12.0141170401
 30
0.0
 10
13.7277698536
 20
12.0337384086
 30
0.0
 10
13.7401718258
 20
12.062429603
 30
0.0
 10
13.7546859463
 20
12.0903550582
 30
0.0
 10
13.7712835022
 20
12.1174653744
 30
0.0
 10
13.7899381194
 20
12.1437123557
 30
0.0
 10
13.8106164554
 20
12.1690502642
 30
0.0
 10
13.8332787541
 20
12.1934384893
 30
0.0
 10
13.8578867647
 20
12.2168347244
 30
0.0
 10
13.8843993088
 20
12.239197313
 30
0.0
 10
13.9127673871
 20
12.2604919179
 30
0.0
 10
13.9429424087
 20
12.2806829599
 30
0.0
 10
13.974874483
 20
12.2997333479
 30
0.0
 10
14.0085076535
 20
12.3176140487
 30
0.0
 10
14.0561078341
 20
12.3401241776
 30
0.0
 10
14.1196565849
 20
12.3650545905
 30
0.0
 10
14.1865185322
 20
12.3852059118
 30
0.0
 10
14.2426170635
 20
12.3987909684
 30
0.0
 10
14.3015727018
 20
12.4108640227
 30
0.0
 10
14.3622860242
 20
12.4200557641
 30
0.0
 10
14.4244584525
 20
12.4264954774
 30
0.0
 10
14.4889512949
 20
12.4311883649
 30
0.0
 10
14.5716034829
 20
12.4334937073
 30
0.0
 10
14.6727398116
 20
12.4306841156
 30
0.0
 10
14.7759109057
 20
12.4223319258
 30
0.0
 10
14.8804137988
 20
12.4084982174
 30
0.0
 10
14.9855388385
 20
12.3892771274
 30
0.0
 10
15.0905699584
 20
12.3647959117
 30
0.0
 10
15.1947938107
 20
12.3352264571
 30
0.0
 10
15.297499806
 20
12.3007653001
 30
0.0
 10
15.3979897092
 20
12.2616491043
 30
0.0
 10
15.4955803413
 20
12.2181453487
 30
0.0
 10
15.5896060811
 20
12.1705456914
 30
0.0
 10
15.6794300504
 20
12.1191786947
 30
0.0
 10
15.7644398969
 20
12.0643892059
 30
0.0
 10
15.8440589851
 20
12.00654995
 30
0.0
 10
15.9177498481
 20
11.9460527845
 30
0.0
 10
15.9850046787
 20
11.8833032068
 30
0.0
 10
16.0358549907
 20
11.8289138741
 30
0.0
 10
16.0728097679
 20
11.784624419
 30
0.0
 10
16.10647162
 20
11.740933461
 30
0.0
 10
16.143870107
 20
11.6858025574
 30
0.0
 10
16.1694392499
 20
11.639739814
 30
0.0
 10
16.1807432311
 20
11.6167047224
 30
0.0
  0
SPLINE
  5
2E1
100
AcDbEntity
  8
03__ASM_ALL_CURVES
100
AcDbSpline
 62
8
  6
PHANTOM
 70
0
 71
3
 72
415
 73
411
 74
0
 42
0.0000001
 43
0.0000001
 44
0.0000000001
 40
0.0
 40
0.0
 40
0.0
 40
0.0
 40
0.015625
 40
0.0234375
 40
0.03125
 40
0.0390625
 40
0.04296875
 40
0.046875
 40
0.05078125
 40
0.0546875
 40
0.056640625
 40
0.05859375
 40
0.060546875
 40
0.0625
 40
0.0634765625
 40
0.064453125
 40
0.0649414062
 40
0.0654296875
 40
0.0659179688
 40
0.06640625
 40
0.0665283203
 40
0.0666503906
 40
0.0667724609
 40
0.0668945312
 40
0.0671386719
 40
0.0673828125
 40
0.068359375
 40
0.0693359375
 40
0.0703125
 40
0.072265625
 40
0.07421875
 40
0.076171875
 40
0.078125
 40
0.08203125
 40
0.0859375
 40
0.08984375
 40
0.09375
 40
0.1015625
 40
0.109375
 40
0.11328125
 40
0.1171875
 40
0.12109375
 40
0.123046875
 40
0.125
 40
0.126953125
 40
0.12890625
 40
0.1298828125
 40
0.130859375
 40
0.1318359375
 40
0.1323242188
 40
0.1328125
 40
0.1330566406
 40
0.1331787109
 40
0.1333007812
 40
0.1335449219
 40
0.1337890625
 40
0.1342773438
 40
0.134765625
 40
0.1357421875
 40
0.13671875
 40
0.138671875
 40
0.140625
 40
0.14453125
 40
0.1484375
 40
0.15234375
 40
0.15625
 40
0.1640625
 40
0.171875
 40
0.1796875
 40
0.18359375
 40
0.1875
 40
0.189453125
 40
0.19140625
 40
0.193359375
 40
0.1953125
 40
0.1962890625
 40
0.197265625
 40
0.1982421875
 40
0.19921875
 40
0.1997070312
 40
0.1999511719
 40
0.2001953125
 40
0.2004394531
 40
0.2006835938
 40
0.201171875
 40
0.2021484375
 40
0.203125
 40
0.205078125
 40
0.20703125
 40
0.2109375
 40
0.21484375
 40
0.21875
 40
0.22265625
 40
0.2265625
 40
0.234375
 40
0.2421875
 40
0.24609375
 40
0.25
 40
0.25390625
 40
0.2578125
 40
0.259765625
 40
0.26171875
 40
0.263671875
 40
0.2646484375
 40
0.2651367188
 40
0.265625
 40
0.2661132812
 40
0.2663574219
 40
0.2666015625
 40
0.2670898438
 40
0.267578125
 40
0.2685546875
 40
0.26953125
 40
0.271484375
 40
0.2734375
 40
0.27734375
 40
0.28125
 40
0.2890625
 40
0.296875
 40
0.3046875
 40
0.3125
 40
0.31640625
 40
0.3203125
 40
0.32421875
 40
0.326171875
 40
0.328125
 40
0.330078125
 40
0.3310546875
 40
0.33203125
 40
0.3325195312
 40
0.3330078125
 40
0.3332519531
 40
0.3333740234
 40
0.3334960938
 40
0.3337402344
 40
0.333984375
 40
0.3349609375
 40
0.3359375
 40
0.3369140625
 40
0.337890625
 40
0.33984375
 40
0.34375
 40
0.34765625
 40
0.3515625
 40
0.35546875
 40
0.359375
 40
0.3671875
 40
0.375
 40
0.37890625
 40
0.3828125
 40
0.38671875
 40
0.390625
 40
0.392578125
 40
0.39453125
 40
0.396484375
 40
0.3984375
 40
0.3989257812
 40
0.3994140625
 40
0.3996582031
 40
0.3999023438
 40
0.400390625
 40
0.4008789062
 40
0.4013671875
 40
0.40234375
 40
0.4033203125
 40
0.404296875
 40
0.40625
 40
0.41015625
 40
0.4140625
 40
0.421875
 40
0.4296875
 40
0.4375
 40
0.4453125
 40
0.453125
 40
0.45703125
 40
0.458984375
 40
0.4609375
 40
0.462890625
 40
0.4638671875
 40
0.46484375
 40
0.4658203125
 40
0.4663085938
 40
0.4665527344
 40
0.4666748047
 40
0.466796875
 40
0.4670410156
 40
0.4672851562
 40
0.4677734375
 40
0.46875
 40
0.4697265625
 40
0.470703125
 40
0.47265625
 40
0.474609375
 40
0.4765625
 40
0.48046875
 40
0.484375
 40
0.48828125
 40
0.4921875
 40
0.5
 40
0.5078125
 40
0.51171875
 40
0.515625
 40
0.51953125
 40
0.5234375
 40
0.525390625
 40
0.52734375
 40
0.529296875
 40
0.5302734375
 40
0.53125
 40
0.5317382812
 40
0.5322265625
 40
0.5327148438
 40
0.5329589844
 40
0.533203125
 40
0.5333251953
 40
0.5334472656
 40
0.5336914062
 40
0.5341796875
 40
0.53515625
 40
0.5361328125
 40
0.537109375
 40
0.5390625
 40
0.541015625
 40
0.54296875
 40
0.546875
 40
0.5546875
 40
0.5625
 40
0.5703125
 40
0.578125
 40
0.5859375
 40
0.58984375
 40
0.59375
 40
0.595703125
 40
0.5966796875
 40
0.59765625
 40
0.5986328125
 40
0.5991210938
 40
0.599609375
 40
0.6000976562
 40
0.6003417969
 40
0.6005859375
 40
0.6010742188
 40
0.6015625
 40
0.603515625
 40
0.60546875
 40
0.607421875
 40
0.609375
 40
0.61328125
 40
0.6171875
 40
0.62109375
 40
0.625
 40
0.6328125
 40
0.640625
 40
0.64453125
 40
0.6484375
 40
0.65234375
 40
0.65625
 40
0.66015625
 40
0.662109375
 40
0.6630859375
 40
0.6640625
 40
0.6650390625
 40
0.6655273438
 40
0.666015625
 40
0.6662597656
 40
0.6665039062
 40
0.6666259766
 40
0.6667480469
 40
0.6669921875
 40
0.6674804688
 40
0.66796875
 40
0.6689453125
 40
0.669921875
 40
0.671875
 40
0.673828125
 40
0.67578125
 40
0.6796875
 40
0.68359375
 40
0.6875
 40
0.6953125
 40
0.703125
 40
0.7109375
 40
0.71484375
 40
0.71875
 40
0.72265625
 40
0.7265625
 40
0.728515625
 40
0.7294921875
 40
0.73046875
 40
0.7314453125
 40
0.7319335938
 40
0.732421875
 40
0.7329101562
 40
0.7331542969
 40
0.7332763672
 40
0.7333374023
 40
0.7333984375
 40
0.7335205078
 40
0.7336425781
 40
0.7338867188
 40
0.734375
 40
0.7348632812
 40
0.7353515625
 40
0.736328125
 40
0.7373046875
 40
0.73828125
 40
0.740234375
 40
0.7421875
 40
0.744140625
 40
0.74609375
 40
0.75
 40
0.75390625
 40
0.7578125
 40
0.765625
 40
0.7734375
 40
0.77734375
 40
0.78125
 40
0.78515625
 40
0.7890625
 40
0.79296875
 40
0.794921875
 40
0.796875
 40
0.7978515625
 40
0.7983398438
 40
0.798828125
 40
0.7993164062
 40
0.7995605469
 40
0.7998046875
 40
0.8000488281
 40
0.8001708984
 40
0.8002929688
 40
0.80078125
 40
0.8017578125
 40
0.802734375
 40
0.8037109375
 40
0.8046875
 40
0.806640625
 40
0.80859375
 40
0.810546875
 40
0.8125
 40
0.81640625
 40
0.8203125
 40
0.828125
 40
0.8359375
 40
0.84375
 40
0.84765625
 40
0.8515625
 40
0.85546875
 40
0.859375
 40
0.861328125
 40
0.86328125
 40
0.8642578125
 40
0.865234375
 40
0.8657226562
 40
0.8662109375
 40
0.8664550781
 40
0.8666992188
 40
0.8668212891
 40
0.8669433594
 40
0.8671875
 40
0.8676757812
 40
0.8681640625
 40
0.869140625
 40
0.8701171875
 40
0.87109375
 40
0.873046875
 40
0.875
 40
0.876953125
 40
0.87890625
 40
0.8828125
 40
0.88671875
 40
0.890625
 40
0.8984375
 40
0.90625
 40
0.91015625
 40
0.9140625
 40
0.91796875
 40
0.921875
 40
0.923828125
 40
0.92578125
 40
0.927734375
 40
0.9296875
 40
0.9306640625
 40
0.931640625
 40
0.9326171875
 40
0.9328613281
 40
0.9331054688
 40
0.9332275391
 40
0.9333496094
 40
0.9334716797
 40
0.93359375
 40
0.9338378906
 40
0.9340820312
 40
0.9345703125
 40
0.9350585938
 40
0.935546875
 40
0.9365234375
 40
0.9375
 40
0.939453125
 40
0.94140625
 40
0.943359375
 40
0.9453125
 40
0.94921875
 40
0.953125
 40
0.95703125
 40
0.9609375
 40
0.96875
 40
0.9765625
 40
0.984375
 40
1.0
 40
1.0
 40
1.0
 40
1.0
 10
17.8313312656
 20
13.2323164735
 30
0.0
 10
17.8152856863
 20
13.257339294
 30
0.0
 10
17.7912173174
 20
13.2948735248
 30
0.0
 10
17.7591261588
 20
13.3449191659
 30
0.0
 10
17.7350577899
 20
13.3824533967
 30
0.0
 10
17.7150008158
 20
13.4137319224
 30
0.0
 10
17.6989552365
 20
13.438754743
 30
0.0
 10
17.6869210521
 20
13.4575218584
 30
0.0
 10
17.6748868674
 20
13.4762889738
 30
0.0
 10
17.6648583811
 20
13.4919282367
 30
0.0
 10
17.6568355899
 20
13.5044396468
 30
0.0
 10
17.6508185022
 20
13.5138232049
 30
0.0
 10
17.6448013931
 20
13.5232067612
 30
0.0
 10
17.6397872021
 20
13.5310263971
 30
0.0
 10
17.6357757001
 20
13.5372820931
 30
0.0
 10
17.6332688511
 20
13.541191932
 30
0.0
 10
17.6312625938
 20
13.5443197369
 30
0.0
 10
17.6297600314
 20
13.5466657719
 30
0.0
 10
17.6282493354
 20
13.549011115
 30
0.0
 10
17.6271391165
 20
13.5507720618
 30
0.0
 10
17.6263635072
 20
13.5519430101
 30
0.0
 10
17.6260390281
 20
13.5525338703
 30
0.0
 10
17.6254683394
 20
13.5531037895
 30
0.0
 10
17.6247454278
 20
13.5538669144
 30
0.0
 10
17.6238287974
 20
13.5548197157
 30
0.0
 10
17.6216395766
 20
13.557107348
 30
0.0
 10
17.6183512553
 20
13.5605384147
 30
0.0
 10
17.6139693895
 20
13.5651133881
 30
0.0
 10
17.6081260065
 20
13.5712132766
 30
0.0
 10
17.600822085
 20
13.5788381634
 30
0.0
 10
17.5920572476
 20
13.5879880162
 30
0.0
 10
17.5832924454
 20
13.5971378721
 30
0.0
 10
17.5716060301
 20
13.6093376789
 30
0.0
 10
17.5569980152
 20
13.6245874378
 30
0.0
 10
17.5394683955
 20
13.6428871482
 30
0.0
 10
17.5219387763
 20
13.6611868588
 30
0.0
 10
17.4985659506
 20
13.6855864728
 30
0.0
 10
17.4693499185
 20
13.7160859903
 30
0.0
 10
17.4401338863
 20
13.7465855078
 30
0.0
 10
17.4167610606
 20
13.7709851218
 30
0.0
 10
17.3992314412
 20
13.7892848322
 30
0.0
 10
17.3846234255
 20
13.8045345912
 30
0.0
 10
17.3729370118
 20
13.8167343978
 30
0.0
 10
17.3641722047
 20
13.8258842542
 30
0.0
 10
17.3554073856
 20
13.8350341053
 30
0.0
 10
17.348103407
 20
13.8426589975
 30
0.0
 10
17.3422601406
 20
13.8487588747
 30
0.0
 10
17.337877919
 20
13.8533338826
 30
0.0
 10
17.3342253416
 20
13.8571460712
 30
0.0
 10
17.3313049083
 20
13.8601965352
 30
0.0
 10
17.3294759288
 20
13.8621014515
 30
0.0
 10
17.3282030751
 20
13.8634381467
 30
0.0
 10
17.3274641024
 20
13.8641968817
 30
0.0
 10
17.3267688095
 20
13.8649747404
 30
0.0
 10
17.3255866287
 20
13.8658099996
 30
0.0
 10
17.3237969707
 20
13.8671909976
 30
0.0
 10
17.3215250314
 20
13.8689019798
 30
0.0
 10
17.3179094137
 20
13.8716480824
 30
0.0
 10
17.3133832198
 20
13.8750777895
 30
0.0
 10
17.3061450381
 20
13.8805669534
 30
0.0
 10
17.2970960344
 20
13.8874278493
 30
0.0
 10
17.2826183419
 20
13.8984055951
 30
0.0
 10
17.2645209815
 20
13.9121276701
 30
0.0
 10
17.2428042539
 20
13.9285942061
 30
0.0
 10
17.2210874982
 20
13.9450607299
 30
0.0
 10
17.1921318338
 20
13.9670160991
 30
0.0
 10
17.15593725
 20
13.9944603092
 30
0.0
 10
17.1125037505
 20
14.0273933618
 30
0.0
 10
17.0763091685
 20
14.0548375728
 30
0.0
 10
17.0473535001
 20
14.0767929402
 30
0.0
 10
17.029256214
 20
14.0905150481
 30
0.0
 10
17.0147783697
 20
14.1014927269
 30
0.0
 10
17.0039200289
 20
14.1097260067
 30
0.0
 10
16.9930615261
 20
14.1179592073
 30
0.0
 10
16.9840132782
 20
14.1248204545
 30
0.0
 10
16.9767735504
 20
14.1303088999
 30
0.0
 10
16.9713468404
 20
14.1344267428
 30
0.0
 10
16.9659083517
 20
14.1385388265
 30
0.0
 10
16.9614129684
 20
14.1419835031
 30
0.0
 10
16.958194303
 20
14.1443596219
 30
0.0
 10
16.9564673107
 20
14.1457722873
 30
0.0
 10
16.9548558732
 20
14.1466771811
 30
0.0
 10
16.9532484579
 20
14.1475840414
 30
0.0
 10
16.9511038345
 20
14.1487925026
 30
0.0
 10
16.9473513971
 20
14.1509076293
 30
0.0
 10
16.9419904313
 20
14.153929072
 30
0.0
 10
16.9334130766
 20
14.1587634736
 30
0.0
 10
16.9226913179
 20
14.1648064437
 30
0.0
 10
16.9055365405
 20
14.1744752136
 30
0.0
 10
16.8840930562
 20
14.18656117
 30
0.0
 10
16.8583608804
 20
14.2010643202
 30
0.0
 10
16.8326287032
 20
14.2155674697
 30
0.0
 10
16.8068965263
 20
14.2300706194
 30
0.0
 10
16.7725869571
 20
14.2494081523
 30
0.0
 10
16.7296999956
 20
14.2735800684
 30
0.0
 10
16.686813034
 20
14.2977519843
 30
0.0
 10
16.652503465
 20
14.3170895175
 30
0.0
 10
16.6267712873
 20
14.3315926663
 30
0.0
 10
16.6010391135
 20
14.3460958194
 30
0.0
 10
16.579595623
 20
14.3581817666
 30
0.0
 10
16.5624408583
 20
14.3678505552
 30
0.0
 10
16.549574709
 20
14.3751020625
 30
0.0
 10
16.5388531588
 20
14.3811452527
 30
0.0
 10
16.531347601
 20
14.385374961
 30
0.0
 10
16.5270594489
 20
14.3877927566
 30
0.0
 10
16.5238412557
 20
14.3896037951
 30
0.0
 10
16.5211660507
 20
14.3911203465
 30
0.0
 10
16.519011032
 20
14.3923170953
 30
0.0
 10
16.5169101341
 20
14.393573931
 30
0.0
 10
16.5138966734
 20
14.3947149401
 30
0.0
 10
16.5092011333
 20
14.3966804405
 30
0.0
 10
16.503288567
 20
14.3990894194
 30
0.0
 10
16.4938525702
 20
14.4029705524
 30
0.0
 10
16.4820493192
 20
14.4078128038
 30
0.0
 10
16.4631687309
 20
14.4155655279
 30
0.0
 10
16.439566416
 20
14.4252546792
 30
0.0
 10
16.4018035949
 20
14.4407583015
 30
0.0
 10
16.3545997656
 20
14.460137493
 30
0.0
 10
16.2979553003
 20
14.4833926669
 30
0.0
 10
16.2413108002
 20
14.5066478026
 30
0.0
 10
16.1941070578
 20
14.5260270899
 30
0.0
 10
16.1563440629
 20
14.5415305206
 30
0.0
 10
16.1280218151
 20
14.5531580865
 30
0.0
 10
16.1044199478
 20
14.5628477482
 30
0.0
 10
16.0855384405
 20
14.5705994247
 30
0.0
 10
16.0713773469
 20
14.5764133268
 30
0.0
 10
16.0595763185
 20
14.5812577849
 30
0.0
 10
16.0501357583
 20
14.5851343836
 30
0.0
 10
16.0442348102
 20
14.5875549074
 30
0.0
 10
16.0395154214
 20
14.5894967094
 30
0.0
 10
16.0365626782
 20
14.5906980533
 30
0.0
 10
16.0345020212
 20
14.5915636096
 30
0.0
 10
16.0333147035
 20
14.5920196997
 30
0.0
 10
16.0320904767
 20
14.5923307294
 30
0.0
 10
16.0305728088
 20
14.5927690987
 30
0.0
 10
16.0269200227
 20
14.5937803767
 30
0.0
 10
16.0214452047
 20
14.5953144336
 30
0.0
 10
16.0141429547
 20
14.5973500464
 30
0.0
 10
16.0068413715
 20
14.5993882796
 30
0.0
 10
15.9971056946
 20
14.60210501
 30
0.0
 10
15.9800683684
 20
14.6068597139
 30
0.0
 10
15.9557292743
 20
14.6136519253
 30
0.0
 10
15.9265223857
 20
14.6218026746
 30
0.0
 10
15.8973154906
 20
14.6299533983
 30
0.0
 10
15.8681085972
 20
14.6381041288
 30
0.0
 10
15.8291660721
 20
14.6489717671
 30
0.0
 10
15.7804879159
 20
14.6625563156
 30
0.0
 10
15.7318097597
 20
14.6761408645
 30
0.0
 10
15.6928672345
 20
14.6870085022
 30
0.0
 10
15.6636603414
 20
14.6951592347
 30
0.0
 10
15.6344534452
 20
14.7033099507
 30
0.0
 10
15.6101143746
 20
14.7101022656
 30
0.0
 10
15.5906430968
 20
14.7155360021
 30
0.0
 10
15.5760396966
 20
14.7196116195
 30
0.0
 10
15.5614360745
 20
14.7236860347
 30
0.0
 10
15.5504839801
 20
14.7267452165
 30
0.0
 10
15.5431816162
 20
14.7287794294
 30
0.0
 10
15.5401404045
 20
14.729634818
 30
0.0
 10
15.5377040761
 20
14.7303009332
 30
0.0
 10
15.5352800316
 20
14.7310335912
 30
0.0
 10
15.532162046
 20
14.7314730877
 30
0.0
 10
15.5284318675
 20
14.732062262
 30
0.0
 10
15.5234543126
 20
14.7328262476
 30
0.0
 10
15.5172337357
 20
14.7337886336
 30
0.0
 10
15.5097684584
 20
14.734940328
 30
0.0
 10
15.4998149594
 20
14.7364770258
 30
0.0
 10
15.4823962412
 20
14.739165732
 30
0.0
 10
15.4575124075
 20
14.7430070096
 30
0.0
 10
15.417698246
 20
14.7491529036
 30
0.0
 10
15.3679305536
 20
14.7568353227
 30
0.0
 10
15.3082093187
 20
14.7660542031
 30
0.0
 10
15.2484880845
 20
14.7752730911
 30
0.0
 10
15.1887668518
 20
14.7844919709
 30
0.0
 10
15.1389991521
 20
14.792174392
 30
0.0
 10
15.1041617738
 20
14.7975520456
 30
0.0
 10
15.0842546825
 20
14.8006250547
 30
0.0
 10
15.0693244149
 20
14.8029296309
 30
0.0
 10
15.0568823629
 20
14.8048506862
 30
0.0
 10
15.0469290856
 20
14.8063862404
 30
0.0
 10
15.0394631319
 20
14.807541431
 30
0.0
 10
15.0332446711
 20
14.8084928777
 30
0.0
 10
15.028885533
 20
14.8091808938
 30
0.0
 10
15.0267144559
 20
14.8094948398
 30
0.0
 10
15.0254601706
 20
14.8097226291
 30
0.0
 10
15.024275721
 20
14.8097031989
 30
0.0
 10
15.0227712504
 20
14.8097635478
 30
0.0
 10
15.0203774407
 20
14.8098128705
 30
0.0
 10
15.016182057
 20
14.8099211931
 30
0.0
 10
15.0101919018
 20
14.8100644338
 30
0.0
 10
15.0030023245
 20
14.8102412475
 30
0.0
 10
14.9934167073
 20
14.8104752788
 30
0.0
 10
14.9814345191
 20
14.8107684081
 30
0.0
 10
14.9670559646
 20
14.8111199107
 30
0.0
 10
14.9478845337
 20
14.811588669
 30
0.0
 10
14.9239202537
 20
14.8121745866
 30
0.0
 10
14.8951631139
 20
14.8128777008
 30
0.0
 10
14.8664059751
 20
14.8135808115
 30
0.0
 10
14.8280631231
 20
14.8145182936
 30
0.0
 10
14.7801345582
 20
14.8156901458
 30
0.0
 10
14.7322059932
 20
14.8168619981
 30
0.0
 10
14.6938631412
 20
14.8177994801
 30
0.0
 10
14.6651060024
 20
14.8185025913
 30
0.0
 10
14.6363488629
 20
14.8192057034
 30
0.0
 10
14.612384582
 20
14.8197916273
 30
0.0
 10
14.5932131527
 20
14.8202603729
 30
0.0
 10
14.5788345933
 20
14.8206119144
 30
0.0
 10
14.5668524206
 20
14.8209049217
 30
0.0
 10
14.5572667718
 20
14.821139202
 30
0.0
 10
14.5512755377
 20
14.8212859131
 30
0.0
 10
14.5464830168
 20
14.8214026271
 30
0.0
 10
14.542887349
 20
14.8214919558
 30
0.0
 10
14.5398950222
 20
14.8215606917
 30
0.0
 10
14.5374920479
 20
14.8216284752
 30
0.0
 10
14.5360109397
 20
14.8216417051
 30
0.0
 10
14.5347785296
 20
14.8217190139
 30
0.0
 10
14.5337196128
 20
14.8215527309
 30
0.0
 10
14.5318070781
 20
14.8213451784
 30
0.0
 10
14.5280242025
 20
14.8208708314
 30
0.0
 10
14.5225980351
 20
14.8202241653
 30
0.0
 10
14.5160960764
 20
14.8194349086
 30
0.0
 10
14.5074234999
 20
14.8183871973
 30
0.0
 10
14.4965839109
 20
14.8170759694
 30
0.0
 10
14.4835759197
 20
14.8155031759
 30
0.0
 10
14.4662321004
 20
14.8134058807
 30
0.0
 10
14.4358803379
 20
14.8097357247
 30
0.0
 10
14.3925207184
 20
14.8044925867
 30
0.0
 10
14.340489157
 20
14.7982008464
 30
0.0
 10
14.2884576017
 20
14.7919090978
 30
0.0
 10
14.2364260402
 20
14.7856173573
 30
0.0
 10
14.1930664212
 20
14.7803742199
 30
0.0
 10
14.1583786916
 20
14.7761797546
 30
0.0
 10
14.1366989387
 20
14.7735581125
 30
0.0
 10
14.1215229552
 20
14.771723166
 30
0.0
 10
14.1128512095
 20
14.7706743075
 30
0.0
 10
14.1063467103
 20
14.7698885587
 30
0.0
 10
14.1009284919
 20
14.7692309166
 30
0.0
 10
14.096588988
 20
14.768711199
 30
0.0
 10
14.0933478291
 20
14.7683039332
 30
0.0
 10
14.0906040202
 20
14.7680201387
 30
0.0
 10
14.0887260913
 20
14.7673816089
 30
0.0
 10
14.0867927856
 20
14.7668149362
 30
0.0
 10
14.0843950815
 20
14.7660820343
 30
0.0
 10
14.0786250131
 20
14.7643432847
 30
0.0
 10
14.0699764536
 20
14.7617266698
 30
0.0
 10
14.0584413011
 20
14.7582427027
 30
0.0
 10
14.0469071491
 20
14.7547574374
 30
0.0
 10
14.0315279303
 20
14.7501108705
 30
0.0
 10
14.0123040267
 20
14.7443025063
 30
0.0
 10
13.989235291
 20
14.7373325359
 30
0.0
 10
13.966166569
 20
14.7303625476
 30
0.0
 10
13.9354082683
 20
14.7210692362
 30
0.0
 10
13.896960394
 20
14.7094525947
 30
0.0
 10
13.8585125191
 20
14.6978359542
 30
0.0
 10
13.8277542194
 20
14.6885426413
 30
0.0
 10
13.804685494
 20
14.6815726573
 30
0.0
 10
13.7816167712
 20
14.6746026712
 30
0.0
 10
13.7585480388
 20
14.6676326927
 30
0.0
 10
13.739324125
 20
14.6618243535
 30
0.0
 10
13.7258673267
 20
14.6577585628
 30
0.0
 10
13.7181778193
 20
14.6554351808
 30
0.0
 10
13.7124104308
 20
14.6536928502
 30
0.0
 10
13.7076050952
 20
14.652240252
 30
0.0
 10
13.7037589842
 20
14.6510796449
 30
0.0
 10
13.7013593603
 20
14.650350915
 30
0.0
 10
13.6994300526
 20
14.6497756042
 30
0.0
 10
13.698246159
 20
14.6493985274
 30
0.0
 10
13.6972488294
 20
14.6491369659
 30
0.0
 10
13.6964348198
 20
14.6487290104
 30
0.0
 10
13.6950954629
 20
14.6479470821
 30
0.0
 10
13.6931376637
 20
14.6468655238
 30
0.0
 10
13.6900300159
 20
14.6451152014
 30
0.0
 10
13.6861369539
 20
14.642934088
 30
0.0
 10
13.6799128067
 20
14.6394405118
 30
0.0
 10
13.6721309923
 20
14.6350748435
 30
0.0
 10
13.6627935128
 20
14.6298354843
 30
0.0
 10
13.6503432965
 20
14.6228498667
 30
0.0
 10
13.6347806097
 20
14.6141177779
 30
0.0
 10
13.6161053497
 20
14.6036393
 30
0.0
 10
13.5912050156
 20
14.589667986
 30
0.0
 10
13.5600795936
 20
14.572203847
 30
0.0
 10
13.5227290892
 20
14.5512468787
 30
0.0
 10
13.4916036682
 20
14.5337827389
 30
0.0
 10
13.4667033319
 20
14.5198114268
 30
0.0
 10
13.4480280785
 20
14.5093329433
 30
0.0
 10
13.4293528297
 20
14.4988544574
 30
0.0
 10
13.413790108
 20
14.4901223934
 30
0.0
 10
13.402896231
 20
14.4840099337
 30
0.0
 10
13.3966711144
 20
14.4805171228
 30
0.0
 10
13.392002401
 20
14.4778974495
 30
0.0
 10
13.3881114115
 20
14.4757145956
 30
0.0
 10
13.3849995057
 20
14.4739678479
 30
0.0
 10
13.3826631559
 20
14.4726590565
 30
0.0
 10
13.380723897
 20
14.4715643593
 30
0.0
 10
13.3793513063
 20
14.4708059951
 30
0.0
 10
13.378685654
 20
14.4704159871
 30
0.0
 10
13.3782720516
 20
14.4702105522
 30
0.0
 10
13.3780282107
 20
14.4699160881
 30
0.0
 10
13.377665291
 20
14.4695784875
 30
0.0
 10
13.3771170554
 20
14.469021316
 30
0.0
 10
13.3761425305
 20
14.4680541913
 30
0.0
 10
13.3747582531
 20
14.4666684412
 30
0.0
 10
13.3730937383
 20
14.4650073146
 30
0.0
 10
13.3708755665
 20
14.4627918596
 30
0.0
 10
13.3681024465
 20
14.4600227534
 30
0.0
 10
13.3647748761
 20
14.4566997349
 30
0.0
 10
13.3603380548
 20
14.4522690755
 30
0.0
 10
13.354792049
 20
14.4467307403
 30
0.0
 10
13.3481368332
 20
14.4400847427
 30
0.0
 10
13.3414816197
 20
14.4334387439
 30
0.0
 10
13.332608001
 20
14.4245774125
 30
0.0
 10
13.3215159778
 20
14.4135007482
 30
0.0
 10
13.3082055498
 20
14.4002087511
 30
0.0
 10
13.2904583126
 20
14.3824860882
 30
0.0
 10
13.2682742661
 20
14.3603327596
 30
0.0
 10
13.2460902195
 20
14.3381794311
 30
0.0
 10
13.2283429824
 20
14.3204567682
 30
0.0
 10
13.2150325542
 20
14.3071647712
 30
0.0
 10
13.2017221273
 20
14.2938727735
 30
0.0
 10
13.1884116958
 20
14.2805807782
 30
0.0
 10
13.1773196837
 20
14.2695041084
 30
0.0
 10
13.1684460423
 20
14.2606427882
 30
0.0
 10
13.1629000887
 20
14.2551044274
 30
0.0
 10
13.1590177763
 20
14.2512276464
 30
0.0
 10
13.1567995387
 20
14.2490122309
 30
0.0
 10
13.1551352222
 20
14.2473509852
 30
0.0
 10
13.1537503248
 20
14.2459656073
 30
0.0
 10
13.1526378469
 20
14.2448595627
 30
0.0
 10
13.1518159488
 20
14.2440238597
 30
0.0
 10
13.151091399
 20
14.2433470651
 30
0.0
 10
13.1508057797
 20
14.2426600495
 30
0.0
 10
13.150301808
 20
14.2416669301
 30
0.0
 10
13.1492540203
 20
14.2394933105
 30
0.0
 10
13.1476122049
 20
14.2361640524
 30
0.0
 10
13.1456548155
 20
14.2321626104
 30
0.0
 10
13.1436940047
 20
14.2281628624
 30
0.0
 10
13.1410807855
 20
14.2228292733
 30
0.0
 10
13.1378138513
 20
14.21616249
 30
0.0
 10
13.1338937062
 20
14.208162263
 30
0.0
 10
13.129973514
 20
14.2001620593
 30
0.0
 10
13.1247466075
 20
14.1894951128
 30
0.0
 10
13.1182129688
 20
14.1761614326
 30
0.0
 10
13.1077591499
 20
14.1548275426
 30
0.0
 10
13.0946918752
 20
14.1281601808
 30
0.0
 10
13.0790111465
 20
14.0961593461
 30
0.0
 10
13.0659438708
 20
14.0694919845
 30
0.0
 10
13.0554900542
 20
14.048158094
 30
0.0
 10
13.047649681
 20
14.0321576793
 30
0.0
 10
13.0398093486
 20
14.0161572524
 30
0.0
 10
13.0332756113
 20
14.0028236015
 30
0.0
 10
13.0280489057
 20
13.9921565953
 30
0.0
 10
13.0247815676
 20
13.985489911
 30
0.0
 10
13.0221691792
 20
13.9801561178
 30
0.0
 10
13.0205330546
 20
13.9768235142
 30
0.0
 10
13.0192319009
 20
13.9741551017
 30
0.0
 10
13.0184010058
 20
13.9724926594
 30
0.0
 10
13.0177767711
 20
13.9711505307
 30
0.0
 10
13.0172942578
 20
13.9703394795
 30
0.0
 10
13.0172717248
 20
13.9695813228
 30
0.0
 10
13.0171857996
 20
13.9688422313
 30
0.0
 10
13.0170649622
 20
13.9675399395
 30
0.0
 10
13.016876929
 20
13.9656841567
 30
0.0
 10
13.0165846877
 20
13.9627123143
 30
0.0
 10
13.0162164314
 20
13.9589983998
 30
0.0
 10
13.0157757885
 20
13.9545413221
 30
0.0
 10
13.0151878229
 20
13.9485986847
 30
0.0
 10
13.0144530175
 20
13.9411703423
 30
0.0
 10
13.013571186
 20
13.932256351
 30
0.0
 10
13.0126893718
 20
13.9233423545
 30
0.0
 10
13.0115136136
 20
13.9114570276
 30
0.0
 10
13.0100439179
 20
13.8966003684
 30
0.0
 10
13.0082802822
 20
13.8787723776
 30
0.0
 10
13.0059287682
 20
13.8550017231
 30
0.0
 10
13.0029893756
 20
13.825288405
 30
0.0
 10
13.0000499831
 20
13.7955750869
 30
0.0
 10
12.997698469
 20
13.7718044324
 30
0.0
 10
12.9959348336
 20
13.7539764416
 30
0.0
 10
12.9941711976
 20
13.7361484508
 30
0.0
 10
12.9927015027
 20
13.7212917915
 30
0.0
 10
12.9915257429
 20
13.7094064647
 30
0.0
 10
12.9906439335
 20
13.7004924679
 30
0.0
 10
12.9897620845
 20
13.6915784777
 30
0.0
 10
12.9890273333
 20
13.6841501319
 30
0.0
 10
12.9884392572
 20
13.6782075015
 30
0.0
 10
12.9879989518
 20
13.6737504023
 30
0.0
 10
12.9876665708
 20
13.6704079396
 30
0.0
 10
12.9874483352
 20
13.6681790679
 30
0.0
 10
12.9873524152
 20
13.6672512096
 30
0.0
 10
12.9872873164
 20
13.6665069675
 30
0.0
 10
12.9872065737
 20
13.6659541495
 30
0.0
 10
12.987401051
 20
13.6653550835
 30
0.0
 10
12.9875642254
 20
13.6645724823
 30
0.0
 10
12.987801108
 20
13.6635886998
 30
0.0
 10
12.9881617242
 20
13.6620177391
 30
0.0
 10
12.988618806
 20
13.6600529776
 30
0.0
 10
12.9891646025
 20
13.6576957178
 30
0.0
 10
12.9898932749
 20
13.6545525462
 30
0.0
 10
12.9908037923
 20
13.650623636
 30
0.0
 10
12.9922608008
 20
13.6443373493
 30
0.0
 10
12.9940819993
 20
13.6364795013
 30
0.0
 10
12.9962674641
 20
13.6270500792
 30
0.0
 10
12.9984529219
 20
13.6176206584
 30
0.0
 10
13.001366868
 20
13.6050480968
 30
0.0
 10
13.0050092998
 20
13.589332395
 30
0.0
 10
13.0093802183
 20
13.5704735528
 30
0.0
 10
13.0137511367
 20
13.5516147106
 30
0.0
 10
13.019579028
 20
13.5264695876
 30
0.0
 10
13.026863892
 20
13.4950381839
 30
0.0
 10
13.0356057289
 20
13.4573204995
 30
0.0
 10
13.0472615114
 20
13.4070302536
 30
0.0
 10
13.0560033483
 20
13.3693125691
 30
0.0
 10
13.0618312396
 20
13.3441674462
 30
0.0
  0
SPLINE
  5
2E2
100
AcDbEntity
  8
03__ASM_ALL_CURVES
100
AcDbSpline
 62
8
  6
PHANTOM
 70
0
 71
3
 72
107
 73
103
 74
0
 42
0.0000001
 43
0.0000001
 44
0.0000000001
 40
0.0
 40
0.0
 40
0.0
 40
0.0
 40
0.0625
 40
0.09375
 40
0.109375
 40
0.125
 40
0.140625
 40
0.1484375
 40
0.15625
 40
0.16015625
 40
0.1640625
 40
0.166015625
 40
0.1669921875
 40
0.16796875
 40
0.169921875
 40
0.171875
 40
0.1796875
 40
0.1875
 40
0.1953125
 40
0.203125
 40
0.21875
 40
0.25
 40
0.28125
 40
0.296875
 40
0.3046875
 40
0.3125
 40
0.3203125
 40
0.328125
 40
0.330078125
 40
0.33203125
 40
0.3330078125
 40
0.333984375
 40
0.3359375
 40
0.33984375
 40
0.34375
 40
0.3515625
 40
0.359375
 40
0.375
 40
0.390625
 40
0.40625
 40
0.421875
 40
0.4375
 40
0.453125
 40
0.46875
 40
0.4765625
 40
0.484375
 40
0.48828125
 40
0.4921875
 40
0.49609375
 40
0.498046875
 40
0.4990234375
 40
0.5
 40
0.5009765625
 40
0.501953125
 40
0.50390625
 40
0.5078125
 40
0.51171875
 40
0.515625
 40
0.5234375
 40
0.53125
 40
0.546875
 40
0.5625
 40
0.578125
 40
0.59375
 40
0.609375
 40
0.625
 40
0.640625
 40
0.6484375
 40
0.65625
 40
0.66015625
 40
0.6640625
 40
0.666015625
 40
0.6669921875
 40
0.66796875
 40
0.669921875
 40
0.671875
 40
0.6796875
 40
0.6875
 40
0.6953125
 40
0.703125
 40
0.71875
 40
0.75
 40
0.78125
 40
0.796875
 40
0.8046875
 40
0.8125
 40
0.8203125
 40
0.828125
 40
0.830078125
 40
0.83203125
 40
0.8330078125
 40
0.833984375
 40
0.8359375
 40
0.83984375
 40
0.84375
 40
0.8515625
 40
0.859375
 40
0.875
 40
0.890625
 40
0.90625
 40
0.9375
 40
1.0
 40
1.0
 40
1.0
 40
1.0
 10
17.9096382036
 20
12.4461790303
 30
0.0
 10
17.9136422238
 20
12.4610142276
 30
0.0
 10
17.9196482447
 20
12.483267029
 30
0.0
 10
17.9266553023
 20
12.5092286113
 30
0.0
 10
17.9306592876
 20
12.5240638288
 30
0.0
 10
17.9336624098
 20
12.5351901646
 30
0.0
 10
17.9361645874
 20
12.5444623572
 30
0.0
 10
17.9381672811
 20
12.5518795595
 30
0.0
 10
17.9394167978
 20
12.5565165672
 30
0.0
 10
17.9404213737
 20
12.5602232963
 30
0.0
 10
17.9410379107
 20
12.5625465665
 30
0.0
 10
17.9414921792
 20
12.5641596994
 30
0.0
 10
17.9417162564
 20
12.565102074
 30
0.0
 10
17.9418066051
 20
12.5661219791
 30
0.0
 10
17.9419652499
 20
12.5673703603
 30
0.0
 10
17.942308377
 20
12.5703882861
 30
0.0
 10
17.9428388686
 20
12.574906014
 30
0.0
 10
17.9435371595
 20
12.580934887
 30
0.0
 10
17.9442378663
 20
12.5869623595
 30
0.0
 10
17.9451712991
 20
12.5949994781
 30
0.0
 10
17.9468052019
 20
12.609064208
 30
0.0
 10
17.9491391213
 20
12.6291567971
 30
0.0
 10
17.9514731969
 20
12.6492493482
 30
0.0
 10
17.9531068809
 20
12.6633141314
 30
0.0
 10
17.9540406574
 20
12.6713511662
 30
0.0
 10
17.9547403096
 20
12.6773788954
 30
0.0
 10
17.9554425613
 20
12.6834068044
 30
0.0
 10
17.9559619618
 20
12.6879272319
 30
0.0
 10
17.9563195635
 20
12.6909416345
 30
0.0
 10
17.9564516976
 20
12.6921964685
 30
0.0
 10
17.9565967511
 20
12.6932030584
 30
0.0
 10
17.9565979133
 20
12.6941996911
 30
0.0
 10
17.9565330918
 20
12.6959391722
 30
0.0
 10
17.9564753714
 20
12.6984265589
 30
0.0
 10
17.9563635253
 20
12.7024050287
 30
0.0
 10
17.9562303922
 20
12.7073785778
 30
0.0
 10
17.9560136488
 20
12.7153359983
 30
0.0
 10
17.9557439997
 20
12.7252828624
 30
0.0
 10
17.9554198719
 20
12.7372190614
 30
0.0
 10
17.9550958915
 20
12.7491552705
 30
0.0
 10
17.9547718703
 20
12.7610914774
 30
0.0
 10
17.9544478646
 20
12.7730276828
 30
0.0
 10
17.9541238379
 20
12.7849638962
 30
0.0
 10
17.9538538726
 20
12.7949107155
 30
0.0
 10
17.9536377743
 20
12.8028682274
 30
0.0
 10
17.9535029995
 20
12.8078415439
 30
0.0
 10
17.9533945233
 20
12.8118204912
 30
0.0
 10
17.9533149633
 20
12.8148038963
 30
0.0
 10
17.9532429463
 20
12.8172926295
 30
0.0
 10
17.9532037538
 20
12.8190297142
 30
0.0
 10
17.9531638399
 20
12.8200301856
 30
0.0
 10
17.9531832534
 20
12.8207584213
 30
0.0
 10
17.9530140305
 20
12.8215712027
 30
0.0
 10
17.9528541985
 20
12.8226254207
 30
0.0
 10
17.9525438358
 20
12.8244840423
 30
0.0
 10
17.9521164882
 20
12.8271320326
 30
0.0
 10
17.9515968107
 20
12.8303126958
 30
0.0
 10
17.9509063035
 20
12.834552506
 30
0.0
 10
17.9500423491
 20
12.8398526365
 30
0.0
 10
17.9486604806
 20
12.8483326397
 30
0.0
 10
17.9469329874
 20
12.8589327144
 30
0.0
 10
17.9448600639
 20
12.8716527736
 30
0.0
 10
17.9427871195
 20
12.8843728412
 30
0.0
 10
17.9407141906
 20
12.8970929055
 30
0.0
 10
17.9386412203
 20
12.9098129749
 30
0.0
 10
17.9365684
 20
12.9225330273
 30
0.0
 10
17.9348405842
 20
12.9331331232
 30
0.0
 10
17.9334593739
 20
12.941613083
 30
0.0
 10
17.9325937444
 20
12.9469133241
 30
0.0
 10
17.9319066757
 20
12.9511529074
 30
0.0
 10
17.9314648571
 20
12.9538040376
 30
0.0
 10
17.9311804365
 20
12.9556570418
 30
0.0
 10
17.9309790265
 20
12.9567202618
 30
0.0
 10
17.9306311606
 20
12.9577999059
 30
0.0
 10
17.9302463874
 20
12.9591438471
 30
0.0
 10
17.9292817309
 20
12.9623739266
 30
0.0
 10
17.9278520509
 20
12.9672171051
 30
0.0
 10
17.9259359202
 20
12.9736757857
 30
0.0
 10
17.9240224353
 20
12.9801341695
 30
0.0
 10
17.921470199
 20
12.9887454515
 30
0.0
 10
17.917004218
 20
13.0038151467
 30
0.0
 10
17.9106239987
 20
13.0253433083
 30
0.0
 10
17.9042439413
 20
13.0468714594
 30
0.0
 10
17.8997777337
 20
13.0619411694
 30
0.0
 10
17.8972258535
 20
13.0705524281
 30
0.0
 10
17.895311276
 20
13.0770108833
 30
0.0
 10
17.8933992485
 20
13.0834692958
 30
0.0
 10
17.8919580785
 20
13.0883132251
 30
0.0
 10
17.8910084173
 20
13.0915423247
 30
0.0
 10
17.8905961798
 20
13.0928880606
 30
0.0
 10
17.8903049866
 20
13.0939640014
 30
0.0
 10
17.8898726423
 20
13.0950423116
 30
0.0
 10
17.8890504574
 20
13.0969304552
 30
0.0
 10
17.8879101251
 20
13.0996272288
 30
0.0
 10
17.8860664712
 20
13.1039423876
 30
0.0
 10
17.8837684512
 20
13.1093362263
 30
0.0
 10
17.8800879599
 20
13.1179664294
 30
0.0
 10
17.8754886013
 20
13.1287541624
 30
0.0
 10
17.8699688335
 20
13.1416994509
 30
0.0
 10
17.8626093307
 20
13.1589598324
 30
0.0
 10
17.8497301129
 20
13.1891655016
 30
0.0
 10
17.8386908134
 20
13.2150560747
 30
0.0
 10
17.8313312738
 20
13.2323164568
 30
0.0
  0
SPLINE
  5
2E3
100
AcDbEntity
  8
0
100
AcDbSpline
 62
7
  6
CONTINUOUS
 70
0
 71
3
 72
28
 73
24
 74
0
 42
0.0000001
 43
0.0000001
 44
0.0000000001
 40
0.0
 40
0.0
 40
0.0
 40
0.0
 40
0.0725960077
 40
0.1448836152
 40
0.2164449976
 40
0.2868915602
 40
0.3558765413
 40
0.4231131879
 40
0.4883899908
 40
0.5515861548
 40
0.6126843925
 40
0.6717784944
 40
0.7290710881
 40
0.7571436986
 40
0.7848834302
 40
0.8123347391
 40
0.8395449324
 40
0.8665564372
 40
0.8934134669
 40
0.9201571928
 40
0.9468155764
 40
0.9734076044
 40
1.0
 40
1.0
 40
1.0
 40
1.0
 10
17.2060895663
 20
11.9093356433
 30
0.0
 10
17.2214004965
 20
11.9043274367
 30
0.0
 10
17.252260455
 20
11.895232957
 30
0.0
 10
17.2990803268
 20
11.8844003408
 30
0.0
 10
17.3459996248
 20
11.8764834644
 30
0.0
 10
17.3925920309
 20
11.871568053
 30
0.0
 10
17.4384487669
 20
11.8697190014
 30
0.0
 10
17.4831812076
 20
11.8709843713
 30
0.0
 10
17.5264269162
 20
11.8754010645
 30
0.0
 10
17.5678499843
 20
11.8830019787
 30
0.0
 10
17.6071382239
 20
11.8938259418
 30
0.0
 10
17.6439837662
 20
11.9079207154
 30
0.0
 10
17.6725920475
 20
11.9225509285
 30
0.0
 10
17.69382984
 20
11.9359512751
 30
0.0
 10
17.7088161694
 20
11.946780578
 30
0.0
 10
17.7229074505
 20
11.958454689
 30
0.0
 10
17.7360408088
 20
11.9709656243
 30
0.0
 10
17.7481479796
 20
11.9842959938
 30
0.0
 10
17.7591572314
 20
11.9984170588
 30
0.0
 10
17.7689930022
 20
12.0132863918
 30
0.0
 10
17.7775862467
 20
12.028840838
 30
0.0
 10
17.7848737935
 20
12.0450106559
 30
0.0
 10
17.7888260818
 20
12.0561477866
 30
0.0
 10
17.7905683101
 20
12.0617856395
 30
0.0
  0
SPLINE
  5
2E4
100
AcDbEntity
  8
0
100
AcDbSpline
 62
7
  6
CONTINUOUS
 70
0
 71
3
 72
40
 73
36
 74
0
 42
0.0000001
 43
0.0000001
 44
0.0000000001
 40
0.0
 40
0.0
 40
0.0
 40
0.0
 40
0.0107129261
 40
0.0214633527
 40
0.0432089527
 40
0.065527213
 40
0.088659032
 40
0.1128003062
 40
0.1380979622
 40
0.164649819
 40
0.1925093306
 40
0.2216892226
 40
0.2521664892
 40
0.2838883524
 40
0.316775253
 40
0.3507258514
 40
0.3856205163
 40
0.4213237
 40
0.4576880022
 40
0.4945561013
 40
0.5317633835
 40
0.5691407716
 40
0.6065166721
 40
0.6437197917
 40
0.6805809704
 40
0.7169358429
 40
0.7526273644
 40
0.7875078306
 40
0.8214423541
 40
0.8543113322
 40
0.8860140446
 40
0.9164706816
 40
0.9456286078
 40
0.9734719868
 40
1.0
 40
1.0
 40
1.0
 40
1.0
 10
17.1155615761
 20
12.2060186673
 30
0.0
 10
17.1159986044
 20
12.2074330235
 30
0.0
 10
17.1169772145
 20
12.2102361491
 30
0.0
 10
17.1193476518
 20
12.2157205981
 30
0.0
 10
17.1230949773
 20
12.2223346275
 30
0.0
 10
17.1287533366
 20
12.2297303525
 30
0.0
 10
17.1355465507
 20
12.2365716052
 30
0.0
 10
17.1434230955
 20
12.2428128014
 30
0.0
 10
17.152326657
 20
12.2484147166
 30
0.0
 10
17.1621948471
 20
12.2533432062
 30
0.0
 10
17.172960643
 20
12.2575671202
 30
0.0
 10
17.1845512156
 20
12.2610597277
 30
0.0
 10
17.196888296
 20
12.2637992625
 30
0.0
 10
17.2098888108
 20
12.2657673315
 30
0.0
 10
17.2234648766
 20
12.2669515194
 30
0.0
 10
17.2375246749
 20
12.2673442274
 30
0.0
 10
17.2519729252
 20
12.2669424025
 30
0.0
 10
17.2667116181
 20
12.2657494515
 30
0.0
 10
17.2816406352
 20
12.2637732755
 30
0.0
 10
17.2966584404
 20
12.261027096
 30
0.0
 10
17.3116629782
 20
12.2575301223
 30
0.0
 10
17.3265520323
 20
12.2533056852
 30
0.0
 10
17.341224306
 20
12.2483826624
 30
0.0
 10
17.3555800673
 20
12.2427948434
 30
0.0
 10
17.3695214473
 20
12.2365797331
 30
0.0
 10
17.3829537787
 20
12.2297799845
 30
0.0
 10
17.3957857608
 20
12.2224418174
 30
0.0
 10
17.4079299486
 20
12.2146146329
 30
0.0
 10
17.4193042256
 20
12.2063520208
 30
0.0
 10
17.4298313009
 20
12.1977095054
 30
0.0
 10
17.4394395019
 20
12.1887451156
 30
0.0
 10
17.4480642077
 20
12.1795198322
 30
0.0
 10
17.4556470425
 20
12.1700937169
 30
0.0
 10
17.4621342226
 20
12.1605312403
 30
0.0
 10
17.4657869517
 20
12.1539506238
 30
0.0
 10
17.4674018501
 20
12.150659807
 30
0.0
  0
SPLINE
  5
2E5
100
AcDbEntity
  8
0
100
AcDbSpline
 62
7
  6
CONTINUOUS
 70
0
 71
3
 72
15
 73
11
 74
0
 42
0.0000001
 43
0.0000001
 44
0.0000000001
 40
0.0
 40
0.0
 40
0.0
 40
0.0
 40
0.1145361768
 40
0.2320318306
 40
0.3525190693
 40
0.4760303284
 40
0.6025648848
 40
0.7321011266
 40
0.8646067842
 40
1.0
 40
1.0
 40
1.0
 40
1.0
 10
13.1776885912
 20
12.8896109505
 30
0.0
 10
13.1882921925
 20
12.868003083
 30
0.0
 10
13.2109247047
 20
12.8247852239
 30
0.0
 10
13.2484895651
 20
12.7609041052
 30
0.0
 10
13.2900300156
 20
12.6972690829
 30
0.0
 10
13.3354647062
 20
12.6340026945
 30
0.0
 10
13.3847080957
 20
12.5712202949
 30
0.0
 10
13.4376698092
 20
12.5090383756
 30
0.0
 10
13.4942479316
 20
12.4475760584
 30
0.0
 10
13.5338876363
 20
12.4075787202
 30
0.0
 10
13.5542665224
 20
12.3877231763
 30
0.0
  0
SPLINE
  5
2E6
100
AcDbEntity
  8
0
100
AcDbSpline
 62
7
  6
CONTINUOUS
 70
0
 71
3
 72
15
 73
11
 74
0
 42
0.0000001
 43
0.0000001
 44
0.0000000001
 40
0.0
 40
0.0
 40
0.0
 40
0.0
 40
0.1209323148
 40
0.2422450462
 40
0.3643658356
 40
0.4876648857
 40
0.6125258213
 40
0.739314007
 40
0.8683680119
 40
1.0
 40
1.0
 40
1.0
 40
1.0
 10
13.6165881871
 20
12.0998723371
 30
0.0
 10
13.612076869
 20
12.0852737065
 30
0.0
 10
13.6043227162
 20
12.0556163976
 30
0.0
 10
13.5966098545
 20
12.0101734497
 30
0.0
 10
13.5928131465
 20
11.9639354608
 30
0.0
 10
13.5929208245
 20
11.9170971561
 30
0.0
 10
13.5968893864
 20
11.8698384427
 30
0.0
 10
13.6046585436
 20
11.8223201349
 30
0.0
 10
13.6161542201
 20
11.7746888071
 30
0.0
 10
13.6261448879
 20
11.7432705413
 30
0.0
 10
13.6317094661
 20
11.727597357
 30
0.0
  0
SPLINE
  5
2E7
100
AcDbEntity
  8
0
100
AcDbSpline
 62
7
  6
CONTINUOUS
 70
0
 71
3
 72
15
 73
11
 74
0
 42
0.0000001
 43
0.0000001
 44
0.0000000001
 40
0.0
 40
0.0
 40
0.0
 40
0.0
 40
0.1381416563
 40
0.2714991976
 40
0.4004160868
 40
0.5254148721
 40
0.6471149297
 40
0.7662297612
 40
0.8835674436
 40
1.0
 40
1.0
 40
1.0
 40
1.0
 10
17.8913957169
 20
12.5912811955
 30
0.0
 10
17.8944839229
 20
12.5849880933
 30
0.0
 10
17.900107439
 20
12.5723935462
 30
0.0
 10
17.906903482
 20
12.5532213351
 30
0.0
 10
17.9118771727
 20
12.5341824934
 30
0.0
 10
17.9150059136
 20
12.5153522098
 30
0.0
 10
17.9162757854
 20
12.4968022583
 30
0.0
 10
17.9156767234
 20
12.4786048792
 30
0.0
 10
17.9132099985
 20
12.4608359314
 30
0.0
 10
17.9103199539
 20
12.4493025295
 30
0.0
 10
17.9085755789
 20
12.4436575277
 30
0.0
  0
SPLINE
  5
2E8
100
AcDbEntity
  8
0
100
AcDbSpline
 62
7
  6
CONTINUOUS
 70
0
 71
3
 72
15
 73
11
 74
0
 42
0.0000001
 43
0.0000001
 44
0.0000000001
 40
0.0
 40
0.0
 40
0.0
 40
0.0
 40
0.1380117035
 40
0.2725591364
 40
0.4034362015
 40
0.530529714
 40
0.6537505054
 40
0.7730526736
 40
0.8884579974
 40
1.0
 40
1.0
 40
1.0
 40
1.0
 10
17.7746268838
 20
12.7302286037
 30
0.0
 10
17.7811569499
 20
12.7249250868
 30
0.0
 10
17.7938345365
 20
12.7141779989
 30
0.0
 10
17.8118693904
 20
12.6974483706
 30
0.0
 10
17.8286299293
 20
12.6803609815
 30
0.0
 10
17.8440588035
 20
12.6629740364
 30
0.0
 10
17.8581056545
 20
12.6453450594
 30
0.0
 10
17.870723297
 20
12.6275309449
 30
0.0
 10
17.8818676114
 20
12.6095925094
 30
0.0
 10
17.8884004726
 20
12.5973848614
 30
0.0
 10
17.8913957169
 20
12.5912811955
 30
0.0
  0
SPLINE
  5
2E9
100
AcDbEntity
  8
0
100
AcDbSpline
 62
7
  6
CONTINUOUS
 70
0
 71
3
 72
37
 73
33
 74
0
 42
0.0000001
 43
0.0000001
 44
0.0000000001
 40
0.0
 40
0.0
 40
0.0
 40
0.0
 40
0.0212493643
 40
0.0428870361
 40
0.0650434113
 40
0.0878421936
 40
0.1113859661
 40
0.135755842
 40
0.1610134858
 40
0.1872020073
 40
0.2143461123
 40
0.2424543204
 40
0.2715206578
 40
0.3015254003
 40
0.3324374618
 40
0.3642148205
 40
0.3968063292
 40
0.4301527078
 40
0.4641872449
 40
0.4988373754
 40
0.5340248902
 40
0.5696673206
 40
0.6056784657
 40
0.6419691488
 40
0.6784481616
 40
0.7150227708
 40
0.7880732565
 40
0.8603887285
 40
0.8960490107
 40
0.9312586796
 40
0.9659392903
 40
1.0
 40
1.0
 40
1.0
 40
1.0
 10
14.373630144
 20
14.6856829618
 30
0.0
 10
14.3762485237
 20
14.6910488669
 30
0.0
 10
14.3821173449
 20
14.701603565
 30
0.0
 10
14.3926139276
 20
14.7166006733
 30
0.0
 10
14.4048247895
 20
14.7308172988
 30
0.0
 10
14.4186969515
 20
14.744197265
 30
0.0
 10
14.4341751381
 20
14.7566934807
 30
0.0
 10
14.4511994959
 20
14.7682591972
 30
0.0
 10
14.4697035026
 20
14.7788536423
 30
0.0
 10
14.4896168859
 20
14.7884379309
 30
0.0
 10
14.510863911
 20
14.7969776162
 30
0.0
 10
14.5333641518
 20
14.8044418397
 30
0.0
 10
14.5570328025
 20
14.8108025947
 30
0.0
 10
14.5817803154
 20
14.816037448
 30
0.0
 10
14.6075133895
 20
14.8201262186
 30
0.0
 10
14.6341347136
 20
14.8230542592
 30
0.0
 10
14.6615436513
 20
14.824810728
 30
0.0
 10
14.6896364894
 20
14.8253886182
 30
0.0
 10
14.7183068842
 20
14.8247866165
 30
0.0
 10
14.7474461755
 20
14.8230062642
 30
0.0
 10
14.7769439664
 20
14.8200548889
 30
0.0
 10
14.8066883981
 20
14.815943589
 30
0.0
 10
14.8365666249
 20
14.8106876199
 30
0.0
 10
14.8664653088
 20
14.8043075992
 30
0.0
 10
14.8962713036
 20
14.7968269314
 30
0.0
 10
14.9357173044
 20
14.7854294923
 30
0.0
 10
14.9840551138
 20
14.7686513191
 30
0.0
 10
15.0308461646
 20
14.7485848897
 30
0.0
 10
15.0668967491
 20
14.7307066151
 30
0.0
 10
15.0929591789
 20
14.7165370374
 30
0.0
 10
15.1180675242
 20
14.7016004215
 30
0.0
 10
15.1342653863
 20
14.6910674146
 30
0.0
 10
15.142177428
 20
14.6856829618
 30
0.0
  0
SPLINE
  5
2EA
100
AcDbEntity
  8
0
100
AcDbSpline
 62
7
  6
CONTINUOUS
 70
0
 71
3
 72
16
 73
12
 74
0
 42
0.0000001
 43
0.0000001
 44
0.0000000001
 40
0.0
 40
0.0
 40
0.0
 40
0.0
 40
0.1316175798
 40
0.2606600365
 40
0.3874411053
 40
0.5122980755
 40
0.6355971217
 40
0.7577206612
 40
0.81846811
 40
0.8790599375
 40
1.0
 40
1.0
 40
1.0
 40
1.0
 10
16.1412256528
 20
10.9524247961
 30
0.0
 10
16.1546425095
 20
10.9622222056
 30
0.0
 10
16.1805778334
 20
10.9825173709
 30
0.0
 10
16.2168873653
 20
11.0153398085
 30
0.0
 10
16.2500608859
 20
11.0501673393
 30
0.0
 10
16.2799559647
 20
11.0869208464
 30
0.0
 10
16.3064321774
 20
11.1255000035
 30
0.0
 10
16.3255679663
 20
11.1591342681
 30
0.0
 10
16.3390114059
 20
11.1867783716
 30
0.0
 10
16.3511821182
 20
11.2148410863
 30
0.0
 10
16.3589160073
 20
11.2364511403
 30
0.0
 10
16.3634231143
 20
11.2510361441
 30
0.0
  0
SPLINE
  5
2EB
100
AcDbEntity
  8
0
100
AcDbSpline
 62
7
  6
CONTINUOUS
 70
0
 71
3
 72
15
 73
11
 74
0
 42
0.0000001
 43
0.0000001
 44
0.0000000001
 40
0.0
 40
0.0
 40
0.0
 40
0.0
 40
0.1381190604
 40
0.2714921606
 40
0.4004234587
 40
0.5254183482
 40
0.647112614
 40
0.7662295042
 40
0.8835682243
 40
1.0
 40
1.0
 40
1.0
 40
1.0
 10
14.878500248
 20
14.0737656464
 30
0.0
 10
14.879658135
 20
14.0714061207
 30
0.0
 10
14.8817666368
 20
14.0666831834
 30
0.0
 10
14.8843155757
 20
14.0594936131
 30
0.0
 10
14.8861807616
 20
14.0523535532
 30
0.0
 10
14.8873543099
 20
14.0452921421
 30
0.0
 10
14.8878299332
 20
14.0383360254
 30
0.0
 10
14.8876056674
 20
14.0315120668
 30
0.0
 10
14.88668056
 20
14.0248486648
 30
0.0
 10
14.8855967506
 20
14.0205236567
 30
0.0
 10
14.8849426492
 20
14.018406786
 30
0.0
  0
SPLINE
  5
2EC
100
AcDbEntity
  8
0
100
AcDbSpline
 62
7
  6
CONTINUOUS
 70
0
 71
3
 72
40
 73
36
 74
0
 42
0.0000001
 43
0.0000001
 44
0.0000000001
 40
0.0
 40
0.0
 40
0.0
 40
0.0
 40
0.0107129261
 40
0.0214633527
 40
0.0432089527
 40
0.065527213
 40
0.088659032
 40
0.1128003062
 40
0.1380979622
 40
0.164649819
 40
0.1925093306
 40
0.2216892226
 40
0.2521664892
 40
0.2838883524
 40
0.316775253
 40
0.3507258514
 40
0.3856205163
 40
0.4213237
 40
0.4576880022
 40
0.4945561013
 40
0.5317633835
 40
0.5691407716
 40
0.6065166721
 40
0.6437197917
 40
0.6805809704
 40
0.7169358429
 40
0.7526273644
 40
0.7875078306
 40
0.8214423541
 40
0.8543113322
 40
0.8860140446
 40
0.9164706816
 40
0.9456286078
 40
0.9734719868
 40
1.0
 40
1.0
 40
1.0
 40
1.0
 10
14.526659974
 20
14.1291245067
 30
0.0
 10
14.5270970023
 20
14.1305388629
 30
0.0
 10
14.5280756124
 20
14.1333419884
 30
0.0
 10
14.5304460497
 20
14.1388264375
 30
0.0
 10
14.5341933752
 20
14.1454404668
 30
0.0
 10
14.5398517346
 20
14.1528361918
 30
0.0
 10
14.5466449486
 20
14.1596774446
 30
0.0
 10
14.5545214934
 20
14.1659186407
 30
0.0
 10
14.563425055
 20
14.1715205559
 30
0.0
 10
14.573293245
 20
14.1764490455
 30
0.0
 10
14.5840590409
 20
14.1806729595
 30
0.0
 10
14.5956496135
 20
14.1841655671
 30
0.0
 10
14.607986694
 20
14.1869051018
 30
0.0
 10
14.6209872087
 20
14.1888731709
 30
0.0
 10
14.6345632745
 20
14.1900573587
 30
0.0
 10
14.6486230728
 20
14.1904500667
 30
0.0
 10
14.6630713231
 20
14.1900482419
 30
0.0
 10
14.677810016
 20
14.1888552908
 30
0.0
 10
14.6927390331
 20
14.1868791149
 30
0.0
 10
14.7077568384
 20
14.1841329353
 30
0.0
 10
14.7227613761
 20
14.1806359617
 30
0.0
 10
14.7376504302
 20
14.1764115246
 30
0.0
 10
14.752322704
 20
14.1714885018
 30
0.0
 10
14.7666784652
 20
14.1659006828
 30
0.0
 10
14.7806198452
 20
14.1596855724
 30
0.0
 10
14.7940521766
 20
14.1528858238
 30
0.0
 10
14.8068841587
 20
14.1455476567
 30
0.0
 10
14.8190283465
 20
14.1377204723
 30
0.0
 10
14.8304026235
 20
14.1294578602
 30
0.0
 10
14.8409296988
 20
14.1208153447
 30
0.0
 10
14.8505378998
 20
14.1118509549
 30
0.0
 10
14.8591626056
 20
14.1026256715
 30
0.0
 10
14.8667454404
 20
14.0931995562
 30
0.0
 10
14.8732326205
 20
14.0836370796
 30
0.0
 10
14.8768853497
 20
14.0770564632
 30
0.0
 10
14.878500248
 20
14.0737656464
 30
0.0
  0
SPLINE
  5
2ED
100
AcDbEntity
  8
0
100
AcDbSpline
 62
7
  6
CONTINUOUS
 70
0
 71
3
 72
21
 73
17
 74
0
 42
0.0000001
 43
0.0000001
 44
0.0000000001
 40
0.0
 40
0.0
 40
0.0
 40
0.0
 40
0.0581672291
 40
0.1164483345
 40
0.1749560837
 40
0.2338011166
 40
0.293090851
 40
0.3529287408
 40
0.4134130775
 40
0.4746369517
 40
0.5366872208
 40
0.5996445639
 40
0.663581861
 40
0.7285649239
 40
0.8618777158
 40
1.0
 40
1.0
 40
1.0
 40
1.0
 10
13.0960840244
 20
13.5908234338
 30
0.0
 10
13.0919435041
 20
13.5774248801
 30
0.0
 10
13.0843784075
 20
13.5503716297
 30
0.0
 10
13.0752220365
 20
13.5091768303
 30
0.0
 10
13.0682609208
 20
13.4673880659
 30
0.0
 10
13.0635019675
 20
13.425047616
 30
0.0
 10
13.0609489081
 20
13.382196201
 30
0.0
 10
13.0606047707
 20
13.3388755041
 30
0.0
 10
13.0624681348
 20
13.2951273862
 30
0.0
 10
13.0665381752
 20
13.2509941551
 30
0.0
 10
13.0728091075
 20
13.2065179962
 30
0.0
 10
13.0812756568
 20
13.161742022
 30
0.0
 10
13.0919283031
 20
13.116708536
 30
0.0
 10
13.1091777715
 20
13.0558663143
 30
0.0
 10
13.1363059029
 20
12.9793258881
 30
0.0
 10
13.1630183553
 20
12.9195057481
 30
0.0
 10
13.1776885912
 20
12.8896109505
 30
0.0
  0
SPLINE
  5
2EE
100
AcDbEntity
  8
0
100
AcDbSpline
 62
7
  6
CONTINUOUS
 70
0
 71
3
 72
28
 73
24
 74
0
 42
0.0000001
 43
0.0000001
 44
0.0000000001
 40
0.0
 40
0.0
 40
0.0
 40
0.0
 40
0.0260076524
 40
0.0520573375
 40
0.0781907731
 40
0.1044489945
 40
0.1308720628
 40
0.1574988259
 40
0.1843665195
 40
0.2115107596
 40
0.238965118
 40
0.2667611268
 40
0.3234811062
 40
0.3818906157
 40
0.4421587227
 40
0.5044170044
 40
0.5687609714
 40
0.6352520603
 40
0.70392006
 40
0.7747662866
 40
0.8477637424
 40
0.9228672334
 40
1.0
 40
1.0
 40
1.0
 40
1.0
 10
13.2019880409
 20
13.9335289568
 30
0.0
 10
13.2057495244
 20
13.9457009687
 30
0.0
 10
13.2138784803
 20
13.9698838963
 30
0.0
 10
13.2278523099
 20
14.0055615677
 30
0.0
 10
13.2436009095
 20
14.0406276374
 30
0.0
 10
13.2611104819
 20
14.0750532113
 30
0.0
 10
13.2803670352
 20
14.1088111835
 30
0.0
 10
13.3013555027
 20
14.1418742377
 30
0.0
 10
13.3240580373
 20
14.174216842
 30
0.0
 10
13.3484571513
 20
14.2058125656
 30
0.0
 10
13.3745330905
 20
14.2366374915
 30
0.0
 10
13.4117545645
 20
14.2769435152
 30
0.0
 10
13.4625120156
 20
14.3252938668
 30
0.0
 10
13.5293368505
 20
14.3794324634
 30
0.0
 10
13.6022776265
 20
14.4299242483
 30
0.0
 10
13.6810978432
 20
14.4766130679
 30
0.0
 10
13.7655482159
 20
14.5193587339
 30
0.0
 10
13.8553620091
 20
14.5580314026
 30
0.0
 10
13.9502569812
 20
14.5925137157
 30
0.0
 10
14.0499344576
 20
14.622699994
 30
0.0
 10
14.1540834899
 20
14.6484991796
 30
0.0
 10
14.2623732817
 20
14.6698297919
 30
0.0
 10
14.3361520525
 20
14.6808860993
 30
0.0
 10
14.373630144
 20
14.6856829618
 30
0.0
  0
SPLINE
  5
2EF
100
AcDbEntity
  8
0
100
AcDbSpline
 62
7
  6
CONTINUOUS
 70
0
 71
3
 72
16
 73
12
 74
0
 42
0.0000001
 43
0.0000001
 44
0.0000000001
 40
0.0
 40
0.0
 40
0.0
 40
0.0
 40
0.1224917377
 40
0.2451394815
 40
0.3066451865
 40
0.3682763266
 40
0.4920259464
 40
0.6167386732
 40
0.742740245
 40
0.8703746096
 40
1.0
 40
1.0
 40
1.0
 40
1.0
 10
14.2462458638
 20
14.2801388503
 30
0.0
 10
14.2440026517
 20
14.2728798133
 30
0.0
 10
14.2402839355
 20
14.2581021145
 30
0.0
 10
14.2376154808
 20
14.2392338089
 30
0.0
 10
14.2366555082
 20
14.2240129843
 30
0.0
 10
14.2364744506
 20
14.2086947482
 30
0.0
 10
14.2376994075
 20
14.1894656447
 30
0.0
 10
14.2414048726
 20
14.1665027951
 30
0.0
 10
14.2472522245
 20
14.1437428377
 30
0.0
 10
14.2551379221
 20
14.1212883855
 30
0.0
 10
14.261633432
 20
14.1066924156
 30
0.0
 10
14.2651754894
 20
14.0994744614
 30
0.0
  0
SPLINE
  5
2F0
100
AcDbEntity
  8
0
100
AcDbSpline
 62
7
  6
CONTINUOUS
 70
0
 71
3
 72
19
 73
15
 74
0
 42
0.0000001
 43
0.0000001
 44
0.0000000001
 40
0.0
 40
0.0
 40
0.0
 40
0.0
 40
0.0596829084
 40
0.1193485944
 40
0.1791477304
 40
0.239124975
 40
0.2993205847
 40
0.3598178143
 40
0.4206992978
 40
0.4820558676
 40
0.6064849735
 40
0.7338898876
 40
0.8649017985
 40
1.0
 40
1.0
 40
1.0
 40
1.0
 10
13.5447908115
 20
12.357033011
 30
0.0
 10
13.5431505149
 20
12.3517250093
 30
0.0
 10
13.5402820168
 20
12.3409782735
 30
0.0
 10
13.5372402935
 20
12.3245657398
 30
0.0
 10
13.5354630884
 20
12.3079405457
 30
0.0
 10
13.5349377835
 20
12.2911803633
 30
0.0
 10
13.5356528492
 20
12.2743627627
 30
0.0
 10
13.5375753787
 20
12.2575564644
 30
0.0
 10
13.5406737624
 20
12.2408171968
 30
0.0
 10
13.5463432629
 20
12.2185522606
 30
0.0
 10
13.556238511
 20
12.1910444109
 30
0.0
 10
13.5721325814
 20
12.1590689707
 30
0.0
 10
13.5918136837
 20
12.1281042956
 30
0.0
 10
13.6070470287
 20
12.1085210601
 30
0.0
 10
13.6151819343
 20
12.0989307379
 30
0.0
  0
SPLINE
  5
2F1
100
AcDbEntity
  8
0
100
AcDbSpline
 62
7
  6
CONTINUOUS
 70
0
 71
3
 72
39
 73
35
 74
0
 42
0.0000001
 43
0.0000001
 44
0.0000000001
 40
0.0
 40
0.0
 40
0.0
 40
0.0
 40
0.031659735
 40
0.0634175251
 40
0.0952424435
 40
0.1271055271
 40
0.1589953274
 40
0.1909040995
 40
0.2228231192
 40
0.2547418125
 40
0.2866531599
 40
0.3185485712
 40
0.3504136382
 40
0.3822351825
 40
0.4139962675
 40
0.4456657875
 40
0.4771995145
 40
0.5085384026
 40
0.5241153779
 40
0.5396134655
 40
0.5703132791
 40
0.6005667801
 40
0.6303457825
 40
0.6597341012
 40
0.6889455302
 40
0.7182570409
 40
0.7479506771
 40
0.778199639
 40
0.8090910235
 40
0.8405584223
 40
0.8724668184
 40
0.9046069837
 40
0.9367316126
 40
1.0
 40
1.0
 40
1.0
 40
1.0
 10
13.8446879091
 20
13.2283150155
 30
0.0
 10
13.843433383
 20
13.2310492813
 30
0.0
 10
13.8406594122
 20
13.2364109064
 30
0.0
 10
13.8357439574
 20
13.2440254963
 30
0.0
 10
13.8301050545
 20
13.2511470478
 30
0.0
 10
13.8237924964
 20
13.2576963179
 30
0.0
 10
13.8168652312
 20
13.2636041393
 30
0.0
 10
13.8093890509
 20
13.2688092907
 30
0.0
 10
13.8014368885
 20
13.2732591278
 30
0.0
 10
13.7930864865
 20
13.2769078548
 30
0.0
 10
13.7844212403
 20
13.2797210421
 30
0.0
 10
13.7755274685
 20
13.2816723681
 30
0.0
 10
13.7664944969
 20
13.2827465325
 30
0.0
 10
13.7574128022
 20
13.2829397446
 30
0.0
 10
13.7483737637
 20
13.282256595
 30
0.0
 10
13.7394679105
 20
13.2807211831
 30
0.0
 10
13.7307863041
 20
13.2783626777
 30
0.0
 10
13.7237924197
 20
13.2757512544
 30
0.0
 10
13.7183881547
 20
13.2733046828
 30
0.0
 10
13.7131501129
 20
13.2706518037
 30
0.0
 10
13.7068863637
 20
13.2669540272
 30
0.0
 10
13.6998345199
 20
13.2619792821
 30
0.0
 10
13.6932722878
 20
13.2565703216
 30
0.0
 10
13.6871632135
 20
13.2507999675
 30
0.0
 10
13.6814415543
 20
13.2447077788
 30
0.0
 10
13.6760297276
 20
13.2383021167
 30
0.0
 10
13.6708570311
 20
13.2315779252
 30
0.0
 10
13.6658770875
 20
13.224525769
 30
0.0
 10
13.6610655107
 20
13.2171559773
 30
0.0
 10
13.6564231761
 20
13.2094936669
 30
0.0
 10
13.6519669821
 20
13.2015853541
 30
0.0
 10
13.6477253907
 20
13.193489144
 30
0.0
 10
13.64242757
 20
13.1825891128
 30
0.0
 10
13.6388344759
 20
13.174258442
 30
0.0
 10
13.6366445976
 20
13.1686596718
 30
0.0
  0
SPLINE
  5
2F2
100
AcDbEntity
  8
0
100
AcDbSpline
 62
7
  6
CONTINUOUS
 70
0
 71
3
 72
33
 73
29
 74
0
 42
0.0000001
 43
0.0000001
 44
0.0000000001
 40
0.0
 40
0.0
 40
0.0
 40
0.0
 40
0.0592589721
 40
0.1178472006
 40
0.1473005923
 40
0.1770205796
 40
0.2070866252
 40
0.2375097103
 40
0.268266139
 40
0.2993105819
 40
0.3305890595
 40
0.3620508582
 40
0.3936542263
 40
0.4253650552
 40
0.4571578974
 40
0.4890128553
 40
0.5528122561
 40
0.6167219313
 40
0.6487218831
 40
0.6807301857
 40
0.712742532
 40
0.7447544024
 40
0.8087149039
 40
0.8726112173
 40
0.9045428168
 40
0.936429983
 40
0.9682491139
 40
1.0
 40
1.0
 40
1.0
 40
1.0
 10
13.6309734801
 20
13.1525118417
 30
0.0
 10
13.6297340646
 20
13.1485010917
 30
0.0
 10
13.6275089908
 20
13.1404477805
 30
0.0
 10
13.6254807405
 20
13.1301990765
 30
0.0
 10
13.624416758
 20
13.1219221359
 30
0.0
 10
13.6239218622
 20
13.1156169851
 30
0.0
 10
13.6237635062
 20
13.1092252744
 30
0.0
 10
13.6239756995
 20
13.1027611665
 30
0.0
 10
13.6245864203
 20
13.0962523908
 30
0.0
 10
13.6256208638
 20
13.0897356461
 30
0.0
 10
13.6270919813
 20
13.0832518025
 30
0.0
 10
13.6290112984
 20
13.0768445949
 30
0.0
 10
13.6313781945
 20
13.0705559169
 30
0.0
 10
13.6341908767
 20
13.0644276601
 30
0.0
 10
13.6374395506
 20
13.0584981176
 30
0.0
 10
13.6423369714
 20
13.0509058271
 30
0.0
 10
13.6494808364
 20
13.0420916503
 30
0.0
 10
13.6578376856
 20
13.0344014386
 30
0.0
 10
13.665143026
 20
13.0290284573
 30
0.0
 10
13.6709080798
 20
13.025406574
 30
0.0
 10
13.6769240612
 20
13.0222169988
 30
0.0
 10
13.68522989
 20
13.018565091
 30
0.0
 10
13.6960760601
 20
13.015159345
 30
0.0
 10
13.7072969561
 20
13.0133727672
 30
0.0
 10
13.7163401088
 20
13.01293209
 30
0.0
 10
13.7231193931
 20
13.0130913103
 30
0.0
 10
13.7298562523
 20
13.0137358377
 30
0.0
 10
13.7343014209
 20
13.0144844731
 30
0.0
 10
13.7365048488
 20
13.014936039
 30
0.0
  0
SPLINE
  5
2F3
100
AcDbEntity
  8
0
100
AcDbSpline
 62
7
  6
CONTINUOUS
 70
0
 71
3
 72
15
 73
11
 74
0
 42
0.0000001
 43
0.0000001
 44
0.0000000001
 40
0.0
 40
0.0
 40
0.0
 40
0.0
 40
0.1381190604
 40
0.2714921606
 40
0.4004234587
 40
0.5254183482
 40
0.647112614
 40
0.7662295042
 40
0.8835682243
 40
1.0
 40
1.0
 40
1.0
 40
1.0
 10
17.4674018501
 20
12.150659807
 30
0.0
 10
17.4685597371
 20
12.1483002813
 30
0.0
 10
17.4706682389
 20
12.1435773441
 30
0.0
 10
17.4732171777
 20
12.1363877738
 30
0.0
 10
17.4750823637
 20
12.1292477139
 30
0.0
 10
17.476255912
 20
12.1221863027
 30
0.0
 10
17.4767315353
 20
12.1152301861
 30
0.0
 10
17.4765072695
 20
12.1084062275
 30
0.0
 10
17.4755821621
 20
12.1017428254
 30
0.0
 10
17.4744983527
 20
12.0974178174
 30
0.0
 10
17.4738442513
 20
12.0953009467
 30
0.0
  0
SPLINE
  5
2F4
100
AcDbEntity
  8
0
100
AcDbSpline
 62
7
  6
CONTINUOUS
 70
0
 71
3
 72
25
 73
21
 74
0
 42
0.0000001
 43
0.0000001
 44
0.0000000001
 40
0.0
 40
0.0
 40
0.0
 40
0.0
 40
0.1600900501
 40
0.239687394
 40
0.3186781076
 40
0.473504245
 40
0.5486814315
 40
0.6216406542
 40
0.6570659698
 40
0.6916535349
 40
0.7252780763
 40
0.7577916222
 40
0.789039929
 40
0.8188619428
 40
0.8470777117
 40
0.8734938644
 40
0.9201439639
 40
0.9574087873
 40
0.9842023198
 40
1.0
 40
1.0
 40
1.0
 40
1.0
 10
13.8591508264
 20
13.2183309365
 30
0.0
 10
13.8640572238
 20
13.2158434897
 30
0.0
 10
13.8716944034
 20
13.212655852
 30
0.0
 10
13.8822132945
 20
13.209586451
 30
0.0
 10
13.8927526581
 20
13.207334294
 30
0.0
 10
13.9033619895
 20
13.2062632415
 30
0.0
 10
13.9137785431
 20
13.2063668164
 30
0.0
 10
13.9200708033
 20
13.206887489
 30
0.0
 10
13.9249386826
 20
13.2075558202
 30
0.0
 10
13.9284476894
 20
13.2081676534
 30
0.0
 10
13.9318346886
 20
13.2088832885
 30
0.0
 10
13.9350834108
 20
13.2096883882
 30
0.0
 10
13.9381768586
 20
13.2105689004
 30
0.0
 10
13.9410972407
 20
13.2115110473
 30
0.0
 10
13.9438280473
 20
13.2124945358
 30
0.0
 10
13.9470627996
 20
13.2137796545
 30
0.0
 10
13.9505192966
 20
13.2153434818
 30
0.0
 10
13.9538876355
 20
13.2171160826
 30
0.0
 10
13.956241373
 20
13.2185287915
 30
0.0
 10
13.9574592568
 20
13.2193415509
 30
0.0
 10
13.9579007081
 20
13.2196574399
 30
0.0
  0
SPLINE
  5
2F5
100
AcDbEntity
  8
0
100
AcDbSpline
 62
7
  6
CONTINUOUS
 70
0
 71
3
 72
37
 73
33
 74
0
 42
0.0000001
 43
0.0000001
 44
0.0000000001
 40
0.0
 40
0.0
 40
0.0
 40
0.0
 40
0.000178617
 40
0.0010998993
 40
0.0027771745
 40
0.0052169531
 40
0.0084250721
 40
0.0124077902
 40
0.017171767
 40
0.0227194164
 40
0.0290424799
 40
0.036131631
 40
0.0525732696
 40
0.0719456723
 40
0.0940718401
 40
0.1187678102
 40
0.1458143683
 40
0.1749764469
 40
0.2060287727
 40
0.2387524854
 40
0.2729364651
 40
0.3083909599
 40
0.3449550606
 40
0.3824757038
 40
0.4208146375
 40
0.4995162238
 40
0.5803217909
 40
0.6626778078
 40
0.7461420681
 40
0.8303621113
 40
0.9150438091
 40
1.0
 40
1.0
 40
1.0
 40
1.0
 10
13.8104063867
 20
12.928228146
 30
0.0
 10
13.8104061417
 20
12.928221982
 30
0.0
 10
13.8104079691
 20
12.9283031921
 30
0.0
 10
13.8104080456
 20
12.9283447368
 30
0.0
 10
13.8104096977
 20
12.9285537992
 30
0.0
 10
13.8104073883
 20
12.9287904029
 30
0.0
 10
13.810400805
 20
12.9291295616
 30
0.0
 10
13.8103870008
 20
12.9295397844
 30
0.0
 10
13.8103641391
 20
12.9300338089
 30
0.0
 10
13.810329926
 20
12.9306070329
 30
0.0
 10
13.8102818855
 20
12.9312602024
 30
0.0
 10
13.8101915394
 20
12.9322872952
 30
0.0
 10
13.8100276933
 20
12.9337602277
 30
0.0
 10
13.8097462193
 20
12.9357417216
 30
0.0
 10
13.8093536138
 20
12.9379943369
 30
0.0
 10
13.8088324344
 20
12.9404922318
 30
0.0
 10
13.808169883
 20
12.9432073089
 30
0.0
 10
13.8073543448
 20
12.9461092626
 30
0.0
 10
13.8063751529
 20
12.9491667985
 30
0.0
 10
13.805228267
 20
12.9523505137
 30
0.0
 10
13.8039082976
 20
12.9556310317
 30
0.0
 10
13.8024116726
 20
12.9589806819
 30
0.0
 10
13.8007401201
 20
12.9623755083
 30
0.0
 10
13.7988939115
 20
12.9657924255
 30
0.0
 10
13.7961760772
 20
12.9703880921
 30
0.0
 10
13.7923595665
 20
12.9760649058
 30
0.0
 10
13.7871688636
 20
12.9826201471
 30
0.0
 10
13.7813724357
 20
12.9888733713
 30
0.0
 10
13.7750155912
 20
12.9947315256
 30
0.0
 10
13.7681567961
 20
13.0001244972
 30
0.0
 10
13.7608514194
 20
13.0049878879
 30
0.0
 10
13.755728276
 20
13.0078449814
 30
0.0
 10
13.7531112501
 20
13.0091717619
 30
0.0
  0
SPLINE
  5
2F6
100
AcDbEntity
  8
0
100
AcDbSpline
 62
7
  6
CONTINUOUS
 70
0
 71
3
 72
40
 73
36
 74
0
 42
0.0000001
 43
0.0000001
 44
0.0000000001
 40
0.0
 40
0.0
 40
0.0
 40
0.0
 40
0.0355523083
 40
0.0714511687
 40
0.1076247207
 40
0.1440046929
 40
0.180518774
 40
0.2170947228
 40
0.2536598095
 40
0.2901413338
 40
0.3264671239
 40
0.3625659069
 40
0.3983677814
 40
0.4338046607
 40
0.4688107187
 40
0.503322854
 40
0.5372811929
 40
0.5706296266
 40
0.6033163326
 40
0.6352943425
 40
0.666522158
 40
0.6969644503
 40
0.7265927665
 40
0.7553862739
 40
0.7833325811
 40
0.8104286308
 40
0.8366816472
 40
0.8494989372
 40
0.8621133443
 40
0.8867475716
 40
0.910630992
 40
0.9338205669
 40
0.9563865712
 40
0.9784146001
 40
1.0
 40
1.0
 40
1.0
 40
1.0
 10
15.142177428
 20
14.6856829618
 30
0.0
 10
15.1837708159
 20
14.6809534846
 30
0.0
 10
15.2672099385
 20
14.6700466047
 30
0.0
 10
15.3922829675
 20
14.6495294513
 30
0.0
 10
15.5175910607
 20
14.6248245592
 30
0.0
 10
15.6427603553
 20
14.5960067482
 30
0.0
 10
15.7674231486
 20
14.5631599009
 30
0.0
 10
15.8912104056
 20
14.5263814701
 30
0.0
 10
16.0137566372
 20
14.4857801546
 30
0.0
 10
16.134699804
 20
14.4414758919
 30
0.0
 10
16.2536826014
 20
14.3935995574
 30
0.0
 10
16.3703534995
 20
14.3422924295
 30
0.0
 10
16.4843679242
 20
14.2877061492
 30
0.0
 10
16.5953892053
 20
14.2300019728
 30
0.0
 10
16.7030895242
 20
14.1693502501
 30
0.0
 10
16.8071508586
 20
14.1059298946
 30
0.0
 10
16.9072660042
 20
14.0399279323
 30
0.0
 10
17.0031396167
 20
13.9715390771
 30
0.0
 10
17.0944888784
 20
13.900964828
 30
0.0
 10
17.1810443139
 20
13.8284129262
 30
0.0
 10
17.2625505159
 20
13.7540966147
 30
0.0
 10
17.3387671192
 20
13.678234253
 30
0.0
 10
17.4094693887
 20
13.6010483725
 30
0.0
 10
17.4744484797
 20
13.5227651954
 30
0.0
 10
17.5335124844
 20
13.4436128902
 30
0.0
 10
17.5864848487
 20
13.3638247442
 30
0.0
 10
17.6257319137
 20
13.2964638047
 30
0.0
 10
17.6538595048
 20
13.2424867991
 30
0.0
 10
17.6794063134
 20
13.1893498826
 30
0.0
 10
17.7073714064
 20
13.1229579178
 30
0.0
 10
17.7345792759
 20
13.0429513987
 30
0.0
 10
17.7550842479
 20
12.9634747582
 30
0.0
 10
17.768818465
 20
12.884760913
 30
0.0
 10
17.7757311197
 20
12.8070532581
 30
0.0
 10
17.7757730353
 20
12.7556186872
 30
0.0
 10
17.7746268838
 20
12.7302286037
 30
0.0
  0
SPLINE
  5
2F7
100
AcDbEntity
  8
0
100
AcDbSpline
 62
7
  6
CONTINUOUS
 70
0
 71
3
 72
22
 73
18
 74
0
 42
0.0000001
 43
0.0000001
 44
0.0000000001
 40
0.0
 40
0.0
 40
0.0
 40
0.0
 40
0.0730983287
 40
0.1448542652
 40
0.2152252203
 40
0.2841758535
 40
0.3516779889
 40
0.4177118862
 40
0.4822663943
 40
0.5453397321
 40
0.6069404429
 40
0.667087502
 40
0.7831191116
 40
0.839138364
 40
0.8939011271
 40
0.9474887995
 40
1.0
 40
1.0
 40
1.0
 40
1.0
 10
16.4197831032
 20
11.4311061226
 30
0.0
 10
16.4474043974
 20
11.4341889281
 30
0.0
 10
16.5020501202
 20
11.441139306
 30
0.0
 10
16.5828675145
 20
11.4540680072
 30
0.0
 10
16.6616621382
 20
11.4693855902
 30
0.0
 10
16.738302334
 20
11.4870658055
 30
0.0
 10
16.8126610498
 20
11.5070805807
 30
0.0
 10
16.8846148902
 20
11.5293963565
 30
0.0
 10
16.9540447155
 20
11.553976965
 30
0.0
 10
17.0208341815
 20
11.5807819211
 30
0.0
 10
17.0848762185
 20
11.6097687367
 30
0.0
 10
17.1654767013
 20
11.6507642732
 30
0.0
 10
17.2412962934
 20
11.6963372433
 30
0.0
 10
17.3114692236
 20
11.746521825
 30
0.0
 10
17.3602555935
 20
11.7856356502
 30
0.0
 10
17.4057212821
 20
11.8265942424
 30
0.0
 10
17.4340415173
 20
11.8553640138
 30
0.0
 10
17.447592646
 20
11.8700262715
 30
0.0
  0
SPLINE
  5
2F8
100
AcDbEntity
  8
0
100
AcDbSpline
 62
7
  6
CONTINUOUS
 70
0
 71
3
 72
15
 73
11
 74
0
 42
0.0000001
 43
0.0000001
 44
0.0000000001
 40
0.0
 40
0.0
 40
0.0
 40
0.0
 40
0.1381190604
 40
0.2714921606
 40
0.4004234587
 40
0.5254183482
 40
0.647112614
 40
0.7662295042
 40
0.8835682243
 40
1.0
 40
1.0
 40
1.0
 40
1.0
 10
14.5331023753
 20
14.0737656464
 30
0.0
 10
14.5319444882
 20
14.076125172
 30
0.0
 10
14.5298359865
 20
14.0808481093
 30
0.0
 10
14.5272870476
 20
14.0880376796
 30
0.0
 10
14.5254218616
 20
14.0951777395
 30
0.0
 10
14.5242483133
 20
14.1022391506
 30
0.0
 10
14.5237726901
 20
14.1091952673
 30
0.0
 10
14.5239969559
 20
14.1160192259
 30
0.0
 10
14.5249220632
 20
14.122682628
 30
0.0
 10
14.5260058726
 20
14.127007636
 30
0.0
 10
14.526659974
 20
14.1291245067
 30
0.0
  0
LINE
  5
2F9
100
AcDbEntity
  8
0
100
AcDbLine
 62
7
  6
CONTINUOUS
 10
15.4427412032
 20
13.6578440395
 11
15.4275330033
 21
13.6850340554
  0
SPLINE
  5
2FA
100
AcDbEntity
  8
0
100
AcDbSpline
 62
7
  6
CONTINUOUS
 70
0
 71
3
 72
11
 73
7
 74
0
 42
0.0000001
 43
0.0000001
 44
0.0000000001
 40
0.0
 40
0.0
 40
0.0
 40
0.0
 40
0.2712693868
 40
0.5291423032
 40
0.772384465
 40
1.0
 40
1.0
 40
1.0
 40
1.0
 10
15.3977967036
 20
13.7552991451
 30
0.0
 10
15.3973119412
 20
13.7573161589
 30
0.0
 10
15.3962806753
 20
13.7612307247
 30
0.0
 10
15.3945009576
 20
13.7668654312
 30
0.0
 10
15.3925388948
 20
13.7720843094
 30
0.0
 10
15.3910691863
 20
13.7753747978
 30
0.0
 10
15.390302369
 20
13.7769374073
 30
0.0
  0
SPLINE
  5
2FB
100
AcDbEntity
  8
0
100
AcDbSpline
 62
7
  6
CONTINUOUS
 70
0
 71
3
 72
17
 73
13
 74
0
 42
0.0000001
 43
0.0000001
 44
0.0000000001
 40
0.0
 40
0.0
 40
0.0
 40
0.0
 40
0.1247959793
 40
0.1879172827
 40
0.2514050575
 40
0.379172297
 40
0.5074595488
 40
0.6352784272
 40
0.6985943885
 40
0.7612228786
 40
0.8835339796
 40
1.0
 40
1.0
 40
1.0
 40
1.0
 10
15.4275330033
 20
13.6850340554
 30
0.0
 10
15.4259673206
 20
13.6878052592
 30
0.0
 10
15.4236510472
 20
13.6920018257
 30
0.0
 10
15.4206601555
 20
13.6976738096
 30
0.0
 10
15.4177175329
 20
13.7034562032
 30
0.0
 10
15.4141818232
 20
13.7108004396
 30
0.0
 10
15.4101614652
 20
13.7197286946
 30
0.0
 10
15.407028286
 20
13.7272505249
 30
0.0
 10
15.4046915621
 20
13.7332865533
 30
0.0
 10
15.4025132096
 20
13.7392320146
 30
0.0
 10
15.4000872016
 20
13.7465297455
 30
0.0
 10
15.3984908476
 20
13.7524109306
 30
0.0
 10
15.3977967036
 20
13.7552991451
 30
0.0
  0
SPLINE
  5
2FC
100
AcDbEntity
  8
0
100
AcDbSpline
 62
7
  6
CONTINUOUS
 70
0
 71
3
 72
9
 73
5
 74
0
 42
0.0000001
 43
0.0000001
 44
0.0000000001
 40
0.0
 40
0.0
 40
0.0
 40
0.0
 40
0.4970042009
 40
1.0
 40
1.0
 40
1.0
 40
1.0
 10
16.7914281001
 20
12.7200722078
 30
0.0
 10
16.7962006303
 20
12.7199458172
 30
0.0
 10
16.8057954329
 20
12.718961331
 30
0.0
 10
16.8151475423
 20
12.7166148835
 30
0.0
 10
16.8197398661
 20
12.715112734
 30
0.0
  0
SPLINE
  5
2FD
100
AcDbEntity
  8
0
100
AcDbSpline
 62
7
  6
CONTINUOUS
 70
0
 71
3
 72
20
 73
16
 74
0
 42
0.0000001
 43
0.0000001
 44
0.0000000001
 40
0.0
 40
0.0
 40
0.0
 40
0.0
 40
0.0795538645
 40
0.1574383374
 40
0.2333536498
 40
0.3070929916
 40
0.3784905922
 40
0.4474480984
 40
0.5778245033
 40
0.6980776502
 40
0.7544532289
 40
0.8083766744
 40
0.8598833256
 40
0.9089891277
 40
1.0
 40
1.0
 40
1.0
 40
1.0
 10
16.7914281001
 20
12.7200722078
 30
0.0
 10
16.7898466646
 20
12.7201140889
 30
0.0
 10
16.7867161816
 20
12.7201682335
 30
0.0
 10
16.7820757336
 20
12.7201857649
 30
0.0
 10
16.7775509317
 20
12.7201673319
 30
0.0
 10
16.7731554625
 20
12.7201065923
 30
0.0
 10
16.7688994088
 20
12.7199926927
 30
0.0
 10
16.7635200395
 20
12.7197734038
 30
0.0
 10
16.7571757194
 20
12.7193859727
 30
0.0
 10
16.7510949168
 20
12.7188304009
 30
0.0
 10
16.7465406907
 20
12.7183012144
 30
0.0
 10
16.7433499428
 20
12.7178855601
 30
0.0
 10
16.7403072741
 20
12.7174537375
 30
0.0
 10
16.7365409442
 20
12.7168750386
 30
0.0
 10
16.7337963972
 20
12.7163880154
 30
0.0
 10
16.7320237233
 20
12.7160232135
 30
0.0
  0
SPLINE
  5
2FE
100
AcDbEntity
  8
0
100
AcDbSpline
 62
7
  6
CONTINUOUS
 70
0
 71
3
 72
13
 73
9
 74
0
 42
0.0000001
 43
0.0000001
 44
0.0000000001
 40
0.0
 40
0.0
 40
0.0
 40
0.0
 40
0.2825732106
 40
0.4158105835
 40
0.5435962845
 40
0.6658247174
 40
0.7824008348
 40
1.0
 40
1.0
 40
1.0
 40
1.0
 10
16.7320237233
 20
12.7160232135
 30
0.0
 10
16.7306302549
 20
12.7157363534
 30
0.0
 10
16.7285930731
 20
12.7152406885
 30
0.0
 10
16.7259825941
 20
12.7144158836
 30
0.0
 10
16.7241718279
 20
12.7137471134
 30
0.0
 10
16.7224733712
 20
12.7130221689
 30
0.0
 10
16.7204085205
 20
12.7120140221
 30
0.0
 10
16.7189604064
 20
12.711140572
 30
0.0
 10
16.7180808524
 20
12.7104873981
 30
0.0
  0
SPLINE
  5
2FF
100
AcDbEntity
  8
0
100
AcDbSpline
 62
7
  6
CONTINUOUS
 70
0
 71
3
 72
40
 73
36
 74
0
 42
0.0000001
 43
0.0000001
 44
0.0000000001
 40
0.0
 40
0.0
 40
0.0
 40
0.0
 40
0.0107129261
 40
0.0214633527
 40
0.0432089527
 40
0.065527213
 40
0.088659032
 40
0.1128003062
 40
0.1380979622
 40
0.164649819
 40
0.1925093306
 40
0.2216892226
 40
0.2521664892
 40
0.2838883524
 40
0.316775253
 40
0.3507258514
 40
0.3856205163
 40
0.4213237
 40
0.4576880022
 40
0.4945561013
 40
0.5317633835
 40
0.5691407716
 40
0.6065166721
 40
0.6437197917
 40
0.6805809704
 40
0.7169358429
 40
0.7526273644
 40
0.7875078306
 40
0.8214423541
 40
0.8543113322
 40
0.8860140446
 40
0.9164706816
 40
0.9456286078
 40
0.9734719868
 40
1.0
 40
1.0
 40
1.0
 40
1.0
 10
14.8849426492
 20
14.018406786
 30
0.0
 10
14.8845056209
 20
14.0169924298
 30
0.0
 10
14.8835270108
 20
14.0141893043
 30
0.0
 10
14.8811565735
 20
14.0087048552
 30
0.0
 10
14.877409248
 20
14.0020908259
 30
0.0
 10
14.8717508887
 20
13.9946951009
 30
0.0
 10
14.8649576746
 20
13.9878538481
 30
0.0
 10
14.8570811299
 20
13.981612652
 30
0.0
 10
14.8481775683
 20
13.9760107368
 30
0.0
 10
14.8383093783
 20
13.9710822472
 30
0.0
 10
14.8275435823
 20
13.9668583332
 30
0.0
 10
14.8159530098
 20
13.9633657256
 30
0.0
 10
14.8036159293
 20
13.9606261909
 30
0.0
 10
14.7906154146
 20
13.9586581219
 30
0.0
 10
14.7770393487
 20
13.957473934
 30
0.0
 10
14.7629795505
 20
13.957081226
 30
0.0
 10
14.7485313001
 20
13.9574830508
 30
0.0
 10
14.7337926072
 20
13.9586760019
 30
0.0
 10
14.7188635902
 20
13.9606521779
 30
0.0
 10
14.7038457849
 20
13.9633983574
 30
0.0
 10
14.6888412471
 20
13.9668953311
 30
0.0
 10
14.673952193
 20
13.9711197682
 30
0.0
 10
14.6592799193
 20
13.9760427909
 30
0.0
 10
14.644924158
 20
13.98163061
 30
0.0
 10
14.630982778
 20
13.9878457203
 30
0.0
 10
14.6175504466
 20
13.9946454689
 30
0.0
 10
14.6047184645
 20
14.001983636
 30
0.0
 10
14.5925742767
 20
14.0098108205
 30
0.0
 10
14.5811999997
 20
14.0180734326
 30
0.0
 10
14.5706729245
 20
14.026715948
 30
0.0
 10
14.5610647234
 20
14.0356803378
 30
0.0
 10
14.5524400177
 20
14.0449056212
 30
0.0
 10
14.5448571829
 20
14.0543317365
 30
0.0
 10
14.5383700027
 20
14.0638942131
 30
0.0
 10
14.5347172736
 20
14.0704748295
 30
0.0
 10
14.5331023753
 20
14.0737656464
 30
0.0
  0
SPLINE
  5
300
100
AcDbEntity
  8
0
100
AcDbSpline
 62
7
  6
CONTINUOUS
 70
0
 71
3
 72
16
 73
12
 74
0
 42
0.0000001
 43
0.0000001
 44
0.0000000001
 40
0.0
 40
0.0
 40
0.0
 40
0.0
 40
0.0549361527
 40
0.1120350758
 40
0.2317521252
 40
0.357278913
 40
0.4866058771
 40
0.6176507517
 40
0.748296997
 40
0.876430812
 40
1.0
 40
1.0
 40
1.0
 40
1.0
 10
14.0078571408
 20
13.1559384988
 30
0.0
 10
14.0066775344
 20
13.152121291
 30
0.0
 10
14.0041811397
 20
13.1443643814
 30
0.0
 10
13.9986818701
 20
13.1284312337
 30
0.0
 10
13.9908924096
 20
13.1078628869
 30
0.0
 10
13.9803658292
 20
13.0827325058
 30
0.0
 10
13.9686933934
 20
13.0572047679
 30
0.0
 10
13.9560741092
 20
13.0317157786
 30
0.0
 10
13.942722901
 20
13.0067005483
 30
0.0
 10
13.9288682054
 20
12.9825858561
 30
0.0
 10
13.9192284873
 20
12.9670190253
 30
0.0
 10
13.9143565578
 20
12.9594674611
 30
0.0
  0
SPLINE
  5
301
100
AcDbEntity
  8
0
100
AcDbSpline
 62
7
  6
CONTINUOUS
 70
0
 71
3
 72
19
 73
15
 74
0
 42
0.0000001
 43
0.0000001
 44
0.0000000001
 40
0.0
 40
0.0
 40
0.0
 40
0.0
 40
0.1735474763
 40
0.3348869743
 40
0.4827743902
 40
0.616342586
 40
0.6775511989
 40
0.7349514374
 40
0.7885064238
 40
0.838217747
 40
0.8841162525
 40
0.9262743833
 40
0.9648316794
 40
1.0
 40
1.0
 40
1.0
 40
1.0
 10
13.8407824383
 20
13.174649299
 30
0.0
 10
13.8416359709
 20
13.1774113314
 30
0.0
 10
13.8432006693
 20
13.1827671382
 30
0.0
 10
13.8451743281
 20
13.1905652303
 30
0.0
 10
13.84667782
 20
13.1977888384
 30
0.0
 10
13.8475539063
 20
13.2034328575
 30
0.0
 10
13.8479925288
 20
13.207611363
 30
0.0
 10
13.8481874992
 20
13.2104733234
 30
0.0
 10
13.8482577997
 20
13.2131496249
 30
0.0
 10
13.8482035558
 20
13.2156348912
 30
0.0
 10
13.8480249108
 20
13.217924221
 30
0.0
 10
13.8477217209
 20
13.2200133174
 30
0.0
 10
13.8472947486
 20
13.2218980601
 30
0.0
 10
13.8469108614
 20
13.2230674513
 30
0.0
 10
13.8466953415
 20
13.223612191
 30
0.0
  0
SPLINE
  5
302
100
AcDbEntity
  8
0
100
AcDbSpline
 62
7
  6
CONTINUOUS
 70
0
 71
3
 72
23
 73
19
 74
0
 42
0.0000001
 43
0.0000001
 44
0.0000000001
 40
0.0
 40
0.0
 40
0.0
 40
0.0
 40
0.0387608264
 40
0.0758199462
 40
0.1127350285
 40
0.1510987003
 40
0.1923281134
 40
0.2375440945
 40
0.2875606745
 40
0.3429426577
 40
0.4040529871
 40
0.4711168752
 40
0.544244067
 40
0.6234681475
 40
0.7087575881
 40
0.8000307992
 40
0.8971665624
 40
1.0
 40
1.0
 40
1.0
 40
1.0
 10
13.8190709604
 20
12.8633170747
 30
0.0
 10
13.8181533106
 20
12.8633564979
 30
0.0
 10
13.8163587479
 20
12.8635929622
 30
0.0
 10
13.813820813
 20
12.8644896461
 30
0.0
 10
13.8115479015
 20
12.8659161688
 30
0.0
 10
13.8095580647
 20
12.8678566991
 30
0.0
 10
13.8078550451
 20
12.870292587
 30
0.0
 10
13.8064360094
 20
12.8732103409
 30
0.0
 10
13.8052974303
 20
12.8766012776
 30
0.0
 10
13.8044386507
 20
12.8804583418
 30
0.0
 10
13.8038589777
 20
12.8847735549
 30
0.0
 10
13.8035596434
 20
12.8895375936
 30
0.0
 10
13.8035406055
 20
12.89473947
 30
0.0
 10
13.8038022911
 20
12.9003666523
 30
0.0
 10
13.8043440364
 20
12.9064052595
 30
0.0
 10
13.8051645917
 20
12.9128401787
 30
0.0
 10
13.8062621734
 20
12.9196548398
 30
0.0
 10
13.8071517709
 20
12.9243098731
 30
0.0
 10
13.8076396526
 20
12.9266973266
 30
0.0
  0
SPLINE
  5
303
100
AcDbEntity
  8
0
100
AcDbSpline
 62
7
  6
CONTINUOUS
 70
0
 71
3
 72
25
 73
21
 74
0
 42
0.0000001
 43
0.0000001
 44
0.0000000001
 40
0.0
 40
0.0
 40
0.0
 40
0.0
 40
0.1842424402
 40
0.2716007583
 40
0.3553269776
 40
0.4351167254
 40
0.510676642
 40
0.5817457624
 40
0.648094487
 40
0.7095332236
 40
0.7383645588
 40
0.765918008
 40
0.8171512411
 40
0.8632188557
 40
0.9042010126
 40
0.9228553297
 40
0.9403381671
 40
0.9567094251
 40
0.9720468713
 40
1.0
 40
1.0
 40
1.0
 40
1.0
 10
13.9143565578
 20
12.9594674611
 30
0.0
 10
13.9097422479
 20
12.9523152112
 30
0.0
 10
13.9027546156
 20
12.9418886557
 30
0.0
 10
13.8931929083
 20
12.9285445207
 30
0.0
 10
13.8862331213
 20
12.9192757637
 30
0.0
 10
13.8793871922
 20
12.910607106
 30
0.0
 10
13.8726840952
 20
12.9025753226
 30
0.0
 10
13.8661528189
 20
12.8952143769
 30
0.0
 10
13.8598210252
 20
12.8885555566
 30
0.0
 10
13.8546290314
 20
12.8835126609
 30
0.0
 10
13.8505903309
 20
12.8798625845
 30
0.0
 10
13.8468168639
 20
12.876624931
 30
0.0
 10
13.8422858174
 20
12.8730493059
 30
0.0
 10
13.8370078423
 20
12.869440424
 30
0.0
 10
13.8327494318
 20
12.8670324551
 30
0.0
 10
13.8295093998
 20
12.8655460768
 30
0.0
 10
13.8272440357
 20
12.8646739893
 30
0.0
 10
13.8250677349
 20
12.8640103066
 30
0.0
 10
13.8223736856
 20
12.8634229209
 30
0.0
 10
13.820361137
 20
12.8632616472
 30
0.0
 10
13.8190709604
 20
12.8633170747
 30
0.0
  0
SPLINE
  5
304
100
AcDbEntity
  8
0
100
AcDbSpline
 62
7
  6
CONTINUOUS
 70
0
 71
3
 72
16
 73
12
 74
0
 42
0.0000001
 43
0.0000001
 44
0.0000000001
 40
0.0
 40
0.0
 40
0.0
 40
0.0
 40
0.1147509645
 40
0.2306007217
 40
0.3486128056
 40
0.4697545109
 40
0.5948530092
 40
0.7245892174
 40
0.7913902709
 40
0.8595447553
 40
1.0
 40
1.0
 40
1.0
 40
1.0
 10
13.5568943104
 20
12.3961993
 30
0.0
 10
13.5588415229
 20
12.4024999418
 30
0.0
 10
13.5635257698
 20
12.4149375546
 30
0.0
 10
13.5728007367
 20
12.4327461865
 30
0.0
 10
13.5842877625
 20
12.4496610311
 30
0.0
 10
13.5979237877
 20
12.4655975221
 30
0.0
 10
13.6136375649
 20
12.4804810559
 30
0.0
 10
13.6282562332
 20
12.4918405304
 30
0.0
 10
13.6408707443
 20
12.5003489733
 30
0.0
 10
13.6543685421
 20
12.5086223296
 30
0.0
 10
13.6649803164
 20
12.5142373132
 30
0.0
 10
13.6722522984
 20
12.5177406826
 30
0.0
  0
SPLINE
  5
305
100
AcDbEntity
  8
0
100
AcDbSpline
 62
7
  6
CONTINUOUS
 70
0
 71
3
 72
15
 73
11
 74
0
 42
0.0000001
 43
0.0000001
 44
0.0000000001
 40
0.0
 40
0.0
 40
0.0
 40
0.0
 40
0.1004468089
 40
0.208196952
 40
0.3231854358
 40
0.445268524
 40
0.5742585043
 40
0.7099275357
 40
0.8519823171
 40
1.0
 40
1.0
 40
1.0
 40
1.0
 10
14.0768619848
 20
13.1760826784
 30
0.0
 10
14.0769799892
 20
13.1739584016
 30
0.0
 10
14.0770715449
 20
13.169546052
 30
0.0
 10
14.0768105866
 20
13.1627024549
 30
0.0
 10
14.0761516405
 20
13.1554255739
 30
0.0
 10
14.0750926514
 20
13.1477421911
 30
0.0
 10
14.0736323324
 20
13.1396796307
 30
0.0
 10
14.0717729451
 20
13.1312661419
 30
0.0
 10
14.0695179449
 20
13.1225333723
 30
0.0
 10
14.0677903906
 20
13.1166360486
 30
0.0
 10
14.0668647472
 20
13.1136406657
 30
0.0
  0
SPLINE
  5
306
100
AcDbEntity
  8
0
100
AcDbSpline
 62
7
  6
CONTINUOUS
 70
0
 71
3
 72
28
 73
24
 74
0
 42
0.0000001
 43
0.0000001
 44
0.0000000001
 40
0.0
 40
0.0
 40
0.0
 40
0.0
 40
0.0127136164
 40
0.0271028813
 40
0.0432765196
 40
0.0612909339
 40
0.0811594223
 40
0.1028681795
 40
0.1263818477
 40
0.1516453518
 40
0.1785930881
 40
0.2071435957
 40
0.2686835721
 40
0.3354505749
 40
0.4065133966
 40
0.4808558993
 40
0.557399767
 40
0.635025793
 40
0.7125945786
 40
0.7889699491
 40
0.8630307286
 40
0.9337166826
 40
1.0
 40
1.0
 40
1.0
 40
1.0
 10
13.7414894081
 20
13.0160973582
 30
0.0
 10
13.7422705241
 20
13.016301415
 30
0.0
 10
13.7439009361
 20
13.0168726588
 30
0.0
 10
13.7463717261
 20
13.0180857234
 30
0.0
 10
13.7490051598
 20
13.0196992472
 30
0.0
 10
13.7517916665
 20
13.0217081791
 30
0.0
 10
13.7547223105
 20
13.0241052008
 30
0.0
 10
13.7577860845
 20
13.0268819118
 30
0.0
 10
13.7609713345
 20
13.0300281355
 30
0.0
 10
13.7642661379
 20
13.0335318755
 30
0.0
 10
13.7676574042
 20
13.0373800804
 30
0.0
 10
13.7724103293
 20
13.04309477
 30
0.0
 10
13.7784773554
 20
13.0509996336
 30
0.0
 10
13.7857568072
 20
13.0613614423
 30
0.0
 10
13.7930929323
 20
13.0726655539
 30
0.0
 10
13.8003715538
 20
13.0847374186
 30
0.0
 10
13.807479404
 20
13.0973907008
 30
0.0
 10
13.8143060017
 20
13.1104295047
 30
0.0
 10
13.820745563
 20
13.1236518521
 30
0.0
 10
13.8266981614
 20
13.136852571
 30
0.0
 10
13.8320725423
 20
13.1498275278
 30
0.0
 10
13.8367852672
 20
13.1623748528
 30
0.0
 10
13.8395397215
 20
13.1706278658
 30
0.0
 10
13.8407824383
 20
13.174649299
 30
0.0
  0
SPLINE
  5
307
100
AcDbEntity
  8
0
100
AcDbSpline
 62
7
  6
CONTINUOUS
 70
0
 71
3
 72
12
 73
8
 74
0
 42
0.0000001
 43
0.0000001
 44
0.0000000001
 40
0.0
 40
0.0
 40
0.0
 40
0.0
 40
0.1137920436
 40
0.2315197913
 40
0.4772686362
 40
0.7344429679
 40
1.0
 40
1.0
 40
1.0
 40
1.0
 10
14.0668647472
 20
13.1136406657
 30
0.0
 10
14.0659037106
 20
13.11053075
 30
0.0
 10
14.0638514639
 20
13.1042329396
 30
0.0
 10
14.0592618851
 20
13.091373799
 30
0.0
 10
14.0526355624
 20
13.0748944123
 30
0.0
 10
14.0435129531
 20
13.0548875857
 30
0.0
 10
14.0367609863
 20
13.0415411966
 30
0.0
 10
14.03321033
 20
13.0348258407
 30
0.0
  0
SPLINE
  5
308
100
AcDbEntity
  8
0
100
AcDbSpline
 62
7
  6
CONTINUOUS
 70
0
 71
3
 72
11
 73
7
 74
0
 42
0.0000001
 43
0.0000001
 44
0.0000000001
 40
0.0
 40
0.0
 40
0.0
 40
0.0
 40
0.2541278759
 40
0.5073142695
 40
0.7568435375
 40
1.0
 40
1.0
 40
1.0
 40
1.0
 10
14.0227979987
 20
13.0158979997
 30
0.0
 10
14.0192495976
 20
13.0096848023
 30
0.0
 10
14.0119753369
 20
12.9973893859
 30
0.0
 10
14.0006108361
 20
12.9793605994
 30
0.0
 10
13.9889465659
 20
12.9618948591
 30
0.0
 10
13.9809547556
 20
12.9505545587
 30
0.0
 10
13.9769417505
 20
12.9450078729
 30
0.0
  0
SPLINE
  5
309
100
AcDbEntity
  8
0
100
AcDbSpline
 62
7
  6
CONTINUOUS
 70
0
 71
3
 72
15
 73
11
 74
0
 42
0.0000001
 43
0.0000001
 44
0.0000000001
 40
0.0
 40
0.0
 40
0.0
 40
0.0
 40
0.1381190604
 40
0.2714921606
 40
0.4004234587
 40
0.5254183482
 40
0.647112614
 40
0.7662295042
 40
0.8835682243
 40
1.0
 40
1.0
 40
1.0
 40
1.0
 10
17.1220039773
 20
12.150659807
 30
0.0
 10
17.1208460903
 20
12.1530193327
 30
0.0
 10
17.1187375885
 20
12.15774227
 30
0.0
 10
17.1161886497
 20
12.1649318403
 30
0.0
 10
17.1143234637
 20
12.1720719001
 30
0.0
 10
17.1131499154
 20
12.1791333113
 30
0.0
 10
17.1126742921
 20
12.186089428
 30
0.0
 10
17.112898558
 20
12.1929133865
 30
0.0
 10
17.1138236653
 20
12.1995767886
 30
0.0
 10
17.1149074747
 20
12.2039017967
 30
0.0
 10
17.1155615761
 20
12.2060186673
 30
0.0
  0
SPLINE
  5
30A
100
AcDbEntity
  8
0
100
AcDbSpline
 62
7
  6
CONTINUOUS
 70
0
 71
3
 72
29
 73
25
 74
0
 42
0.0000001
 43
0.0000001
 44
0.0000000001
 40
0.0
 40
0.0
 40
0.0
 40
0.0
 40
0.0164008861
 40
0.0322047058
 40
0.0476654997
 40
0.063056239
 40
0.0786563579
 40
0.0947348537
 40
0.12921883
 40
0.1480648019
 40
0.168162583
 40
0.1896255265
 40
0.2125413796
 40
0.2369750331
 40
0.2629751214
 40
0.3197908945
 40
0.3831430607
 40
0.4530392529
 40
0.5293844764
 40
0.6120094859
 40
0.7006789485
 40
0.795122504
 40
0.8950334383
 40
1.0
 40
1.0
 40
1.0
 40
1.0
 10
14.0060721264
 20
13.25625915
 30
0.0
 10
14.0066690718
 20
13.2562335046
 30
0.0
 10
14.0078398606
 20
13.2561158598
 30
0.0
 10
14.0095360713
 20
13.2557218177
 30
0.0
 10
14.0111292666
 20
13.2551139951
 30
0.0
 10
14.0126153016
 20
13.2542928999
 30
0.0
 10
14.013991016
 20
13.2532602005
 30
0.0
 10
14.0157148699
 20
13.2515669633
 30
0.0
 10
14.0171686725
 20
13.2494676192
 30
0.0
 10
14.0183610918
 20
13.247071178
 30
0.0
 10
14.0191684993
 20
13.2450208842
 30
0.0
 10
14.0198606759
 20
13.2427743198
 30
0.0
 10
14.0204377015
 20
13.2403330394
 30
0.0
 10
14.0208993645
 20
13.2376996772
 30
0.0
 10
14.0213744309
 20
13.2338200325
 30
0.0
 10
14.0216499024
 20
13.2284954344
 30
0.0
 10
14.0215102072
 20
13.2215682728
 30
0.0
 10
14.0209082505
 20
13.2139526611
 30
0.0
 10
14.0198466533
 20
13.205680002
 30
0.0
 10
14.0183290605
 20
13.1967846287
 30
0.0
 10
14.0163616487
 20
13.1873038116
 30
0.0
 10
14.0139521002
 20
13.1772770101
 30
0.0
 10
14.0111104272
 20
13.1667480571
 30
0.0
 10
14.0089861687
 20
13.1595920344
 30
0.0
 10
14.0078571408
 20
13.1559384988
 30
0.0
  0
SPLINE
  5
30B
100
AcDbEntity
  8
0
100
AcDbSpline
 62
7
  6
CONTINUOUS
 70
0
 71
3
 72
15
 73
11
 74
0
 42
0.0000001
 43
0.0000001
 44
0.0000000001
 40
0.0
 40
0.0
 40
0.0
 40
0.0
 40
0.1400577693
 40
0.2763355402
 40
0.4084656312
 40
0.5361874256
 40
0.6592854573
 40
0.7776258366
 40
0.8911834148
 40
1.0
 40
1.0
 40
1.0
 40
1.0
 10
15.0362734115
 20
14.3429774388
 30
0.0
 10
15.0454248917
 20
14.3367494998
 30
0.0
 10
15.0631865328
 20
14.32402137
 30
0.0
 10
15.088433849
 20
14.3038783343
 30
0.0
 10
15.1118148585
 20
14.2830310824
 30
0.0
 10
15.1332048916
 20
14.2615912131
 30
0.0
 10
15.1524907963
 20
14.2396698388
 30
0.0
 10
15.1695715705
 20
14.2173808264
 30
0.0
 10
15.184353425
 20
14.1948424379
 30
0.0
 10
15.1928012335
 20
14.1794024064
 30
0.0
 10
15.1965900991
 20
14.1716815101
 30
0.0
  0
SPLINE
  5
30C
100
AcDbEntity
  8
0
100
AcDbSpline
 62
7
  6
CONTINUOUS
 70
0
 71
3
 72
15
 73
11
 74
0
 42
0.0000001
 43
0.0000001
 44
0.0000000001
 40
0.0
 40
0.0
 40
0.0
 40
0.0
 40
0.1303256592
 40
0.2600177243
 40
0.3885914031
 40
0.5156180048
 40
0.6406639254
 40
0.76331892
 40
0.8832202461
 40
1.0
 40
1.0
 40
1.0
 40
1.0
 10
17.4231394498
 20
12.5177406826
 30
0.0
 10
17.4346782171
 20
12.5139663509
 30
0.0
 10
17.457545467
 20
12.5059547181
 30
0.0
 10
17.4911853141
 20
12.4925582997
 30
0.0
 10
17.5239447457
 20
12.4778672054
 30
0.0
 10
17.5556484794
 20
12.4619609352
 30
0.0
 10
17.5861290065
 20
12.444922722
 30
0.0
 10
17.6152260236
 20
12.4268429154
 30
0.0
 10
17.6427829765
 20
12.4078177306
 30
0.0
 10
17.6602785287
 20
12.3943813105
 30
0.0
 10
17.6687228673
 20
12.3875230808
 30
0.0
  0
SPLINE
  5
30D
100
AcDbEntity
  8
0
100
AcDbSpline
 62
7
  6
CONTINUOUS
 70
0
 71
3
 72
19
 73
15
 74
0
 42
0.0000001
 43
0.0000001
 44
0.0000000001
 40
0.0
 40
0.0
 40
0.0
 40
0.0
 40
0.1787875293
 40
0.3424899526
 40
0.4905379658
 40
0.5585917902
 40
0.6226335379
 40
0.6826771706
 40
0.7387617541
 40
0.7909597362
 40
0.8393953267
 40
0.8842453418
 40
0.9257520982
 40
1.0
 40
1.0
 40
1.0
 40
1.0
 10
13.9563199063
 20
13.2213301455
 30
0.0
 10
13.9587892744
 20
13.2240964455
 30
0.0
 10
13.963617904
 20
13.2293096014
 30
0.0
 10
13.970862996
 20
13.2364574634
 30
0.0
 10
13.9767659406
 20
13.2416818702
 30
0.0
 10
13.9813116746
 20
13.2453025473
 30
0.0
 10
13.984522304
 20
13.2476650122
 30
0.0
 10
13.9876259463
 20
13.2497484971
 30
0.0
 10
13.9906182292
 20
13.2515500331
 30
0.0
 10
13.9934953552
 20
13.2530668681
 30
0.0
 10
13.9962530756
 20
13.2542969427
 30
0.0
 10
13.9988897275
 20
13.255238551
 30
0.0
 10
14.0021151779
 20
13.256075012
 30
0.0
 10
14.0045336141
 20
13.2563252463
 30
0.0
 10
14.0060721264
 20
13.25625915
 30
0.0
  0
SPLINE
  5
30E
100
AcDbEntity
  8
0
100
AcDbSpline
 62
7
  6
CONTINUOUS
 70
0
 71
3
 72
40
 73
36
 74
0
 42
0.0000001
 43
0.0000001
 44
0.0000000001
 40
0.0
 40
0.0
 40
0.0
 40
0.0
 40
0.0215853999
 40
0.0436134288
 40
0.0661794331
 40
0.089369008
 40
0.1132524284
 40
0.1378866557
 40
0.1505010628
 40
0.1633183528
 40
0.1895713692
 40
0.2166674189
 40
0.2446137261
 40
0.2734072335
 40
0.3030355497
 40
0.333477842
 40
0.3647056575
 40
0.3966836675
 40
0.4293703735
 40
0.4627188072
 40
0.4966771461
 40
0.5311892814
 40
0.5661953393
 40
0.6016322187
 40
0.6374340932
 40
0.6735328762
 40
0.7098586663
 40
0.7463401905
 40
0.7829052772
 40
0.819481226
 40
0.8559953071
 40
0.8923752793
 40
0.9285488313
 40
0.9644476917
 40
1.0
 40
1.0
 40
1.0
 40
1.0
 10
17.6687228673
 20
12.3875230808
 30
0.0
 10
17.6698690188
 20
12.4129131643
 30
0.0
 10
17.6698271032
 20
12.4643477351
 30
0.0
 10
17.6629144485
 20
12.54205539
 30
0.0
 10
17.6491802314
 20
12.6207692352
 30
0.0
 10
17.6286752594
 20
12.7002458757
 30
0.0
 10
17.6014673899
 20
12.7802523949
 30
0.0
 10
17.5735022969
 20
12.8466443596
 30
0.0
 10
17.5479554883
 20
12.8997812761
 30
0.0
 10
17.5198278972
 20
12.9537582817
 30
0.0
 10
17.4805808323
 20
13.0211192212
 30
0.0
 10
17.4276084679
 20
13.1009073673
 30
0.0
 10
17.3685444632
 20
13.1800596724
 30
0.0
 10
17.3035653721
 20
13.2583428496
 30
0.0
 10
17.2328631027
 20
13.3355287301
 30
0.0
 10
17.1566464993
 20
13.4113910918
 30
0.0
 10
17.0751402973
 20
13.4857074033
 30
0.0
 10
16.9885848617
 20
13.5582593052
 30
0.0
 10
16.8972356
 20
13.6288335543
 30
0.0
 10
16.8013619875
 20
13.6972224095
 30
0.0
 10
16.7012468418
 20
13.7632243718
 30
0.0
 10
16.5971855074
 20
13.8266447272
 30
0.0
 10
16.4894851886
 20
13.8872964499
 30
0.0
 10
16.3784639075
 20
13.9450006263
 30
0.0
 10
16.2644494828
 20
13.9995869066
 30
0.0
 10
16.1477785847
 20
14.0508940345
 30
0.0
 10
16.0287957873
 20
14.0987703691
 30
0.0
 10
15.9078526206
 20
14.1430746317
 30
0.0
 10
15.785306389
 20
14.1836759472
 30
0.0
 10
15.661519132
 20
14.220454378
 30
0.0
 10
15.5368563387
 20
14.2533012253
 30
0.0
 10
15.4116870442
 20
14.2821190362
 30
0.0
 10
15.286378951
 20
14.3068239283
 30
0.0
 10
15.161305922
 20
14.3273410818
 30
0.0
 10
15.0778667994
 20
14.3382479616
 30
0.0
 10
15.0362734115
 20
14.3429774388
 30
0.0
  0
SPLINE
  5
30F
100
AcDbEntity
  8
0
100
AcDbSpline
 62
7
  6
CONTINUOUS
 70
0
 71
3
 72
40
 73
36
 74
0
 42
0.0000001
 43
0.0000001
 44
0.0000000001
 40
0.0
 40
0.0
 40
0.0
 40
0.0
 40
0.0107129261
 40
0.0214633527
 40
0.0432089527
 40
0.065527213
 40
0.088659032
 40
0.1128003062
 40
0.1380979622
 40
0.164649819
 40
0.1925093306
 40
0.2216892226
 40
0.2521664892
 40
0.2838883524
 40
0.316775253
 40
0.3507258514
 40
0.3856205163
 40
0.4213237
 40
0.4576880022
 40
0.4945561013
 40
0.5317633835
 40
0.5691407716
 40
0.6065166721
 40
0.6437197917
 40
0.6805809704
 40
0.7169358429
 40
0.7526273644
 40
0.7875078306
 40
0.8214423541
 40
0.8543113322
 40
0.8860140446
 40
0.9164706816
 40
0.9456286078
 40
0.9734719868
 40
1.0
 40
1.0
 40
1.0
 40
1.0
 10
17.4738442513
 20
12.0953009467
 30
0.0
 10
17.473407223
 20
12.0938865905
 30
0.0
 10
17.4724286129
 20
12.091083465
 30
0.0
 10
17.4700581756
 20
12.0855990159
 30
0.0
 10
17.4663108501
 20
12.0789849866
 30
0.0
 10
17.4606524908
 20
12.0715892615
 30
0.0
 10
17.4538592767
 20
12.0647480088
 30
0.0
 10
17.4459827319
 20
12.0585068127
 30
0.0
 10
17.4370791704
 20
12.0529048975
 30
0.0
 10
17.4272109803
 20
12.0479764079
 30
0.0
 10
17.4164451844
 20
12.0437524938
 30
0.0
 10
17.4048546118
 20
12.0402598863
 30
0.0
 10
17.3925175314
 20
12.0375203515
 30
0.0
 10
17.3795170167
 20
12.0355522825
 30
0.0
 10
17.3659409508
 20
12.0343680947
 30
0.0
 10
17.3518811526
 20
12.0339753866
 30
0.0
 10
17.3374329022
 20
12.0343772115
 30
0.0
 10
17.3226942093
 20
12.0355701626
 30
0.0
 10
17.3077651923
 20
12.0375463385
 30
0.0
 10
17.292747387
 20
12.0402925181
 30
0.0
 10
17.2777428492
 20
12.0437894917
 30
0.0
 10
17.2628537951
 20
12.0480139288
 30
0.0
 10
17.2481815214
 20
12.0529369516
 30
0.0
 10
17.2338257601
 20
12.0585247706
 30
0.0
 10
17.2198843801
 20
12.064739881
 30
0.0
 10
17.2064520487
 20
12.0715396296
 30
0.0
 10
17.1936200666
 20
12.0788777967
 30
0.0
 10
17.1814758788
 20
12.0867049811
 30
0.0
 10
17.1701016018
 20
12.0949675932
 30
0.0
 10
17.1595745266
 20
12.1036101086
 30
0.0
 10
17.1499663255
 20
12.1125744985
 30
0.0
 10
17.1413416197
 20
12.1217997818
 30
0.0
 10
17.1337587849
 20
12.1312258972
 30
0.0
 10
17.1272716048
 20
12.1407883738
 30
0.0
 10
17.1236188757
 20
12.1473689902
 30
0.0
 10
17.1220039773
 20
12.150659807
 30
0.0
  0
SPLINE
  5
310
100
AcDbEntity
  8
0
100
AcDbSpline
 62
7
  6
CONTINUOUS
 70
0
 71
3
 72
28
 73
24
 74
0
 42
0.0000001
 43
0.0000001
 44
0.0000000001
 40
0.0
 40
0.0
 40
0.0
 40
0.0
 40
0.0771327408
 40
0.1522362178
 40
0.2252336833
 40
0.296079929
 40
0.3647479523
 40
0.4312390634
 40
0.495583051
 40
0.5578413497
 40
0.6181094691
 40
0.6765189842
 40
0.7332389617
 40
0.7610349689
 40
0.7884893221
 40
0.8156335575
 40
0.8425012439
 40
0.8691279984
 40
0.8955510576
 40
0.9218092675
 40
0.9479426912
 40
0.9739923625
 40
1.0
 40
1.0
 40
1.0
 40
1.0
 10
14.2677261275
 20
14.3429774388
 30
0.0
 10
14.2302480485
 20
14.3381805779
 30
0.0
 10
14.1564692969
 20
14.3271242753
 30
0.0
 10
14.0481795194
 20
14.3057936662
 30
0.0
 10
13.9440304795
 20
14.2799944815
 30
0.0
 10
13.8443529781
 20
14.2498081973
 30
0.0
 10
13.7494579758
 20
14.2153258739
 30
0.0
 10
13.6596441548
 20
14.1766531874
 30
0.0
 10
13.575193758
 20
14.133907504
 30
0.0
 10
13.4963735226
 20
14.087218668
 30
0.0
 10
13.4234327363
 20
14.0367268681
 30
0.0
 10
13.3566078989
 20
13.9825882608
 30
0.0
 10
13.3058504635
 20
13.9342378922
 30
0.0
 10
13.268628985
 20
13.8939318782
 30
0.0
 10
13.2425530645
 20
13.8631069439
 30
0.0
 10
13.2181539504
 20
13.8315112312
 30
0.0
 10
13.1954514282
 20
13.7991686302
 30
0.0
 10
13.1744629772
 20
13.7661055804
 30
0.0
 10
13.1552064216
 20
13.7323476258
 30
0.0
 10
13.1376968724
 20
13.6979220579
 30
0.0
 10
13.1219482717
 20
13.662856009
 30
0.0
 10
13.1079744539
 20
13.627178354
 30
0.0
 10
13.0998455074
 20
13.6029954383
 30
0.0
 10
13.0960840244
 20
13.5908234338
 30
0.0
  0
SPLINE
  5
311
100
AcDbEntity
  8
0
100
AcDbSpline
 62
7
  6
CONTINUOUS
 70
0
 71
3
 72
13
 73
9
 74
0
 42
0.0000001
 43
0.0000001
 44
0.0000000001
 40
0.0
 40
0.0
 40
0.0
 40
0.0
 40
0.2486183215
 40
0.3734793001
 40
0.4985858695
 40
0.6238679729
 40
0.7492645616
 40
1.0
 40
1.0
 40
1.0
 40
1.0
 10
14.459563236
 20
13.6850340554
 30
0.0
 10
14.4580913447
 20
13.6826610046
 30
0.0
 10
14.4558179468
 20
13.6791341862
 30
0.0
 10
14.4526578471
 20
13.6745106535
 30
0.0
 10
14.4502148957
 20
13.6710757467
 30
0.0
 10
14.4477002875
 20
13.6676853872
 30
0.0
 10
14.4442482912
 20
13.6632350857
 30
0.0
 10
14.4415531299
 20
13.6599798567
 30
0.0
 10
14.4397175128
 20
13.6578440395
 30
0.0
  0
ENDSEC
  0
SECTION
  2
OBJECTS
  0
DICTIONARY
  5
C
100
AcDbDictionary
280
0
281
1
  3
ACAD_GROUP
350
D
  3
ACAD_MLINESTYLE
350
17
  3
ACAD_LAYOUT
350
1A
  3
ACAD_PLOTSETTINGS
350
19
  3
ACAD_PLOTSTYLENAME
350
E
  0
DICTIONARY
  5
D
102
{ACAD_REACTORS
330
C
102
}
100
AcDbDictionary
280
0
281
1
  0
ACDBDICTIONARYWDFLT
  5
E
102
{ACAD_REACTORS
330
C
102
}
100
AcDbDictionary
281
1
  3
Normal
350
F
100
AcDbDictionaryWithDefault
340
F
  0
DICTIONARY
  5
17
102
{ACAD_REACTORS
330
C
102
}
100
AcDbDictionary
280
0
281
1
  3
Standard
350
18
  0
DICTIONARY
  5
19
102
{ACAD_REACTORS
330
C
102
}
100
AcDbDictionary
281
1
  0
DICTIONARY
  5
1A
102
{ACAD_REACTORS
330
C
102
}
100
AcDbDictionary
281
1
  3
Model
350
312
  3
Layout1
350
313
  0
ACDBPLACEHOLDER
  5
F
102
{ACAD_REACTORS
330
E
102
}
  0
MLINESTYLE
  5
18
102
{ACAD_REACTORS
330
17
102
}
100
AcDbMlineStyle
  2
STANDARD
 70
0
  3

 62
256
 51
90.0
 52
90.0
 71
2
 49
0.5
 62
256
  6
BYLAYER
 49
-0.5
 62
256
  6
BYLAYER
  0
LAYOUT
  5
312
102
{ACAD_REACTORS
330
1A
102
}
100
AcDbPlotSettings
  1

  2
none_device
  4
ANSI_C_(22.00_x_17.00_Inches)
  6

 40
0.0
 41
0.0
 42
0.0
 43
0.0
 44
558.8
 45
431.8
 46
0.0
 47
0.0
 48
0.0
 49
0.0
140
0.0
141
0.0
142
1.0
143
1.0
 70
1024
 72
0
 73
0
 74
0
  7

 75
0
147
1.0
148
0.0
149
0.0
100
AcDbLayout
  1
Model
 70
0
 71
0
 10
0.0
 20
0.0
 11
22.0
 21
17.0
 12
0.0
 22
0.0
 32
0.0
 14
0.0
 24
0.0
 34
0.0
 15
0.0
 25
0.0
 35
0.0
146
0.0
 13
0.0
 23
0.0
 33
0.0
 16
1.0
 26
0.0
 36
0.0
 17
0.0
 27
1.0
 37
0.0
 76
0
330
219
345
0
346
0
  0
LAYOUT
  5
313
102
{ACAD_REACTORS
330
1A
102
}
100
AcDbPlotSettings
  1

  2
none_device
  4
ANSI_C_(22.00_x_17.00_Inches)
  6

 40
0.0
 41
0.0
 42
0.0
 43
0.0
 44
558.8
 45
431.8
 46
0.0
 47
0.0
 48
0.0
 49
0.0
140
0.0
141
0.0
142
1.0
143
1.0
 70
0
 72
0
 73
0
 74
0
  7

 75
0
147
1.0
148
0.0
149
0.0
100
AcDbLayout
  1
Layout1
 70
0
 71
1
 10
0.0
 20
0.0
 11
22.0
 21
17.0
 12
0.0
 22
0.0
 32
0.0
 14
0.0
 24
0.0
 34
0.0
 15
0.0
 25
0.0
 35
0.0
146
0.0
 13
0.0
 23
0.0
 33
0.0
 16
1.0
 26
0.0
 36
0.0
 17
0.0
 27
1.0
 37
0.0
 76
0
330
21A
345
0
346
0
  0
ENDSEC
  0
EOF