999
DXF file: _cgs_temp_output.dxf
999
Pro/ENGINEER 2016360 by Parametric Technology Corporation
  0
SECTION
  2
HEADER
  9
$ACADVER
  1
AC1021
  9
$DWGCODEPAGE
  3
ANSI_1252
  9
$EXTMAX
 10
22.0
 20
17.0
 30
0.0
  9
$EXTMIN
 10
0.0
 20
0.0
 30
0.0
  9
$LIMMIN
 10
0.0
 20
0.0
  9
$LIMMAX
 10
22.0
 20
17.0
  9
$VIEWCTR
 10
11.0
 20
8.5
  9
$VIEWSIZE
 40
17.0
  9
$CLAYER
  8
0
  9
$LTSCALE
 40
1.21
  9
$CELTYPE
  6
BYLAYER
  9
$DIMSCALE
 40
1.0
  9
$DIMASZ
 40
0.1875
  9
$DIMEXO
 40
0.0625
  9
$DIMDLI
 40
0.836
  9
$DIMEXE
 40
0.125
  9
$DIMCEN
 40
0.198
  9
$DIMLFAC
 40
1.0
  9
$DIMBLK
  1
_CLOSED
  9
$DIMALT
 70
0
  9
$DIMALTF
 40
25.4
  9
$DIMTXT
 40
0.15625
  9
$DIMTOL
 70
0
  9
$DIMLIM
 70
0
  9
$DIMTFAC
 40
1.0
  9
$DIMGAP
 40
0.09
  9
$DIMDSEP
 70
46
  9
$AUNITS
 70
0
  9
$PDMODE
 70
3
  9
$PDSIZE
 40
0.3125
  9
$HANDSEED
  5
316
  9
$TILEMODE
 70
1
  9
$MEASUREMENT
 70
0
  9
$INSUNITS
 70
1
  0
ENDSEC
  0
SECTION
  2
CLASSES
  0
CLASS
  1
ACDBDICTIONARYWDFLT
  2
AcDbDictionaryWithDefault
  3
AutoCAD 2000
 90
0
 91
1
280
0
281
0
  0
CLASS
  1
ACDBPLACEHOLDER
  2
AcDbPlaceHolder
  3
AutoCAD 2000
 90
0
 91
1
280
0
281
0
  0
CLASS
  1
LAYOUT
  2
AcDbLayout
  3
AutoCAD 2000
 90
0
 91
0
280
0
281
0
  0
ENDSEC
  0
SECTION
  2
TABLES
  0
TABLE
  2
VPORT
  5
8
100
AcDbSymbolTable
 70
2
  0
VPORT
  5
1F4
100
AcDbSymbolTableRecord
100
AcDbViewportTableRecord
  2
*ACTIVE
 70
0
 10
0.0
 20
0.0
 11
1.0
 21
1.0
 12
11.0
 22
8.5
 13
0.0
 23
0.0
 14
1.0
 24
1.0
 15
0.0
 25
0.0
 16
0.0
 26
0.0
 36
1.0
 17
0.0
 27
0.0
 37
0.0
 40
17.0
 41
1.2941176471
 42
50.0
 43
0.0
 44
0.0
 50
0.0
 51
0.0
 71
0
 72
100
 73
1
 74
1
 75
0
 76
0
 77
0
 78
0
  0
ENDTAB
  0
TABLE
  2
LTYPE
  5
5
100
AcDbSymbolTable
 70
6
  0
LTYPE
  5
14
100
AcDbSymbolTableRecord
100
AcDbLinetypeTableRecord
  2
BYBLOCK
 70
0
  3

 72
65
 73
0
 40
0.0
  0
LTYPE
  5
15
100
AcDbSymbolTableRecord
100
AcDbLinetypeTableRecord
  2
BYLAYER
 70
0
  3

 72
65
 73
0
 40
0.0
  0
LTYPE
  5
16
100
AcDbSymbolTableRecord
100
AcDbLinetypeTableRecord
  2
CONTINUOUS
 70
64
  3
Solid line
 72
65
 73
0
 40
0.0
  0
LTYPE
  5
1F5
100
AcDbSymbolTableRecord
100
AcDbLinetypeTableRecord
  2
CENTER
 70
64
  3
____ _ ____ _ ____ _ ____ _ ____ _ ____ _ ____
 72
65
 73
4
 40
0.6
 49
0.375
 74
0
 49
-0.075
 74
0
 49
0.075
 74
0
 49
-0.075
 74
0
  0
LTYPE
  5
1F6
100
AcDbSymbolTableRecord
100
AcDbLinetypeTableRecord
  2
HIDDEN
 70
64
  3
- - - - - - - - - - - - - - - - - - - -
 72
65
 73
2
 40
0.2
 49
0.1
 74
0
 49
-0.1
 74
0
  0
LTYPE
  5
1F7
100
AcDbSymbolTableRecord
100
AcDbLinetypeTableRecord
  2
PHANTOM
 70
64
  3
_____ _ _ _____ _ _ _____ _ _ _____
 72
65
 73
6
 40
0.8
 49
0.45
 74
0
 49
-0.05
 74
0
 49
0.1
 74
0
 49
-0.05
 74
0
 49
0.1
 74
0
 49
-0.05
 74
0
  0
LTYPE
  5
1F8
100
AcDbSymbolTableRecord
100
AcDbLinetypeTableRecord
  2
DOT
 70
64
  3
. . . . . . . . . . . . . . . . . . . .
 72
65
 73
2
 40
0.2
 49
0.1
 74
0
 49
-0.1
 74
0
  0
LTYPE
  5
1F9
100
AcDbSymbolTableRecord
100
AcDbLinetypeTableRecord
  2
DASHED
 70
64
  3
- - - - - - - - - - - - - - - - - - - -
 72
65
 73
2
 40
0.2
 49
0.1
 74
0
 49
-0.1
 74
0
  0
ENDTAB
  0
TABLE
  2
LAYER
  5
2
100
AcDbSymbolTable
 70
36
  0
LAYER
  5
10
100
AcDbSymbolTableRecord
100
AcDbLayerTableRecord
  2
0
 70
0
 62
7
  6
CONTINUOUS
370
-3
390
F
  0
LAYER
  5
1FA
100
AcDbSymbolTableRecord
100
AcDbLayerTableRecord
  2
DEFAULT_1
 70
0
 62
7
  6
CENTER
370
-3
390
F
  0
LAYER
  5
1FB
100
AcDbSymbolTableRecord
100
AcDbLayerTableRecord
  2
DEFAULT_2
 70
0
 62
8
  6
HIDDEN
370
-3
390
F
  0
LAYER
  5
1FC
100
AcDbSymbolTableRecord
100
AcDbLayerTableRecord
  2
DEFAULT_3
 70
0
 62
7
  6
PHANTOM
370
-3
390
F
  0
LAYER
  5
1FD
100
AcDbSymbolTableRecord
100
AcDbLayerTableRecord
  2
01_ALL_DTM_PLN
 70
0
 62
7
  6
CONTINUOUS
370
-3
390
F
  0
LAYER
  5
1FE
100
AcDbSymbolTableRecord
100
AcDbLayerTableRecord
  2
01__ASM_ALL_DTM_PLN
 70
0
 62
7
  6
CONTINUOUS
370
-3
390
F
  0
LAYER
  5
1FF
100
AcDbSymbolTableRecord
100
AcDbLayerTableRecord
  2
01__ASM_DEF_DTM_PLN
 70
0
 62
7
  6
CONTINUOUS
370
-3
390
F
  0
LAYER
  5
200
100
AcDbSymbolTableRecord
100
AcDbLayerTableRecord
  2
01___PRT_ALL_DTM_PLN
 70
0
 62
7
  6
CONTINUOUS
370
-3
390
F
  0
LAYER
  5
201
100
AcDbSymbolTableRecord
100
AcDbLayerTableRecord
  2
01___PRT_DEF_DTM_PLN
 70
0
 62
7
  6
CONTINUOUS
370
-3
390
F
  0
LAYER
  5
202
100
AcDbSymbolTableRecord
100
AcDbLayerTableRecord
  2
02_ALL_AXES
 70
0
 62
7
  6
CONTINUOUS
370
-3
390
F
  0
LAYER
  5
203
100
AcDbSymbolTableRecord
100
AcDbLayerTableRecord
  2
02__ASM_ALL_AXES
 70
0
 62
7
  6
CONTINUOUS
370
-3
390
F
  0
LAYER
  5
204
100
AcDbSymbolTableRecord
100
AcDbLayerTableRecord
  2
02___PRT_ALL_AXES
 70
0
 62
7
  6
CONTINUOUS
370
-3
390
F
  0
LAYER
  5
205
100
AcDbSymbolTableRecord
100
AcDbLayerTableRecord
  2
03_ALL_CURVES
 70
0
 62
7
  6
CONTINUOUS
370
-3
390
F
  0
LAYER
  5
206
100
AcDbSymbolTableRecord
100
AcDbLayerTableRecord
  2
03__ASM_ALL_CURVES
 70
0
 62
7
  6
CONTINUOUS
370
-3
390
F
  0
LAYER
  5
207
100
AcDbSymbolTableRecord
100
AcDbLayerTableRecord
  2
03___PRT_ALL_CURVES
 70
0
 62
7
  6
CONTINUOUS
370
-3
390
F
  0
LAYER
  5
208
100
AcDbSymbolTableRecord
100
AcDbLayerTableRecord
  2
04_ALL_DTM_PNT
 70
0
 62
7
  6
CONTINUOUS
370
-3
390
F
  0
LAYER
  5
209
100
AcDbSymbolTableRecord
100
AcDbLayerTableRecord
  2
04__ASM_ALL_DTM_PNT
 70
0
 62
7
  6
CONTINUOUS
370
-3
390
F
  0
LAYER
  5
20A
100
AcDbSymbolTableRecord
100
AcDbLayerTableRecord
  2
04___PRT_ALL_DTM_PNT
 70
0
 62
7
  6
CONTINUOUS
370
-3
390
F
  0
LAYER
  5
20B
100
AcDbSymbolTableRecord
100
AcDbLayerTableRecord
  2
05_ALL_DTM_CSYS
 70
0
 62
7
  6
CONTINUOUS
370
-3
390
F
  0
LAYER
  5
20C
100
AcDbSymbolTableRecord
100
AcDbLayerTableRecord
  2
05__ASM_ALL_DTM_CSYS
 70
0
 62
7
  6
CONTINUOUS
370
-3
390
F
  0
LAYER
  5
20D
100
AcDbSymbolTableRecord
100
AcDbLayerTableRecord
  2
05__ASM_DEF_DTM_CSYS
 70
0
 62
7
  6
CONTINUOUS
370
-3
390
F
  0
LAYER
  5
20E
100
AcDbSymbolTableRecord
100
AcDbLayerTableRecord
  2
05___PRT_ALL_DTM_CSYS
 70
0
 62
7
  6
CONTINUOUS
370
-3
390
F
  0
LAYER
  5
20F
100
AcDbSymbolTableRecord
100
AcDbLayerTableRecord
  2
05___PRT_DEF_DTM_CSYS
 70
0
 62
7
  6
CONTINUOUS
370
-3
390
F
  0
LAYER
  5
210
100
AcDbSymbolTableRecord
100
AcDbLayerTableRecord
  2
06_ALL_SURFS
 70
0
 62
7
  6
CONTINUOUS
370
-3
390
F
  0
LAYER
  5
211
100
AcDbSymbolTableRecord
100
AcDbLayerTableRecord
  2
06__ASM_ALL_SURFS
 70
0
 62
7
  6
CONTINUOUS
370
-3
390
F
  0
LAYER
  5
212
100
AcDbSymbolTableRecord
100
AcDbLayerTableRecord
  2
06___PRT_ALL_SURFS
 70
0
 62
7
  6
CONTINUOUS
370
-3
390
F
  0
LAYER
  5
213
100
AcDbSymbolTableRecord
100
AcDbLayerTableRecord
  2
07__ASM_ALL_SKELETONS
 70
0
 62
7
  6
CONTINUOUS
370
-3
390
F
  0
LAYER
  5
214
100
AcDbSymbolTableRecord
100
AcDbLayerTableRecord
  2
SHELL
 70
0
 62
7
  6
CONTINUOUS
370
-3
390
F
  0
ENDTAB
  0
TABLE
  2
STYLE
  5
3
100
AcDbSymbolTable
 70
1
  0
STYLE
  5
11
100
AcDbSymbolTableRecord
100
AcDbTextStyleTableRecord
  2
STANDARD
 70
0
 40
0.0
 41
0.8
 50
0.0
 71
0
 42
0.2
  3
txt
  4

  0
STYLE
  5
215
100
AcDbSymbolTableRecord
100
AcDbTextStyleTableRecord
  2
TEXTSTYLE_1
 70
0
 40
0.0
 41
0.8
 50
0.0
 71
0
 42
0.2
  3
gdt
  4

  0
ENDTAB
  0
TABLE
  2
VIEW
  5
6
100
AcDbSymbolTable
 70
0
  0
ENDTAB
  0
TABLE
  2
UCS
  5
7
100
AcDbSymbolTable
 70
0
  0
ENDTAB
  0
TABLE
  2
APPID
  5
9
100
AcDbSymbolTable
 70
1
  0
APPID
  5
216
100
AcDbSymbolTableRecord
100
AcDbRegAppTableRecord
  2
ACAD
 70
0
  0
ENDTAB
  0
TABLE
  2
BLOCK_RECORD
  5
1
100
AcDbSymbolTable
 70
0
  0
BLOCK_RECORD
  5
217
100
AcDbSymbolTableRecord
100
AcDbBlockTableRecord
  2
*Model_Space
  0
BLOCK_RECORD
  5
218
100
AcDbSymbolTableRecord
100
AcDbBlockTableRecord
  2
*Paper_Space
  0
ENDTAB
  0
TABLE
  2
DIMSTYLE
  5
A
100
AcDbSymbolTable
 70
1
100
AcDbDimStyleTable
 71
0
  0
DIMSTYLE
105
219
100
AcDbSymbolTableRecord
100
AcDbDimStyleTableRecord
  2
STANDARD
 70
0
  3

  4

 40
1.0
 41
0.1875
 42
0.0625
 43
0.38
 44
0.125
 45
0.0
 46
0.0
 47
0.0001
 48
0.0001
140
0.15625
141
0.09
142
0.0
143
25.4
144
1.0
145
0.0
146
1.0
147
0.09
 71
0.0
 72
0.0
 73
1
 74
1
 75
0
 76
0
 77
0
 78
4
 79
1
170
0
171
3
172
0
173
0
174
0
175
0
176
0
177
0
178
0
270
2
179
4
271
4
272
4
273
2
274
2
275
0
280
0
281
0
282
0
283
1
284
4
285
0
286
0
287
3
288
0
340
11
278
46
  0
ENDTAB
  0
ENDSEC
  0
SECTION
  2
BLOCKS
  0
BLOCK
  5
20
100
AcDbEntity
  8
0
100
AcDbBlockBegin
  2
*Model_Space
 70
0
 10
0.0
 20
0.0
 30
0.0
  3
*Model_Space
  1

  0
ENDBLK
  5
21
100
AcDbEntity
  8
0
100
AcDbBlockEnd
  0
BLOCK
  5
1C
100
AcDbEntity
  8
0
100
AcDbBlockBegin
  2
*Paper_Space
 70
0
 10
0.0
 20
0.0
 30
0.0
  3
*Paper_Space
  1

  0
ENDBLK
  5
1D
100
AcDbEntity
  8
0
100
AcDbBlockEnd
  0
ENDSEC
  0
SECTION
  2
ENTITIES
  0
MTEXT
  5
21A
100
AcDbEntity
  8
0
100
AcDbMText
 62
7
  6
CONTINUOUS
  7
STANDARD
 71
1
 72
1
 10
15.9560215477
 20
0.9479130325
 30
0.0
 11
1.0
 21
0.0
 31
0.0
 44
0.9
  1
SCALE: 1:1.000
 40
0.3
 41
3.36
  0
LINE
  5
21B
100
AcDbEntity
  8
0
100
AcDbLine
 62
7
  6
CONTINUOUS
 10
0.0
 20
0.0
 11
0.0
 21
17.0
  0
LINE
  5
21C
100
AcDbEntity
  8
0
100
AcDbLine
 62
7
  6
CONTINUOUS
 10
0.0
 20
0.0
 11
22.0
 21
0.0
  0
LINE
  5
21D
100
AcDbEntity
  8
0
100
AcDbLine
 62
7
  6
CONTINUOUS
 10
0.0
 20
17.0
 11
22.0
 21
17.0
  0
LINE
  5
21E
100
AcDbEntity
  8
0
100
AcDbLine
 62
7
  6
CONTINUOUS
 10
22.0
 20
0.0
 11
22.0
 21
17.0
  0
LINE
  5
21F
100
AcDbEntity
  8
0
100
AcDbLine
 62
7
  6
CONTINUOUS
 10
4.739841791
 20
6.8399347038
 11
4.8105524691
 21
6.910645382
  0
LINE
  5
220
100
AcDbEntity
  8
0
100
AcDbLine
 62
7
  6
CONTINUOUS
 10
4.9638663729
 20
6.8546556786
 11
4.7958314943
 21
6.6866208
  0
LINE
  5
221
100
AcDbEntity
  8
0
100
AcDbLine
 62
7
  6
CONTINUOUS
 10
4.8259320416
 20
6.5151959146
 11
5.1352912583
 21
6.8245551313
  0
LINE
  5
222
100
AcDbEntity
  8
0
100
AcDbLine
 62
7
  6
CONTINUOUS
 10
5.1794854322
 20
6.7803609575
 11
4.8701262154
 21
6.4710017408
  0
LINE
  5
223
100
AcDbEntity
  8
0
100
AcDbLine
 62
7
  6
CONTINUOUS
 10
5.6303672762
 20
7.7701198968
 11
5.6303672762
 21
7.0533456629
  0
LINE
  5
224
100
AcDbEntity
  8
0
100
AcDbLine
 62
7
  6
CONTINUOUS
 10
4.5525548129
 20
5.1865197156
 11
3.9318101177
 21
4.8281325986
  0
LINE
  5
225
100
AcDbEntity
  8
0
100
AcDbLine
 62
7
  6
CONTINUOUS
 10
7.2081797394
 20
4.3204943118
 11
7.8289244347
 21
3.9621071949
  0
LINE
  5
226
100
AcDbEntity
  8
0
100
AcDbLine
 62
7
  6
CONTINUOUS
 10
4.8259320416
 20
6.5151959146
 11
4.8701262154
 21
6.4710017408
  0
LINE
  5
227
100
AcDbEntity
  8
0
100
AcDbLine
 62
7
  6
CONTINUOUS
 10
4.8931799207
 20
6.4744645397
 11
4.8833844675
 21
6.4842599929
  0
LINE
  5
228
100
AcDbEntity
  8
0
100
AcDbLine
 62
7
  6
CONTINUOUS
 10
4.98061165
 20
6.669875523
 11
5.0248058238
 21
6.6256813491
  0
LINE
  5
229
100
AcDbEntity
  8
0
100
AcDbLine
 62
7
  6
CONTINUOUS
 10
5.16622718
 20
6.7671027054
 11
5.1760226332
 21
6.7573072522
  0
LINE
  5
22A
100
AcDbEntity
  8
0
100
AcDbLine
 62
7
  6
CONTINUOUS
 10
5.1794854322
 20
6.7803609575
 11
5.1352912583
 21
6.8245551313
  0
LINE
  5
22B
100
AcDbEntity
  8
0
100
AcDbLine
 62
7
  6
CONTINUOUS
 10
6.6303672762
 20
7.0533456629
 11
6.6303672762
 21
7.7701198968
  0
LINE
  5
22C
100
AcDbEntity
  8
0
100
AcDbLine
 62
7
  6
CONTINUOUS
 10
4.4318101177
 20
3.9621071949
 11
5.0525548129
 21
4.3204943118
  0
LINE
  5
22D
100
AcDbEntity
  8
0
100
AcDbLine
 62
7
  6
CONTINUOUS
 10
8.3289244347
 20
4.8281325986
 11
7.7081797394
 21
5.1865197156
  0
LINE
  5
22E
100
AcDbEntity
  8
0
100
AcDbLine
 62
7
  6
CONTINUOUS
 10
3.5083720839
 20
14.1312977814
 11
3.5083720839
 21
13.6625477814
  0
LINE
  5
22F
100
AcDbEntity
  8
0
100
AcDbLine
 62
7
  6
CONTINUOUS
 10
3.6223149253
 20
13.6125477814
 11
3.6223149253
 21
13.6625477814
  0
LINE
  5
230
100
AcDbEntity
  8
0
100
AcDbLine
 62
7
  6
CONTINUOUS
 10
4.5083720839
 20
13.5875477814
 11
4.5083720839
 21
12.0187977814
  0
LINE
  5
231
100
AcDbEntity
  8
0
100
AcDbLine
 62
7
  6
CONTINUOUS
 10
7.3083720839
 20
11.0687977814
 11
4.8333720839
 21
11.0687977814
  0
LINE
  5
232
100
AcDbEntity
  8
0
100
AcDbLine
 62
7
  6
CONTINUOUS
 10
4.6333720839
 20
11.9437977814
 11
4.6333720839
 21
11.2687977814
  0
LINE
  5
233
100
AcDbEntity
  8
0
100
AcDbLine
 62
7
  6
CONTINUOUS
 10
4.7830393357
 20
13.0836490262
 11
4.9211164576
 21
13.1963885241
  0
LINE
  5
234
100
AcDbEntity
  8
0
100
AcDbLine
 62
7
  6
CONTINUOUS
 10
5.075796066
 20
12.81750241
 11
5.075796066
 21
13.0700931528
  0
LINE
  5
235
100
AcDbEntity
  8
0
100
AcDbLine
 62
7
  6
CONTINUOUS
 10
5.1199902399
 20
13.0700931528
 11
5.1199902399
 21
12.81750241
  0
LINE
  5
236
100
AcDbEntity
  8
0
100
AcDbLine
 62
7
  6
CONTINUOUS
 10
4.9211164576
 20
12.6912070386
 11
5.075796066
 21
12.81750241
  0
LINE
  5
237
100
AcDbEntity
  8
0
100
AcDbLine
 62
7
  6
CONTINUOUS
 10
5.1199902399
 20
12.81750241
 11
4.9653106315
 21
12.6912070386
  0
LINE
  5
238
100
AcDbEntity
  8
0
100
AcDbLine
 62
7
  6
CONTINUOUS
 10
7.5583720839
 20
11.9437977814
 11
4.5833720839
 21
11.9437977814
  0
LINE
  5
239
100
AcDbEntity
  8
0
100
AcDbLine
 62
7
  6
CONTINUOUS
 10
4.9211164576
 20
12.6912070386
 11
4.7830147272
 21
12.8039666293
  0
LINE
  5
23A
100
AcDbEntity
  8
0
100
AcDbLine
 62
7
  6
CONTINUOUS
 10
5.5708720839
 20
13.6625477814
 11
5.5708720839
 21
13.6125477814
  0
LINE
  5
23B
100
AcDbEntity
  8
0
100
AcDbLine
 62
7
  6
CONTINUOUS
 10
5.6557136809
 20
14.1312977814
 11
5.6557136809
 21
13.6625477814
  0
LINE
  5
23C
100
AcDbEntity
  8
0
100
AcDbLine
 62
7
  6
CONTINUOUS
 10
5.075796066
 20
13.0700931528
 11
4.9211164576
 21
13.1963885241
  0
LINE
  5
23D
100
AcDbEntity
  8
0
100
AcDbLine
 62
7
  6
CONTINUOUS
 10
4.9653106315
 20
13.1963885241
 11
5.1199902399
 21
13.0700931528
  0
LINE
  5
23E
100
AcDbEntity
  8
0
100
AcDbLine
 62
7
  6
CONTINUOUS
 10
4.9211164576
 20
12.6912070386
 11
4.9653106315
 21
12.6912070386
  0
LINE
  5
23F
100
AcDbEntity
  8
0
100
AcDbLine
 62
7
  6
CONTINUOUS
 10
5.1199902399
 20
12.81750241
 11
5.075796066
 21
12.81750241
  0
LINE
  5
240
100
AcDbEntity
  8
0
100
AcDbLine
 62
7
  6
CONTINUOUS
 10
6.4860304868
 20
14.1312977814
 11
6.4860304868
 21
13.6625477814
  0
LINE
  5
241
100
AcDbEntity
  8
0
100
AcDbLine
 62
7
  6
CONTINUOUS
 10
6.5708720839
 20
13.6125477814
 11
6.5708720839
 21
13.6625477814
  0
LWPOLYLINE
  5
242
100
AcDbEntity
  8
0
100
AcDbPolyline
 62
7
  6
CONTINUOUS
 90
4
 70
0
 10
7.6333720839
 20
13.5345058052
 10
7.6398378181
 20
13.536210198
 10
7.6467228523
 20
13.5372513291
 10
7.6528926063
 20
13.5375477572
  0
LINE
  5
243
100
AcDbEntity
  8
0
100
AcDbLine
 62
7
  6
CONTINUOUS
 10
5.075796066
 20
13.0700931528
 11
5.1199902399
 21
13.0700931528
  0
LINE
  5
244
100
AcDbEntity
  8
0
100
AcDbLine
 62
7
  6
CONTINUOUS
 10
4.9211164576
 20
13.1963885241
 11
4.9653106315
 21
13.1963885241
  0
LWPOLYLINE
  5
245
100
AcDbEntity
  8
0
100
AcDbPolyline
 62
7
  6
CONTINUOUS
 90
4
 70
0
 10
4.4888529758
 20
13.5375479591
 10
4.4950181508
 20
13.5372519074
 10
4.5019007463
 20
13.5362115641
 10
4.5083720839
 20
13.5345060314
  0
LINE
  5
246
100
AcDbEntity
  8
0
100
AcDbLine
 62
7
  6
CONTINUOUS
 10
6.4958720839
 20
13.5375477814
 11
5.6458720839
 21
13.5375477814
  0
LINE
  5
247
100
AcDbEntity
  8
0
100
AcDbLine
 62
7
  6
CONTINUOUS
 10
3.6973149253
 20
13.5375477814
 11
4.488851755
 21
13.5375477814
  0
LINE
  5
248
100
AcDbEntity
  8
0
100
AcDbLine
 62
7
  6
CONTINUOUS
 10
7.652892415
 20
13.5375477814
 11
8.444429127
 21
13.5375477814
  0
LINE
  5
249
100
AcDbEntity
  8
0
100
AcDbLine
 62
7
  6
CONTINUOUS
 10
8.6333720839
 20
13.6625477814
 11
6.4860304868
 21
13.6625477814
  0
LINE
  5
24A
100
AcDbEntity
  8
0
100
AcDbLine
 62
7
  6
CONTINUOUS
 10
5.6557136809
 20
13.6625477814
 11
3.5083720839
 21
13.6625477814
  0
LINE
  5
24B
100
AcDbEntity
  8
0
100
AcDbLine
 62
7
  6
CONTINUOUS
 10
7.5083720839
 20
11.9437977814
 11
7.5083720839
 21
11.2687977814
  0
LINE
  5
24C
100
AcDbEntity
  8
0
100
AcDbLine
 62
7
  6
CONTINUOUS
 10
7.6333720839
 20
12.0187977814
 11
7.6333720839
 21
13.5875477814
  0
LINE
  5
24D
100
AcDbEntity
  8
03__ASM_ALL_CURVES
100
AcDbLine
 62
8
  6
PHANTOM
 10
8.8208720839
 20
14.1312977814
 11
3.3208720839
 21
14.1312977814
  0
LINE
  5
24E
100
AcDbEntity
  8
0
100
AcDbLine
 62
7
  6
CONTINUOUS
 10
3.5083720839
 20
14.1312977814
 11
8.6333720839
 21
14.1312977814
  0
LINE
  5
24F
100
AcDbEntity
  8
0
100
AcDbLine
 62
7
  6
CONTINUOUS
 10
8.5194292424
 20
13.6125477814
 11
8.5194292424
 21
13.6625477814
  0
LINE
  5
250
100
AcDbEntity
  8
0
100
AcDbLine
 62
7
  6
CONTINUOUS
 10
8.6333720839
 20
14.1312977814
 11
8.6333720839
 21
13.6625477814
  0
LINE
  5
251
100
AcDbEntity
  8
0
100
AcDbLine
 62
7
  6
CONTINUOUS
 10
17.0916052569
 20
2.8981247044
 11
16.6228552569
 21
2.8981247044
  0
LINE
  5
252
100
AcDbEntity
  8
0
100
AcDbLine
 62
7
  6
CONTINUOUS
 10
14.0291052569
 20
4.2231247044
 11
14.0291052569
 21
6.6981240188
  0
LINE
  5
253
100
AcDbEntity
  8
0
100
AcDbLine
 62
7
  6
CONTINUOUS
 10
16.5728552569
 20
3.8356247044
 11
16.6228552569
 21
3.8356247044
  0
LINE
  5
254
100
AcDbEntity
  8
0
100
AcDbLine
 62
7
  6
CONTINUOUS
 10
16.6228552569
 20
3.8367640642
 11
17.0916052569
 21
3.8367640642
  0
LINE
  5
255
100
AcDbEntity
  8
0
100
AcDbLine
 62
7
  6
CONTINUOUS
 10
14.9791052569
 20
3.8981247044
 11
16.4989535528
 21
3.8981247044
  0
LINE
  5
256
100
AcDbEntity
  8
0
100
AcDbLine
 62
7
  6
CONTINUOUS
 10
14.9041052569
 20
4.0231247044
 11
14.2291052569
 21
4.0231247044
  0
LINE
  5
257
100
AcDbEntity
  8
0
100
AcDbLine
 62
7
  6
CONTINUOUS
 10
16.6228552569
 20
4.5558395114
 11
17.0916052569
 21
4.5558395114
  0
LINE
  5
258
100
AcDbEntity
  8
0
100
AcDbLine
 62
7
  6
CONTINUOUS
 10
14.9041052569
 20
3.9731247144
 11
14.9041052569
 21
6.9481246944
  0
LINE
  5
259
100
AcDbEntity
  8
0
100
AcDbLine
 62
7
  6
CONTINUOUS
 10
16.4978552569
 20
3.9106247579
 11
16.4978552569
 21
5.0379925692
  0
LINE
  5
25A
100
AcDbEntity
  8
0
100
AcDbLine
 62
7
  6
CONTINUOUS
 10
16.4978552569
 20
7.0420105655
 11
16.4978552569
 21
8.1356246948
  0
LINE
  5
25B
100
AcDbEntity
  8
0
100
AcDbLine
 62
7
  6
CONTINUOUS
 10
16.6228552569
 20
2.8981247139
 11
16.6228552569
 21
3.8367640642
  0
LINE
  5
25C
100
AcDbEntity
  8
0
100
AcDbLine
 62
7
  6
CONTINUOUS
 10
16.6228552569
 20
4.5558395114
 11
16.6228552569
 21
7.9892705378
  0
LINE
  5
25D
100
AcDbEntity
  8
0
100
AcDbLine
 62
7
  6
CONTINUOUS
 10
14.9041052569
 20
6.8981247044
 11
14.2291052569
 21
6.8981247044
  0
LINE
  5
25E
100
AcDbEntity
  8
0
100
AcDbLine
 62
7
  6
CONTINUOUS
 10
17.0916052569
 20
8.2106245661
 11
17.0916052569
 21
2.8981247139
  0
LINE
  5
25F
100
AcDbEntity
  8
03__ASM_ALL_CURVES
100
AcDbLine
 62
8
  6
PHANTOM
 10
17.0916052569
 20
2.710625771
 11
17.0916052569
 21
8.2106247044
  0
LINE
  5
260
100
AcDbEntity
  8
0
100
AcDbLine
 62
7
  6
CONTINUOUS
 10
14.9791052569
 20
7.0231247044
 11
16.4228552569
 21
7.0231247044
  0
LINE
  5
261
100
AcDbEntity
  8
0
100
AcDbLine
 62
7
  6
CONTINUOUS
 10
17.0916052569
 20
7.9892705378
 11
16.6228552569
 21
7.9892705378
  0
LINE
  5
262
100
AcDbEntity
  8
0
100
AcDbLine
 62
7
  6
CONTINUOUS
 10
16.5728552569
 20
8.2106247044
 11
17.0916052569
 21
8.2106247044
  0
LINE
  5
263
100
AcDbEntity
  8
0
100
AcDbLine
 62
7
  6
CONTINUOUS
 10
13.0228465551
 20
14.0184204832
 11
12.909377966
 21
13.6512359943
  0
LINE
  5
264
100
AcDbEntity
  8
0
100
AcDbLine
 62
7
  6
CONTINUOUS
 10
13.4162622477
 20
12.3038107309
 11
13.4283655639
 21
12.3429770764
  0
LINE
  5
265
100
AcDbEntity
  8
0
100
AcDbLine
 62
7
  6
CONTINUOUS
 10
13.6480825935
 20
12.8512669975
 11
13.6707098985
 21
12.9244889835
  0
LINE
  5
266
100
AcDbEntity
  8
0
100
AcDbLine
 62
7
  6
CONTINUOUS
 10
14.1814859412
 20
14.4017443738
 11
14.1935892573
 21
14.4409107193
  0
LINE
  5
267
100
AcDbEntity
  8
0
100
AcDbLine
 62
7
  6
CONTINUOUS
 10
14.3173834121
 20
14.83368055
 11
14.203914823
 21
14.4664960611
  0
LINE
  5
268
100
AcDbEntity
  8
0
100
AcDbLine
 62
7
  6
CONTINUOUS
 10
13.4669022911
 20
12.0683950152
 11
13.7006001683
 21
12.8246416229
  0
LINE
  5
269
100
AcDbEntity
  8
0
100
AcDbLine
 62
7
  6
CONTINUOUS
 10
13.8258181965
 20
13.2298473106
 11
13.846643836
 21
13.2972391046
  0
LINE
  5
26A
100
AcDbEntity
  8
0
100
AcDbLine
 62
7
  6
CONTINUOUS
 10
13.8386537883
 20
13.0435677704
 11
13.8997975007
 21
13.2414288964
  0
LINE
  5
26B
100
AcDbEntity
  8
0
100
AcDbLine
 62
7
  6
CONTINUOUS
 10
13.8062472599
 20
13.199512064
 11
13.8350837595
 21
13.2442090729
  0
LINE
  5
26C
100
AcDbEntity
  8
0
100
AcDbLine
 62
7
  6
CONTINUOUS
 10
13.5681749224
 20
11.9727395755
 11
13.4047801541
 21
11.4439939115
  0
LINE
  5
26D
100
AcDbEntity
  8
0
100
AcDbLine
 62
7
  6
CONTINUOUS
 10
13.9539841036
 20
13.2139573574
 11
13.8928403912
 21
13.0160962315
  0
LINE
  5
26E
100
AcDbEntity
  8
0
100
AcDbLine
 62
7
  6
CONTINUOUS
 10
14.4154110223
 20
13.7818147033
 11
14.4152895212
 21
13.7815789636
  0
LINE
  5
26F
100
AcDbEntity
  8
0
100
AcDbLine
 62
7
  6
CONTINUOUS
 10
14.4154191652
 20
13.7818113648
 11
14.4152895212
 21
13.7815789636
  0
LINE
  5
270
100
AcDbEntity
  8
0
100
AcDbLine
 62
7
  6
CONTINUOUS
 10
13.7127963347
 20
12.848486821
 11
13.8386537883
 21
13.0435677704
  0
LINE
  5
271
100
AcDbEntity
  8
0
100
AcDbLine
 62
7
  6
CONTINUOUS
 10
13.8928403912
 20
13.0160962315
 11
13.7669829376
 21
12.821015282
  0
LINE
  5
272
100
AcDbEntity
  8
0
100
AcDbLine
 62
7
  6
CONTINUOUS
 10
15.0821558347
 20
14.83368055
 11
14.9686872456
 21
14.4664960611
  0
LINE
  5
273
100
AcDbEntity
  8
0
100
AcDbLine
 62
7
  6
CONTINUOUS
 10
13.5437237347
 20
12.4645184025
 11
13.5972881241
 21
12.4903237254
  0
LINE
  5
274
100
AcDbEntity
  8
0
100
AcDbLine
 62
7
  6
CONTINUOUS
 10
13.6480825935
 20
12.8512669975
 11
13.7022691965
 21
12.8237954585
  0
LINE
  5
275
100
AcDbEntity
  8
0
100
AcDbLine
 62
7
  6
CONTINUOUS
 10
13.7127963347
 20
12.848486821
 11
13.7669829376
 21
12.821015282
  0
LINE
  5
276
100
AcDbEntity
  8
0
100
AcDbLine
 62
7
  6
CONTINUOUS
 10
13.8928403912
 20
13.0160962315
 11
13.8386537883
 21
13.0435677704
  0
LINE
  5
277
100
AcDbEntity
  8
0
100
AcDbLine
 62
7
  6
CONTINUOUS
 10
14.4161668159
 20
13.7814251644
 11
14.2004155668
 21
14.2210799849
  0
LWPOLYLINE
  5
278
100
AcDbEntity
  8
0
100
AcDbPolyline
 62
7
  6
CONTINUOUS
 90
6
 70
0
 10
14.4161668179
 20
13.7814251072
 10
14.4163282594
 20
13.7810895341
 10
14.4172131586
 20
13.778927105
 10
14.4176902203
 20
13.7773031455
 10
14.4178792166
 20
13.7763325703
 10
14.4179070876
 20
13.7761079479
  0
LINE
  5
279
100
AcDbEntity
  8
0
100
AcDbLine
 62
7
  6
CONTINUOUS
 10
17.3766843347
 20
11.8561133631
 11
16.7367934228
 21
12.0654217309
  0
LINE
  5
27A
100
AcDbEntity
  8
0
100
AcDbLine
 62
7
  6
CONTINUOUS
 10
13.8997975007
 20
13.2414288964
 11
13.9539841036
 21
13.2139573574
  0
LINE
  5
27B
100
AcDbEntity
  8
0
100
AcDbLine
 62
7
  6
CONTINUOUS
 10
13.7669829376
 20
12.821015282
 11
13.7022691965
 21
12.8237954585
  0
LINE
  5
27C
100
AcDbEntity
  8
0
100
AcDbLine
 62
7
  6
CONTINUOUS
 10
13.6480825935
 20
12.8512669975
 11
13.7127963347
 21
12.848486821
  0
LINE
  5
27D
100
AcDbEntity
  8
0
100
AcDbLine
 62
7
  6
CONTINUOUS
 10
15.3425235954
 20
13.8639389874
 11
15.1318301765
 21
14.2932870335
  0
LINE
  5
27E
100
AcDbEntity
  8
0
100
AcDbLine
 62
7
  6
CONTINUOUS
 10
13.8350837595
 20
13.2442090729
 11
13.8997975007
 21
13.2414288964
  0
LINE
  5
27F
100
AcDbEntity
  8
0
100
AcDbLine
 62
7
  6
CONTINUOUS
 10
16.9374395948
 20
12.6791924256
 11
17.5937342183
 21
12.4645184025
  0
LINE
  5
280
100
AcDbEntity
  8
0
100
AcDbLine
 62
7
  6
CONTINUOUS
 10
16.3150098496
 20
11.1239033825
 11
16.1516150813
 21
10.5951577185
  0
LINE
  5
281
100
AcDbEntity
  8
0
100
AcDbLine
 62
7
  6
CONTINUOUS
 10
16.4525924294
 20
11.1457469793
 11
16.8020756838
 21
12.2766752051
  0
LINE
  5
282
100
AcDbEntity
  8
0
100
AcDbLine
 62
7
  6
CONTINUOUS
 10
17.8418395963
 20
12.3322411097
 11
17.9553081854
 21
12.6994255986
  0
LINE
  5
283
100
AcDbEntity
  8
0
100
AcDbLine
 62
7
  6
CONTINUOUS
 10
17.9611630786
 20
12.0085633594
 11
18.0867349839
 21
12.4149141938
  0
LINE
  5
284
100
AcDbEntity
  8
03__ASM_ALL_CURVES
100
AcDbLine
 62
8
  6
PHANTOM
 10
18.0868993458
 20
12.414875072
 11
18.0886051291
 21
12.4197312101
  0
ARC
  5
285
100
AcDbEntity
  8
0
100
AcDbCircle
 62
7
  6
CONTINUOUS
 10
4.1818101177
 20
4.3951198968
 40
0.5
100
AcDbArc
 50
120.0
 51
300.0
  0
CIRCLE
  5
286
100
AcDbEntity
  8
0
100
AcDbCircle
 62
7
  6
CONTINUOUS
 10
4.1818101177
 20
4.3951198968
 40
0.1875
  0
ARC
  5
287
100
AcDbEntity
  8
0
100
AcDbCircle
 62
7
  6
CONTINUOUS
 10
4.9595300446
 20
4.8441367059
 40
0.09
100
AcDbArc
 50
185.7548348132
 51
229.0360462935
  0
ARC
  5
288
100
AcDbEntity
  8
0
100
AcDbCircle
 62
7
  6
CONTINUOUS
 10
4.5150548129
 20
5.2514716209
 40
0.075
100
AcDbArc
 50
300.0
 51
350.4116071266
  0
ARC
  5
289
100
AcDbEntity
  8
0
100
AcDbCircle
 62
7
  6
CONTINUOUS
 10
5.0900548129
 20
4.2555424065
 40
0.075
100
AcDbArc
 50
69.5883928734
 51
120.0
  0
ARC
  5
28A
100
AcDbEntity
  8
0
100
AcDbCircle
 62
7
  6
CONTINUOUS
 10
4.7225016972
 20
6.5853896741
 40
0.125
100
AcDbArc
 50
325.8369362645
 51
54.0811816562
  0
ARC
  5
28B
100
AcDbEntity
  8
0
100
AcDbCircle
 62
7
  6
CONTINUOUS
 10
5.0650974989
 20
6.9279854757
 40
0.125
100
AcDbArc
 50
215.9188183438
 51
304.1630637355
  0
ARC
  5
28C
100
AcDbEntity
  8
0
100
AcDbCircle
 62
7
  6
CONTINUOUS
 10
4.8741920794
 20
6.8470057716
 40
0.09
100
AcDbArc
 50
4.8759654065
 51
135.0
  0
ARC
  5
28D
100
AcDbEntity
  8
0
100
AcDbCircle
 62
7
  6
CONTINUOUS
 10
4.8034814013
 20
6.7762950935
 40
0.09
100
AcDbArc
 50
135.0
 51
265.1240345935
  0
ARC
  5
28E
100
AcDbEntity
  8
0
100
AcDbCircle
 62
7
  6
CONTINUOUS
 10
5.5553672762
 20
7.0533456629
 40
0.075
100
AcDbArc
 50
309.5883928734
 51
360.0
  0
CIRCLE
  5
28F
100
AcDbEntity
  8
03__ASM_ALL_CURVES
100
AcDbCircle
 62
8
  6
PHANTOM
 10
6.1303672762
 20
5.5201198968
 40
2.75
  0
ARC
  5
290
100
AcDbEntity
  8
0
100
AcDbCircle
 62
7
  6
CONTINUOUS
 10
6.1303672762
 20
5.5201198968
 40
2.5625
100
AcDbArc
 50
99.3237593433
 51
200.6762406567
  0
ARC
  5
291
100
AcDbEntity
  8
0
100
AcDbCircle
 62
7
  6
CONTINUOUS
 10
6.1303672762
 20
5.5201198968
 40
2.5625
100
AcDbArc
 50
219.3237593433
 51
320.6762406567
  0
ARC
  5
292
100
AcDbEntity
  8
0
100
AcDbCircle
 62
7
  6
CONTINUOUS
 10
6.1303672762
 20
5.5201198968
 40
2.5625
100
AcDbArc
 50
339.3237593433
 51
80.6762406567
  0
ARC
  5
293
100
AcDbEntity
  8
03__ASM_ALL_CURVES
100
AcDbCircle
 62
8
  6
PHANTOM
 10
6.1303672762
 20
5.5201198968
 40
2.25
100
AcDbArc
 50
85.236487
 51
94.763513
  0
ARC
  5
294
100
AcDbEntity
  8
03__ASM_ALL_CURVES
100
AcDbCircle
 62
8
  6
PHANTOM
 10
6.1303672762
 20
5.5201198968
 40
2.25
100
AcDbArc
 50
205.236487
 51
214.7754202591
  0
ARC
  5
295
100
AcDbEntity
  8
03__ASM_ALL_CURVES
100
AcDbCircle
 62
8
  6
PHANTOM
 10
6.1303672762
 20
5.5201198968
 40
2.25
100
AcDbArc
 50
325.236487
 51
334.7739731983
  0
CIRCLE
  5
296
100
AcDbEntity
  8
0
100
AcDbCircle
 62
7
  6
CONTINUOUS
 10
6.1303672762
 20
5.5201198968
 40
1.5625
  0
CIRCLE
  5
297
100
AcDbEntity
  8
0
100
AcDbCircle
 62
7
  6
CONTINUOUS
 10
6.1303672762
 20
5.5201198968
 40
1.4375
  0
ARC
  5
298
100
AcDbEntity
  8
0
100
AcDbCircle
 62
7
  6
CONTINUOUS
 10
8.0789244347
 20
4.3951198968
 40
0.5
100
AcDbArc
 50
240.0
 51
60.0
  0
CIRCLE
  5
299
100
AcDbEntity
  8
0
100
AcDbCircle
 62
7
  6
CONTINUOUS
 10
8.0789244347
 20
4.3951198968
 40
0.1875
  0
ARC
  5
29A
100
AcDbEntity
  8
0
100
AcDbCircle
 62
7
  6
CONTINUOUS
 10
7.1706797394
 20
4.2555424065
 40
0.075
100
AcDbArc
 50
60.0
 51
110.4116071266
  0
ARC
  5
29B
100
AcDbEntity
  8
0
100
AcDbCircle
 62
7
  6
CONTINUOUS
 10
7.7456797394
 20
5.2514716209
 40
0.075
100
AcDbArc
 50
189.5883928734
 51
240.0
  0
ARC
  5
29C
100
AcDbEntity
  8
0
100
AcDbCircle
 62
7
  6
CONTINUOUS
 10
6.1303672762
 20
7.7701198968
 40
0.5
100
AcDbArc
 50
0.0
 51
180.0
  0
CIRCLE
  5
29D
100
AcDbEntity
  8
0
100
AcDbCircle
 62
7
  6
CONTINUOUS
 10
6.1303672762
 20
7.7701198968
 40
0.1875
  0
ARC
  5
29E
100
AcDbEntity
  8
0
100
AcDbCircle
 62
7
  6
CONTINUOUS
 10
6.7053672762
 20
7.0533456629
 40
0.075
100
AcDbArc
 50
180.0
 51
230.4116071266
  0
ARC
  5
29F
100
AcDbEntity
  8
0
100
AcDbCircle
 62
7
  6
CONTINUOUS
 10
4.8333720839
 20
11.2687977814
 40
0.2
100
AcDbArc
 50
180.0
 51
270.0
  0
ARC
  5
2A0
100
AcDbEntity
  8
0
100
AcDbCircle
 62
7
  6
CONTINUOUS
 10
7.3083720839
 20
11.2687977814
 40
0.2
100
AcDbArc
 50
270.0
 51
360.0
  0
ARC
  5
2A1
100
AcDbEntity
  8
0
100
AcDbCircle
 62
7
  6
CONTINUOUS
 10
6.4958720839
 20
13.6125477814
 40
0.075
100
AcDbArc
 50
270.0
 51
360.0
  0
ARC
  5
2A2
100
AcDbEntity
  8
0
100
AcDbCircle
 62
7
  6
CONTINUOUS
 10
5.6458720839
 20
13.6125477814
 40
0.075
100
AcDbArc
 50
180.0
 51
270.0
  0
ARC
  5
2A3
100
AcDbEntity
  8
0
100
AcDbCircle
 62
7
  6
CONTINUOUS
 10
8.4444292424
 20
13.6125477814
 40
0.075
100
AcDbArc
 50
270.0
 51
360.0
  0
ARC
  5
2A4
100
AcDbEntity
  8
0
100
AcDbCircle
 62
7
  6
CONTINUOUS
 10
7.7083720839
 20
13.5875477814
 40
0.075
100
AcDbArc
 50
90.0
 51
180.0
  0
ARC
  5
2A5
100
AcDbEntity
  8
0
100
AcDbCircle
 62
7
  6
CONTINUOUS
 10
4.4333720839
 20
13.5875477814
 40
0.075
100
AcDbArc
 50
0.0
 51
90.0
  0
ARC
  5
2A6
100
AcDbEntity
  8
0
100
AcDbCircle
 62
7
  6
CONTINUOUS
 10
3.6973149253
 20
13.6125477814
 40
0.075
100
AcDbArc
 50
180.0
 51
270.0
  0
ARC
  5
2A7
100
AcDbEntity
  8
0
100
AcDbCircle
 62
7
  6
CONTINUOUS
 10
7.5583720839
 20
12.0187977814
 40
0.075
100
AcDbArc
 50
270.0
 51
360.0
  0
ARC
  5
2A8
100
AcDbEntity
  8
0
100
AcDbCircle
 62
7
  6
CONTINUOUS
 10
4.5833720839
 20
12.0187977814
 40
0.075
100
AcDbArc
 50
180.0
 51
270.0
  0
ARC
  5
2A9
100
AcDbEntity
  8
0
100
AcDbCircle
 62
7
  6
CONTINUOUS
 10
14.2291052569
 20
6.6981247044
 40
0.2
100
AcDbArc
 50
90.0
 51
180.0
  0
ARC
  5
2AA
100
AcDbEntity
  8
0
100
AcDbCircle
 62
7
  6
CONTINUOUS
 10
14.2291052569
 20
4.2231247044
 40
0.2
100
AcDbArc
 50
180.0
 51
270.0
  0
ARC
  5
2AB
100
AcDbEntity
  8
0
100
AcDbCircle
 62
7
  6
CONTINUOUS
 10
16.5403187064
 20
7.0199056915
 40
0.0825364234
100
AcDbArc
 50
341.5979316596
 51
0.0109191864
  0
ARC
  5
2AC
100
AcDbEntity
  8
0
100
AcDbCircle
 62
7
  6
CONTINUOUS
 10
14.9791052569
 20
6.9481247044
 40
0.075
100
AcDbArc
 50
90.0
 51
180.0
  0
ARC
  5
2AD
100
AcDbEntity
  8
0
100
AcDbCircle
 62
7
  6
CONTINUOUS
 10
14.9791052569
 20
3.9731247044
 40
0.075
100
AcDbArc
 50
180.0
 51
270.0
  0
ARC
  5
2AE
100
AcDbEntity
  8
0
100
AcDbCircle
 62
7
  6
CONTINUOUS
 10
16.5728552569
 20
3.9106247044
 40
0.075
100
AcDbArc
 50
180.0
 51
270.0
  0
ARC
  5
2AF
100
AcDbEntity
  8
0
100
AcDbCircle
 62
7
  6
CONTINUOUS
 10
16.5478552569
 20
3.8231247044
 40
0.075
100
AcDbArc
 50
0.0
 51
9.483672031
  0
ARC
  5
2B0
100
AcDbEntity
  8
0
100
AcDbCircle
 62
7
  6
CONTINUOUS
 10
16.4228552569
 20
7.0981247044
 40
0.075
100
AcDbArc
 50
270.0
 51
360.0
  0
ARC
  5
2B1
100
AcDbEntity
  8
0
100
AcDbCircle
 62
7
  6
CONTINUOUS
 10
16.5728552569
 20
8.1356247044
 40
0.075
100
AcDbArc
 50
90.0
 51
180.0
  0
ARC
  5
2B2
100
AcDbEntity
  8
0
100
AcDbCircle
 62
7
  6
CONTINUOUS
 10
14.0536256294
 20
12.9972558124
 40
0.3162791901
100
AcDbArc
 50
137.6899066343
 51
139.5121734497
  0
ARC
  5
2B3
100
AcDbEntity
  8
0
100
AcDbCircle
 62
7
  6
CONTINUOUS
 10
14.3514725593
 20
14.3920694513
 40
0.1652652589
100
AcDbArc
 50
153.2340909635
 51
162.8105244124
  0
ARC
  5
2B4
100
AcDbEntity
  8
0
100
AcDbCircle
 62
7
  6
CONTINUOUS
 10
14.279985707
 20
13.857261695
 40
0.1550322481
100
AcDbArc
 50
326.9178548933
 51
330.7793576684
  0
ARC
  5
2B5
100
AcDbEntity
  8
0
100
AcDbCircle
 62
7
  6
CONTINUOUS
 10
14.285710826
 20
13.8540171918
 40
0.1484517926
100
AcDbArc
 50
330.8962594885
 51
331.1407395106
  0
ARC
  5
2B6
100
AcDbEntity
  8
0
100
AcDbCircle
 62
7
  6
CONTINUOUS
 10
13.618852418
 20
13.1748723639
 40
0.095941373
100
AcDbArc
 50
21.5879891765
 51
23.6470723784
  0
ARC
  5
2B7
100
AcDbEntity
  8
0
100
AcDbCircle
 62
7
  6
CONTINUOUS
 10
13.5786172761
 20
13.095421548
 40
0.0958793637
100
AcDbArc
 50
282.5733848435
 51
284.644673567
  0
ARC
  5
2B8
100
AcDbEntity
  8
0
100
AcDbCircle
 62
7
  6
CONTINUOUS
 10
13.6191604185
 20
13.1750057286
 40
0.0956057414
100
AcDbArc
 50
23.6478951816
 51
24.6293515217
  0
ARC
  5
2B9
100
AcDbEntity
  8
0
100
AcDbCircle
 62
7
  6
CONTINUOUS
 10
13.5786826166
 20
13.0951303245
 40
0.0955809004
100
AcDbArc
 50
281.6005228501
 51
282.5731587792
  0
SPLINE
  5
2BA
100
AcDbEntity
  8
0
100
AcDbSpline
 62
7
  6
CONTINUOUS
 70
0
 71
3
 72
11
 73
7
 74
0
 42
0.0000001
 43
0.0000001
 44
0.0000000001
 40
0.0
 40
0.0
 40
0.0
 40
0.0
 40
0.2383217557
 40
0.4837057291
 40
0.7373520543
 40
1.0
 40
1.0
 40
1.0
 40
1.0
 10
6.6770294847
 20
6.9838707908
 30
0.0
 10
6.6753335597
 20
6.9845041683
 30
0.0
 10
6.6719567309
 20
6.9859702937
 30
0.0
 10
6.66704232
 20
6.9886714371
 30
0.0
 10
6.6622149263
 20
6.9918713344
 30
0.0
 10
6.6591109735
 20
6.9942744508
 30
0.0
 10
6.6575734237
 20
6.9955458548
 30
0.0
  0
SPLINE
  5
2BB
100
AcDbEntity
  8
0
100
AcDbSpline
 62
7
  6
CONTINUOUS
 70
0
 71
3
 72
11
 73
7
 74
0
 42
0.0000001
 43
0.0000001
 44
0.0000000001
 40
0.0
 40
0.0
 40
0.0
 40
0.0
 40
0.2383217557
 40
0.4837057291
 40
0.7373520543
 40
1.0
 40
1.0
 40
1.0
 40
1.0
 10
4.5893907129
 20
5.2616678097
 30
0.0
 10
4.5896901543
 20
5.2598824067
 30
0.0
 10
4.5901088669
 20
5.2562249245
 30
0.0
 10
4.5902268135
 20
5.2506183481
 30
0.0
 10
4.589869318
 20
5.2448377539
 30
0.0
 10
4.5893401346
 20
5.2409480937
 30
0.0
 10
4.5890078413
 20
5.2389808345
 30
0.0
  0
SPLINE
  5
2BC
100
AcDbEntity
  8
0
100
AcDbSpline
 62
7
  6
CONTINUOUS
 70
0
 71
3
 72
11
 73
7
 74
0
 42
0.0000001
 43
0.0000001
 44
0.0000000001
 40
0.0
 40
0.0
 40
0.0
 40
0.0
 40
0.2626539397
 40
0.5162841763
 40
0.7616631035
 40
1.0
 40
1.0
 40
1.0
 40
1.0
 10
7.671726711
 20
5.2389808345
 30
0.0
 10
7.6713944638
 20
5.2409481482
 30
0.0
 10
7.6708653651
 20
5.244837738
 30
0.0
 10
7.6705076555
 20
5.2506182027
 30
0.0
 10
7.6706255741
 20
5.2562247438
 30
0.0
 10
7.6710443739
 20
5.2598822937
 30
0.0
 10
7.6713438395
 20
5.2616678097
 30
0.0
  0
SPLINE
  5
2BD
100
AcDbEntity
  8
0
100
AcDbSpline
 62
7
  6
CONTINUOUS
 70
0
 71
3
 72
11
 73
7
 74
0
 42
0.0000001
 43
0.0000001
 44
0.0000000001
 40
0.0
 40
0.0
 40
0.0
 40
0.0
 40
0.2626539397
 40
0.5162841763
 40
0.7616631035
 40
1.0
 40
1.0
 40
1.0
 40
1.0
 10
5.6031611287
 20
6.9955458548
 30
0.0
 10
5.6016235086
 20
6.9942744635
 30
0.0
 10
5.5985195744
 20
6.9918714556
 30
0.0
 10
5.5936923999
 20
6.9886714377
 30
0.0
 10
5.5887780336
 20
6.9859702876
 30
0.0
 10
5.5854011026
 20
6.9845042039
 30
0.0
 10
5.5837050676
 20
6.9838707908
 30
0.0
  0
SPLINE
  5
2BE
100
AcDbEntity
  8
0
100
AcDbSpline
 62
7
  6
CONTINUOUS
 70
0
 71
3
 72
11
 73
7
 74
0
 42
0.0000001
 43
0.0000001
 44
0.0000000001
 40
0.0
 40
0.0
 40
0.0
 40
0.0
 40
0.2626539397
 40
0.5162841763
 40
0.7616631035
 40
1.0
 40
1.0
 40
1.0
 40
1.0
 10
5.1162139888
 20
4.3258330009
 30
0.0
 10
5.1180838561
 20
4.3251370786
 30
0.0
 10
5.121716889
 20
4.3236504966
 30
0.0
 10
5.1269017731
 20
4.3210700498
 30
0.0
 10
5.1316982208
 20
4.3181646588
 30
0.0
 10
5.134656352
 20
4.3159731927
 30
0.0
 10
5.1360529214
 20
4.3148210898
 30
0.0
  0
SPLINE
  5
2BF
100
AcDbEntity
  8
0
100
AcDbSpline
 62
7
  6
CONTINUOUS
 70
0
 71
3
 72
11
 73
7
 74
0
 42
0.0000001
 43
0.0000001
 44
0.0000000001
 40
0.0
 40
0.0
 40
0.0
 40
0.0
 40
0.2626479396
 40
0.5162942731
 40
0.7616782382
 40
1.0
 40
1.0
 40
1.0
 40
1.0
 10
7.1445205635
 20
4.3258330009
 30
0.0
 10
7.1426507204
 20
4.3251371458
 30
0.0
 10
7.1390175835
 20
4.3236506035
 30
0.0
 10
7.1338326947
 20
4.3210699057
 30
0.0
 10
7.1290362311
 20
4.3181644715
 30
0.0
 10
7.1260781145
 20
4.3159731152
 30
0.0
 10
7.1246816309
 20
4.3148210898
 30
0.0
  0
SPLINE
  5
2C0
100
AcDbEntity
  8
0
100
AcDbSpline
 62
7
  6
CONTINUOUS
 70
0
 71
3
 72
40
 73
36
 74
0
 42
0.0000001
 43
0.0000001
 44
0.0000000001
 40
0.0
 40
0.0
 40
0.0
 40
0.0
 40
0.0318226543
 40
0.0636165921
 40
0.0953546502
 40
0.127016105
 40
0.1585875873
 40
0.1900642261
 40
0.2214473345
 40
0.2527454855
 40
0.2839724534
 40
0.3151440797
 40
0.3462746864
 40
0.3773789128
 40
0.4084685474
 40
0.4395523309
 40
0.4706362504
 40
0.5017228897
 40
0.5328139041
 40
0.5639083667
 40
0.5950049216
 40
0.6261015847
 40
0.6571961974
 40
0.6882873016
 40
0.7193746123
 40
0.7504591543
 40
0.7815450755
 40
0.8126379366
 40
0.8437456915
 40
0.8748806291
 40
0.9060582012
 40
0.9372935116
 40
0.9529400477
 40
0.9686076929
 40
1.0
 40
1.0
 40
1.0
 40
1.0
 10
4.653986209
 20
12.9437977814
 30
0.0
 10
4.653986209
 20
12.9400655678
 30
0.0
 10
4.6542461984
 20
12.9326018867
 30
0.0
 10
4.6554154543
 20
12.9214710678
 30
0.0
 10
4.6573616873
 20
12.9104679684
 30
0.0
 10
4.6600808818
 20
12.899656755
 30
0.0
 10
4.6635676899
 20
12.8891000186
 30
0.0
 10
4.6678148417
 20
12.8788604471
 30
0.0
 10
4.6728127718
 20
12.8690009646
 30
0.0
 10
4.6785487434
 20
12.859585377
 30
0.0
 10
4.6850056645
 20
12.8506786387
 30
0.0
 10
4.6921605788
 20
12.8423473104
 30
0.0
 10
4.6999830016
 20
12.8346589027
 30
0.0
 10
4.708433754
 20
12.8276811134
 30
0.0
 10
4.7174639053
 20
12.8214800128
 30
0.0
 10
4.7270143465
 20
12.8161184944
 30
0.0
 10
4.7370157839
 20
12.8116541345
 30
0.0
 10
4.7473896333
 20
12.8081371133
 30
0.0
 10
4.7580491555
 20
12.8056084243
 30
0.0
 10
4.7689012973
 20
12.8040983058
 30
0.0
 10
4.7798485421
 20
12.8036251154
 30
0.0
 10
4.7907912089
 20
12.8041946798
 30
0.0
 10
4.8016297034
 20
12.805800009
 30
0.0
 10
4.8122668319
 20
12.8084216561
 30
0.0
 10
4.8226099983
 20
12.812028313
 30
0.0
 10
4.8325732479
 20
12.8165781398
 30
0.0
 10
4.8420787518
 20
12.8220202508
 30
0.0
 10
4.8510581127
 20
12.8282964148
 30
0.0
 10
4.8594529208
 20
12.83534332
 30
0.0
 10
4.8672153285
 20
12.8430946207
 30
0.0
 10
4.8743067948
 20
12.8514824764
 30
0.0
 10
4.8796304663
 20
12.8589436667
 30
0.0
 10
4.8835270231
 20
12.8651611577
 30
0.0
 10
4.8871845377
 20
12.8715430933
 30
0.0
 10
4.8896479886
 20
12.8764900846
 30
0.0
 10
4.8911632511
 20
12.879845558
 30
0.0
  0
SPLINE
  5
2C1
100
AcDbEntity
  8
0
100
AcDbSpline
 62
7
  6
CONTINUOUS
 70
0
 71
3
 72
41
 73
37
 74
0
 42
0.0000001
 43
0.0000001
 44
0.0000000001
 40
0.0
 40
0.0
 40
0.0
 40
0.0
 40
0.0313916378
 40
0.0470579911
 40
0.0627039466
 40
0.0939374336
 40
0.1251131577
 40
0.1406876464
 40
0.1562535443
 40
0.1873595071
 40
0.2184497327
 40
0.2495337777
 40
0.2806167207
 40
0.3117028793
 40
0.342792968
 40
0.3738868104
 40
0.4049829372
 40
0.436079201
 40
0.4671736705
 40
0.4982649012
 40
0.5293518802
 40
0.5604364374
 40
0.5915208635
 40
0.622611516
 40
0.6537166848
 40
0.6848487729
 40
0.7160215635
 40
0.7472499453
 40
0.7785491126
 40
0.8099334368
 40
0.8414111592
 40
0.8729833368
 40
0.904645355
 40
0.9363837206
 40
0.9681776492
 40
1.0
 40
1.0
 40
1.0
 40
1.0
 10
4.8911632511
 20
13.0077500047
 30
0.0
 10
4.8896480101
 20
13.0111054304
 30
0.0
 10
4.887184669
 20
13.0160522676
 30
0.0
 10
4.8835272551
 20
13.0224339672
 30
0.0
 10
4.8796309209
 20
13.0286511881
 30
0.0
 10
4.8743077864
 20
13.0361118924
 30
0.0
 10
4.8683955159
 20
13.0431049866
 30
0.0
 10
4.8633323692
 20
13.0483783732
 30
0.0
 10
4.8580550616
 20
13.0534255066
 30
0.0
 10
4.8510603386
 20
13.0592974737
 30
0.0
 10
4.842081932
 20
13.0655733005
 30
0.0
 10
4.8325770984
 20
13.071015457
 30
0.0
 10
4.8226144625
 20
13.0755654494
 30
0.0
 10
4.8122717937
 20
13.0791724403
 30
0.0
 10
4.8016350425
 20
13.0817944922
 30
0.0
 10
4.790796819
 20
13.0834003164
 30
0.0
 10
4.7798542901
 20
13.0839704133
 30
0.0
 10
4.7689070405
 20
13.0834977716
 30
0.0
 10
4.7580547535
 20
13.0819881848
 30
0.0
 10
4.7473949701
 20
13.0794599733
 30
0.0
 10
4.7370207434
 20
13.075943383
 30
0.0
 10
4.727018869
 20
13.0714793417
 30
0.0
 10
4.7174678973
 20
13.0661180567
 30
0.0
 10
4.7084371987
 20
13.0599170717
 30
0.0
 10
4.6999858484
 20
13.0529392485
 30
0.0
 10
4.6921628432
 20
13.045250718
 30
0.0
 10
4.6850073903
 20
13.0369191189
 30
0.0
 10
4.6785500057
 20
13.0280120981
 30
0.0
 10
4.672813625
 20
13.0185961649
 30
0.0
 10
4.6678153904
 20
13.0087363112
 30
0.0
 10
4.6635679894
 20
12.9984963766
 30
0.0
 10
4.6600810231
 20
12.9879393187
 30
0.0
 10
4.6573617409
 20
12.9771278558
 30
0.0
 10
4.6554154623
 20
12.9661245808
 30
0.0
 10
4.6542461975
 20
12.9549936832
 30
0.0
 10
4.653986209
 20
12.9475299859
 30
0.0
 10
4.653986209
 20
12.9437977814
 30
0.0
  0
SPLINE
  5
2C2
100
AcDbEntity
  8
0
100
AcDbSpline
 62
7
  6
CONTINUOUS
 70
0
 71
3
 72
12
 73
8
 74
0
 42
0.0000001
 43
0.0000001
 44
0.0000000001
 40
0.0
 40
0.0
 40
0.0
 40
0.0
 40
0.2414590651
 40
0.4274017834
 40
0.6164789545
 40
0.8076941525
 40
1.0
 40
1.0
 40
1.0
 40
1.0
 10
4.8911632403
 20
13.007749995
 30
0.0
 10
4.893341697
 20
13.0029259071
 30
0.0
 10
4.8966915318
 20
12.9941490586
 30
0.0
 10
4.9002881006
 20
12.9811098019
 30
0.0
 10
4.9026358663
 20
12.9689075274
 30
0.0
 10
4.9040549471
 20
12.9564243089
 30
0.0
 10
4.9043711806
 20
12.9480134226
 30
0.0
 10
4.9043711806
 20
12.9437977814
 30
0.0
  0
SPLINE
  5
2C3
100
AcDbEntity
  8
0
100
AcDbSpline
 62
7
  6
CONTINUOUS
 70
0
 71
3
 72
20
 73
16
 74
0
 42
0.0000001
 43
0.0000001
 44
0.0000000001
 40
0.0
 40
0.0
 40
0.0
 40
0.0
 40
0.0542410651
 40
0.1097502143
 40
0.1665521209
 40
0.2246529422
 40
0.3446064186
 40
0.4064180279
 40
0.4693440903
 40
0.5332971814
 40
0.5981768414
 40
0.7302199309
 40
0.7971723287
 40
0.8645526009
 40
1.0
 40
1.0
 40
1.0
 40
1.0
 10
4.9984562618
 20
13.1332408384
 30
0.0
 10
5.0014117205
 20
13.1308277165
 30
0.0
 10
5.0072108432
 20
13.1257193574
 30
0.0
 10
5.0154392011
 20
13.1173672689
 30
0.0
 10
5.0232628931
 20
13.1082729941
 30
0.0
 10
5.0332132282
 20
13.095074037
 30
0.0
 10
5.0420952337
 20
13.0806725102
 30
0.0
 10
5.0498696206
 20
13.0653094455
 30
0.0
 10
5.0552095053
 20
13.053150307
 30
0.0
 10
5.0599755963
 20
13.0405248254
 30
0.0
 10
5.06557053
 20
13.0230411961
 30
0.0
 10
5.0698926139
 20
13.0049534551
 30
0.0
 10
5.0729383844
 20
12.9864594042
 30
0.0
 10
5.0751372955
 20
12.9676048092
 30
0.0
 10
5.075796066
 20
12.9533255616
 30
0.0
 10
5.075796066
 20
12.9437977814
 30
0.0
  0
SPLINE
  5
2C4
100
AcDbEntity
  8
0
100
AcDbSpline
 62
7
  6
CONTINUOUS
 70
0
 71
3
 72
20
 73
16
 74
0
 42
0.0000001
 43
0.0000001
 44
0.0000000001
 40
0.0
 40
0.0
 40
0.0
 40
0.0
 40
0.135447396
 40
0.2028276801
 40
0.2697800962
 40
0.401823231
 40
0.4667029083
 40
0.5306560053
 40
0.5935820588
 40
0.6553936492
 40
0.7753470818
 40
0.8334478867
 40
0.8902497831
 40
0.9457589308
 40
1.0
 40
1.0
 40
1.0
 40
1.0
 10
5.075796066
 20
12.9437977814
 30
0.0
 10
5.075796066
 20
12.9342700014
 30
0.0
 10
5.0751372955
 20
12.9199907531
 30
0.0
 10
5.0729383841
 20
12.9011361562
 30
0.0
 10
5.0698926124
 20
12.8826421002
 30
0.0
 10
5.0655705266
 20
12.8645543537
 30
0.0
 10
5.0599755905
 20
12.8470707202
 30
0.0
 10
5.0552094981
 20
12.834445238
 30
0.0
 10
5.049869613
 20
12.8222861014
 30
0.0
 10
5.0420952274
 20
12.8069230417
 30
0.0
 10
5.0332132242
 20
12.79252152
 30
0.0
 10
5.0232628918
 20
12.779322567
 30
0.0
 10
5.015439201
 20
12.7702282938
 30
0.0
 10
5.0072108435
 20
12.7618762057
 30
0.0
 10
5.0014117208
 20
12.7567678464
 30
0.0
 10
4.9984562618
 20
12.7543547243
 30
0.0
  0
SPLINE
  5
2C5
100
AcDbEntity
  8
0
100
AcDbSpline
 62
7
  6
CONTINUOUS
 70
0
 71
3
 72
23
 73
19
 74
0
 42
0.0000001
 43
0.0000001
 44
0.0000000001
 40
0.0
 40
0.0
 40
0.0
 40
0.0
 40
0.0663356271
 40
0.1312496574
 40
0.1948665377
 40
0.2573473581
 40
0.3188784979
 40
0.3796730695
 40
0.4399642775
 40
0.5000000452
 40
0.5600358061
 40
0.6203269975
 40
0.6811215478
 40
0.742652667
 40
0.8051334705
 40
0.8687503396
 40
0.9336643682
 40
1.0
 40
1.0
 40
1.0
 40
1.0
 10
4.9984562618
 20
12.7543547243
 30
0.0
 10
4.9955669945
 20
12.7519956474
 30
0.0
 10
4.9896768113
 20
12.7475353339
 30
0.0
 10
4.980446768
 20
12.7416101246
 30
0.0
 10
4.9709588266
 20
12.7365503232
 30
0.0
 10
4.9612543004
 20
12.7323788254
 30
0.0
 10
4.9513745951
 20
12.7291143473
 30
0.0
 10
4.9413625645
 20
12.7267717442
 30
0.0
 10
4.9312617742
 20
12.7253618184
 30
0.0
 10
4.9211164504
 20
12.7248911089
 30
0.0
 10
4.9109711275
 20
12.7253618198
 30
0.0
 10
4.9008703399
 20
12.7267717464
 30
0.0
 10
4.8908583128
 20
12.7291143495
 30
0.0
 10
4.8809786107
 20
12.732378827
 30
0.0
 10
4.8712740872
 20
12.736550324
 30
0.0
 10
4.8617861473
 20
12.7416101246
 30
0.0
 10
4.8525561044
 20
12.7475353337
 30
0.0
 10
4.846665921
 20
12.7519956472
 30
0.0
 10
4.8437766535
 20
12.7543547243
 30
0.0
  0
SPLINE
  5
2C6
100
AcDbEntity
  8
0
100
AcDbSpline
 62
7
  6
CONTINUOUS
 70
0
 71
3
 72
11
 73
7
 74
0
 42
0.0000001
 43
0.0000001
 44
0.0000000001
 40
0.0
 40
0.0
 40
0.0
 40
0.0
 40
0.2382421449
 40
0.4842864618
 40
0.7382556366
 40
1.0
 40
1.0
 40
1.0
 40
1.0
 10
4.8437766535
 20
12.7543547243
 30
0.0
 10
4.8396342478
 20
12.7577369844
 30
0.0
 10
4.831569757
 20
12.7650587319
 30
0.0
 10
4.8204198927
 20
12.7773495192
 30
0.0
 10
4.8101128019
 20
12.7910200372
 30
0.0
 10
4.8039483229
 20
12.800836664
 30
0.0
 10
4.8010234547
 20
12.8059322702
 30
0.0
  0
SPLINE
  5
2C7
100
AcDbEntity
  8
0
100
AcDbSpline
 62
7
  6
CONTINUOUS
 70
0
 71
3
 72
11
 73
7
 74
0
 42
0.0000001
 43
0.0000001
 44
0.0000000001
 40
0.0
 40
0.0
 40
0.0
 40
0.0
 40
0.2617447098
 40
0.5157140101
 40
0.761758211
 40
1.0
 40
1.0
 40
1.0
 40
1.0
 10
4.8010221109
 20
13.0816609517
 30
0.0
 10
4.803947038
 20
13.0867568043
 30
0.0
 10
4.810111662
 20
13.0965739019
 30
0.0
 10
4.8204190561
 20
13.1102450615
 30
0.0
 10
4.8315692959
 20
13.122536397
 30
0.0
 10
4.8396340881
 20
13.129858448
 30
0.0
 10
4.8437766535
 20
13.1332408384
 30
0.0
  0
SPLINE
  5
2C8
100
AcDbEntity
  8
0
100
AcDbSpline
 62
7
  6
CONTINUOUS
 70
0
 71
3
 72
23
 73
19
 74
0
 42
0.0000001
 43
0.0000001
 44
0.0000000001
 40
0.0
 40
0.0
 40
0.0
 40
0.0
 40
0.0663356271
 40
0.1312496574
 40
0.1948665377
 40
0.2573473581
 40
0.3188784979
 40
0.3796730695
 40
0.4399642775
 40
0.5000000452
 40
0.5600358061
 40
0.6203269975
 40
0.6811215478
 40
0.742652667
 40
0.8051334705
 40
0.8687503396
 40
0.9336643682
 40
1.0
 40
1.0
 40
1.0
 40
1.0
 10
4.8437766535
 20
13.1332408384
 30
0.0
 10
4.8466659208
 20
13.1355999154
 30
0.0
 10
4.852556104
 20
13.1400602288
 30
0.0
 10
4.8617861473
 20
13.1459854382
 30
0.0
 10
4.8712740887
 20
13.1510452395
 30
0.0
 10
4.8809786149
 20
13.1552167373
 30
0.0
 10
4.8908583202
 20
13.1584812154
 30
0.0
 10
4.9008703508
 20
13.1608238185
 30
0.0
 10
4.9109711411
 20
13.1622337444
 30
0.0
 10
4.9211164649
 20
13.1627044538
 30
0.0
 10
4.9312617878
 20
13.1622337429
 30
0.0
 10
4.9413625754
 20
13.1608238164
 30
0.0
 10
4.9513746025
 20
13.1584812133
 30
0.0
 10
4.9612543046
 20
13.1552167357
 30
0.0
 10
4.9709588281
 20
13.1510452388
 30
0.0
 10
4.980446768
 20
13.1459854381
 30
0.0
 10
4.9896768109
 20
13.140060229
 30
0.0
 10
4.9955669943
 20
13.1355999155
 30
0.0
 10
4.9984562618
 20
13.1332408384
 30
0.0
  0
SPLINE
  5
2C9
100
AcDbEntity
  8
0
100
AcDbSpline
 62
7
  6
CONTINUOUS
 70
0
 71
3
 72
13
 73
9
 74
0
 42
0.0000001
 43
0.0000001
 44
0.0000000001
 40
0.0
 40
0.0
 40
0.0
 40
0.0
 40
0.1282722293
 40
0.2562292658
 40
0.446828955
 40
0.6349502662
 40
0.8196267195
 40
1.0
 40
1.0
 40
1.0
 40
1.0
 10
4.9043711806
 20
12.9437977814
 30
0.0
 10
4.9043711806
 20
12.9409856015
 30
0.0
 10
4.9042301614
 20
12.9353670504
 30
0.0
 10
4.9034919926
 20
12.9255952631
 30
0.0
 10
4.9019553926
 20
12.9145822334
 30
0.0
 10
4.8993035785
 20
12.9025055492
 30
0.0
 10
4.8957606667
 20
12.890893816
 30
0.0
 10
4.892790725
 20
12.8834495545
 30
0.0
 10
4.8911632403
 20
12.8798455678
 30
0.0
  0
LINE
  5
2CA
100
AcDbEntity
  8
0
100
AcDbLine
 62
7
  6
CONTINUOUS
 10
6.6175342924
 20
13.5875477814
 11
6.5980782314
 21
13.61254715
  0
SPLINE
  5
2CB
100
AcDbEntity
  8
0
100
AcDbSpline
 62
7
  6
CONTINUOUS
 70
0
 71
3
 72
24
 73
20
 74
0
 42
0.0000001
 43
0.0000001
 44
0.0000000001
 40
0.0
 40
0.0
 40
0.0
 40
0.0
 40
0.0154994727
 40
0.0323010277
 40
0.0504245945
 40
0.0698698641
 40
0.0906215403
 40
0.1126517416
 40
0.1603894758
 40
0.2127457541
 40
0.2693549462
 40
0.329848741
 40
0.3938735375
 40
0.4611061943
 40
0.5312520617
 40
0.6040400108
 40
0.6792367913
 40
0.8359998067
 40
1.0
 40
1.0
 40
1.0
 40
1.0
 10
5.5708720839
 20
13.658326675
 30
0.0
 10
5.5708720839
 20
13.6580488319
 30
0.0
 10
5.5708432727
 20
13.6574696359
 30
0.0
 10
5.5707276574
 20
13.6565724567
 30
0.0
 10
5.5705402652
 20
13.6556153915
 30
0.0
 10
5.5702835283
 20
13.6546015122
 30
0.0
 10
5.5699599863
 20
13.6535336242
 30
0.0
 10
5.5694282994
 20
13.6520001908
 30
0.0
 10
5.5686039016
 20
13.6499705474
 30
0.0
 10
5.567413792
 20
13.6474250915
 30
0.0
 10
5.5660155876
 20
13.6447274879
 30
0.0
 10
5.5644260498
 20
13.6418957325
 30
0.0
 10
5.5626605984
 20
13.6389459897
 30
0.0
 10
5.560733664
 20
13.635892527
 30
0.0
 10
5.5586579626
 20
13.6327481981
 30
0.0
 10
5.5564448426
 20
13.629524335
 30
0.0
 10
5.5532816045
 20
13.6250702165
 30
0.0
 10
5.5490479941
 20
13.6193718926
 30
0.0
 10
5.5455029508
 20
13.6148440226
 30
0.0
 10
5.5436671752
 20
13.6125477814
 30
0.0
  0
SPLINE
  5
2CC
100
AcDbEntity
  8
0
100
AcDbSpline
 62
7
  6
CONTINUOUS
 70
0
 71
3
 72
24
 73
20
 74
0
 42
0.0000001
 43
0.0000001
 44
0.0000000001
 40
0.0
 40
0.0
 40
0.0
 40
0.0
 40
0.1640002088
 40
0.3207632453
 40
0.3959600335
 40
0.4687479832
 40
0.5388938586
 40
0.606126516
 40
0.6701513108
 40
0.730645097
 40
0.7872542943
 40
0.8396105814
 40
0.8873483058
 40
0.9093785035
 40
0.9301301712
 40
0.9495754291
 40
0.9676989827
 40
0.9845005296
 40
1.0
 40
1.0
 40
1.0
 40
1.0
 10
6.5980769926
 20
13.6125477814
 30
0.0
 10
6.5962412168
 20
13.6148440228
 30
0.0
 10
6.5926961739
 20
13.619371894
 30
0.0
 10
6.5884625617
 20
13.6250702175
 30
0.0
 10
6.5852993242
 20
13.629524337
 30
0.0
 10
6.5830862034
 20
13.6327482
 30
0.0
 10
6.5810105021
 20
13.6358925291
 30
0.0
 10
6.5790835682
 20
13.6389459924
 30
0.0
 10
6.5773181166
 20
13.6418957348
 30
0.0
 10
6.5757285786
 20
13.6447274901
 30
0.0
 10
6.5743303746
 20
13.6474250939
 30
0.0
 10
6.5731402652
 20
13.6499705499
 30
0.0
 10
6.5723158673
 20
13.6520001933
 30
0.0
 10
6.5717841807
 20
13.6535336264
 30
0.0
 10
6.5714606389
 20
13.654601514
 30
0.0
 10
6.5712039023
 20
13.6556153928
 30
0.0
 10
6.5710165102
 20
13.6565724573
 30
0.0
 10
6.5709008949
 20
13.6574696361
 30
0.0
 10
6.5708720839
 20
13.6580488319
 30
0.0
 10
6.5708720839
 20
13.658326675
 30
0.0
  0
LINE
  5
2CD
100
AcDbEntity
  8
0
100
AcDbLine
 62
7
  6
CONTINUOUS
 10
5.5436659364
 20
13.61254715
 11
5.5242098753
 21
13.5875477814
  0
SPLINE
  5
2CE
100
AcDbEntity
  8
0
100
AcDbSpline
 62
7
  6
CONTINUOUS
 70
0
 71
3
 72
9
 73
5
 74
0
 42
0.0000001
 43
0.0000001
 44
0.0000000001
 40
0.0
 40
0.0
 40
0.0
 40
0.0
 40
0.4957877242
 40
1.0
 40
1.0
 40
1.0
 40
1.0
 10
16.5478552569
 20
6.9243755985
 30
0.0
 10
16.5522510532
 20
6.9256363658
 30
0.0
 10
16.5609158333
 20
6.9289267359
 30
0.0
 10
16.5689750863
 20
6.9334858086
 30
0.0
 10
16.5728546256
 20
6.9360506625
 30
0.0
  0
SPLINE
  5
2CF
100
AcDbEntity
  8
0
100
AcDbSpline
 62
7
  6
CONTINUOUS
 70
0
 71
3
 72
14
 73
10
 74
0
 42
0.0000001
 43
0.0000001
 44
0.0000000001
 40
0.0
 40
0.0
 40
0.0
 40
0.0
 40
0.1138091252
 40
0.2308963376
 40
0.3513354871
 40
0.4751914858
 40
0.6024202164
 40
0.7327931985
 40
1.0
 40
1.0
 40
1.0
 40
1.0
 10
16.5728552569
 20
6.9360522938
 30
0.0
 10
16.575229081
 20
6.9376216436
 30
0.0
 10
16.5799314969
 20
6.9409807287
 30
0.0
 10
16.5867101789
 20
6.9465795191
 30
0.0
 10
16.5932432562
 20
6.952834261
 30
0.0
 10
16.599458925
 20
6.9597496351
 30
0.0
 10
16.6052617416
 20
6.9673347238
 30
0.0
 10
16.6123323009
 20
6.9783989672
 30
0.0
 10
16.616522094
 20
6.9875118516
 30
0.0
 10
16.6186341506
 20
6.9938504706
 30
0.0
  0
SPLINE
  5
2D0
100
AcDbEntity
  8
0
100
AcDbSpline
 62
7
  6
CONTINUOUS
 70
0
 71
3
 72
13
 73
9
 74
0
 42
0.0000001
 43
0.0000001
 44
0.0000000001
 40
0.0
 40
0.0
 40
0.0
 40
0.0
 40
0.264632937
 40
0.5169367864
 40
0.6396642722
 40
0.7607258511
 40
0.8806590026
 40
1.0
 40
1.0
 40
1.0
 40
1.0
 10
16.6186341506
 20
5.1270245233
 30
0.0
 10
16.6193139758
 20
5.1260043913
 30
0.0
 10
16.6205231482
 20
5.1239283936
 30
0.0
 10
16.6216506126
 20
5.1211761846
 30
0.0
 10
16.6222772926
 20
5.1189631327
 30
0.0
 10
16.6226107842
 20
5.1173097188
 30
0.0
 10
16.6228107775
 20
5.1156508269
 30
0.0
 10
16.6228552569
 20
5.11454189
 30
0.0
 10
16.6228552569
 20
5.1139890481
 30
0.0
  0
SPLINE
  5
2D1
100
AcDbEntity
  8
0
100
AcDbSpline
 62
7
  6
CONTINUOUS
 70
0
 71
3
 72
19
 73
15
 74
0
 42
0.0000001
 43
0.0000001
 44
0.0000000001
 40
0.0
 40
0.0
 40
0.0
 40
0.0
 40
0.0436907134
 40
0.0916568552
 40
0.1434025446
 40
0.1984654114
 40
0.2564136284
 40
0.3168614458
 40
0.3794653888
 40
0.4439191278
 40
0.5773414108
 40
0.7153621371
 40
0.8566122074
 40
1.0
 40
1.0
 40
1.0
 40
1.0
 10
16.6186341506
 20
5.1270245233
 30
0.0
 10
16.6180712439
 20
5.1278692097
 30
0.0
 10
16.6168586703
 20
5.1296201923
 30
0.0
 10
16.614890993
 20
5.1323090605
 30
0.0
 10
16.612706555
 20
5.135165672
 30
0.0
 10
16.6103287898
 20
5.1381655766
 30
0.0
 10
16.607779553
 20
5.1412869631
 30
0.0
 10
16.6050782362
 20
5.1445098777
 30
0.0
 10
16.6022430944
 20
5.1478174643
 30
0.0
 10
16.5982599696
 20
5.1523736806
 30
0.0
 10
16.5930460456
 20
5.158180682
 30
0.0
 10
16.5865395617
 20
5.1652236023
 30
0.0
 10
16.5797820521
 20
5.1723485752
 30
0.0
 10
16.5751840292
 20
5.1771016193
 30
0.0
 10
16.5728552569
 20
5.1794837537
 30
0.0
  0
SPLINE
  5
2D2
100
AcDbEntity
  8
0
100
AcDbSpline
 62
7
  6
CONTINUOUS
 70
0
 71
3
 72
10
 73
6
 74
0
 42
0.0000001
 43
0.0000001
 44
0.0000000001
 40
0.0
 40
0.0
 40
0.0
 40
0.0
 40
0.2494012223
 40
0.6249733626
 40
1.0
 40
1.0
 40
1.0
 40
1.0
 10
16.5728546256
 20
5.1794856422
 30
0.0
 10
16.5708918755
 20
5.1814936262
 30
0.0
 10
16.5658947338
 20
5.1864490231
 30
0.0
 10
16.5576023317
 20
5.194069743
 30
0.0
 10
16.5511387644
 20
5.1995181367
 30
0.0
 10
16.5478552569
 20
5.2021726173
 30
0.0
  0
SPLINE
  5
2D3
100
AcDbEntity
  8
0
100
AcDbSpline
 62
7
  6
CONTINUOUS
 70
0
 71
3
 72
33
 73
29
 74
0
 42
0.0000001
 43
0.0000001
 44
0.0000000001
 40
0.0
 40
0.0
 40
0.0
 40
0.0
 40
0.0696528437
 40
0.1380937741
 40
0.2053497497
 40
0.2385451104
 40
0.2714569808
 40
0.3040904241
 40
0.3364515773
 40
0.4003860375
 40
0.4633348933
 40
0.5253748477
 40
0.5560818371
 40
0.5865931271
 40
0.6169199687
 40
0.6470738767
 40
0.6770666467
 40
0.706910357
 40
0.7366173642
 40
0.7662002993
 40
0.7956720613
 40
0.8250458097
 40
0.8543349616
 40
0.883553288
 40
0.9127148155
 40
0.9418336541
 40
0.970923976
 40
1.0
 40
1.0
 40
1.0
 40
1.0
 10
16.2656175649
 20
11.548321479
 30
0.0
 10
16.270095726
 20
11.5391959461
 30
0.0
 10
16.2786431796
 20
11.5209387302
 30
0.0
 10
16.2903046836
 20
11.493324441
 30
0.0
 10
16.2989891112
 20
11.4702490524
 30
0.0
 10
16.3052783413
 20
11.4518290142
 30
0.0
 10
16.3096487664
 20
11.4380964312
 30
0.0
 10
16.3136914001
 20
11.4243906292
 30
0.0
 10
16.318622455
 20
11.4062311927
 30
0.0
 10
16.3239737868
 20
11.38360694
 30
0.0
 10
16.3290975371
 20
11.3565064007
 30
0.0
 10
16.3322714094
 20
11.3339974864
 30
0.0
 10
16.3341365882
 20
11.3161047281
 30
0.0
 10
16.3351973612
 20
11.3027854526
 30
0.0
 10
16.3359243338
 20
11.2895246813
 30
0.0
 10
16.3363176722
 20
11.2763254895
 30
0.0
 10
16.3363774396
 20
11.2631910659
 30
0.0
 10
16.3361037267
 20
11.2501245713
 30
0.0
 10
16.3354966168
 20
11.2371291752
 30
0.0
 10
16.3345561972
 20
11.2242080455
 30
0.0
 10
16.3332825483
 20
11.2113643525
 30
0.0
 10
16.3316757764
 20
11.198601262
 30
0.0
 10
16.3297358911
 20
11.1859219392
 30
0.0
 10
16.3274633383
 20
11.1733294579
 30
0.0
 10
16.3248590175
 20
11.1608267743
 30
0.0
 10
16.3219237176
 20
11.1484167946
 30
0.0
 10
16.3186582995
 20
11.1361025682
 30
0.0
 10
16.316261534
 20
11.1279579139
 30
0.0
 10
16.3150087686
 20
11.1239037166
 30
0.0
  0
SPLINE
  5
2D4
100
AcDbEntity
  8
0
100
AcDbSpline
 62
7
  6
CONTINUOUS
 70
0
 71
3
 72
70
 73
66
 74
0
 42
0.0000001
 43
0.0000001
 44
0.0000000001
 40
0.0
 40
0.0
 40
0.0
 40
0.0
 40
0.0141005766
 40
0.0283312836
 40
0.0426891491
 40
0.0571709457
 40
0.0717732149
 40
0.0864922899
 40
0.1013249102
 40
0.1162693655
 40
0.1313240767
 40
0.1464872935
 40
0.1617571073
 40
0.1771314611
 40
0.192607668
 40
0.2081818805
 40
0.2238500048
 40
0.239607842
 40
0.2713744224
 40
0.2873751826
 40
0.3034475326
 40
0.3195865195
 40
0.335787126
 40
0.3520442806
 40
0.3683528531
 40
0.3847074419
 40
0.4011024194
 40
0.417532114
 40
0.4339908241
 40
0.4504728285
 40
0.4669723855
 40
0.4834836765
 40
0.5000008383
 40
0.5165179979
 40
0.5330292822
 40
0.5495288271
 40
0.5660108079
 40
0.5824694832
 40
0.5988991364
 40
0.6152940705
 40
0.6316486175
 40
0.6479571504
 40
0.6642142433
 40
0.6804147665
 40
0.6965536581
 40
0.7126259095
 40
0.7286265762
 40
0.7445507973
 40
0.7603939653
 40
0.7761517062
 40
0.7918197329
 40
0.80739385
 40
0.8228699664
 40
0.8382442129
 40
0.8535138574
 40
0.8686768664
 40
0.8837313582
 40
0.8986756093
 40
0.9135080676
 40
0.928227062
 40
0.9428293305
 40
0.9573111531
 40
0.9716690171
 40
0.9858996414
 40
1.0
 40
1.0
 40
1.0
 40
1.0
 10
13.6381837401
 20
10.6734643653
 30
0.0
 10
13.6446996106
 20
10.666333836
 30
0.0
 10
13.6579463806
 20
10.6521477058
 30
0.0
 10
13.678349136
 20
10.6311952934
 30
0.0
 10
13.6993620473
 20
10.6104810471
 30
0.0
 10
13.7209695811
 20
10.5900160591
 30
0.0
 10
13.7431563539
 20
10.5698112517
 30
0.0
 10
13.7659072635
 20
10.5498773439
 30
0.0
 10
13.7892083877
 20
10.5302239842
 30
0.0
 10
13.8130464341
 20
10.5108587833
 30
0.0
 10
13.8374092045
 20
10.4917884455
 30
0.0
 10
13.8622846556
 20
10.473019528
 30
0.0
 10
13.8876607429
 20
10.4545585876
 30
0.0
 10
13.9135251527
 20
10.4364124
 30
0.0
 10
13.9398646379
 20
10.4185882233
 30
0.0
 10
13.9666648066
 20
10.4010937282
 30
0.0
 10
13.9939108019
 20
10.383937002
 30
0.0
 10
14.0309102983
 20
10.3614636611
 30
0.0
 10
14.06864114
 20
10.3397655909
 30
0.0
 10
14.1070498643
 20
10.3188527193
 30
0.0
 10
14.1362962789
 20
10.3035071176
 30
0.0
 10
14.1658950002
 20
10.2885468992
 30
0.0
 10
14.1958298723
 20
10.273979471
 30
0.0
 10
14.2260845427
 20
10.2598123139
 30
0.0
 10
14.2566426105
 20
10.2460530954
 30
0.0
 10
14.2874870307
 20
10.2327088353
 30
0.0
 10
14.3186002935
 20
10.2197861663
 30
0.0
 10
14.3499648268
 20
10.2072918883
 30
0.0
 10
14.3815630441
 20
10.1952327799
 30
0.0
 10
14.4133773457
 20
10.183615598
 30
0.0
 10
14.4453901149
 20
10.1724472397
 30
0.0
 10
14.4775832516
 20
10.1617334694
 30
0.0
 10
14.5099385374
 20
10.1514798546
 30
0.0
 10
14.5424377565
 20
10.1416920259
 30
0.0
 10
14.575062686
 20
10.132375594
 30
0.0
 10
14.6077951252
 20
10.1235361903
 30
0.0
 10
14.6406168981
 20
10.1151793567
 30
0.0
 10
14.6735095733
 20
10.1073093667
 30
0.0
 10
14.706454804
 20
10.0999305342
 30
0.0
 10
14.7394342496
 20
10.0930471617
 30
0.0
 10
14.7724295678
 20
10.0866635297
 30
0.0
 10
14.805422538
 20
10.0807839969
 30
0.0
 10
14.8383951331
 20
10.0754124896
 30
0.0
 10
14.8713294614
 20
10.0705519214
 30
0.0
 10
14.9042078529
 20
10.0662053171
 30
0.0
 10
14.9370126477
 20
10.0623756708
 30
0.0
 10
14.969726191
 20
10.0590659432
 30
0.0
 10
15.0023309616
 20
10.0562792458
 30
0.0
 10
15.0348095878
 20
10.0540178987
 30
0.0
 10
15.0671448871
 20
10.0522835013
 30
0.0
 10
15.0993198072
 20
10.0510777909
 30
0.0
 10
15.1313172971
 20
10.0504024696
 30
0.0
 10
15.1631203798
 20
10.0502592351
 30
0.0
 10
15.1947128384
 20
10.0506498551
 30
0.0
 10
15.2260796015
 20
10.0515758355
 30
0.0
 10
15.2572066861
 20
10.0530385305
 30
0.0
 10
15.2880805003
 20
10.0550393279
 30
0.0
 10
15.3186874566
 20
10.0575796139
 30
0.0
 10
15.3490137645
 20
10.0606607389
 30
0.0
 10
15.3790441983
 20
10.0642839325
 30
0.0
 10
15.4087618081
 20
10.0684490883
 30
0.0
 10
15.4381480053
 20
10.0731558522
 30
0.0
 10
15.4671838186
 20
10.0784038635
 30
0.0
 10
15.4958500571
 20
10.0841927041
 30
0.0
 10
15.5147905616
 20
10.0884321025
 30
0.0
 10
15.5241931345
 20
10.0906433816
 30
0.0
  0
SPLINE
  5
2D5
100
AcDbEntity
  8
0
100
AcDbSpline
 62
7
  6
CONTINUOUS
 70
0
 71
3
 72
17
 73
13
 74
0
 42
0.0000001
 43
0.0000001
 44
0.0000000001
 40
0.0
 40
0.0
 40
0.0
 40
0.0
 40
0.1199352359
 40
0.2412656512
 40
0.3640207911
 40
0.4259406327
 40
0.4882215129
 40
0.6138709945
 40
0.7410199899
 40
0.8051741139
 40
0.8697199988
 40
1.0
 40
1.0
 40
1.0
 40
1.0
 10
13.458838307
 20
10.9314672732
 30
0.0
 10
13.4643913654
 20
10.9201513299
 30
0.0
 10
13.4760334446
 20
10.8976160063
 30
0.0
 10
13.4949267978
 20
10.8643383488
 30
0.0
 10
13.5118619086
 20
10.8369879332
 30
0.0
 10
13.526125984
 20
10.8153027898
 30
0.0
 10
13.5409498863
 20
10.7936267628
 30
0.0
 10
13.5603676314
 20
10.7667941182
 30
0.0
 10
13.5808099105
 20
10.7404845746
 30
0.0
 10
13.5978262317
 20
10.7196629139
 30
0.0
 10
13.6153891555
 20
10.6988678141
 30
0.0
 10
13.6289738525
 20
10.6835413562
 30
0.0
 10
13.638210976
 20
10.6734342511
 30
0.0
  0
SPLINE
  5
2D6
100
AcDbEntity
  8
0
100
AcDbSpline
 62
7
  6
CONTINUOUS
 70
0
 71
3
 72
40
 73
36
 74
0
 42
0.0000001
 43
0.0000001
 44
0.0000000001
 40
0.0
 40
0.0
 40
0.0
 40
0.0
 40
0.0689937123
 40
0.1030451124
 40
0.1368028298
 40
0.1702715563
 40
0.2034569683
 40
0.268998413
 40
0.3013746147
 40
0.33349773
 40
0.3653782878
 40
0.3970281604
 40
0.4284582724
 40
0.4596784078
 40
0.4906998737
 40
0.5215357221
 40
0.552200824
 40
0.56747476
 40
0.5827111518
 40
0.6130753669
 40
0.6433061944
 40
0.6734172362
 40
0.7034241722
 40
0.7183946132
 40
0.7333443132
 40
0.7631817557
 40
0.7929418511
 40
0.8226299981
 40
0.8522531615
 40
0.8670438924
 40
0.8818230424
 40
0.9113570238
 40
0.9408809834
 40
0.9704200293
 40
1.0
 40
1.0
 40
1.0
 40
1.0
 10
15.5242321359
 20
10.0906525832
 30
0.0
 10
15.543110906
 20
10.0950929596
 30
0.0
 10
15.571169928
 20
10.1023347073
 30
0.0
 10
15.608053901
 20
10.1132223709
 30
0.0
 10
15.6351641768
 20
10.12192135
 30
0.0
 10
15.6618275152
 20
10.1311902938
 30
0.0
 10
15.6966176603
 20
10.1442554343
 30
0.0
 10
15.7306215317
 20
10.1585148677
 30
0.0
 10
15.7637386633
 20
10.1739976319
 30
0.0
 10
15.7879601805
 20
10.1861425932
 30
0.0
 10
15.8116497985
 20
10.1988688477
 30
0.0
 10
15.8347926068
 20
10.2121782075
 30
0.0
 10
15.8573720706
 20
10.2260716332
 30
0.0
 10
15.8793703016
 20
10.2405496059
 30
0.0
 10
15.9007687348
 20
10.255612227
 30
0.0
 10
15.9215485857
 20
10.2712594223
 30
0.0
 10
15.9383560181
 20
10.2848036603
 30
0.0
 10
15.9514691518
 20
10.2959293679
 30
0.0
 10
15.964327443
 20
10.3072208514
 30
0.0
 10
15.9799797465
 20
10.321697584
 30
0.0
 10
15.9980811522
 20
10.3396619461
 30
0.0
 10
16.0154561062
 20
10.358192648
 30
0.0
 10
16.0293210521
 20
10.3741142763
 30
0.0
 10
16.0400219121
 20
10.3871252852
 30
0.0
 10
16.0504454037
 20
10.4002988204
 30
0.0
 10
16.0629778922
 20
10.4171000556
 30
0.0
 10
16.0772022642
 20
10.4377854434
 30
0.0
 10
16.0905767576
 20
10.4589591784
 30
0.0
 10
16.1009980709
 20
10.4770016421
 30
0.0
 10
16.1088824562
 20
10.4916551563
 30
0.0
 10
16.1164580382
 20
10.5064425012
 30
0.0
 10
16.1253589427
 20
10.5251992851
 30
0.0
 10
16.1351133949
 20
10.548121322
 30
0.0
 10
16.1439261419
 20
10.5714352718
 30
0.0
 10
16.1491601446
 20
10.5872135402
 30
0.0
 10
16.1516150813
 20
10.5951577185
 30
0.0
  0
SPLINE
  5
2D7
100
AcDbEntity
  8
0
100
AcDbSpline
 62
7
  6
CONTINUOUS
 70
0
 71
3
 72
34
 73
30
 74
0
 42
0.0000001
 43
0.0000001
 44
0.0000000001
 40
0.0
 40
0.0
 40
0.0
 40
0.0
 40
0.0306195863
 40
0.0612048588
 40
0.0917673099
 40
0.1223182265
 40
0.1528686882
 40
0.1834295666
 40
0.2140115248
 40
0.2293140104
 40
0.2446255769
 40
0.2752778716
 40
0.3059730578
 40
0.3367144759
 40
0.3675050003
 40
0.3983470708
 40
0.4292427254
 40
0.4601936317
 40
0.4912015109
 40
0.5222718481
 40
0.5534120461
 40
0.5846289242
 40
0.6159287003
 40
0.6787949421
 40
0.7420534943
 40
0.805747596
 40
0.8699359497
 40
0.9346716404
 40
1.0
 40
1.0
 40
1.0
 40
1.0
 10
13.4047801541
 20
11.4439939115
 30
0.0
 10
13.4031888047
 20
11.4388443029
 30
0.0
 10
13.400145075
 20
11.4285078834
 30
0.0
 10
13.3959962933
 20
11.4128943097
 30
0.0
 10
13.3922669841
 20
11.3971875773
 30
0.0
 10
13.3889568771
 20
11.3813934943
 30
0.0
 10
13.3860656433
 20
11.3655176624
 30
0.0
 10
13.3835929754
 20
11.349565818
 30
0.0
 10
13.3818813509
 20
11.3362169636
 30
0.0
 10
13.3807210283
 20
11.3255072007
 30
0.0
 10
13.3796993351
 20
11.314770886
 30
0.0
 10
13.3786827801
 20
11.3013135007
 30
0.0
 10
13.3778776944
 20
11.2851216103
 30
0.0
 10
13.3774846867
 20
11.2688901178
 30
0.0
 10
13.3775014847
 20
11.252628064
 30
0.0
 10
13.377925803
 20
11.2363444014
 30
0.0
 10
13.378755384
 20
11.2200481083
 30
0.0
 10
13.3799878837
 20
11.2037480762
 30
0.0
 10
13.3816213891
 20
11.1874524605
 30
0.0
 10
13.3836520889
 20
11.1711680184
 30
0.0
 10
13.3860753399
 20
11.154900215
 30
0.0
 10
13.3888867896
 20
11.1386539569
 30
0.0
 10
13.393152948
 20
11.1169977203
 30
0.0
 10
13.3994399267
 20
11.0899987597
 30
0.0
 10
13.4084559051
 20
11.0578140725
 30
0.0
 10
13.4189217442
 20
11.0258264947
 30
0.0
 10
13.4308042153
 20
10.9940604739
 30
0.0
 10
13.4440711741
 20
10.9625360696
 30
0.0
 10
13.4537722512
 20
10.9417908094
 30
0.0
 10
13.458838307
 20
10.9314672732
 30
0.0
  0
SPLINE
  5
2D8
100
AcDbEntity
  8
0
100
AcDbSpline
 62
7
  6
CONTINUOUS
 70
0
 71
3
 72
132
 73
128
 74
0
 42
0.0000001
 43
0.0000001
 44
0.0000000001
 40
0.0
 40
0.0
 40
0.0
 40
0.0
 40
0.0053539045
 40
0.0107124917
 40
0.0133951165
 40
0.0160806692
 40
0.0214626486
 40
0.0268632038
 40
0.0322868044
 40
0.0377378279
 40
0.0432205528
 40
0.0487391546
 40
0.0542976863
 40
0.0598999942
 40
0.0655497391
 40
0.071250419
 40
0.0770053711
 40
0.0828177754
 40
0.0886906573
 40
0.094626827
 40
0.1006288158
 40
0.1128382729
 40
0.1190510958
 40
0.1253381143
 40
0.1381402317
 40
0.1446589686
 40
0.151257253
 40
0.1579359831
 40
0.1646959258
 40
0.1715377265
 40
0.1784618652
 40
0.1854685492
 40
0.1925578364
 40
0.1997296722
 40
0.2069838991
 40
0.2143202643
 40
0.221738424
 40
0.2292378413
 40
0.2368177778
 40
0.2444774036
 40
0.2522158108
 40
0.2600320197
 40
0.267924986
 40
0.2758935826
 40
0.2839364839
 40
0.2920522501
 40
0.3002393825
 40
0.3084963297
 40
0.3168214923
 40
0.3252132279
 40
0.3336697955
 40
0.3421892985
 40
0.3507697843
 40
0.3594092611
 40
0.3681057028
 40
0.3768570529
 40
0.3856612216
 40
0.3945160099
 40
0.4034191327
 40
0.4123682756
 40
0.4213610996
 40
0.4303952448
 40
0.4394683336
 40
0.4485779538
 40
0.4577216063
 40
0.4668967572
 40
0.476100856
 40
0.4853313391
 40
0.4945856319
 40
0.5038611519
 40
0.5131552858
 40
0.5224653813
 40
0.5317887748
 40
0.5411227953
 40
0.5504647675
 40
0.5598120149
 40
0.5691618615
 40
0.5785116279
 40
0.5878586299
 40
0.5972001819
 40
0.6065335999
 40
0.6251649914
 40
0.6344579747
 40
0.6437322039
 40
0.652985068
 40
0.6622139634
 40
0.671416297
 40
0.6805894893
 40
0.6988379333
 40
0.7079086083
 40
0.7169402276
 40
0.7259303821
 40
0.7348766839
 40
0.7437767695
 40
0.7526283294
 40
0.7614291659
 40
0.7701771216
 40
0.7788700653
 40
0.7875058957
 40
0.7960825457
 40
0.8045979897
 40
0.8130503298
 40
0.8214377997
 40
0.8297586756
 40
0.8380112756
 40
0.846193965
 40
0.8543051615
 40
0.8623433578
 40
0.8703072067
 40
0.8781954513
 40
0.8860068919
 40
0.8937403917
 40
0.9013948837
 40
0.9089693785
 40
0.9164630928
 40
0.9238755635
 40
0.9312064351
 40
0.9384554392
 40
0.9456224019
 40
0.9527072521
 40
0.9597100142
 40
0.9666306057
 40
0.9734688863
 40
0.9802248195
 40
0.9868984863
 40
0.9934900963
 40
1.0
 40
1.0
 40
1.0
 40
1.0
 10
13.5681760034
 20
11.9727392414
 30
0.0
 10
13.5698508655
 20
11.9781594272
 30
0.0
 10
13.5733981563
 20
11.9889449879
 30
0.0
 10
13.5783174376
 20
12.0022622617
 30
0.0
 10
13.5825426089
 20
12.0128145551
 30
0.0
 10
13.5869664908
 20
12.0233119757
 30
0.0
 10
13.5928619303
 20
12.0363118953
 30
0.0
 10
13.6005083193
 20
12.0516916876
 30
0.0
 10
13.6087280487
 20
12.0668561846
 30
0.0
 10
13.6175174465
 20
12.0817987681
 30
0.0
 10
13.6268729097
 20
12.0965129869
 30
0.0
 10
13.6367907912
 20
12.1109923538
 30
0.0
 10
13.6472674458
 20
12.1252302386
 30
0.0
 10
13.6582977951
 20
12.1392208825
 30
0.0
 10
13.6698766334
 20
12.1529585609
 30
0.0
 10
13.6819987699
 20
12.1664375128
 30
0.0
 10
13.6946590126
 20
12.1796519761
 30
0.0
 10
13.7078521667
 20
12.1925962259
 30
0.0
 10
13.7215730175
 20
12.2052643481
 30
0.0
 10
13.7358160442
 20
12.2176508701
 30
0.0
 10
13.755605036
 20
12.2338754536
 30
0.0
 10
13.7763154142
 20
12.2494218143
 30
0.0
 10
13.7978747384
 20
12.2642821039
 30
0.0
 10
13.8203467538
 20
12.2789088151
 30
0.0
 10
13.8436611064
 20
12.2928179447
 30
0.0
 10
13.8677494174
 20
12.3060141593
 30
0.0
 10
13.8863844475
 20
12.3156479326
 30
0.0
 10
13.9054698607
 20
12.3249537092
 30
0.0
 10
13.9249979109
 20
12.3339275452
 30
0.0
 10
13.9449605162
 20
12.3425652673
 30
0.0
 10
13.9653493977
 20
12.3508627865
 30
0.0
 10
13.9861555236
 20
12.3588171217
 30
0.0
 10
14.0073697507
 20
12.3664251288
 30
0.0
 10
14.0289828942
 20
12.3736836768
 30
0.0
 10
14.0509857753
 20
12.3805896164
 30
0.0
 10
14.0733691987
 20
12.3871398363
 30
0.0
 10
14.0961238886
 20
12.393331041
 30
0.0
 10
14.1192401197
 20
12.3991605943
 30
0.0
 10
14.1427077589
 20
12.4046265282
 30
0.0
 10
14.1665166005
 20
12.4097266826
 30
0.0
 10
14.1906564211
 20
12.4144589399
 30
0.0
 10
14.2151170005
 20
12.4188211633
 30
0.0
 10
14.2398880897
 20
12.4228112377
 30
0.0
 10
14.2649592698
 20
12.4264269349
 30
0.0
 10
14.2903197252
 20
12.4296671185
 30
0.0
 10
14.3159584404
 20
12.4325307512
 30
0.0
 10
14.3418643511
 20
12.4350167534
 30
0.0
 10
14.3680263917
 20
12.437124049
 30
0.0
 10
14.3944334944
 20
12.4388515797
 30
0.0
 10
14.4210745304
 20
12.4401982057
 30
0.0
 10
14.4479381579
 20
12.4411630999
 30
0.0
 10
14.475012805
 20
12.4417463844
 30
0.0
 10
14.5022867816
 20
12.4419480309
 30
0.0
 10
14.529748382
 20
12.4417680513
 30
0.0
 10
14.5573858996
 20
12.4412064371
 30
0.0
 10
14.5851876225
 20
12.44026322
 30
0.0
 10
14.6131417319
 20
12.4389382948
 30
0.0
 10
14.6412362827
 20
12.437232397
 30
0.0
 10
14.6694592147
 20
12.4351466802
 30
0.0
 10
14.6977984038
 20
12.4326822001
 30
0.0
 10
14.7262417259
 20
12.4298400386
 30
0.0
 10
14.7547770561
 20
12.4266212736
 30
0.0
 10
14.7833922475
 20
12.4230269755
 30
0.0
 10
14.8120750544
 20
12.4190582742
 30
0.0
 10
14.8408132554
 20
12.4147173221
 30
0.0
 10
14.8695945445
 20
12.4100062414
 30
0.0
 10
14.8984066006
 20
12.4049271694
 30
0.0
 10
14.9272371009
 20
12.3994822321
 30
0.0
 10
14.956073728
 20
12.3936735874
 30
0.0
 10
14.9849041118
 20
12.3875032837
 30
0.0
 10
15.0137159266
 20
12.3809739024
 30
0.0
 10
15.0424969416
 20
12.3740886901
 30
0.0
 10
15.0712348695
 20
12.3668507673
 30
0.0
 10
15.099917429
 20
12.3592632918
 30
0.0
 10
15.128532335
 20
12.3513294056
 30
0.0
 10
15.15706731
 20
12.3430522767
 30
0.0
 10
15.1855100376
 20
12.3344349888
 30
0.0
 10
15.2138484696
 20
12.3254815324
 30
0.0
 10
15.2420705801
 20
12.3161960463
 30
0.0
 10
15.2701644255
 20
12.3065826011
 30
0.0
 10
15.3074117736
 20
12.2933414179
 30
0.0
 10
15.3443726713
 20
12.279455416
 30
0.0
 10
15.3810161222
 20
12.2649316743
 30
0.0
 10
15.40828883
 20
12.2537413278
 30
0.0
 10
15.435362142
 20
12.2422496731
 30
0.0
 10
15.4622245785
 20
12.2304616847
 30
0.0
 10
15.4888646624
 20
12.218382309
 30
0.0
 10
15.5240098272
 20
12.2019242026
 30
0.0
 10
15.5587229738
 20
12.1848784989
 30
0.0
 10
15.5929722486
 20
12.1672530705
 30
0.0
 10
15.6183308426
 20
12.1537954703
 30
0.0
 10
15.6434003534
 20
12.140079326
 30
0.0
 10
15.6681700265
 20
12.1261103716
 30
0.0
 10
15.6926290368
 20
12.1118943591
 30
0.0
 10
15.7167667048
 20
12.0974370216
 30
0.0
 10
15.7405729964
 20
12.0827449236
 30
0.0
 10
15.76403796
 20
12.0678245275
 30
0.0
 10
15.7871516675
 20
12.0526822992
 30
0.0
 10
15.809904184
 20
12.0373246933
 30
0.0
 10
15.8322855986
 20
12.0217581918
 30
0.0
 10
15.8542859997
 20
12.0059891146
 30
0.0
 10
15.8758959635
 20
11.9900241487
 30
0.0
 10
15.8971066473
 20
11.9738704273
 30
0.0
 10
15.9179092168
 20
11.9575349054
 30
0.0
 10
15.9382948651
 20
11.9410245662
 30
0.0
 10
15.9582547744
 20
11.9243463782
 30
0.0
 10
15.9777801625
 20
11.9075073207
 30
0.0
 10
15.996862262
 20
11.8905142133
 30
0.0
 10
16.0154931947
 20
11.8733746401
 30
0.0
 10
16.0336653169
 20
11.8560961967
 30
0.0
 10
16.0513709886
 20
11.838686421
 30
0.0
 10
16.0686025737
 20
11.821152854
 30
0.0
 10
16.0853524492
 20
11.8035030462
 30
0.0
 10
16.1016130281
 20
11.7857444014
 30
0.0
 10
16.1173771669
 20
11.7678842287
 30
0.0
 10
16.1326387271
 20
11.749930174
 30
0.0
 10
16.147391677
 20
11.7318895814
 30
0.0
 10
16.1616300316
 20
11.7137697966
 30
0.0
 10
16.1753477851
 20
11.6955781488
 30
0.0
 10
16.1885389735
 20
11.677322015
 30
0.0
 10
16.2011973
 20
11.6590088573
 30
0.0
 10
16.2133172339
 20
11.6406472121
 30
0.0
 10
16.2248936103
 20
11.622246316
 30
0.0
 10
16.2359210228
 20
11.6038154618
 30
0.0
 10
16.2463941234
 20
11.5853639152
 30
0.0
 10
16.2563074573
 20
11.5669011289
 30
0.0
 10
16.262578716
 20
11.554514002
 30
0.0
 10
16.2656175649
 20
11.548321479
 30
0.0
  0
SPLINE
  5
2D9
100
AcDbEntity
  8
03__ASM_ALL_CURVES
100
AcDbSpline
 62
8
  6
PHANTOM
 70
0
 71
3
 72
395
 73
391
 74
0
 42
0.0000001
 43
0.0000001
 44
0.0000000001
 40
0.0
 40
0.0
 40
0.0
 40
0.0
 40
0.015625
 40
0.03125
 40
0.046875
 40
0.0546875
 40
0.0625
 40
0.0703125
 40
0.078125
 40
0.0859375
 40
0.09375
 40
0.1015625
 40
0.10546875
 40
0.109375
 40
0.11328125
 40
0.1171875
 40
0.12109375
 40
0.125
 40
0.126953125
 40
0.12890625
 40
0.130859375
 40
0.1328125
 40
0.134765625
 40
0.1357421875
 40
0.13671875
 40
0.1376953125
 40
0.138671875
 40
0.1396484375
 40
0.1401367188
 40
0.140625
 40
0.1411132812
 40
0.1416015625
 40
0.1418457031
 40
0.1420898438
 40
0.1423339844
 40
0.1424560547
 40
0.142578125
 40
0.1426391602
 40
0.1427001953
 40
0.1427612305
 40
0.142791748
 40
0.1428222656
 40
0.1428375244
 40
0.1428527832
 40
0.1428833008
 40
0.1429138184
 40
0.1429443359
 40
0.1430053711
 40
0.1430664062
 40
0.1431884766
 40
0.1433105469
 40
0.1435546875
 40
0.1437988281
 40
0.1440429688
 40
0.14453125
 40
0.1450195312
 40
0.1455078125
 40
0.146484375
 40
0.1474609375
 40
0.1484375
 40
0.150390625
 40
0.15234375
 40
0.154296875
 40
0.15625
 40
0.158203125
 40
0.16015625
 40
0.1640625
 40
0.16796875
 40
0.171875
 40
0.1796875
 40
0.1875
 40
0.1953125
 40
0.203125
 40
0.2109375
 40
0.21875
 40
0.2265625
 40
0.234375
 40
0.2421875
 40
0.25
 40
0.25390625
 40
0.2578125
 40
0.26171875
 40
0.265625
 40
0.26953125
 40
0.271484375
 40
0.2734375
 40
0.275390625
 40
0.27734375
 40
0.2783203125
 40
0.279296875
 40
0.2802734375
 40
0.28125
 40
0.2822265625
 40
0.2827148438
 40
0.283203125
 40
0.2836914062
 40
0.2841796875
 40
0.2844238281
 40
0.2846679688
 40
0.2849121094
 40
0.28515625
 40
0.2852783203
 40
0.2854003906
 40
0.2855224609
 40
0.2855834961
 40
0.2856445312
 40
0.2856750488
 40
0.2856903076
 40
0.2857055664
 40
0.2857131958
 40
0.2857208252
 40
0.285736084
 40
0.2857666016
 40
0.2858276367
 40
0.2858886719
 40
0.2860107422
 40
0.2861328125
 40
0.2863769531
 40
0.2866210938
 40
0.287109375
 40
0.2875976562
 40
0.2880859375
 40
0.2885742188
 40
0.2890625
 40
0.2900390625
 40
0.291015625
 40
0.29296875
 40
0.294921875
 40
0.296875
 40
0.298828125
 40
0.30078125
 40
0.3046875
 40
0.30859375
 40
0.3125
 40
0.31640625
 40
0.3203125
 40
0.328125
 40
0.3359375
 40
0.34375
 40
0.359375
 40
0.3671875
 40
0.375
 40
0.3828125
 40
0.390625
 40
0.3984375
 40
0.40234375
 40
0.40625
 40
0.41015625
 40
0.4140625
 40
0.416015625
 40
0.41796875
 40
0.419921875
 40
0.421875
 40
0.4228515625
 40
0.423828125
 40
0.4248046875
 40
0.42578125
 40
0.4262695312
 40
0.4267578125
 40
0.4272460938
 40
0.427734375
 40
0.4279785156
 40
0.4281005859
 40
0.4282226562
 40
0.4283447266
 40
0.4284667969
 40
0.428527832
 40
0.4285583496
 40
0.4285736084
 40
0.4285888672
 40
0.4286193848
 40
0.4286499023
 40
0.4287109375
 40
0.4287719727
 40
0.4288330078
 40
0.4289550781
 40
0.4291992188
 40
0.4294433594
 40
0.4296875
 40
0.4299316406
 40
0.4301757812
 40
0.4306640625
 40
0.4311523438
 40
0.431640625
 40
0.4326171875
 40
0.43359375
 40
0.4345703125
 40
0.435546875
 40
0.4375
 40
0.439453125
 40
0.44140625
 40
0.443359375
 40
0.4453125
 40
0.44921875
 40
0.453125
 40
0.45703125
 40
0.4609375
 40
0.46484375
 40
0.46875
 40
0.4765625
 40
0.484375
 40
0.4921875
 40
0.5
 40
0.5078125
 40
0.515625
 40
0.5234375
 40
0.53125
 40
0.53515625
 40
0.5390625
 40
0.54296875
 40
0.546875
 40
0.55078125
 40
0.5546875
 40
0.556640625
 40
0.55859375
 40
0.560546875
 40
0.5625
 40
0.564453125
 40
0.5654296875
 40
0.56640625
 40
0.5673828125
 40
0.568359375
 40
0.5688476562
 40
0.5693359375
 40
0.5698242188
 40
0.5703125
 40
0.5705566406
 40
0.5708007812
 40
0.5710449219
 40
0.5711669922
 40
0.5712280273
 40
0.5712890625
 40
0.5713500977
 40
0.5713806152
 40
0.5714111328
 40
0.5714263916
 40
0.5714416504
 40
0.571472168
 40
0.5715332031
 40
0.5716552734
 40
0.5717773438
 40
0.5718994141
 40
0.5720214844
 40
0.572265625
 40
0.5727539062
 40
0.5732421875
 40
0.57421875
 40
0.5751953125
 40
0.576171875
 40
0.5771484375
 40
0.578125
 40
0.580078125
 40
0.58203125
 40
0.583984375
 40
0.5859375
 40
0.58984375
 40
0.59375
 40
0.59765625
 40
0.6015625
 40
0.609375
 40
0.6171875
 40
0.625
 40
0.6328125
 40
0.640625
 40
0.65625
 40
0.6640625
 40
0.671875
 40
0.6796875
 40
0.68359375
 40
0.6875
 40
0.69140625
 40
0.6953125
 40
0.69921875
 40
0.701171875
 40
0.703125
 40
0.705078125
 40
0.70703125
 40
0.708984375
 40
0.7099609375
 40
0.7109375
 40
0.7114257812
 40
0.7119140625
 40
0.7124023438
 40
0.712890625
 40
0.7133789062
 40
0.7136230469
 40
0.7138671875
 40
0.7139892578
 40
0.7141113281
 40
0.7141723633
 40
0.7142333984
 40
0.7142944336
 40
0.7143249512
 40
0.7143554688
 40
0.7144165039
 40
0.7144775391
 40
0.7145996094
 40
0.7147216797
 40
0.71484375
 40
0.7150878906
 40
0.7153320312
 40
0.7155761719
 40
0.7158203125
 40
0.7163085938
 40
0.716796875
 40
0.7177734375
 40
0.71875
 40
0.7197265625
 40
0.720703125
 40
0.72265625
 40
0.724609375
 40
0.7265625
 40
0.728515625
 40
0.73046875
 40
0.734375
 40
0.73828125
 40
0.7421875
 40
0.74609375
 40
0.75
 40
0.7578125
 40
0.765625
 40
0.7734375
 40
0.78125
 40
0.7890625
 40
0.796875
 40
0.8046875
 40
0.8125
 40
0.8203125
 40
0.828125
 40
0.83203125
 40
0.8359375
 40
0.83984375
 40
0.841796875
 40
0.84375
 40
0.845703125
 40
0.84765625
 40
0.849609375
 40
0.8515625
 40
0.8525390625
 40
0.853515625
 40
0.8544921875
 40
0.8549804688
 40
0.85546875
 40
0.8559570312
 40
0.8562011719
 40
0.8564453125
 40
0.8566894531
 40
0.8569335938
 40
0.8570556641
 40
0.8570861816
 40
0.8571166992
 40
0.8571472168
 40
0.8571624756
 40
0.8571777344
 40
0.8572387695
 40
0.8572998047
 40
0.857421875
 40
0.8575439453
 40
0.8576660156
 40
0.8579101562
 40
0.8581542969
 40
0.8583984375
 40
0.8588867188
 40
0.859375
 40
0.8598632812
 40
0.8603515625
 40
0.861328125
 40
0.8623046875
 40
0.86328125
 40
0.8642578125
 40
0.865234375
 40
0.8671875
 40
0.869140625
 40
0.87109375
 40
0.875
 40
0.87890625
 40
0.8828125
 40
0.88671875
 40
0.890625
 40
0.89453125
 40
0.8984375
 40
0.90625
 40
0.9140625
 40
0.921875
 40
0.9296875
 40
0.9375
 40
0.953125
 40
0.96875
 40
0.984375
 40
1.0
 40
1.0
 40
1.0
 40
1.0
 10
18.004030202
 20
13.2618490938
 30
0.0
 10
17.9951346013
 20
13.2754444076
 30
0.0
 10
17.9773433998
 20
13.3026350353
 30
0.0
 10
17.9506565976
 20
13.3434209768
 30
0.0
 10
17.9284175958
 20
13.3774092614
 30
0.0
 10
17.9106263943
 20
13.4045998891
 30
0.0
 10
17.8972829932
 20
13.4249928599
 30
0.0
 10
17.8839395921
 20
13.4453858306
 30
0.0
 10
17.870596191
 20
13.4657788014
 30
0.0
 10
17.8572527899
 20
13.4861717722
 30
0.0
 10
17.8439093888
 20
13.5065647429
 30
0.0
 10
17.8327898879
 20
13.5235588852
 30
0.0
 10
17.8238942872
 20
13.5371541991
 30
0.0
 10
17.8172225867
 20
13.5473506844
 30
0.0
 10
17.8105508861
 20
13.5575471698
 30
0.0
 10
17.8038791856
 20
13.5677436552
 30
0.0
 10
17.797207485
 20
13.5779401406
 30
0.0
 10
17.7916477346
 20
13.5864372117
 30
0.0
 10
17.7871999342
 20
13.5932348687
 30
0.0
 10
17.7838640839
 20
13.5983331113
 30
0.0
 10
17.7805282336
 20
13.603431354
 30
0.0
 10
17.7771923834
 20
13.6085295967
 30
0.0
 10
17.7744125081
 20
13.6127781323
 30
0.0
 10
17.772188608
 20
13.6161769608
 30
0.0
 10
17.7705206828
 20
13.6187260821
 30
0.0
 10
17.7688527577
 20
13.6212752034
 30
0.0
 10
17.7671848325
 20
13.6238243248
 30
0.0
 10
17.7657948949
 20
13.6259485926
 30
0.0
 10
17.7646829448
 20
13.6276480068
 30
0.0
 10
17.7638489823
 20
13.6289225675
 30
0.0
 10
17.7630150197
 20
13.6301971282
 30
0.0
 10
17.7623200509
 20
13.631259262
 30
0.0
 10
17.7617640758
 20
13.6321089692
 30
0.0
 10
17.7613470948
 20
13.6327462495
 30
0.0
 10
17.7609996096
 20
13.6332773164
 30
0.0
 10
17.7607216236
 20
13.6337021701
 30
0.0
 10
17.7605478775
 20
13.6339677032
 30
0.0
 10
17.7604088917
 20
13.6341801308
 30
0.0
 10
17.7603046221
 20
13.6343394483
 30
0.0
 10
17.760217827
 20
13.6344722232
 30
0.0
 10
17.760148175
 20
13.6345784199
 30
0.0
 10
17.7601051342
 20
13.6346448458
 30
0.0
 10
17.7600695755
 20
13.6346978652
 30
0.0
 10
17.7600381275
 20
13.6347513274
 30
0.0
 10
17.7599693951
 20
13.6348149861
 30
0.0
 10
17.7598937946
 20
13.6348921175
 30
0.0
 10
17.7597905915
 20
13.6349947005
 30
0.0
 10
17.7596624103
 20
13.6351230179
 30
0.0
 10
17.7594568605
 20
13.6353282762
 30
0.0
 10
17.7592000807
 20
13.635584866
 30
0.0
 10
17.7587891451
 20
13.6359954003
 30
0.0
 10
17.7582755057
 20
13.6365085714
 30
0.0
 10
17.7576591255
 20
13.6371243753
 30
0.0
 10
17.7568372898
 20
13.6379454477
 30
0.0
 10
17.7558099937
 20
13.638971788
 30
0.0
 10
17.7545772389
 20
13.6402033965
 30
0.0
 10
17.7529335657
 20
13.641845541
 30
0.0
 10
17.7508789742
 20
13.6438982218
 30
0.0
 10
17.7484134644
 20
13.6463614386
 30
0.0
 10
17.7451261181
 20
13.6496457278
 30
0.0
 10
17.7410169351
 20
13.6537510892
 30
0.0
 10
17.7360859156
 20
13.658677523
 30
0.0
 10
17.731154896
 20
13.6636039567
 30
0.0
 10
17.7262238765
 20
13.6685303904
 30
0.0
 10
17.7212928569
 20
13.6734568242
 30
0.0
 10
17.7147181642
 20
13.6800254025
 30
0.0
 10
17.7064997982
 20
13.6882361253
 30
0.0
 10
17.6966377591
 20
13.6980889928
 30
0.0
 10
17.6834883737
 20
13.7112261494
 30
0.0
 10
17.6670516418
 20
13.7276475952
 30
0.0
 10
17.6473275636
 20
13.7473533301
 30
0.0
 10
17.6276034854
 20
13.767059065
 30
0.0
 10
17.6078794072
 20
13.7867648
 30
0.0
 10
17.588155329
 20
13.8064705349
 30
0.0
 10
17.5684312508
 20
13.8261762698
 30
0.0
 10
17.5487071726
 20
13.8458820047
 30
0.0
 10
17.5289830943
 20
13.8655877396
 30
0.0
 10
17.5092590161
 20
13.8852934746
 30
0.0
 10
17.4928222843
 20
13.9017149203
 30
0.0
 10
17.4796728988
 20
13.914852077
 30
0.0
 10
17.4698108597
 20
13.9247049444
 30
0.0
 10
17.4599488206
 20
13.9345578119
 30
0.0
 10
17.4500867815
 20
13.9444106793
 30
0.0
 10
17.4418684156
 20
13.9526214022
 30
0.0
 10
17.4352937228
 20
13.9591899805
 30
0.0
 10
17.4303627033
 20
13.9641164143
 30
0.0
 10
17.4254316837
 20
13.969042848
 30
0.0
 10
17.4213225008
 20
13.9731482094
 30
0.0
 10
17.4180351544
 20
13.9764324986
 30
0.0
 10
17.4155696446
 20
13.9788957154
 30
0.0
 10
17.4131041348
 20
13.9813589323
 30
0.0
 10
17.4106386251
 20
13.9838221492
 30
0.0
 10
17.4085840336
 20
13.9858748299
 30
0.0
 10
17.4069403604
 20
13.9875169745
 30
0.0
 10
17.4057076055
 20
13.9887485829
 30
0.0
 10
17.4044748506
 20
13.9899801913
 30
0.0
 10
17.4034475549
 20
13.9910065317
 30
0.0
 10
17.4026257183
 20
13.991827604
 30
0.0
 10
17.4020093408
 20
13.9924434082
 30
0.0
 10
17.4013929637
 20
13.9930592125
 30
0.0
 10
17.4008793146
 20
13.9935723823
 30
0.0
 10
17.4004683988
 20
13.9939829193
 30
0.0
 10
17.4001602026
 20
13.9942908186
 30
0.0
 10
17.3999034021
 20
13.9945474126
 30
0.0
 10
17.3996978951
 20
13.9947526625
 30
0.0
 10
17.399569605
 20
13.9948810014
 30
0.0
 10
17.3994794977
 20
13.9949707229
 30
0.0
 10
17.3994284838
 20
13.9950221733
 30
0.0
 10
17.3993954827
 20
13.995053905
 30
0.0
 10
17.3993716445
 20
13.9950802647
 30
0.0
 10
17.3993384497
 20
13.9951030666
 30
0.0
 10
17.3992819897
 20
13.99514359
 30
0.0
 10
17.399167912
 20
13.9952241966
 30
0.0
 10
17.3990055478
 20
13.9953395786
 30
0.0
 10
17.3987454276
 20
13.9955240614
 30
0.0
 10
17.398420393
 20
13.9957547088
 30
0.0
 10
17.3979002729
 20
13.9961237202
 30
0.0
 10
17.3972501449
 20
13.9965849928
 30
0.0
 10
17.3962099278
 20
13.9973230243
 30
0.0
 10
17.3949096607
 20
13.9982455652
 30
0.0
 10
17.3933493383
 20
13.9993526137
 30
0.0
 10
17.3917890164
 20
14.0004596623
 30
0.0
 10
17.3902286944
 20
14.0015667109
 30
0.0
 10
17.3881482651
 20
14.0030427757
 30
0.0
 10
17.3855477284
 20
14.0048878567
 30
0.0
 10
17.3813868698
 20
14.0078399862
 30
0.0
 10
17.3761857965
 20
14.0115301482
 30
0.0
 10
17.3699445085
 20
14.0159583426
 30
0.0
 10
17.3637032205
 20
14.0203865369
 30
0.0
 10
17.3574619325
 20
14.0248147313
 30
0.0
 10
17.3491402152
 20
14.0307189905
 30
0.0
 10
17.3387380686
 20
14.0380993144
 30
0.0
 10
17.3262554926
 20
14.0469557031
 30
0.0
 10
17.3137729167
 20
14.0558120919
 30
0.0
 10
17.3012903407
 20
14.0646684806
 30
0.0
 10
17.2846469061
 20
14.0764769989
 30
0.0
 10
17.2638426128
 20
14.0912376468
 30
0.0
 10
17.2388774609
 20
14.1089504243
 30
0.0
 10
17.2055905917
 20
14.1325674609
 30
0.0
 10
17.1723037225
 20
14.1561844975
 30
0.0
 10
17.1390168533
 20
14.1798015341
 30
0.0
 10
17.1140517014
 20
14.1975143116
 30
0.0
 10
17.0890865494
 20
14.2152270891
 30
0.0
 10
17.0641213975
 20
14.2329398665
 30
0.0
 10
17.0433171043
 20
14.2477005144
 30
0.0
 10
17.0266736697
 20
14.2595090327
 30
0.0
 10
17.0141910937
 20
14.2683654215
 30
0.0
 10
17.0017085177
 20
14.2772218102
 30
0.0
 10
16.9913063711
 20
14.2846021342
 30
0.0
 10
16.9829846538
 20
14.2905063933
 30
0.0
 10
16.9767433658
 20
14.2949345877
 30
0.0
 10
16.9705020778
 20
14.299362782
 30
0.0
 10
16.9653010045
 20
14.303052944
 30
0.0
 10
16.9611401459
 20
14.3060050736
 30
0.0
 10
16.9580195019
 20
14.3082191708
 30
0.0
 10
16.9548988579
 20
14.310433268
 30
0.0
 10
16.9522983213
 20
14.312278349
 30
0.0
 10
16.9502178919
 20
14.3137544137
 30
0.0
 10
16.9486575701
 20
14.3148614625
 30
0.0
 10
16.9470972473
 20
14.3159685105
 30
0.0
 10
16.9457969815
 20
14.3168910528
 30
0.0
 10
16.9448867891
 20
14.3175368279
 30
0.0
 10
16.9443666891
 20
14.3179058493
 30
0.0
 10
16.9439765863
 20
14.3181825954
 30
0.0
 10
16.9435865895
 20
14.3184594177
 30
0.0
 10
16.943261262
 20
14.3186898658
 30
0.0
 10
16.9430341797
 20
14.3188516441
 30
0.0
 10
16.9429197548
 20
14.3189318985
 30
0.0
 10
16.9428557917
 20
14.31897878
 30
0.0
 10
16.9427775457
 20
14.3190154023
 30
0.0
 10
16.9426846287
 20
14.319064693
 30
0.0
 10
16.9425332282
 20
14.3191415949
 30
0.0
 10
16.9423449154
 20
14.3192383957
 30
0.0
 10
16.9421185386
 20
14.3193542685
 30
0.0
 10
16.9418168429
 20
14.319508866
 30
0.0
 10
16.9412888102
 20
14.3197793649
 30
0.0
 10
16.9405345118
 20
14.3201658164
 30
0.0
 10
16.9396293392
 20
14.3206295477
 30
0.0
 10
16.9387241705
 20
14.3210932818
 30
0.0
 10
16.9378190007
 20
14.3215570152
 30
0.0
 10
16.9366121081
 20
14.3221753265
 30
0.0
 10
16.9351034921
 20
14.3229482157
 30
0.0
 10
16.9332931531
 20
14.3238756827
 30
0.0
 10
16.9308793676
 20
14.3251123054
 30
0.0
 10
16.9278621358
 20
14.3266580837
 30
0.0
 10
16.9242414577
 20
14.3285130177
 30
0.0
 10
16.9206207795
 20
14.3303679517
 30
0.0
 10
16.9157932086
 20
14.3328411971
 30
0.0
 10
16.909758745
 20
14.3359327538
 30
0.0
 10
16.9025173887
 20
14.3396426218
 30
0.0
 10
16.8952760323
 20
14.3433524898
 30
0.0
 10
16.888034676
 20
14.3470623579
 30
0.0
 10
16.8783795342
 20
14.3520088486
 30
0.0
 10
16.866310607
 20
14.3581919619
 30
0.0
 10
16.8518278943
 20
14.365611698
 30
0.0
 10
16.8373451817
 20
14.373031434
 30
0.0
 10
16.822862469
 20
14.3804511701
 30
0.0
 10
16.8083797563
 20
14.3878709061
 30
0.0
 10
16.7890694728
 20
14.3977638875
 30
0.0
 10
16.7649316184
 20
14.4101301143
 30
0.0
 10
16.735966193
 20
14.4249695864
 30
0.0
 10
16.7070007677
 20
14.4398090585
 30
0.0
 10
16.6780353424
 20
14.4546485306
 30
0.0
 10
16.649069917
 20
14.4694880027
 30
0.0
 10
16.6201044917
 20
14.4843274748
 30
0.0
 10
16.5911390664
 20
14.4991669469
 30
0.0
 10
16.5670012119
 20
14.5115331736
 30
0.0
 10
16.5476909284
 20
14.521426155
 30
0.0
 10
16.5332082157
 20
14.528845891
 30
0.0
 10
16.5187255031
 20
14.5362656271
 30
0.0
 10
16.5042427904
 20
14.5436853631
 30
0.0
 10
16.4897600777
 20
14.5511050992
 30
0.0
 10
16.4776911505
 20
14.5572882126
 30
0.0
 10
16.4680360087
 20
14.5622347033
 30
0.0
 10
16.4607946524
 20
14.5659445713
 30
0.0
 10
16.4535532961
 20
14.5696544393
 30
0.0
 10
16.4463119397
 20
14.5733643073
 30
0.0
 10
16.4402774761
 20
14.576455864
 30
0.0
 10
16.4354499053
 20
14.5789291094
 30
0.0
 10
16.4318292271
 20
14.5807840434
 30
0.0
 10
16.4282085489
 20
14.5826389774
 30
0.0
 10
16.4251913171
 20
14.5841847558
 30
0.0
 10
16.4227775317
 20
14.5854213784
 30
0.0
 10
16.4209671926
 20
14.5863488455
 30
0.0
 10
16.4191568534
 20
14.5872763123
 30
0.0
 10
16.4176482378
 20
14.5880492019
 30
0.0
 10
16.4164413445
 20
14.5886675124
 30
0.0
 10
16.4155361769
 20
14.5891312486
 30
0.0
 10
16.4147818628
 20
14.5895176846
 30
0.0
 10
16.4142538582
 20
14.5897882112
 30
0.0
 10
16.4139521174
 20
14.5899427643
 30
0.0
 10
16.4137258791
 20
14.5900587738
 30
0.0
 10
16.413537133
 20
14.5901551466
 30
0.0
 10
16.4133866164
 20
14.5902329219
 30
0.0
 10
16.41329145
 20
14.5902799895
 30
0.0
 10
16.4132178212
 20
14.5903211751
 30
0.0
 10
16.4131350497
 20
14.5903494682
 30
0.0
 10
16.4129917932
 20
14.5904012284
 30
0.0
 10
16.4127041486
 20
14.5905031532
 30
0.0
 10
16.4122938195
 20
14.5906495943
 30
0.0
 10
16.4118011709
 20
14.590824966
 30
0.0
 10
16.4113085902
 20
14.5910004334
 30
0.0
 10
16.4106517922
 20
14.5912343566
 30
0.0
 10
16.4095024068
 20
14.5916437376
 30
0.0
 10
16.4078604219
 20
14.5922285596
 30
0.0
 10
16.4052332492
 20
14.5931642793
 30
0.0
 10
16.4019492823
 20
14.5943339274
 30
0.0
 10
16.3980085224
 20
14.5957375058
 30
0.0
 10
16.3940677624
 20
14.597141084
 30
0.0
 10
16.3901270025
 20
14.5985446622
 30
0.0
 10
16.3848726558
 20
14.6004160998
 30
0.0
 10
16.3783047226
 20
14.6027553969
 30
0.0
 10
16.3704232026
 20
14.6055625533
 30
0.0
 10
16.3625416827
 20
14.6083697098
 30
0.0
 10
16.3520329895
 20
14.612112585
 30
0.0
 10
16.3388971229
 20
14.6167911791
 30
0.0
 10
16.3231340831
 20
14.622405492
 30
0.0
 10
16.3073710432
 20
14.6280198049
 30
0.0
 10
16.2863536568
 20
14.6355055555
 30
0.0
 10
16.2600819237
 20
14.6448627436
 30
0.0
 10
16.228555844
 20
14.6560913694
 30
0.0
 10
16.1970297643
 20
14.6673199952
 30
0.0
 10
16.1655036846
 20
14.678548621
 30
0.0
 10
16.1234689117
 20
14.6935201221
 30
0.0
 10
16.0814341388
 20
14.7084916232
 30
0.0
 10
16.0393993658
 20
14.7234631242
 30
0.0
 10
16.0078732861
 20
14.73469175
 30
0.0
 10
15.981601553
 20
14.7440489382
 30
0.0
 10
15.9605841666
 20
14.7515346887
 30
0.0
 10
15.9448211267
 20
14.7571490016
 30
0.0
 10
15.9290580869
 20
14.7627633145
 30
0.0
 10
15.913295047
 20
14.7683776274
 30
0.0
 10
15.9001591805
 20
14.7730562215
 30
0.0
 10
15.8896504873
 20
14.7767990968
 30
0.0
 10
15.8817689673
 20
14.7796062532
 30
0.0
 10
15.8738874474
 20
14.7824134097
 30
0.0
 10
15.8660059275
 20
14.7852205661
 30
0.0
 10
15.8594379942
 20
14.7875598632
 30
0.0
 10
15.8541836476
 20
14.7894313008
 30
0.0
 10
15.850899681
 20
14.7906009494
 30
0.0
 10
15.8482725076
 20
14.7915366681
 30
0.0
 10
15.8463021277
 20
14.7922384575
 30
0.0
 10
15.8443317475
 20
14.7929402456
 30
0.0
 10
15.8423613684
 20
14.7936420383
 30
0.0
 10
15.8407193824
 20
14.7942268515
 30
0.0
 10
15.8394058012
 20
14.7946947335
 30
0.0
 10
15.8385847958
 20
14.794987088
 30
0.0
 10
15.8379280307
 20
14.7952211361
 30
0.0
 10
15.837517463
 20
14.7953670407
 30
0.0
 10
15.8371892138
 20
14.7954846243
 30
0.0
 10
15.8369424657
 20
14.7955704575
 30
0.0
 10
15.8367386277
 20
14.7956494754
 30
0.0
 10
15.8365682254
 20
14.7956819319
 30
0.0
 10
15.8363991036
 20
14.7957197599
 30
0.0
 10
15.8361872629
 20
14.7957652057
 30
0.0
 10
15.8358485628
 20
14.795838947
 30
0.0
 10
15.8354251036
 20
14.7959307708
 30
0.0
 10
15.8349169886
 20
14.7960411104
 30
0.0
 10
15.8342394893
 20
14.7961881772
 30
0.0
 10
15.8333926195
 20
14.7963720287
 30
0.0
 10
15.8323763739
 20
14.7965926427
 30
0.0
 10
15.8313601287
 20
14.7968132589
 30
0.0
 10
15.8300051351
 20
14.797107413
 30
0.0
 10
15.8283113931
 20
14.7974751059
 30
0.0
 10
15.8256014058
 20
14.7980634144
 30
0.0
 10
15.8222139217
 20
14.7987988001
 30
0.0
 10
15.8181489408
 20
14.7996812628
 30
0.0
 10
15.8140839599
 20
14.8005637256
 30
0.0
 10
15.8086639854
 20
14.8017403427
 30
0.0
 10
15.8018890172
 20
14.803211114
 30
0.0
 10
15.7937590554
 20
14.8049760396
 30
0.0
 10
15.7856290936
 20
14.8067409651
 30
0.0
 10
15.7774991318
 20
14.8085058907
 30
0.0
 10
15.7666591828
 20
14.8108591248
 30
0.0
 10
15.7531092464
 20
14.8138006674
 30
0.0
 10
15.7368493228
 20
14.8173305186
 30
0.0
 10
15.7205893992
 20
14.8208603697
 30
0.0
 10
15.7043294756
 20
14.8243902209
 30
0.0
 10
15.6826495775
 20
14.8290966891
 30
0.0
 10
15.6555497048
 20
14.8349797744
 30
0.0
 10
15.6230298576
 20
14.8420394767
 30
0.0
 10
15.5905100105
 20
14.849099179
 30
0.0
 10
15.5579901633
 20
14.8561588813
 30
0.0
 10
15.5254703161
 20
14.8632185836
 30
0.0
 10
15.4929504689
 20
14.8702782859
 30
0.0
 10
15.4604306217
 20
14.8773379882
 30
0.0
 10
15.4279107745
 20
14.8843976905
 30
0.0
 10
15.3953909273
 20
14.8914573928
 30
0.0
 10
15.3682910546
 20
14.897340478
 30
0.0
 10
15.3466111565
 20
14.9020469462
 30
0.0
 10
15.3303512329
 20
14.9055767974
 30
0.0
 10
15.3168012966
 20
14.90851834
 30
0.0
 10
15.3059613475
 20
14.9108715741
 30
0.0
 10
15.2978313857
 20
14.9126364997
 30
0.0
 10
15.2897014239
 20
14.9144014252
 30
0.0
 10
15.2815714621
 20
14.9161663508
 30
0.0
 10
15.2734415003
 20
14.9179312764
 30
0.0
 10
15.2666665322
 20
14.9194020477
 30
0.0
 10
15.2612465576
 20
14.9205786647
 30
0.0
 10
15.2571815767
 20
14.9214611276
 30
0.0
 10
15.2537940927
 20
14.9221965131
 30
0.0
 10
15.2510841054
 20
14.922784822
 30
0.0
 10
15.249051615
 20
14.9232260522
 30
0.0
 10
15.2473578727
 20
14.9235937488
 30
0.0
 10
15.2460028795
 20
14.9238878953
 30
0.0
 10
15.244986633
 20
14.9241085347
 30
0.0
 10
15.2439703926
 20
14.9243290612
 30
0.0
 10
15.2431235066
 20
14.9245131852
 30
0.0
 10
15.2425730653
 20
14.9246322255
 30
0.0
 10
15.2423189791
 20
14.92468784
 30
0.0
 10
15.2421920033
 20
14.9247144
 30
0.0
 10
15.2420859719
 20
14.9247405788
 30
0.0
 10
15.2420020448
 20
14.9247448736
 30
0.0
 10
15.2418759231
 20
14.9247555975
 30
0.0
 10
15.2416868373
 20
14.9247698897
 30
0.0
 10
15.2413506126
 20
14.9247966348
 30
0.0
 10
15.2409303566
 20
14.9248296075
 30
0.0
 10
15.2404260387
 20
14.924869371
 30
0.0
 10
15.2397536186
 20
14.9249223205
 30
0.0
 10
15.2389130922
 20
14.9249885309
 30
0.0
 10
15.2379044611
 20
14.9250679733
 30
0.0
 10
15.2365596194
 20
14.9251739
 30
0.0
 10
15.2348785673
 20
14.9253063072
 30
0.0
 10
15.2328613048
 20
14.9254651963
 30
0.0
 10
15.2308440423
 20
14.9256240853
 30
0.0
 10
15.228154359
 20
14.9258359374
 30
0.0
 10
15.2247922548
 20
14.9261007524
 30
0.0
 10
15.2207577298
 20
14.9264185305
 30
0.0
 10
15.2167232048
 20
14.9267363086
 30
0.0
 10
15.2126886799
 20
14.9270540866
 30
0.0
 10
15.2073093132
 20
14.9274777907
 30
0.0
 10
15.2005851049
 20
14.9280074208
 30
0.0
 10
15.1925160549
 20
14.9286429769
 30
0.0
 10
15.1817573216
 20
14.9294903851
 30
0.0
 10
15.1683089049
 20
14.9305496453
 30
0.0
 10
15.1521708049
 20
14.9318207575
 30
0.0
 10
15.1360327049
 20
14.9330918698
 30
0.0
 10
15.119894605
 20
14.934362982
 30
0.0
 10
15.103756505
 20
14.9356340943
 30
0.0
 10
15.087618405
 20
14.9369052065
 30
0.0
 10
15.0661009383
 20
14.9386000228
 30
0.0
 10
15.039204105
 20
14.9407185432
 30
0.0
 10
15.0069279051
 20
14.9432607677
 30
0.0
 10
14.9746517051
 20
14.9458029922
 30
0.0
 10
14.9423755051
 20
14.9483452167
 30
0.0
 10
14.8993405718
 20
14.9517348493
 30
0.0
 10
14.8455469052
 20
14.9559718901
 30
0.0
 10
14.7809945053
 20
14.9610563391
 30
0.0
 10
14.7164421054
 20
14.966140788
 30
0.0
 10
14.6734071721
 20
14.9695304207
 30
0.0
 10
14.6518897054
 20
14.971225237
 30
0.0
  0
LINE
  5
2DA
100
AcDbEntity
  8
03__ASM_ALL_CURVES
100
AcDbLine
 62
8
  6
PHANTOM
 10
14.6518897947
 20
14.9712252365
 11
14.6126850707
 21
14.971225393
  0
SPLINE
  5
2DB
100
AcDbEntity
  8
03__ASM_ALL_CURVES
100
AcDbSpline
 62
8
  6
PHANTOM
 70
0
 71
3
 72
416
 73
412
 74
0
 42
0.0000001
 43
0.0000001
 44
0.0000000001
 40
0.0
 40
0.0
 40
0.0
 40
0.0
 40
0.015625
 40
0.03125
 40
0.046875
 40
0.0625
 40
0.0703125
 40
0.078125
 40
0.0859375
 40
0.09375
 40
0.1015625
 40
0.10546875
 40
0.109375
 40
0.11328125
 40
0.1171875
 40
0.12109375
 40
0.125
 40
0.126953125
 40
0.12890625
 40
0.130859375
 40
0.1328125
 40
0.134765625
 40
0.1357421875
 40
0.13671875
 40
0.1376953125
 40
0.138671875
 40
0.1396484375
 40
0.1401367188
 40
0.140625
 40
0.1411132812
 40
0.1416015625
 40
0.1418457031
 40
0.1420898438
 40
0.1423339844
 40
0.1424560547
 40
0.142578125
 40
0.1426391602
 40
0.1427001953
 40
0.1427612305
 40
0.1428222656
 40
0.1428375244
 40
0.1428527832
 40
0.1428833008
 40
0.1429138184
 40
0.1429443359
 40
0.1430664062
 40
0.1431884766
 40
0.1433105469
 40
0.1435546875
 40
0.1437988281
 40
0.1440429688
 40
0.14453125
 40
0.1450195312
 40
0.1455078125
 40
0.146484375
 40
0.1474609375
 40
0.1484375
 40
0.150390625
 40
0.15234375
 40
0.154296875
 40
0.15625
 40
0.158203125
 40
0.16015625
 40
0.1640625
 40
0.16796875
 40
0.171875
 40
0.1796875
 40
0.1875
 40
0.1953125
 40
0.203125
 40
0.2109375
 40
0.21875
 40
0.2265625
 40
0.234375
 40
0.2421875
 40
0.25
 40
0.25390625
 40
0.2578125
 40
0.26171875
 40
0.265625
 40
0.26953125
 40
0.271484375
 40
0.2734375
 40
0.275390625
 40
0.27734375
 40
0.2783203125
 40
0.279296875
 40
0.2802734375
 40
0.28125
 40
0.2822265625
 40
0.2827148438
 40
0.283203125
 40
0.2836914062
 40
0.2841796875
 40
0.2844238281
 40
0.2846679688
 40
0.2849121094
 40
0.28515625
 40
0.2852783203
 40
0.2854003906
 40
0.2855224609
 40
0.2855834961
 40
0.2856445312
 40
0.2856750488
 40
0.2856903076
 40
0.2857055664
 40
0.2857131958
 40
0.2857208252
 40
0.285736084
 40
0.2857666016
 40
0.2858276367
 40
0.2858886719
 40
0.2860107422
 40
0.2861328125
 40
0.2863769531
 40
0.2866210938
 40
0.287109375
 40
0.2875976562
 40
0.2880859375
 40
0.2885742188
 40
0.2890625
 40
0.2900390625
 40
0.291015625
 40
0.29296875
 40
0.294921875
 40
0.296875
 40
0.298828125
 40
0.30078125
 40
0.3046875
 40
0.30859375
 40
0.3125
 40
0.31640625
 40
0.3203125
 40
0.32421875
 40
0.328125
 40
0.3359375
 40
0.34375
 40
0.359375
 40
0.3671875
 40
0.375
 40
0.3828125
 40
0.390625
 40
0.3984375
 40
0.40234375
 40
0.40625
 40
0.41015625
 40
0.4140625
 40
0.416015625
 40
0.41796875
 40
0.419921875
 40
0.4208984375
 40
0.421875
 40
0.4228515625
 40
0.423828125
 40
0.4248046875
 40
0.42578125
 40
0.4262695312
 40
0.4267578125
 40
0.4272460938
 40
0.427734375
 40
0.4279785156
 40
0.4281005859
 40
0.4282226562
 40
0.4283447266
 40
0.4284057617
 40
0.4284667969
 40
0.428527832
 40
0.4285583496
 40
0.4285736084
 40
0.4285888672
 40
0.4286193848
 40
0.4286499023
 40
0.4287109375
 40
0.4287719727
 40
0.4288330078
 40
0.4289550781
 40
0.4290771484
 40
0.4291992188
 40
0.4294433594
 40
0.4296875
 40
0.4299316406
 40
0.4301757812
 40
0.4306640625
 40
0.4311523438
 40
0.431640625
 40
0.4326171875
 40
0.43359375
 40
0.4345703125
 40
0.435546875
 40
0.4375
 40
0.439453125
 40
0.44140625
 40
0.443359375
 40
0.4453125
 40
0.44921875
 40
0.453125
 40
0.45703125
 40
0.4609375
 40
0.46484375
 40
0.46875
 40
0.4765625
 40
0.484375
 40
0.4921875
 40
0.5
 40
0.5078125
 40
0.515625
 40
0.5234375
 40
0.53125
 40
0.53515625
 40
0.5390625
 40
0.54296875
 40
0.546875
 40
0.55078125
 40
0.5546875
 40
0.556640625
 40
0.55859375
 40
0.560546875
 40
0.5625
 40
0.564453125
 40
0.5654296875
 40
0.56640625
 40
0.5673828125
 40
0.568359375
 40
0.5688476562
 40
0.5693359375
 40
0.5698242188
 40
0.5700683594
 40
0.5703125
 40
0.5705566406
 40
0.5708007812
 40
0.5709228516
 40
0.5710449219
 40
0.5711669922
 40
0.5712280273
 40
0.5712890625
 40
0.5713500977
 40
0.5713806152
 40
0.5714111328
 40
0.5714263916
 40
0.5714416504
 40
0.571472168
 40
0.5715332031
 40
0.5715942383
 40
0.5716552734
 40
0.5717773438
 40
0.5718994141
 40
0.5720214844
 40
0.572265625
 40
0.5727539062
 40
0.5732421875
 40
0.5737304688
 40
0.57421875
 40
0.5751953125
 40
0.576171875
 40
0.5771484375
 40
0.578125
 40
0.5791015625
 40
0.580078125
 40
0.58203125
 40
0.583984375
 40
0.5859375
 40
0.58984375
 40
0.59375
 40
0.59765625
 40
0.6015625
 40
0.609375
 40
0.6171875
 40
0.625
 40
0.6328125
 40
0.640625
 40
0.65625
 40
0.6640625
 40
0.671875
 40
0.67578125
 40
0.6796875
 40
0.68359375
 40
0.6875
 40
0.69140625
 40
0.6953125
 40
0.69921875
 40
0.701171875
 40
0.703125
 40
0.705078125
 40
0.70703125
 40
0.708984375
 40
0.7099609375
 40
0.7109375
 40
0.7114257812
 40
0.7119140625
 40
0.7124023438
 40
0.712890625
 40
0.7133789062
 40
0.7136230469
 40
0.7138671875
 40
0.7139892578
 40
0.7141113281
 40
0.7141723633
 40
0.7142333984
 40
0.714263916
 40
0.7142791748
 40
0.7142868042
 40
0.7142944336
 40
0.7143096924
 40
0.7143249512
 40
0.7143554688
 40
0.7144165039
 40
0.7144775391
 40
0.7145996094
 40
0.7147216797
 40
0.71484375
 40
0.7150878906
 40
0.7153320312
 40
0.7155761719
 40
0.7158203125
 40
0.7163085938
 40
0.716796875
 40
0.7172851562
 40
0.7177734375
 40
0.71875
 40
0.7197265625
 40
0.720703125
 40
0.7216796875
 40
0.72265625
 40
0.724609375
 40
0.7265625
 40
0.728515625
 40
0.73046875
 40
0.732421875
 40
0.734375
 40
0.73828125
 40
0.7421875
 40
0.74609375
 40
0.75
 40
0.7578125
 40
0.765625
 40
0.7734375
 40
0.78125
 40
0.7890625
 40
0.796875
 40
0.8046875
 40
0.8125
 40
0.8203125
 40
0.828125
 40
0.83203125
 40
0.8359375
 40
0.83984375
 40
0.841796875
 40
0.84375
 40
0.845703125
 40
0.84765625
 40
0.849609375
 40
0.8515625
 40
0.8525390625
 40
0.853515625
 40
0.8544921875
 40
0.8549804688
 40
0.85546875
 40
0.8557128906
 40
0.8559570312
 40
0.8562011719
 40
0.8564453125
 40
0.8566894531
 40
0.8568115234
 40
0.8569335938
 40
0.8569946289
 40
0.8570556641
 40
0.8570861816
 40
0.8571166992
 40
0.8571472168
 40
0.8571624756
 40
0.8571777344
 40
0.857208252
 40
0.8572387695
 40
0.8572998047
 40
0.8573608398
 40
0.857421875
 40
0.8575439453
 40
0.8576660156
 40
0.8579101562
 40
0.8581542969
 40
0.8583984375
 40
0.8588867188
 40
0.859375
 40
0.8598632812
 40
0.8603515625
 40
0.861328125
 40
0.8623046875
 40
0.86328125
 40
0.8642578125
 40
0.865234375
 40
0.8671875
 40
0.869140625
 40
0.87109375
 40
0.873046875
 40
0.875
 40
0.87890625
 40
0.8828125
 40
0.88671875
 40
0.890625
 40
0.89453125
 40
0.8984375
 40
0.90625
 40
0.9140625
 40
0.921875
 40
0.9296875
 40
0.9375
 40
0.9453125
 40
0.953125
 40
0.96875
 40
0.984375
 40
1.0
 40
1.0
 40
1.0
 40
1.0
 10
14.6126850701
 20
14.971225393
 30
0.0
 10
14.5942189231
 20
14.9697633263
 30
0.0
 10
14.557286629
 20
14.966839193
 30
0.0
 10
14.501888188
 20
14.962452993
 30
0.0
 10
14.446489747
 20
14.958066793
 30
0.0
 10
14.4003243795
 20
14.9544116263
 30
0.0
 10
14.3633920855
 20
14.951487493
 30
0.0
 10
14.335692865
 20
14.949294393
 30
0.0
 10
14.3079936445
 20
14.947101293
 30
0.0
 10
14.280294424
 20
14.944908193
 30
0.0
 10
14.2572117403
 20
14.9430806097
 30
0.0
 10
14.2387455933
 20
14.941618543
 30
0.0
 10
14.224895983
 20
14.940521993
 30
0.0
 10
14.2110463728
 20
14.939425443
 30
0.0
 10
14.1971967625
 20
14.938328893
 30
0.0
 10
14.1833471523
 20
14.9372323431
 30
0.0
 10
14.1718058104
 20
14.9363185514
 30
0.0
 10
14.1625727369
 20
14.9355875181
 30
0.0
 10
14.1556479318
 20
14.9350392431
 30
0.0
 10
14.1487231267
 20
14.9344909681
 30
0.0
 10
14.1417983215
 20
14.9339426931
 30
0.0
 10
14.1360276506
 20
14.9334857972
 30
0.0
 10
14.1314111138
 20
14.9331202806
 30
0.0
 10
14.1279487113
 20
14.9328461431
 30
0.0
 10
14.1244863087
 20
14.9325720056
 30
0.0
 10
14.1210239062
 20
14.9322978681
 30
0.0
 10
14.1181385707
 20
14.9320694201
 30
0.0
 10
14.1158303023
 20
14.9318866618
 30
0.0
 10
14.114099101
 20
14.9317495931
 30
0.0
 10
14.1123678997
 20
14.9316125243
 30
0.0
 10
14.1109252321
 20
14.9314983003
 30
0.0
 10
14.1097710977
 20
14.9314069213
 30
0.0
 10
14.1089054975
 20
14.9313383864
 30
0.0
 10
14.1081841624
 20
14.931281276
 30
0.0
 10
14.1076070979
 20
14.9312355832
 30
0.0
 10
14.1072464243
 20
14.9312070354
 30
0.0
 10
14.1069579044
 20
14.9311841739
 30
0.0
 10
14.1067414625
 20
14.9311670914
 30
0.0
 10
14.1065252191
 20
14.931149766
 30
0.0
 10
14.1063624799
 20
14.9311374528
 30
0.0
 10
14.1062548529
 20
14.9311281851
 30
0.0
 10
14.1061810401
 20
14.9311245279
 30
0.0
 10
14.1061038024
 20
14.931101577
 30
0.0
 10
14.1060076111
 20
14.9310783237
 30
0.0
 10
14.1058170321
 20
14.9310296114
 30
0.0
 10
14.1055304062
 20
14.9309574693
 30
0.0
 10
14.1051486706
 20
14.9308607512
 30
0.0
 10
14.1046395387
 20
14.9307319784
 30
0.0
 10
14.1040031757
 20
14.9305709491
 30
0.0
 10
14.103239518
 20
14.930377741
 30
0.0
 10
14.1022213154
 20
14.9301201207
 30
0.0
 10
14.1009485595
 20
14.9297980986
 30
0.0
 10
14.0994212535
 20
14.9294116707
 30
0.0
 10
14.0973848452
 20
14.928896434
 30
0.0
 10
14.0948393349
 20
14.9282523879
 30
0.0
 10
14.0917847225
 20
14.9274795327
 30
0.0
 10
14.087711906
 20
14.9264490591
 30
0.0
 10
14.0826208854
 20
14.925160967
 30
0.0
 10
14.0765116606
 20
14.9236152565
 30
0.0
 10
14.0704024359
 20
14.9220695461
 30
0.0
 10
14.0642932111
 20
14.9205238356
 30
0.0
 10
14.0581839864
 20
14.9189781252
 30
0.0
 10
14.0500383534
 20
14.9169171779
 30
0.0
 10
14.0398563121
 20
14.9143409938
 30
0.0
 10
14.0276378626
 20
14.9112495729
 30
0.0
 10
14.0113465966
 20
14.9071276783
 30
0.0
 10
13.990982514
 20
14.9019753101
 30
0.0
 10
13.966545615
 20
14.8957924683
 30
0.0
 10
13.942108716
 20
14.8896096264
 30
0.0
 10
13.9176718169
 20
14.8834267846
 30
0.0
 10
13.8932349179
 20
14.8772439427
 30
0.0
 10
13.8687980189
 20
14.8710611009
 30
0.0
 10
13.8443611199
 20
14.8648782591
 30
0.0
 10
13.8199242208
 20
14.8586954172
 30
0.0
 10
13.7954873218
 20
14.8525125754
 30
0.0
 10
13.7751232393
 20
14.8473602072
 30
0.0
 10
13.7588319733
 20
14.8432383126
 30
0.0
 10
13.7466135237
 20
14.8401468917
 30
0.0
 10
13.7343950742
 20
14.8370554708
 30
0.0
 10
13.7221766247
 20
14.8339640499
 30
0.0
 10
13.7119945835
 20
14.8313878658
 30
0.0
 10
13.7038489504
 20
14.8293269185
 30
0.0
 10
13.6977397257
 20
14.827781208
 30
0.0
 10
13.6916305009
 20
14.8262354976
 30
0.0
 10
13.6865394803
 20
14.8249474055
 30
0.0
 10
13.6824666638
 20
14.8239169319
 30
0.0
 10
13.6794120514
 20
14.8231440766
 30
0.0
 10
13.676357439
 20
14.8223712214
 30
0.0
 10
13.6733028267
 20
14.8215983662
 30
0.0
 10
13.6707573163
 20
14.8209543201
 30
0.0
 10
13.6687209081
 20
14.8204390833
 30
0.0
 10
13.6671936019
 20
14.8200526557
 30
0.0
 10
13.6656662957
 20
14.8196662281
 30
0.0
 10
13.6643935406
 20
14.8193442051
 30
0.0
 10
13.6633753364
 20
14.8190865867
 30
0.0
 10
13.6626116834
 20
14.8188933728
 30
0.0
 10
13.66184803
 20
14.8187001593
 30
0.0
 10
13.6612116534
 20
14.8185391469
 30
0.0
 10
13.6607025493
 20
14.8184103395
 30
0.0
 10
13.660320729
 20
14.8183137272
 30
0.0
 10
13.6600025208
 20
14.8182332381
 30
0.0
 10
13.6597480093
 20
14.8181687995
 30
0.0
 10
13.6595888142
 20
14.8181286332
 30
0.0
 10
13.659477629
 20
14.8181003008
 30
0.0
 10
13.6594137014
 20
14.8180844486
 30
0.0
 10
13.6593746698
 20
14.8180737481
 30
0.0
 10
13.6593413272
 20
14.8180670063
 30
0.0
 10
13.6593157153
 20
14.8180536243
 30
0.0
 10
13.6592695469
 20
14.8180313631
 30
0.0
 10
13.6591781668
 20
14.8179860192
 30
0.0
 10
13.6590471247
 20
14.8179216709
 30
0.0
 10
13.6588377363
 20
14.8178184741
 30
0.0
 10
13.6585759052
 20
14.8176895601
 30
0.0
 10
13.6581570289
 20
14.8174832518
 30
0.0
 10
13.6576334153
 20
14.8172253821
 30
0.0
 10
13.6567956436
 20
14.8168127819
 30
0.0
 10
13.6557484256
 20
14.8162970347
 30
0.0
 10
13.6544917654
 20
14.8156781366
 30
0.0
 10
13.6532351048
 20
14.815059239
 30
0.0
 10
13.6519784444
 20
14.8144403412
 30
0.0
 10
13.650302897
 20
14.8136151442
 30
0.0
 10
13.6482084629
 20
14.812583648
 30
0.0
 10
13.6448573683
 20
14.810933254
 30
0.0
 10
13.6406685
 20
14.8088702616
 30
0.0
 10
13.635641858
 20
14.8063946706
 30
0.0
 10
13.6306152161
 20
14.8039190797
 30
0.0
 10
13.6255885741
 20
14.8014434887
 30
0.0
 10
13.6188863848
 20
14.7981427008
 30
0.0
 10
13.6105086483
 20
14.7940167158
 30
0.0
 10
13.6004553644
 20
14.7890655339
 30
0.0
 10
13.5904020804
 20
14.784114352
 30
0.0
 10
13.5803487965
 20
14.7791631701
 30
0.0
 10
13.5702955126
 20
14.7742119882
 30
0.0
 10
13.5602422287
 20
14.7692608063
 30
0.0
 10
13.5468378502
 20
14.7626592304
 30
0.0
 10
13.530082377
 20
14.7544072605
 30
0.0
 10
13.50327362
 20
14.7412041087
 30
0.0
 10
13.4764648629
 20
14.728000957
 30
0.0
 10
13.4496561058
 20
14.7147978052
 30
0.0
 10
13.429549538
 20
14.7048954414
 30
0.0
 10
13.4094429702
 20
14.6949930775
 30
0.0
 10
13.3893364024
 20
14.6850907137
 30
0.0
 10
13.3725809292
 20
14.6768387438
 30
0.0
 10
13.3591765507
 20
14.670237168
 30
0.0
 10
13.3491232668
 20
14.665285986
 30
0.0
 10
13.3390699829
 20
14.6603348041
 30
0.0
 10
13.3306922463
 20
14.6562088192
 30
0.0
 10
13.323990057
 20
14.6529080313
 30
0.0
 10
13.3189634151
 20
14.6504324403
 30
0.0
 10
13.3147745468
 20
14.6483694478
 30
0.0
 10
13.3114234521
 20
14.6467190539
 30
0.0
 10
13.3089101311
 20
14.6454812584
 30
0.0
 10
13.3063968102
 20
14.6442434629
 30
0.0
 10
13.3038834892
 20
14.6430056674
 30
0.0
 10
13.3013701682
 20
14.641767872
 30
0.0
 10
13.2992757341
 20
14.6407363757
 30
0.0
 10
13.2976001867
 20
14.6399111787
 30
0.0
 10
13.2963435263
 20
14.639292281
 30
0.0
 10
13.2950868656
 20
14.6386733834
 30
0.0
 10
13.2940396494
 20
14.6381576347
 30
0.0
 10
13.2933065958
 20
14.637796612
 30
0.0
 10
13.2928877116
 20
14.6375903112
 30
0.0
 10
13.2925735386
 20
14.6374355917
 30
0.0
 10
13.2923117589
 20
14.6373066392
 30
0.0
 10
13.2921022654
 20
14.6372035211
 30
0.0
 10
13.2919453357
 20
14.6371260625
 30
0.0
 10
13.2918139552
 20
14.6370618958
 30
0.0
 10
13.2917231777
 20
14.637016229
 30
0.0
 10
13.2916694486
 20
14.6369913049
 30
0.0
 10
13.2916343191
 20
14.6369546452
 30
0.0
 10
13.2915840386
 20
14.6369128388
 30
0.0
 10
13.2915071494
 20
14.6368437027
 30
0.0
 10
13.2914098166
 20
14.6367580532
 30
0.0
 10
13.2912935399
 20
14.6366549439
 30
0.0
 10
13.2911383218
 20
14.6365175801
 30
0.0
 10
13.2909443618
 20
14.6363458359
 30
0.0
 10
13.290711583
 20
14.6361397597
 30
0.0
 10
13.2904012206
 20
14.6358649855
 30
0.0
 10
13.2900132644
 20
14.6355215198
 30
0.0
 10
13.2895477184
 20
14.6351093601
 30
0.0
 10
13.2890821719
 20
14.6346972006
 30
0.0
 10
13.2884614435
 20
14.6341476545
 30
0.0
 10
13.2876855329
 20
14.633460722
 30
0.0
 10
13.2867544402
 20
14.6326364029
 30
0.0
 10
13.2855129833
 20
14.6315373108
 30
0.0
 10
13.2839611621
 20
14.6301634457
 30
0.0
 10
13.2820989768
 20
14.6285148076
 30
0.0
 10
13.2802367914
 20
14.6268661695
 30
0.0
 10
13.2777538775
 20
14.6246679853
 30
0.0
 10
13.2746502352
 20
14.6219202551
 30
0.0
 10
13.2709258644
 20
14.6186229789
 30
0.0
 10
13.2672014937
 20
14.6153257026
 30
0.0
 10
13.2634771229
 20
14.6120284263
 30
0.0
 10
13.2585112952
 20
14.607632058
 30
0.0
 10
13.2523040106
 20
14.6021365976
 30
0.0
 10
13.244855269
 20
14.5955420451
 30
0.0
 10
13.2374065275
 20
14.5889474926
 30
0.0
 10
13.2299577859
 20
14.5823529401
 30
0.0
 10
13.2225090444
 20
14.5757583876
 30
0.0
 10
13.212577389
 20
14.5669656509
 30
0.0
 10
13.2001628198
 20
14.5559747301
 30
0.0
 10
13.1852653367
 20
14.5427856251
 30
0.0
 10
13.1703678536
 20
14.5295965201
 30
0.0
 10
13.1554703705
 20
14.5164074151
 30
0.0
 10
13.1405728874
 20
14.5032183101
 30
0.0
 10
13.1256754043
 20
14.4900292051
 30
0.0
 10
13.1107779212
 20
14.4768401001
 30
0.0
 10
13.098363352
 20
14.4658491792
 30
0.0
 10
13.0884316966
 20
14.4570564426
 30
0.0
 10
13.080982955
 20
14.4504618901
 30
0.0
 10
13.0735342135
 20
14.4438673376
 30
0.0
 10
13.0660854719
 20
14.4372727851
 30
0.0
 10
13.0586367304
 20
14.4306782326
 30
0.0
 10
13.0524294458
 20
14.4251827722
 30
0.0
 10
13.0474636181
 20
14.4207864038
 30
0.0
 10
13.0437392473
 20
14.4174891276
 30
0.0
 10
13.0400148765
 20
14.4141918513
 30
0.0
 10
13.0362905058
 20
14.4108945751
 30
0.0
 10
13.0331868635
 20
14.4081468449
 30
0.0
 10
13.0307039496
 20
14.4059486607
 30
0.0
 10
13.0288417642
 20
14.4043000226
 30
0.0
 10
13.0269795788
 20
14.4026513844
 30
0.0
 10
13.0254277577
 20
14.4012775193
 30
0.0
 10
13.0241863008
 20
14.4001784273
 30
0.0
 10
13.0232552081
 20
14.3993541082
 30
0.0
 10
13.0224792975
 20
14.3986671756
 30
0.0
 10
13.021858569
 20
14.3981176296
 30
0.0
 10
13.0213930227
 20
14.39770547
 30
0.0
 10
13.0209274761
 20
14.3972933107
 30
0.0
 10
13.0205395218
 20
14.3969498439
 30
0.0
 10
13.0202291555
 20
14.3966750719
 30
0.0
 10
13.0199963887
 20
14.3964689892
 30
0.0
 10
13.0198023912
 20
14.3962972652
 30
0.0
 10
13.0196472496
 20
14.39615986
 30
0.0
 10
13.0195307393
 20
14.3960568773
 30
0.0
 10
13.0194341374
 20
14.3959708317
 30
0.0
 10
13.0193557569
 20
14.3959025036
 30
0.0
 10
13.0193092717
 20
14.3958586411
 30
0.0
 10
13.0192663519
 20
14.3958262019
 30
0.0
 10
13.0192443566
 20
14.3957840852
 30
0.0
 10
13.0192022102
 20
14.3957120713
 30
0.0
 10
13.0191439117
 20
14.3956083105
 30
0.0
 10
13.0190731358
 20
14.3954841759
 30
0.0
 10
13.0189790535
 20
14.3953185309
 30
0.0
 10
13.0188613526
 20
14.39511152
 30
0.0
 10
13.0187201535
 20
14.3948630875
 30
0.0
 10
13.0185318734
 20
14.3945318509
 30
0.0
 10
13.0182023901
 20
14.3939521837
 30
0.0
 10
13.017731696
 20
14.3931240895
 30
0.0
 10
13.0171668646
 20
14.3921303756
 30
0.0
 10
13.0166020329
 20
14.391136662
 30
0.0
 10
13.015848924
 20
14.3898117104
 30
0.0
 10
13.0149075378
 20
14.3881555209
 30
0.0
 10
13.0137778745
 20
14.3861680935
 30
0.0
 10
13.0126482111
 20
14.3841806662
 30
0.0
 10
13.0115185478
 20
14.3821932388
 30
0.0
 10
13.0103888844
 20
14.3802058114
 30
0.0
 10
13.0088826666
 20
14.3775559082
 30
0.0
 10
13.0069998943
 20
14.3742435293
 30
0.0
 10
13.0047405676
 20
14.3702686745
 30
0.0
 10
13.001728132
 20
14.3649688682
 30
0.0
 10
12.9979625875
 20
14.3583441103
 30
0.0
 10
12.993443934
 20
14.3503944008
 30
0.0
 10
12.9889252806
 20
14.3424446913
 30
0.0
 10
12.9829004093
 20
14.3318450786
 30
0.0
 10
12.9753693203
 20
14.3185955628
 30
0.0
 10
12.9663320134
 20
14.3026961438
 30
0.0
 10
12.9572947065
 20
14.2867967248
 30
0.0
 10
12.9482573996
 20
14.2708973058
 30
0.0
 10
12.9362076571
 20
14.2496980805
 30
0.0
 10
12.9241579146
 20
14.2284988551
 30
0.0
 10
12.9121081721
 20
14.2072996298
 30
0.0
 10
12.9045770831
 20
14.194050114
 30
0.0
 10
12.8985522118
 20
14.1834505013
 30
0.0
 10
12.8940335584
 20
14.1755007918
 30
0.0
 10
12.8895149049
 20
14.1675510823
 30
0.0
 10
12.8849962515
 20
14.1596013728
 30
0.0
 10
12.8804775981
 20
14.1516516633
 30
0.0
 10
12.8759589446
 20
14.1437019538
 30
0.0
 10
12.8721934001
 20
14.1370771959
 30
0.0
 10
12.8691809645
 20
14.1317773896
 30
0.0
 10
12.8669216377
 20
14.1278025348
 30
0.0
 10
12.864662311
 20
14.1238276801
 30
0.0
 10
12.8624029843
 20
14.1198528253
 30
0.0
 10
12.860520212
 20
14.1165404464
 30
0.0
 10
12.8590139942
 20
14.1138905432
 30
0.0
 10
12.8580726081
 20
14.1122343537
 30
0.0
 10
12.8573194992
 20
14.1109094021
 30
0.0
 10
12.8567546675
 20
14.1099156885
 30
0.0
 10
12.8561898359
 20
14.1089219747
 30
0.0
 10
12.8556250038
 20
14.1079282612
 30
0.0
 10
12.8551543121
 20
14.107100166
 30
0.0
 10
12.8547777548
 20
14.1064376912
 30
0.0
 10
12.8545424157
 20
14.1060236411
 30
0.0
 10
12.8543541232
 20
14.1056924089
 30
0.0
 10
12.8542364887
 20
14.1054853708
 30
0.0
 10
12.8541422706
 20
14.1053197814
 30
0.0
 10
12.8540836363
 20
14.1052161943
 30
0.0
 10
12.8540420871
 20
14.1051438711
 30
0.0
 10
12.8540220042
 20
14.1051074525
 30
0.0
 10
12.8540094147
 20
14.1050870556
 30
0.0
 10
12.8540080058
 20
14.105062505
 30
0.0
 10
12.854002417
 20
14.1050332387
 30
0.0
 10
12.8539956111
 20
14.104985619
 30
0.0
 10
12.8539827056
 20
14.1049026544
 30
0.0
 10
12.8539647884
 20
14.1047839405
 30
0.0
 10
12.8539358307
 20
14.1045941061
 30
0.0
 10
12.8538997331
 20
14.104356776
 30
0.0
 10
12.8538563734
 20
14.1040719959
 30
0.0
 10
12.8537985753
 20
14.1036922834
 30
0.0
 10
12.8537263226
 20
14.1032176448
 30
0.0
 10
12.8536396216
 20
14.1026480776
 30
0.0
 10
12.8535529199
 20
14.1020785107
 30
0.0
 10
12.853437318
 20
14.101319088
 30
0.0
 10
12.8532928155
 20
14.1003698096
 30
0.0
 10
12.8531194125
 20
14.0992306756
 30
0.0
 10
12.8529460095
 20
14.0980915416
 30
0.0
 10
12.8527148054
 20
14.0965726962
 30
0.0
 10
12.8524258004
 20
14.0946741395
 30
0.0
 10
12.8520789944
 20
14.0923958715
 30
0.0
 10
12.8517321884
 20
14.0901176035
 30
0.0
 10
12.8513853824
 20
14.0878393354
 30
0.0
 10
12.8509229744
 20
14.0848016447
 30
0.0
 10
12.8503449644
 20
14.0810045314
 30
0.0
 10
12.8496513523
 20
14.0764479953
 30
0.0
 10
12.8489577403
 20
14.0718914592
 30
0.0
 10
12.8482641283
 20
14.0673349232
 30
0.0
 10
12.8475705163
 20
14.0627783871
 30
0.0
 10
12.8466457002
 20
14.0567030057
 30
0.0
 10
12.8454896802
 20
14.0491087789
 30
0.0
 10
12.8441024561
 20
14.0399957068
 30
0.0
 10
12.8427152321
 20
14.0308826346
 30
0.0
 10
12.8408656
 20
14.0187318718
 30
0.0
 10
12.8385535599
 20
14.0035434182
 30
0.0
 10
12.8357791118
 20
13.985317274
 30
0.0
 10
12.8330046637
 20
13.9670911297
 30
0.0
 10
12.8302302156
 20
13.9488649855
 30
0.0
 10
12.8274557675
 20
13.9306388412
 30
0.0
 10
12.8246813194
 20
13.9124126969
 30
0.0
 10
12.8219068713
 20
13.8941865527
 30
0.0
 10
12.8191324232
 20
13.8759604084
 30
0.0
 10
12.8163579751
 20
13.8577342642
 30
0.0
 10
12.814045935
 20
13.8425458106
 30
0.0
 10
12.812196303
 20
13.8303950478
 30
0.0
 10
12.8108090789
 20
13.8212819756
 30
0.0
 10
12.8096530589
 20
13.8136877489
 30
0.0
 10
12.8087282428
 20
13.8076123674
 30
0.0
 10
12.8080346308
 20
13.8030558314
 30
0.0
 10
12.8073410188
 20
13.7984992953
 30
0.0
 10
12.8066474068
 20
13.7939427592
 30
0.0
 10
12.8059537947
 20
13.7893862232
 30
0.0
 10
12.8053757847
 20
13.7855891098
 30
0.0
 10
12.8049133767
 20
13.7825514191
 30
0.0
 10
12.8045665707
 20
13.780273151
 30
0.0
 10
12.8042775657
 20
13.7783745943
 30
0.0
 10
12.8040463617
 20
13.776855749
 30
0.0
 10
12.8039018591
 20
13.7759064707
 30
0.0
 10
12.8037862572
 20
13.775147048
 30
0.0
 10
12.8036995555
 20
13.774577481
 30
0.0
 10
12.8036128547
 20
13.7740079139
 30
0.0
 10
12.8035261504
 20
13.7734383473
 30
0.0
 10
12.8034539079
 20
13.7729637067
 30
0.0
 10
12.8033960892
 20
13.7725839983
 30
0.0
 10
12.8033600086
 20
13.7723466713
 30
0.0
 10
12.8033310156
 20
13.7721568307
 30
0.0
 10
12.8033131884
 20
13.7720381326
 30
0.0
 10
12.8032982544
 20
13.7719432834
 30
0.0
 10
12.8032888948
 20
13.7718718472
 30
0.0
 10
12.8032752388
 20
13.7718132692
 30
0.0
 10
12.803288362
 20
13.7717624969
 30
0.0
 10
12.8032972854
 20
13.7717124074
 30
0.0
 10
12.8033098777
 20
13.7716495617
 30
0.0
 10
12.8033292217
 20
13.7715491393
 30
0.0
 10
12.8033536775
 20
13.7714235664
 30
0.0
 10
12.8033829063
 20
13.7712728981
 30
0.0
 10
12.8034219193
 20
13.7710720004
 30
0.0
 10
12.8034706715
 20
13.7708208806
 30
0.0
 10
12.8035486828
 20
13.7704190875
 30
0.0
 10
12.8036461942
 20
13.7699168467
 30
0.0
 10
12.8037632092
 20
13.7693141575
 30
0.0
 10
12.8039192286
 20
13.7685105719
 30
0.0
 10
12.8041142531
 20
13.76750609
 30
0.0
 10
12.8043482824
 20
13.7663007116
 30
0.0
 10
12.8045823118
 20
13.7650953332
 30
0.0
 10
12.8048943509
 20
13.7634881621
 30
0.0
 10
12.8052843997
 20
13.7614791982
 30
0.0
 10
12.8057524584
 20
13.7590684415
 30
0.0
 10
12.806220517
 20
13.7566576848
 30
0.0
 10
12.8066885757
 20
13.7542469281
 30
0.0
 10
12.8073126539
 20
13.7510325858
 30
0.0
 10
12.8080927517
 20
13.747014658
 30
0.0
 10
12.809028869
 20
13.7421931446
 30
0.0
 10
12.8099649863
 20
13.7373716312
 30
0.0
 10
12.8109011036
 20
13.7325501178
 30
0.0
 10
12.81214926
 20
13.7261214332
 30
0.0
 10
12.8137094555
 20
13.7180855775
 30
0.0
 10
12.8155816901
 20
13.7084425507
 30
0.0
 10
12.8174539248
 20
13.6987995239
 30
0.0
 10
12.8193261594
 20
13.6891564971
 30
0.0
 10
12.821198394
 20
13.6795134703
 30
0.0
 10
12.8236947068
 20
13.6666561012
 30
0.0
 10
12.8268150978
 20
13.6505843899
 30
0.0
 10
12.8305595671
 20
13.6312983362
 30
0.0
 10
12.8343040363
 20
13.6120122826
 30
0.0
 10
12.8380485056
 20
13.592726229
 30
0.0
 10
12.8417929748
 20
13.5734401753
 30
0.0
 10
12.845537444
 20
13.5541541217
 30
0.0
 10
12.8505300697
 20
13.5284393836
 30
0.0
 10
12.8567708517
 20
13.4962959608
 30
0.0
 10
12.8642597902
 20
13.4577238536
 30
0.0
 10
12.8692524159
 20
13.4320091154
 30
0.0
 10
12.8717487287
 20
13.4191517463
 30
0.0
  0
SPLINE
  5
2DC
100
AcDbEntity
  8
03__ASM_ALL_CURVES
100
AcDbSpline
 62
8
  6
PHANTOM
 70
0
 71
3
 72
242
 73
238
 74
0
 42
0.0000001
 43
0.0000001
 44
0.0000000001
 40
0.0
 40
0.0
 40
0.0
 40
0.0
 40
0.03125
 40
0.046875
 40
0.0625
 40
0.078125
 40
0.09375
 40
0.109375
 40
0.1171875
 40
0.125
 40
0.1328125
 40
0.140625
 40
0.14453125
 40
0.1484375
 40
0.15234375
 40
0.15625
 40
0.158203125
 40
0.16015625
 40
0.162109375
 40
0.1630859375
 40
0.1640625
 40
0.1650390625
 40
0.1655273438
 40
0.166015625
 40
0.1662597656
 40
0.1665039062
 40
0.1666259766
 40
0.1666870117
 40
0.1667480469
 40
0.1668701172
 40
0.1669921875
 40
0.1674804688
 40
0.16796875
 40
0.1684570312
 40
0.1689453125
 40
0.169921875
 40
0.171875
 40
0.173828125
 40
0.17578125
 40
0.177734375
 40
0.1796875
 40
0.18359375
 40
0.1875
 40
0.1953125
 40
0.203125
 40
0.2109375
 40
0.21875
 40
0.2265625
 40
0.234375
 40
0.25
 40
0.265625
 40
0.2734375
 40
0.28125
 40
0.2890625
 40
0.296875
 40
0.3046875
 40
0.3125
 40
0.31640625
 40
0.3203125
 40
0.322265625
 40
0.32421875
 40
0.326171875
 40
0.328125
 40
0.330078125
 40
0.3310546875
 40
0.3315429688
 40
0.33203125
 40
0.3325195312
 40
0.3330078125
 40
0.3331298828
 40
0.3332519531
 40
0.3333129883
 40
0.3333740234
 40
0.3334960938
 40
0.3337402344
 40
0.333984375
 40
0.3344726562
 40
0.3349609375
 40
0.3359375
 40
0.3369140625
 40
0.337890625
 40
0.33984375
 40
0.341796875
 40
0.34375
 40
0.34765625
 40
0.3515625
 40
0.35546875
 40
0.359375
 40
0.3671875
 40
0.375
 40
0.3828125
 40
0.390625
 40
0.40625
 40
0.421875
 40
0.4375
 40
0.4453125
 40
0.453125
 40
0.4609375
 40
0.46875
 40
0.47265625
 40
0.4765625
 40
0.48046875
 40
0.484375
 40
0.48828125
 40
0.490234375
 40
0.4921875
 40
0.494140625
 40
0.4951171875
 40
0.49609375
 40
0.4970703125
 40
0.498046875
 40
0.4985351562
 40
0.4990234375
 40
0.4992675781
 40
0.4995117188
 40
0.4997558594
 40
0.4998779297
 40
0.4999389648
 40
0.5
 40
0.5000610352
 40
0.5001220703
 40
0.5002441406
 40
0.5004882812
 40
0.5007324219
 40
0.5009765625
 40
0.5014648438
 40
0.501953125
 40
0.5029296875
 40
0.50390625
 40
0.5048828125
 40
0.505859375
 40
0.5078125
 40
0.509765625
 40
0.51171875
 40
0.515625
 40
0.51953125
 40
0.5234375
 40
0.52734375
 40
0.53125
 40
0.5390625
 40
0.546875
 40
0.5546875
 40
0.5625
 40
0.578125
 40
0.59375
 40
0.609375
 40
0.6171875
 40
0.625
 40
0.6328125
 40
0.640625
 40
0.64453125
 40
0.6484375
 40
0.65234375
 40
0.65625
 40
0.658203125
 40
0.66015625
 40
0.662109375
 40
0.6630859375
 40
0.6640625
 40
0.6650390625
 40
0.6655273438
 40
0.666015625
 40
0.6662597656
 40
0.6665039062
 40
0.6666259766
 40
0.6666870117
 40
0.6667480469
 40
0.6668701172
 40
0.6669921875
 40
0.6674804688
 40
0.66796875
 40
0.6684570312
 40
0.6689453125
 40
0.669921875
 40
0.671875
 40
0.673828125
 40
0.67578125
 40
0.677734375
 40
0.6796875
 40
0.68359375
 40
0.6875
 40
0.6953125
 40
0.703125
 40
0.7109375
 40
0.71875
 40
0.7265625
 40
0.734375
 40
0.75
 40
0.765625
 40
0.7734375
 40
0.78125
 40
0.7890625
 40
0.796875
 40
0.8046875
 40
0.8125
 40
0.81640625
 40
0.8203125
 40
0.822265625
 40
0.82421875
 40
0.826171875
 40
0.828125
 40
0.830078125
 40
0.8310546875
 40
0.8315429688
 40
0.83203125
 40
0.8325195312
 40
0.8327636719
 40
0.8330078125
 40
0.8331298828
 40
0.8332519531
 40
0.8333129883
 40
0.8333740234
 40
0.8334960938
 40
0.8337402344
 40
0.833984375
 40
0.8344726562
 40
0.8349609375
 40
0.8359375
 40
0.8369140625
 40
0.837890625
 40
0.83984375
 40
0.841796875
 40
0.84375
 40
0.84765625
 40
0.8515625
 40
0.85546875
 40
0.859375
 40
0.8671875
 40
0.875
 40
0.8828125
 40
0.890625
 40
0.90625
 40
0.921875
 40
0.9375
 40
0.953125
 40
0.96875
 40
1.0
 40
1.0
 40
1.0
 40
1.0
 10
18.088605129
 20
12.4197312099
 30
0.0
 10
18.0907393191
 20
12.4276957919
 30
0.0
 10
18.0939406041
 20
12.4396426648
 30
0.0
 10
18.0982089843
 20
12.4555718287
 30
0.0
 10
18.1014102694
 20
12.4675187016
 30
0.0
 10
18.1046115545
 20
12.4794655745
 30
0.0
 10
18.1078128395
 20
12.4914124474
 30
0.0
 10
18.1104805771
 20
12.5013681748
 30
0.0
 10
18.1126147672
 20
12.5093327567
 30
0.0
 10
18.1142154097
 20
12.5153061932
 30
0.0
 10
18.1158160523
 20
12.5212796296
 30
0.0
 10
18.1171499211
 20
12.5262574934
 30
0.0
 10
18.1182170161
 20
12.5302397843
 30
0.0
 10
18.1190173374
 20
12.5332265026
 30
0.0
 10
18.1198176587
 20
12.5362132208
 30
0.0
 10
18.120484593
 20
12.5387021527
 30
0.0
 10
18.1210181406
 20
12.5406932981
 30
0.0
 10
18.1214183009
 20
12.5421866574
 30
0.0
 10
18.1217517692
 20
12.5434311227
 30
0.0
 10
18.1220185406
 20
12.5444266968
 30
0.0
 10
18.1222186282
 20
12.5451733722
 30
0.0
 10
18.1223853393
 20
12.5457956181
 30
0.0
 10
18.122518772
 20
12.546293378
 30
0.0
 10
18.1226020221
 20
12.546604562
 30
0.0
 10
18.1226689552
 20
12.5468533165
 30
0.0
 10
18.1227100284
 20
12.5470092279
 30
0.0
 10
18.1227403027
 20
12.5471174843
 30
0.0
 10
18.1227552194
 20
12.5471807245
 30
0.0
 10
18.1227611606
 20
12.5472491605
 30
0.0
 10
18.1227716551
 20
12.5473329295
 30
0.0
 10
18.1227943167
 20
12.5475354369
 30
0.0
 10
18.1228293697
 20
12.547838584
 30
0.0
 10
18.1228755008
 20
12.548243131
 30
0.0
 10
18.1229217941
 20
12.5486475842
 30
0.0
 10
18.122983462
 20
12.5491868878
 30
0.0
 10
18.123091407
 20
12.5501306539
 30
0.0
 10
18.1232456005
 20
12.5514788992
 30
0.0
 10
18.1234306385
 20
12.5530967901
 30
0.0
 10
18.123615675
 20
12.5547146819
 30
0.0
 10
18.1238007119
 20
12.5563325735
 30
0.0
 10
18.1240474276
 20
12.5584897623
 30
0.0
 10
18.1243558224
 20
12.5611862483
 30
0.0
 10
18.1248492538
 20
12.565500626
 30
0.0
 10
18.1254660432
 20
12.5708935981
 30
0.0
 10
18.1262061905
 20
12.5773651645
 30
0.0
 10
18.1269463377
 20
12.583836731
 30
0.0
 10
18.127686485
 20
12.5903082975
 30
0.0
 10
18.1284266322
 20
12.596779864
 30
0.0
 10
18.1294134952
 20
12.6054086193
 30
0.0
 10
18.130647074
 20
12.6161945634
 30
0.0
 10
18.1318806527
 20
12.6269805076
 30
0.0
 10
18.1328675157
 20
12.6356092629
 30
0.0
 10
18.133607663
 20
12.6420808294
 30
0.0
 10
18.1343478102
 20
12.6485523959
 30
0.0
 10
18.1350879575
 20
12.6550239623
 30
0.0
 10
18.1358281047
 20
12.6614955288
 30
0.0
 10
18.1364448941
 20
12.6668885009
 30
0.0
 10
18.1369383256
 20
12.6712028785
 30
0.0
 10
18.1372467203
 20
12.6738993646
 30
0.0
 10
18.1374934361
 20
12.6760565534
 30
0.0
 10
18.1376784728
 20
12.677674445
 30
0.0
 10
18.1378635099
 20
12.6792923367
 30
0.0
 10
18.1380485454
 20
12.6809102282
 30
0.0
 10
18.1382027469
 20
12.6822584715
 30
0.0
 10
18.1383106776
 20
12.6832022411
 30
0.0
 10
18.1383723685
 20
12.6837415391
 30
0.0
 10
18.1384185911
 20
12.6841460095
 30
0.0
 10
18.1384649879
 20
12.684550492
 30
0.0
 10
18.1384992969
 20
12.6848538197
 30
0.0
 10
18.1385229295
 20
12.6850560914
 30
0.0
 10
18.1385316456
 20
12.6851402921
 30
0.0
 10
18.1385412564
 20
12.6852078372
 30
0.0
 10
18.1385412203
 20
12.6852747075
 30
0.0
 10
18.1385366752
 20
12.685391417
 30
0.0
 10
18.1385325206
 20
12.6855583084
 30
0.0
 10
18.1385245664
 20
12.6858252432
 30
0.0
 10
18.1385150712
 20
12.686158943
 30
0.0
 10
18.1384996287
 20
12.6866928453
 30
0.0
 10
18.1384804114
 20
12.687360229
 30
0.0
 10
18.1384573139
 20
12.688161087
 30
0.0
 10
18.13842653
 20
12.6892288985
 30
0.0
 10
18.1383880458
 20
12.6905636626
 30
0.0
 10
18.1383418666
 20
12.6921653796
 30
0.0
 10
18.1382802938
 20
12.6943010023
 30
0.0
 10
18.1382033279
 20
12.6969705306
 30
0.0
 10
18.1381109688
 20
12.7001739647
 30
0.0
 10
18.1380186097
 20
12.7033773987
 30
0.0
 10
18.1378954642
 20
12.707648644
 30
0.0
 10
18.1377415323
 20
12.7129877007
 30
0.0
 10
18.1375568141
 20
12.7193945687
 30
0.0
 10
18.1373720958
 20
12.7258014368
 30
0.0
 10
18.1371258049
 20
12.7343439275
 30
0.0
 10
18.1368179411
 20
12.7450220409
 30
0.0
 10
18.1364485047
 20
12.7578357769
 30
0.0
 10
18.1361406409
 20
12.7685138903
 30
0.0
 10
18.13589435
 20
12.777056381
 30
0.0
 10
18.1357096317
 20
12.783463249
 30
0.0
 10
18.1355249135
 20
12.7898701171
 30
0.0
 10
18.1353709816
 20
12.7952091738
 30
0.0
 10
18.1352478361
 20
12.7994804191
 30
0.0
 10
18.135155477
 20
12.8026838531
 30
0.0
 10
18.1350631179
 20
12.8058872871
 30
0.0
 10
18.1349707588
 20
12.8090907212
 30
0.0
 10
18.1348937929
 20
12.8117602495
 30
0.0
 10
18.1348322201
 20
12.8138958722
 30
0.0
 10
18.1347860406
 20
12.8154975892
 30
0.0
 10
18.1347475576
 20
12.8168323534
 30
0.0
 10
18.1347167712
 20
12.8179001647
 30
0.0
 10
18.1346936816
 20
12.8187010231
 30
0.0
 10
18.1346705909
 20
12.819501882
 30
0.0
 10
18.1346513524
 20
12.8201692628
 30
0.0
 10
18.1346359532
 20
12.8207031712
 30
0.0
 10
18.1346263478
 20
12.8210368553
 30
0.0
 10
18.1346186196
 20
12.8213038223
 30
0.0
 10
18.1346129439
 20
12.8215039936
 30
0.0
 10
18.1346078306
 20
12.8216709747
 30
0.0
 10
18.1346050042
 20
12.8217875246
 30
0.0
 10
18.1346022135
 20
12.8218546505
 30
0.0
 10
18.134603432
 20
12.8219035132
 30
0.0
 10
18.1345919926
 20
12.8219580398
 30
0.0
 10
18.1345811553
 20
12.8220287663
 30
0.0
 10
18.134560133
 20
12.8221534581
 30
0.0
 10
18.1345311765
 20
12.8223311081
 30
0.0
 10
18.1344959684
 20
12.822544494
 30
0.0
 10
18.134449185
 20
12.8228289366
 30
0.0
 10
18.1343906508
 20
12.8231845144
 30
0.0
 10
18.1342970268
 20
12.8237534253
 30
0.0
 10
18.1341799862
 20
12.8244645686
 30
0.0
 10
18.1340395421
 20
12.8253179385
 30
0.0
 10
18.1338990967
 20
12.8261713089
 30
0.0
 10
18.1337118366
 20
12.827309136
 30
0.0
 10
18.1334777614
 20
12.8287314199
 30
0.0
 10
18.1331968712
 20
12.8304381606
 30
0.0
 10
18.1328223509
 20
12.8327138148
 30
0.0
 10
18.1323542005
 20
12.8355583826
 30
0.0
 10
18.13179242
 20
12.838971864
 30
0.0
 10
18.1312306396
 20
12.8423853453
 30
0.0
 10
18.1306688591
 20
12.8457988267
 30
0.0
 10
18.1299198185
 20
12.8503501351
 30
0.0
 10
18.1289835177
 20
12.8560392707
 30
0.0
 10
18.1278599568
 20
12.8628662334
 30
0.0
 10
18.1267363958
 20
12.8696931961
 30
0.0
 10
18.1252383146
 20
12.878795813
 30
0.0
 10
18.1233657131
 20
12.8901740842
 30
0.0
 10
18.1211185912
 20
12.9038280096
 30
0.0
 10
18.1192459897
 20
12.9152062807
 30
0.0
 10
18.1177479084
 20
12.9243088976
 30
0.0
 10
18.1166243475
 20
12.9311358603
 30
0.0
 10
18.1155007866
 20
12.937962823
 30
0.0
 10
18.1145644858
 20
12.9436519586
 30
0.0
 10
18.1138154452
 20
12.9482032671
 30
0.0
 10
18.1132536647
 20
12.9516167484
 30
0.0
 10
18.1126918843
 20
12.9550302298
 30
0.0
 10
18.1122237338
 20
12.9578747975
 30
0.0
 10
18.1118492137
 20
12.9601504518
 30
0.0
 10
18.1115683231
 20
12.9618571924
 30
0.0
 10
18.111334249
 20
12.9632794765
 30
0.0
 10
18.1111469865
 20
12.9644173032
 30
0.0
 10
18.1110065485
 20
12.965270675
 30
0.0
 10
18.1108894889
 20
12.9659818124
 30
0.0
 10
18.1107959036
 20
12.9665507352
 30
0.0
 10
18.1107372707
 20
12.9669062826
 30
0.0
 10
18.1106906899
 20
12.9671907877
 30
0.0
 10
18.1106608341
 20
12.9673684501
 30
0.0
 10
18.1106414238
 20
12.9674931211
 30
0.0
 10
18.1106280029
 20
12.9675638808
 30
0.0
 10
18.1106058086
 20
12.9676328293
 30
0.0
 10
18.1105810645
 20
12.967719634
 30
0.0
 10
18.1105192106
 20
12.9679274559
 30
0.0
 10
18.1104274663
 20
12.9682394026
 30
0.0
 10
18.1103045481
 20
12.9686552093
 30
0.0
 10
18.1101817885
 20
12.9690710487
 30
0.0
 10
18.1100180536
 20
12.9696254898
 30
0.0
 10
18.1097315433
 20
12.9705957671
 30
0.0
 10
18.1093222295
 20
12.9719818747
 30
0.0
 10
18.1088310587
 20
12.973645205
 30
0.0
 10
18.1083398863
 20
12.975308535
 30
0.0
 10
18.1078487144
 20
12.9769718651
 30
0.0
 10
18.1071938183
 20
12.9791896385
 30
0.0
 10
18.1063751982
 20
12.9819618553
 30
0.0
 10
18.1050654061
 20
12.9863974021
 30
0.0
 10
18.103428166
 20
12.9919418357
 30
0.0
 10
18.1014634778
 20
12.998595156
 30
0.0
 10
18.0994987897
 20
13.0052484762
 30
0.0
 10
18.0975341015
 20
13.0119017965
 30
0.0
 10
18.0955694134
 20
13.0185551168
 30
0.0
 10
18.0929498292
 20
13.0274262105
 30
0.0
 10
18.0896753489
 20
13.0385150776
 30
0.0
 10
18.0864008686
 20
13.0496039447
 30
0.0
 10
18.0837812844
 20
13.0584750384
 30
0.0
 10
18.0818165963
 20
13.0651283586
 30
0.0
 10
18.0798519081
 20
13.0717816789
 30
0.0
 10
18.0778872199
 20
13.0784349992
 30
0.0
 10
18.0759225318
 20
13.0850883194
 30
0.0
 10
18.0742852916
 20
13.090632753
 30
0.0
 10
18.0729754995
 20
13.0950682998
 30
0.0
 10
18.0721568795
 20
13.0978405166
 30
0.0
 10
18.0715019834
 20
13.10005829
 30
0.0
 10
18.0710108114
 20
13.1017216201
 30
0.0
 10
18.0705196392
 20
13.1033849502
 30
0.0
 10
18.0700284677
 20
13.1050482801
 30
0.0
 10
18.0696191562
 20
13.1064343891
 30
0.0
 10
18.0693326417
 20
13.1074046638
 30
0.0
 10
18.0691689136
 20
13.1079591091
 30
0.0
 10
18.0690461332
 20
13.1083749358
 30
0.0
 10
18.0689437663
 20
13.108721481
 30
0.0
 10
18.0688619847
 20
13.1089986658
 30
0.0
 10
18.0688106163
 20
13.1091720231
 30
0.0
 10
18.0687701053
 20
13.1093104416
 30
0.0
 10
18.0687434541
 20
13.109397563
 30
0.0
 10
18.0687251836
 20
13.1094658634
 30
0.0
 10
18.0686957767
 20
13.1095392627
 30
0.0
 10
18.0686391414
 20
13.1096700801
 30
0.0
 10
18.0685609329
 20
13.1098557264
 30
0.0
 10
18.0684342908
 20
13.110153451
 30
0.0
 10
18.0682765048
 20
13.1105253703
 30
0.0
 10
18.0680237584
 20
13.1111205734
 30
0.0
 10
18.0677079245
 20
13.1118645319
 30
0.0
 10
18.0673288815
 20
13.1127573014
 30
0.0
 10
18.0668235055
 20
13.1139476541
 30
0.0
 10
18.0661917805
 20
13.1154355973
 30
0.0
 10
18.0654337126
 20
13.117221128
 30
0.0
 10
18.0644229547
 20
13.1196018361
 30
0.0
 10
18.0631595076
 20
13.1225777211
 30
0.0
 10
18.061643371
 20
13.1261487831
 30
0.0
 10
18.0601272344
 20
13.1297198451
 30
0.0
 10
18.0581057189
 20
13.1344812611
 30
0.0
 10
18.0555788246
 20
13.1404330311
 30
0.0
 10
18.0525465514
 20
13.1475751551
 30
0.0
 10
18.0495142781
 20
13.154717279
 30
0.0
 10
18.0454712472
 20
13.164240111
 30
0.0
 10
18.0404174585
 20
13.176143651
 30
0.0
 10
18.034352912
 20
13.190427899
 30
0.0
 10
18.0282883656
 20
13.204712147
 30
0.0
 10
18.0222238192
 20
13.218996395
 30
0.0
 10
18.0141377572
 20
13.238042059
 30
0.0
 10
18.0080732108
 20
13.2523263069
 30
0.0
 10
18.0040301798
 20
13.2618491389
 30
0.0
  0
SPLINE
  5
2DD
100
AcDbEntity
  8
0
100
AcDbSpline
 62
7
  6
CONTINUOUS
 70
0
 71
3
 72
15
 73
11
 74
0
 42
0.0000001
 43
0.0000001
 44
0.0000000001
 40
0.0
 40
0.0
 40
0.0
 40
0.0
 40
0.1141700139
 40
0.2313969179
 40
0.3517333164
 40
0.4752023724
 40
0.601801552
 40
0.7315040448
 40
0.8642598769
 40
1.0
 40
1.0
 40
1.0
 40
1.0
 10
12.9974250822
 20
12.8946646049
 30
0.0
 10
13.0093273364
 20
12.8704103611
 30
0.0
 10
13.0347952035
 20
12.8219017228
 30
0.0
 10
13.0772118637
 20
12.7502486919
 30
0.0
 10
13.1242570708
 20
12.678894839
 30
0.0
 10
13.1758334776
 20
12.6079864977
 30
0.0
 10
13.2318363007
 20
12.5376655977
 30
0.0
 10
13.2921519255
 20
12.4680738099
 30
0.0
 10
13.3566568161
 20
12.3993523114
 30
0.0
 10
13.4018761748
 20
12.3546942906
 30
0.0
 10
13.4251323492
 20
12.3325369314
 30
0.0
  0
SPLINE
  5
2DE
100
AcDbEntity
  8
0
100
AcDbSpline
 62
7
  6
CONTINUOUS
 70
0
 71
3
 72
18
 73
14
 74
0
 42
0.0000001
 43
0.0000001
 44
0.0000000001
 40
0.0
 40
0.0
 40
0.0
 40
0.0
 40
0.0673128048
 40
0.1347800426
 40
0.2022866648
 40
0.2697100378
 40
0.4037550077
 40
0.5358582679
 40
0.6644984047
 40
0.7873895409
 40
0.9009865007
 40
0.9527340762
 40
1.0
 40
1.0
 40
1.0
 40
1.0
 10
13.7066125139
 20
13.2132653266
 30
0.0
 10
13.7085316041
 20
13.2119099362
 30
0.0
 10
13.7124612685
 20
13.2093169673
 30
0.0
 10
13.7185926107
 20
13.2058068994
 30
0.0
 10
13.724937602
 20
13.2026895536
 30
0.0
 10
13.7336134609
 20
13.1990890151
 30
0.0
 10
13.7447731644
 20
13.1956527145
 30
0.0
 10
13.7583829628
 20
13.1932799001
 30
0.0
 10
13.7717936427
 20
13.1926447981
 30
0.0
 10
13.7845318397
 20
13.1936237469
 30
0.0
 10
13.7944220168
 20
13.1956083973
 30
0.0
 10
13.8015380826
 20
13.1977253279
 30
0.0
 10
13.8047905728
 20
13.1989003212
 30
0.0
 10
13.8063249806
 20
13.1995063628
 30
0.0
  0
SPLINE
  5
2DF
100
AcDbEntity
  8
0
100
AcDbSpline
 62
7
  6
CONTINUOUS
 70
0
 71
3
 72
11
 73
7
 74
0
 42
0.0000001
 43
0.0000001
 44
0.0000000001
 40
0.0
 40
0.0
 40
0.0
 40
0.0
 40
0.3356727254
 40
0.6183912909
 40
0.8413553872
 40
1.0
 40
1.0
 40
1.0
 40
1.0
 10
13.8063249806
 20
13.1995063628
 30
0.0
 10
13.8077292381
 20
13.2000609992
 30
0.0
 10
13.8102893285
 20
13.2011529339
 30
0.0
 10
13.8136852912
 20
13.2028267815
 30
0.0
 10
13.8162948568
 20
13.2042848391
 30
0.0
 10
13.8177525342
 20
13.2051924665
 30
0.0
 10
13.8183478008
 20
13.2055859582
 30
0.0
  0
LINE
  5
2E0
100
AcDbEntity
  8
0
100
AcDbLine
 62
7
  6
CONTINUOUS
 10
13.8183478008
 20
13.2055859582
 11
13.8196378189
 21
13.2064879689
  0
SPLINE
  5
2E1
100
AcDbEntity
  8
0
100
AcDbSpline
 62
7
  6
CONTINUOUS
 70
0
 71
3
 72
24
 73
20
 74
0
 42
0.0000001
 43
0.0000001
 44
0.0000000001
 40
0.0
 40
0.0
 40
0.0
 40
0.0
 40
0.0032014347
 40
0.007694837
 40
0.0141365365
 40
0.0225388705
 40
0.0329144045
 40
0.0452759308
 40
0.0596364654
 40
0.0943950025
 40
0.1372281657
 40
0.188161655
 40
0.2472064531
 40
0.3143078022
 40
0.3894003242
 40
0.4723960408
 40
0.5631422912
 40
0.7672235156
 40
1.0
 40
1.0
 40
1.0
 40
1.0
 10
13.6717745871
 20
12.9147855997
 30
0.0
 10
13.6717742138
 20
12.9147752081
 30
0.0
 10
13.6717758586
 20
12.9148345483
 30
0.0
 10
13.6717760525
 20
12.9148607893
 30
0.0
 10
13.6717770719
 20
12.9149321856
 30
0.0
 10
13.6717774615
 20
12.9150106753
 30
0.0
 10
13.6717775055
 20
12.9151130728
 30
0.0
 10
13.671776768
 20
12.9152331296
 30
0.0
 10
13.6717743615
 20
12.9154329937
 30
0.0
 10
13.6717678716
 20
12.9157314754
 30
0.0
 10
13.6717534991
 20
12.916148737
 30
0.0
 10
13.6717299166
 20
12.9166445051
 30
0.0
 10
13.6716949453
 20
12.9172186179
 30
0.0
 10
13.6716462113
 20
12.9178704405
 30
0.0
 10
13.6715813742
 20
12.9185990012
 30
0.0
 10
13.6714981221
 20
12.9194029448
 30
0.0
 10
13.6713536819
 20
12.9206216239
 30
0.0
 10
13.671111962
 20
12.9223184312
 30
0.0
 10
13.670868
 20
12.923716498
 30
0.0
 10
13.6707265833
 20
12.9244592116
 30
0.0
  0
SPLINE
  5
2E2
100
AcDbEntity
  8
0
100
AcDbSpline
 62
7
  6
CONTINUOUS
 70
0
 71
3
 72
21
 73
17
 74
0
 42
0.0000001
 43
0.0000001
 44
0.0000000001
 40
0.0
 40
0.0
 40
0.0
 40
0.0
 40
0.0416263683
 40
0.0894043952
 40
0.1422261613
 40
0.199074742
 40
0.3214826648
 40
0.4515928088
 40
0.5185270711
 40
0.586299652
 40
0.6546873537
 40
0.7235038672
 40
0.7925871954
 40
0.8617933239
 40
0.9309772622
 40
1.0
 40
1.0
 40
1.0
 40
1.0
 10
13.6707265833
 20
12.9244592116
 30
0.0
 10
13.6704407859
 20
12.9259602065
 30
0.0
 10
13.6697273083
 20
12.9291656841
 30
0.0
 10
13.6682915047
 20
12.9341881713
 30
0.0
 10
13.6663612639
 20
12.939639968
 30
0.0
 10
13.6630109032
 20
12.9474777408
 30
0.0
 10
13.6575148616
 20
12.9574552773
 30
0.0
 10
13.6505255252
 20
12.9669173123
 30
0.0
 10
13.6439925458
 20
12.9741234229
 30
0.0
 10
13.6386184487
 20
12.9792987742
 30
0.0
 10
13.6328523771
 20
12.9841412337
 30
0.0
 10
13.6267310412
 20
12.9886083794
 30
0.0
 10
13.6202940997
 20
12.9926639825
 30
0.0
 10
13.6135835721
 20
12.9962775789
 30
0.0
 10
13.6066446723
 20
12.9994242392
 30
0.0
 10
13.6018879058
 20
13.0012009604
 30
0.0
 10
13.5994856015
 20
13.0020059469
 30
0.0
  0
SPLINE
  5
2E3
100
AcDbEntity
  8
0
100
AcDbSpline
 62
7
  6
CONTINUOUS
 70
0
 71
3
 72
37
 73
33
 74
0
 42
0.0000001
 43
0.0000001
 44
0.0000000001
 40
0.0
 40
0.0
 40
0.0
 40
0.0
 40
0.0592624366
 40
0.1178697198
 40
0.1473255878
 40
0.1770532222
 40
0.2071220571
 40
0.237547302
 40
0.2683039048
 40
0.2993453571
 40
0.3306186896
 40
0.3620739869
 40
0.3936694652
 40
0.4253722885
 40
0.4571569521
 40
0.4890040731
 40
0.5208984342
 40
0.5528283924
 40
0.5847853485
 40
0.6167619688
 40
0.648751921
 40
0.6807501491
 40
0.7127519877
 40
0.7447528215
 40
0.7767480946
 40
0.8087329745
 40
0.840701638
 40
0.8726474719
 40
0.9045621957
 40
0.9364359476
 40
0.9682567447
 40
1.0
 40
1.0
 40
1.0
 40
1.0
 10
13.4923419837
 20
13.1390716763
 30
0.0
 10
13.4911021098
 20
13.1350594426
 30
0.0
 10
13.4888762146
 20
13.1270020069
 30
0.0
 10
13.4868472186
 20
13.1167482955
 30
0.0
 10
13.4857837968
 20
13.1084665776
 30
0.0
 10
13.4852892259
 20
13.1021585015
 30
0.0
 10
13.4851321075
 20
13.0957638737
 30
0.0
 10
13.485345391
 20
13.0892974109
 30
0.0
 10
13.4859583167
 20
13.0827868518
 30
0.0
 10
13.4869939157
 20
13.0762687705
 30
0.0
 10
13.4884678326
 20
13.0697845012
 30
0.0
 10
13.4903885649
 20
13.0633769897
 30
0.0
 10
13.4927580416
 20
13.057088752
 30
0.0
 10
13.4955724995
 20
13.0509608123
 30
0.0
 10
13.4988233067
 20
13.0450322667
 30
0.0
 10
13.5024976449
 20
13.0393401897
 30
0.0
 10
13.5065789737
 20
13.0339194932
 30
0.0
 10
13.5110475612
 20
13.0288029087
 30
0.0
 10
13.5158807348
 20
13.0240208584
 30
0.0
 10
13.521053246
 20
13.0196014696
 30
0.0
 10
13.5265374579
 20
13.0155704138
 30
0.0
 10
13.5323036604
 20
13.0119508244
 30
0.0
 10
13.5383202959
 20
13.0087631613
 30
0.0
 10
13.5445541914
 20
13.0060251382
 30
0.0
 10
13.5509707869
 20
13.0037515876
 30
0.0
 10
13.5575343551
 20
13.0019543636
 30
0.0
 10
13.5642082132
 20
13.0006421251
 30
0.0
 10
13.570954986
 20
12.9998203282
 30
0.0
 10
13.5777368256
 20
12.9994909551
 30
0.0
 10
13.5845159025
 20
12.999652498
 30
0.0
 10
13.5912532965
 20
13.0002996875
 30
0.0
 10
13.5956992422
 20
13.0010495018
 30
0.0
 10
13.5979026798
 20
13.0015018156
 30
0.0
  0
SPLINE
  5
2E4
100
AcDbEntity
  8
0
100
AcDbSpline
 62
7
  6
CONTINUOUS
 70
0
 71
3
 72
41
 73
37
 74
0
 42
0.0000001
 43
0.0000001
 44
0.0000000001
 40
0.0
 40
0.0
 40
0.0
 40
0.0
 40
0.0317194142
 40
0.0476203353
 40
0.0635388164
 40
0.095409177
 40
0.1273210499
 40
0.1432924622
 40
0.1592692786
 40
0.1912224817
 40
0.22318091
 40
0.2551351202
 40
0.2870754821
 40
0.3189919058
 40
0.3508673416
 40
0.3826828592
 40
0.4144095915
 40
0.4460036001
 40
0.4774047269
 40
0.5085259711
 40
0.5392640659
 40
0.5695277118
 40
0.5992954563
 40
0.6286816342
 40
0.6579428828
 40
0.6874020827
 40
0.7173409229
 40
0.747920236
 40
0.7791562115
 40
0.8109376211
 40
0.8430567083
 40
0.8752501574
 40
0.9072429804
 40
0.9387901075
 40
0.9697333601
 40
1.0
 40
1.0
 40
1.0
 40
1.0
 10
13.7060682113
 20
13.2148490888
 30
0.0
 10
13.7047365884
 20
13.2177536464
 30
0.0
 10
13.7025158596
 20
13.2220178207
 30
0.0
 10
13.6991347928
 20
13.2274548687
 30
0.0
 10
13.6954715591
 20
13.2327251527
 30
0.0
 10
13.6903861436
 20
13.2389572845
 30
0.0
 10
13.6846809019
 20
13.2446354258
 30
0.0
 10
13.67978053
 20
13.2488069905
 30
0.0
 10
13.6746669775
 20
13.2527210809
 30
0.0
 10
13.6679015172
 20
13.2571081818
 30
0.0
 10
13.6592812009
 20
13.2614989879
 30
0.0
 10
13.6502518935
 20
13.2649695611
 30
0.0
 10
13.640915256
 20
13.2674824727
 30
0.0
 10
13.6313764785
 20
13.2690134867
 30
0.0
 10
13.621743416
 20
13.2695516621
 30
0.0
 10
13.612125318
 20
13.2691003649
 30
0.0
 10
13.6026312044
 20
13.267679043
 30
0.0
 10
13.5933683324
 20
13.2653239502
 30
0.0
 10
13.5844396313
 20
13.2620917104
 30
0.0
 10
13.5759388075
 20
13.2580601578
 30
0.0
 10
13.5679416168
 20
13.253328234
 30
0.0
 10
13.5604923929
 20
13.2480078982
 30
0.0
 10
13.5535908373
 20
13.2422066739
 30
0.0
 10
13.5471886911
 20
13.2360055956
 30
0.0
 10
13.5412033252
 20
13.2294454937
 30
0.0
 10
13.5355433202
 20
13.2225321209
 30
0.0
 10
13.5301331649
 20
13.2152563949
 30
0.0
 10
13.5249269759
 20
13.2076164151
 30
0.0
 10
13.5199099123
 20
13.1996312577
 30
0.0
 10
13.5150927526
 20
13.1913442665
 30
0.0
 10
13.5105037214
 20
13.182819227
 30
0.0
 10
13.5061805005
 20
13.1741325834
 30
0.0
 10
13.5021635348
 20
13.1653634301
 30
0.0
 10
13.4984899097
 20
13.1565811261
 30
0.0
 10
13.4951924906
 20
13.1478362798
 30
0.0
 10
13.4932421672
 20
13.1419846711
 30
0.0
 10
13.4923419837
 20
13.1390716763
 30
0.0
  0
SPLINE
  5
2E5
100
AcDbEntity
  8
0
100
AcDbSpline
 62
7
  6
CONTINUOUS
 70
0
 71
3
 72
19
 73
15
 74
0
 42
0.0000001
 43
0.0000001
 44
0.0000000001
 40
0.0
 40
0.0
 40
0.0
 40
0.0
 40
0.1381325524
 40
0.2714520782
 40
0.4003507338
 40
0.5253320068
 40
0.58655992
 40
0.6470483037
 40
0.7068900222
 40
0.7661836308
 40
0.8250324906
 40
0.8835440669
 40
0.9418289748
 40
1.0
 40
1.0
 40
1.0
 40
1.0
 10
18.0695550587
 20
12.5625378795
 30
0.0
 10
18.0726435573
 20
12.556244181
 30
0.0
 10
18.0782673961
 20
12.5436500145
 30
0.0
 10
18.0850627891
 20
12.5244773829
 30
0.0
 10
18.090036402
 20
12.5054399773
 30
0.0
 10
18.0926619837
 20
12.4896381382
 30
0.0
 10
18.0938119214
 20
12.4771660958
 30
0.0
 10
18.0942043573
 20
12.4679558321
 30
0.0
 10
18.0941317995
 20
12.4588357202
 30
0.0
 10
18.0935943889
 20
12.4498143618
 30
0.0
 10
18.09259246
 20
12.4409005892
 30
0.0
 10
18.0911269762
 20
12.4321029538
 30
0.0
 10
18.0891993369
 20
12.4234303594
 30
0.0
 10
18.0876066558
 20
12.4177349469
 30
0.0
 10
18.086734969
 20
12.4149141984
 30
0.0
  0
SPLINE
  5
2E6
100
AcDbEntity
  8
0
100
AcDbSpline
 62
7
  6
CONTINUOUS
 70
0
 71
3
 72
15
 73
11
 74
0
 42
0.0000001
 43
0.0000001
 44
0.0000000001
 40
0.0
 40
0.0
 40
0.0
 40
0.0
 40
0.137873763
 40
0.2722887657
 40
0.4030866299
 40
0.5301444793
 40
0.653379068
 40
0.77275121
 40
0.8882704679
 40
1.0
 40
1.0
 40
1.0
 40
1.0
 10
17.9553081854
 20
12.6994255986
 30
0.0
 10
17.961687093
 20
12.6941867954
 30
0.0
 10
17.97407117
 20
12.6835765721
 30
0.0
 10
17.9916903763
 20
12.6670742041
 30
0.0
 10
18.0080699913
 20
12.6502313518
 30
0.0
 10
18.0231565568
 20
12.633102487
 30
0.0
 10
18.0369012239
 20
12.6157425767
 30
0.0
 10
18.0492594549
 20
12.5982069057
 30
0.0
 10
18.0601903505
 20
12.5805526998
 30
0.0
 10
18.0666081875
 20
12.5685429717
 30
0.0
 10
18.0695550587
 20
12.5625378795
 30
0.0
  0
SPLINE
  5
2E7
100
AcDbEntity
  8
0
100
AcDbSpline
 62
7
  6
CONTINUOUS
 70
0
 71
3
 72
19
 73
15
 74
0
 42
0.0000001
 43
0.0000001
 44
0.0000000001
 40
0.0
 40
0.0
 40
0.0
 40
0.0
 40
0.1355807443
 40
0.2676700575
 40
0.3964487069
 40
0.5221381182
 40
0.5839140663
 40
0.6450206095
 40
0.7054975674
 40
0.7653871101
 40
0.8247336587
 40
0.8835849
 40
0.9419910025
 40
1.0
 40
1.0
 40
1.0
 40
1.0
 10
17.8313312656
 20
13.2618490938
 30
0.0
 10
17.8429296326
 20
13.2382141068
 30
0.0
 10
17.8645933014
 20
13.1909329133
 30
0.0
 10
17.8926537109
 20
13.1192003387
 30
0.0
 10
17.9157892042
 20
13.0477434687
 30
0.0
 10
17.931009872
 20
12.9882023437
 30
0.0
 10
17.940628692
 20
12.9408943196
 30
0.0
 10
17.9465453115
 20
12.9057768562
 30
0.0
 10
17.9512021387
 20
12.8708398773
 30
0.0
 10
17.9545967236
 20
12.8361008174
 30
0.0
 10
17.9567272784
 20
12.8015775216
 30
0.0
 10
17.9575925704
 20
12.7672871825
 30
0.0
 10
17.9571919405
 20
12.7332483494
 30
0.0
 10
17.9560776546
 20
12.7106636377
 30
0.0
 10
17.9553081854
 20
12.6994255986
 30
0.0
  0
SPLINE
  5
2E8
100
AcDbEntity
  8
0
100
AcDbSpline
 62
7
  6
CONTINUOUS
 70
0
 71
3
 72
39
 73
35
 74
0
 42
0.0000001
 43
0.0000001
 44
0.0000000001
 40
0.0
 40
0.0
 40
0.0
 40
0.0
 40
0.0332411532
 40
0.066766722
 40
0.1005354081
 40
0.1345046265
 40
0.1686311667
 40
0.2028711443
 40
0.2371802531
 40
0.2715139162
 40
0.305827463
 40
0.3400763003
 40
0.3742160836
 40
0.4082028927
 40
0.4419934016
 40
0.4755450592
 40
0.5088162698
 40
0.5417665765
 40
0.5743568506
 40
0.6065494874
 40
0.6383086082
 40
0.6696002723
 40
0.7003926962
 40
0.7306564866
 40
0.7603648888
 40
0.7894940407
 40
0.8180232498
 40
0.8459352859
 40
0.87321669
 40
0.8998581073
 40
0.9258546168
 40
0.951206147
 40
0.975917686
 40
1.0
 40
1.0
 40
1.0
 40
1.0
 10
15.0821558347
 20
14.83368055
 30
0.0
 10
15.118342692
 20
14.8298776816
 30
0.0
 10
15.1909255759
 20
14.8212486576
 30
0.0
 10
15.2998306162
 20
14.8053509257
 30
0.0
 10
15.4090675344
 20
14.7864690204
 30
0.0
 10
15.518424219
 20
14.7646394825
 30
0.0
 10
15.6276894636
 20
14.7399045348
 30
0.0
 10
15.7366519849
 20
14.712311981
 30
0.0
 10
15.8451011323
 20
14.6819151738
 30
0.0
 10
15.9528272296
 20
14.6487728782
 30
0.0
 10
16.0596220014
 20
14.6129491716
 30
0.0
 10
16.1652789719
 20
14.574513314
 30
0.0
 10
16.269593871
 20
14.5335396135
 30
0.0
 10
16.3723650285
 20
14.4901072835
 30
0.0
 10
16.4733937686
 20
14.4443002871
 30
0.0
 10
16.5724847941
 20
14.396207171
 30
0.0
 10
16.6694465695
 20
14.3459208895
 30
0.0
 10
16.764091691
 20
14.2935386217
 30
0.0
 10
16.8562372505
 20
14.2391615786
 30
0.0
 10
16.9457051891
 20
14.1828948029
 30
0.0
 10
17.0323226424
 20
14.1248469588
 30
0.0
 10
17.1159222727
 20
14.0651301155
 30
0.0
 10
17.1963425902
 20
14.0038595227
 30
0.0
 10
17.2734282643
 20
13.9411533755
 30
0.0
 10
17.347030419
 20
13.8771325786
 30
0.0
 10
17.4170069114
 20
13.8119204989
 30
0.0
 10
17.4832225909
 20
13.7456427175
 30
0.0
 10
17.5455495463
 20
13.6784267657
 30
0.0
 10
17.6038673254
 20
13.6104018939
 30
0.0
 10
17.6580631615
 20
13.5416987174
 30
0.0
 10
17.7080320512
 20
13.4724492927
 30
0.0
 10
17.7536773524
 20
13.4027856791
 30
0.0
 10
17.7949090587
 20
13.3328440401
 30
0.0
 10
17.8197182231
 20
13.2855139863
 30
0.0
 10
17.8313312656
 20
13.2618490938
 30
0.0
  0
SPLINE
  5
2E9
100
AcDbEntity
  8
0
100
AcDbSpline
 62
7
  6
CONTINUOUS
 70
0
 71
3
 72
42
 73
38
 74
0
 42
0.0000001
 43
0.0000001
 44
0.0000000001
 40
0.0
 40
0.0
 40
0.0
 40
0.0
 40
0.0105966092
 40
0.0212752393
 40
0.032052697
 40
0.0429464224
 40
0.0651415502
 40
0.0879845627
 40
0.1115738492
 40
0.1359881091
 40
0.14852605
 40
0.1612908763
 40
0.1875144329
 40
0.2146864747
 40
0.2428146105
 40
0.2718920843
 40
0.3018992309
 40
0.3328048566
 40
0.3645675048
 40
0.3971366401
 40
0.430453743
 40
0.4644533013
 40
0.4990637397
 40
0.534208287
 40
0.5698057813
 40
0.6057714588
 40
0.6420177046
 40
0.6784547574
 40
0.7149914154
 40
0.7515357347
 40
0.7879957164
 40
0.8242799895
 40
0.8602985098
 40
0.8959632283
 40
0.9311889134
 40
0.9658936327
 40
1.0
 40
1.0
 40
1.0
 40
1.0
 10
14.3173834121
 20
14.83368055
 30
0.0
 10
14.3187142462
 20
14.8363222405
 30
0.0
 10
14.3215265107
 20
14.8415566642
 30
0.0
 10
14.3261653581
 20
14.8492118482
 30
0.0
 10
14.3312347938
 20
14.8566897571
 30
0.0
 10
14.338605461
 20
14.8664732798
 30
0.0
 10
14.3489097165
 20
14.8782376972
 30
0.0
 10
14.362828431
 20
14.8914368573
 30
0.0
 10
14.3783246158
 20
14.9037612522
 30
0.0
 10
14.3923777586
 20
14.9131814695
 30
0.0
 10
14.404324695
 20
14.9202487471
 30
0.0
 10
14.4169661961
 20
14.9271155796
 30
0.0
 10
14.4336562146
 20
14.9350592361
 30
0.0
 10
14.4548152642
 20
14.9434758386
 30
0.0
 10
14.4772052941
 20
14.9508315924
 30
0.0
 10
14.5007422721
 20
14.9570996094
 30
0.0
 10
14.5253388701
 20
14.9622572782
 30
0.0
 10
14.5509035245
 20
14.9662858032
 30
0.0
 10
14.577341086
 20
14.9691704879
 30
0.0
 10
14.604553065
 20
14.9709007832
 30
0.0
 10
14.6324380234
 20
14.9714703734
 30
0.0
 10
14.6608919488
 20
14.9708772205
 30
0.0
 10
14.6898086489
 20
14.969123593
 30
0.0
 10
14.7190801519
 20
14.9662160708
 30
0.0
 10
14.7485971183
 20
14.9621655332
 30
0.0
 10
14.7782492594
 20
14.9569871233
 30
0.0
 10
14.8079257572
 20
14.9507001978
 30
0.0
 10
14.8375156835
 20
14.9433282573
 30
0.0
 10
14.8669084191
 20
14.9348988605
 30
0.0
 10
14.8959940757
 20
14.9254435218
 30
0.0
 10
14.9246639139
 20
14.9149975899
 30
0.0
 10
14.9528107529
 20
14.9036001193
 30
0.0
 10
14.9803293836
 20
14.8912937048
 30
0.0
 10
15.0071169282
 20
14.8781243678
 30
0.0
 10
15.0330734084
 20
14.8641412094
 30
0.0
 10
15.0581013447
 20
14.8493968194
 30
0.0
 10
15.074258459
 20
14.8389977935
 30
0.0
 10
15.0821558347
 20
14.83368055
 30
0.0
  0
SPLINE
  5
2EA
100
AcDbEntity
  8
0
100
AcDbSpline
 62
7
  6
CONTINUOUS
 70
0
 71
3
 72
16
 73
12
 74
0
 42
0.0000001
 43
0.0000001
 44
0.0000000001
 40
0.0
 40
0.0
 40
0.0
 40
0.0
 40
0.138147879
 40
0.2054143665
 40
0.2715175405
 40
0.4004311626
 40
0.5254296028
 40
0.6471247745
 40
0.7662363488
 40
0.8835709786
 40
1.0
 40
1.0
 40
1.0
 40
1.0
 10
14.8137403254
 20
14.1953711698
 30
0.0
 10
14.8148984878
 20
14.1930110829
 30
0.0
 10
14.8164943493
 20
14.1894371094
 30
0.0
 10
14.818314599
 20
14.1846001926
 30
0.0
 10
14.8198794495
 20
14.1798593402
 30
0.0
 10
14.8214208407
 20
14.1739590812
 30
0.0
 10
14.8225942664
 20
14.1668978513
 30
0.0
 10
14.8230703218
 20
14.1599415331
 30
0.0
 10
14.8228457551
 20
14.1531175462
 30
0.0
 10
14.8219207187
 20
14.1464541828
 30
0.0
 10
14.8208369426
 20
14.1421291577
 30
0.0
 10
14.8201827787
 20
14.1400122934
 30
0.0
  0
SPLINE
  5
2EB
100
AcDbEntity
  8
0
100
AcDbSpline
 62
7
  6
CONTINUOUS
 70
0
 71
3
 72
24
 73
20
 74
0
 42
0.0000001
 43
0.0000001
 44
0.0000000001
 40
0.0
 40
0.0
 40
0.0
 40
0.0
 40
0.0733777607
 40
0.1453685269
 40
0.215928862
 40
0.2850228838
 40
0.3526228915
 40
0.4187100377
 40
0.4832750303
 40
0.5463188605
 40
0.6078535493
 40
0.6679028967
 40
0.7265032179
 40
0.7837040265
 40
0.8395686377
 40
0.8941745999
 40
0.9476140792
 40
0.9739323024
 40
1.0
 40
1.0
 40
1.0
 40
1.0
 10
16.5071651356
 20
11.3223432164
 30
0.0
 10
16.5375145818
 20
11.325854549
 30
0.0
 10
16.59753512
 20
11.3337587069
 30
0.0
 10
16.6862508483
 20
11.3484340222
 30
0.0
 10
16.7726641743
 20
11.3657933646
 30
0.0
 10
16.8566243227
 20
11.3858068429
 30
0.0
 10
16.9379862592
 20
11.4084402256
 30
0.0
 10
17.0166090694
 20
11.4336548041
 30
0.0
 10
17.0923566669
 20
11.4614075333
 30
0.0
 10
17.1650978743
 20
11.4916511059
 30
0.0
 10
17.234706649
 20
11.5243340544
 30
0.0
 10
17.3010622336
 20
11.5594008286
 30
0.0
 10
17.3640493551
 20
11.5967919404
 30
0.0
 10
17.4235581985
 20
11.6364438489
 30
0.0
 10
17.4794851101
 20
11.6782897125
 30
0.0
 10
17.5317306029
 20
11.7222569732
 30
0.0
 10
17.5723321015
 20
11.7608003299
 30
0.0
 10
17.6028310746
 20
11.7926087899
 30
0.0
 10
17.6174216475
 20
11.8088280534
 30
0.0
 10
17.6245482454
 20
11.8170142388
 30
0.0
  0
SPLINE
  5
2EC
100
AcDbEntity
  8
0
100
AcDbSpline
 62
7
  6
CONTINUOUS
 70
0
 71
3
 72
16
 73
12
 74
0
 42
0.0000001
 43
0.0000001
 44
0.0000000001
 40
0.0
 40
0.0
 40
0.0
 40
0.0
 40
0.1381476455
 40
0.2054144152
 40
0.271517717
 40
0.4004311976
 40
0.5254296722
 40
0.6471248681
 40
0.7662363863
 40
0.8835710002
 40
1.0
 40
1.0
 40
1.0
 40
1.0
 10
17.6379966186
 20
12.0974375269
 30
0.0
 10
17.639154779
 20
12.095077444
 30
0.0
 10
17.640750637
 20
12.0915034682
 30
0.0
 10
17.6425708933
 20
12.0866665504
 30
0.0
 10
17.6441357431
 20
12.0819256925
 30
0.0
 10
17.6456771334
 20
12.0760254332
 30
0.0
 10
17.6468505612
 20
12.0689642053
 30
0.0
 10
17.6473266152
 20
12.062007887
 30
0.0
 10
17.6471020425
 20
12.0551839011
 30
0.0
 10
17.6461770035
 20
12.048520541
 30
0.0
 10
17.6450932398
 20
12.044195513
 30
0.0
 10
17.6444390707
 20
12.0420786509
 30
0.0
  0
SPLINE
  5
2ED
100
AcDbEntity
  8
0
100
AcDbSpline
 62
7
  6
CONTINUOUS
 70
0
 71
3
 72
21
 73
17
 74
0
 42
0.0000001
 43
0.0000001
 44
0.0000000001
 40
0.0
 40
0.0
 40
0.0
 40
0.0
 40
0.131370777
 40
0.2602577592
 40
0.3238736552
 40
0.3869841892
 40
0.4496310664
 40
0.5118574803
 40
0.5737075257
 40
0.6352266112
 40
0.6964602998
 40
0.7574555188
 40
0.8182601328
 40
0.8789203635
 40
0.9394814579
 40
1.0
 40
1.0
 40
1.0
 40
1.0
 10
16.224980562
 20
10.832545637
 30
0.0
 10
16.2386983762
 20
10.8429761052
 30
0.0
 10
16.2652101433
 20
10.8645326594
 30
0.0
 10
16.2962643726
 20
10.8935813528
 30
0.0
 10
16.3194651058
 20
10.917798722
 30
0.0
 10
16.3359754158
 20
10.9363678311
 30
0.0
 10
16.351652954
 20
10.9554096367
 30
0.0
 10
16.3664815352
 20
10.974912755
 30
0.0
 10
16.3804452929
 20
10.9948640086
 30
0.0
 10
16.3935283068
 20
11.0152492089
 30
0.0
 10
16.4057157879
 20
11.0360524305
 30
0.0
 10
16.4169932235
 20
11.0572567755
 30
0.0
 10
16.427347208
 20
11.0788437048
 30
0.0
 10
16.4367655078
 20
11.1007932383
 30
0.0
 10
16.4452371933
 20
11.1230846569
 30
0.0
 10
16.4502485553
 20
11.1381621999
 30
0.0
 10
16.4525924294
 20
11.1457469793
 30
0.0
  0
SPLINE
  5
2EE
100
AcDbEntity
  8
0
100
AcDbSpline
 62
7
  6
CONTINUOUS
 70
0
 71
3
 72
21
 73
17
 74
0
 42
0.0000001
 43
0.0000001
 44
0.0000000001
 40
0.0
 40
0.0
 40
0.0
 40
0.0
 40
0.0605228236
 40
0.1210890965
 40
0.1817540314
 40
0.2425624847
 40
0.3035612808
 40
0.36479808
 40
0.426319421
 40
0.4881710159
 40
0.5503979492
 40
0.6130444713
 40
0.676153387
 40
0.7397665459
 40
0.8686441018
 40
1.0
 40
1.0
 40
1.0
 40
1.0
 10
13.4669022911
 20
12.0683950152
 30
0.0
 10
13.4645614902
 20
12.0608201807
 30
0.0
 10
13.4601981168
 20
12.0455640761
 30
0.0
 10
13.4546220562
 20
12.0224102136
 30
0.0
 10
13.4500178053
 20
11.9990051572
 30
0.0
 10
13.4463882865
 20
11.9753721459
 30
0.0
 10
13.4437344128
 20
11.9515344854
 30
0.0
 10
13.4420557047
 20
11.9275148899
 30
0.0
 10
13.4413497821
 20
11.9033354362
 30
0.0
 10
13.4416132515
 20
11.8790175682
 30
0.0
 10
13.4428413036
 20
11.8545818794
 30
0.0
 10
13.4450279474
 20
11.8300481486
 30
0.0
 10
13.4481666337
 20
11.8054348491
 30
0.0
 10
13.4536336155
 20
11.7723948894
 30
0.0
 10
13.4628468042
 20
11.730946025
 30
0.0
 10
13.4725388435
 20
11.6982324491
 30
0.0
 10
13.4779611687
 20
11.6819019792
 30
0.0
  0
SPLINE
  5
2EF
100
AcDbEntity
  8
0
100
AcDbSpline
 62
7
  6
CONTINUOUS
 70
0
 71
3
 72
15
 73
11
 74
0
 42
0.0000001
 43
0.0000001
 44
0.0000000001
 40
0.0
 40
0.0
 40
0.0
 40
0.0
 40
0.1278936028
 40
0.2555909443
 40
0.3827617175
 40
0.5090816764
 40
0.6342419595
 40
0.7579529143
 40
0.8799501086
 40
1.0
 40
1.0
 40
1.0
 40
1.0
 10
17.3766843347
 20
11.8561133631
 30
0.0
 10
17.3868808958
 20
11.8527780672
 30
0.0
 10
17.4073919218
 20
11.8465131789
 30
0.0
 10
17.4384520954
 20
11.8383483127
 30
0.0
 10
17.4696831468
 20
11.8314490026
 30
0.0
 10
17.5009565136
 20
11.8258460764
 30
0.0
 10
17.5321455355
 20
11.8215656909
 30
0.0
 10
17.5631260852
 20
11.8186298833
 30
0.0
 10
17.5937762053
 20
11.8170566883
 30
0.0
 10
17.6140880127
 20
11.8169249441
 30
0.0
 10
17.6241567745
 20
11.8170969129
 30
0.0
  0
SPLINE
  5
2F0
100
AcDbEntity
  8
0
100
AcDbSpline
 62
7
  6
CONTINUOUS
 70
0
 71
3
 72
30
 73
26
 74
0
 42
0.0000001
 43
0.0000001
 44
0.0000000001
 40
0.0
 40
0.0
 40
0.0
 40
0.0
 40
0.0717952295
 40
0.1421869421
 40
0.211109162
 40
0.2785277631
 40
0.3444428806
 40
0.4088901279
 40
0.4719410849
 40
0.5029797159
 40
0.5337116097
 40
0.5943157672
 40
0.6539221946
 40
0.683412084
 40
0.7127180261
 40
0.7418616599
 40
0.770864125
 40
0.7997461384
 40
0.8285267822
 40
0.8572242252
 40
0.8858546009
 40
0.9144343241
 40
0.9429774514
 40
0.9714907707
 40
1.0
 40
1.0
 40
1.0
 40
1.0
 10
17.6241567745
 20
11.8170969129
 30
0.0
 10
17.6340664794
 20
11.8172661652
 30
0.0
 10
17.6536879401
 20
11.8180567311
 30
0.0
 10
17.6827264966
 20
11.820658454
 30
0.0
 10
17.7109952607
 20
11.8246738158
 30
0.0
 10
17.7383965564
 20
11.8301118071
 30
0.0
 10
17.7648382208
 20
11.8369828822
 30
0.0
 10
17.7902290607
 20
11.8452992277
 30
0.0
 10
17.8105447563
 20
11.853490256
 30
0.0
 10
17.8261581702
 20
11.8607881206
 30
0.0
 10
17.8411894826
 20
11.8685058302
 30
0.0
 10
17.8591694657
 20
11.8790824067
 30
0.0
 10
17.8760802716
 20
11.8910082735
 30
0.0
 10
17.8887875649
 20
11.9012962616
 30
0.0
 10
17.897869014
 20
11.9093591958
 30
0.0
 10
17.9065143939
 20
11.9177920166
 30
0.0
 10
17.9147035433
 20
11.9265891488
 30
0.0
 10
17.9224150164
 20
11.9357427263
 30
0.0
 10
17.9296273236
 20
11.9452420093
 30
0.0
 10
17.936318645
 20
11.9550734488
 30
0.0
 10
17.942467851
 20
11.9652205434
 30
0.0
 10
17.9480548344
 20
11.9756637139
 30
0.0
 10
17.9530604464
 20
11.9863800752
 30
0.0
 10
17.9574692035
 20
11.9973446741
 30
0.0
 10
17.960001095
 20
12.0048031792
 30
0.0
 10
17.9611630786
 20
12.0085633594
 30
0.0
  0
SPLINE
  5
2F1
100
AcDbEntity
  8
0
100
AcDbSpline
 62
7
  6
CONTINUOUS
 70
0
 71
3
 72
46
 73
42
 74
0
 42
0.0000001
 43
0.0000001
 44
0.0000000001
 40
0.0
 40
0.0
 40
0.0
 40
0.0
 40
0.0107123392
 40
0.0214620918
 40
0.0322860225
 40
0.0432196785
 40
0.0542967718
 40
0.06554881
 40
0.0770046458
 40
0.0886903024
 40
0.1006287638
 40
0.1128399063
 40
0.1253405381
 40
0.1381443623
 40
0.1512622212
 40
0.1647020132
 40
0.1925597686
 40
0.2217376495
 40
0.2522130101
 40
0.2839327041
 40
0.3168174767
 40
0.3507659828
 40
0.3856583439
 40
0.4213593535
 40
0.4577213967
 40
0.4945871493
 40
0.5317921747
 40
0.5691673244
 40
0.6065411137
 40
0.643742069
 40
0.6806011099
 40
0.7169538639
 40
0.7526431421
 40
0.7875214952
 40
0.8214539656
 40
0.8543209384
 40
0.8860213938
 40
0.9164764181
 40
0.9456334421
 40
0.9734700418
 40
1.0
 40
1.0
 40
1.0
 40
1.0
 10
17.2861562925
 20
12.1527964033
 30
0.0
 10
17.2865933636
 20
12.1542107586
 30
0.0
 10
17.2875718752
 20
12.1570137917
 30
0.0
 10
17.2893434915
 20
12.1611125833
 30
0.0
 10
17.2914167814
 20
12.1651020293
 30
0.0
 10
17.2937880764
 20
12.1689748029
 30
0.0
 10
17.2964530102
 20
12.1727243623
 30
0.0
 10
17.2994069073
 20
12.1763441842
 30
0.0
 10
17.3026444609
 20
12.1798281599
 30
0.0
 10
17.3061599951
 20
12.1831703699
 30
0.0
 10
17.3099473599
 20
12.186365187
 30
0.0
 10
17.3139999475
 20
12.1894072916
 30
0.0
 10
17.3183108033
 20
12.1922915337
 30
0.0
 10
17.3228724349
 20
12.1950131765
 30
0.0
 10
17.3276771635
 20
12.1975676135
 30
0.0
 10
17.3344772605
 20
12.2007831385
 30
0.0
 10
17.343555733
 20
12.2043450098
 30
0.0
 10
17.3551457934
 20
12.2078375967
 30
0.0
 10
17.3674830001
 20
12.2105769678
 30
0.0
 10
17.380483421
 20
12.212545139
 30
0.0
 10
17.3940594714
 20
12.2137293738
 30
0.0
 10
17.4081192487
 20
12.214121919
 30
0.0
 10
17.4225675013
 20
12.2137202816
 30
0.0
 10
17.4373061904
 20
12.2125272707
 30
0.0
 10
17.4522352023
 20
12.2105510319
 30
0.0
 10
17.4672530483
 20
12.207805017
 30
0.0
 10
17.4822575781
 20
12.204307908
 30
0.0
 10
17.497146696
 20
12.2000835001
 30
0.0
 10
17.5118190697
 20
12.1951605419
 30
0.0
 10
17.5261748438
 20
12.1895725375
 30
0.0
 10
17.5401163346
 20
12.1833575113
 30
0.0
 10
17.5535487088
 20
12.1765577341
 30
0.0
 10
17.5663806392
 20
12.1692194193
 30
0.0
 10
17.5785249428
 20
12.1613923784
 30
0.0
 10
17.5898991729
 20
12.1531296425
 30
0.0
 10
17.6004261701
 20
12.1444870748
 30
0.0
 10
17.6100345645
 20
12.1355228714
 30
0.0
 10
17.6186591698
 20
12.1262972951
 30
0.0
 10
17.6262415296
 20
12.1168715047
 30
0.0
 10
17.6327292241
 20
12.1073094468
 30
0.0
 10
17.6363815005
 20
12.1007287915
 30
0.0
 10
17.6379966186
 20
12.0974375269
 30
0.0
  0
SPLINE
  5
2F2
100
AcDbEntity
  8
0
100
AcDbSpline
 62
7
  6
CONTINUOUS
 70
0
 71
3
 72
46
 73
42
 74
0
 42
0.0000001
 43
0.0000001
 44
0.0000000001
 40
0.0
 40
0.0
 40
0.0
 40
0.0
 40
0.0107123392
 40
0.0214620918
 40
0.0322860225
 40
0.0432196785
 40
0.0542967718
 40
0.06554881
 40
0.0770046458
 40
0.0886903024
 40
0.1006287638
 40
0.1128399063
 40
0.1253405381
 40
0.1381443623
 40
0.1512622212
 40
0.1647020132
 40
0.1925597686
 40
0.2217376495
 40
0.2522130101
 40
0.2839327041
 40
0.3168174767
 40
0.3507659828
 40
0.3856583439
 40
0.4213593535
 40
0.4577213967
 40
0.4945871493
 40
0.5317921747
 40
0.5691673244
 40
0.6065411137
 40
0.643742069
 40
0.6806011099
 40
0.7169538639
 40
0.7526431421
 40
0.7875214952
 40
0.8214539656
 40
0.8543209384
 40
0.8860213938
 40
0.9164764181
 40
0.9456334421
 40
0.9734700418
 40
1.0
 40
1.0
 40
1.0
 40
1.0
 10
14.4618999994
 20
14.2507300462
 30
0.0
 10
14.4623370705
 20
14.2521444015
 30
0.0
 10
14.463315582
 20
14.2549474346
 30
0.0
 10
14.4650871983
 20
14.2590462262
 30
0.0
 10
14.4671604882
 20
14.2630356722
 30
0.0
 10
14.4695317833
 20
14.2669084458
 30
0.0
 10
14.472196717
 20
14.2706580052
 30
0.0
 10
14.4751506141
 20
14.2742778272
 30
0.0
 10
14.4783881678
 20
14.2777618028
 30
0.0
 10
14.4819037019
 20
14.2811040128
 30
0.0
 10
14.4856910667
 20
14.2842988299
 30
0.0
 10
14.4897436544
 20
14.2873409345
 30
0.0
 10
14.4940545101
 20
14.2902251766
 30
0.0
 10
14.4986161418
 20
14.2929468194
 30
0.0
 10
14.5034208703
 20
14.2955012564
 30
0.0
 10
14.5102209673
 20
14.2987167814
 30
0.0
 10
14.5192994399
 20
14.3022786527
 30
0.0
 10
14.5308895002
 20
14.3057712396
 30
0.0
 10
14.5432267069
 20
14.3085106107
 30
0.0
 10
14.5562271278
 20
14.3104787819
 30
0.0
 10
14.5698031783
 20
14.3116630167
 30
0.0
 10
14.5838629555
 20
14.3120555619
 30
0.0
 10
14.5983112081
 20
14.3116539245
 30
0.0
 10
14.6130498972
 20
14.3104609136
 30
0.0
 10
14.6279789091
 20
14.3084846748
 30
0.0
 10
14.6429967551
 20
14.3057386599
 30
0.0
 10
14.6580012849
 20
14.3022415509
 30
0.0
 10
14.6728904029
 20
14.298017143
 30
0.0
 10
14.6875627765
 20
14.2930941848
 30
0.0
 10
14.7019185507
 20
14.2875061804
 30
0.0
 10
14.7158600414
 20
14.2812911542
 30
0.0
 10
14.7292924157
 20
14.274491377
 30
0.0
 10
14.742124346
 20
14.2671530622
 30
0.0
 10
14.7542686496
 20
14.2593260213
 30
0.0
 10
14.7656428797
 20
14.2510632854
 30
0.0
 10
14.7761698769
 20
14.2424207177
 30
0.0
 10
14.7857782713
 20
14.2334565143
 30
0.0
 10
14.7944028766
 20
14.224230938
 30
0.0
 10
14.8019852364
 20
14.2148051476
 30
0.0
 10
14.8084729309
 20
14.2052430897
 30
0.0
 10
14.8121252073
 20
14.1986624344
 30
0.0
 10
14.8137403254
 20
14.1953711698
 30
0.0
  0
SPLINE
  5
2F3
100
AcDbEntity
  8
0
100
AcDbSpline
 62
7
  6
CONTINUOUS
 70
0
 71
3
 72
22
 73
18
 74
0
 42
0.0000001
 43
0.0000001
 44
0.0000000001
 40
0.0
 40
0.0
 40
0.0
 40
0.0
 40
0.0581655815
 40
0.1164450339
 40
0.1749511336
 40
0.2337944926
 40
0.2930825532
 40
0.3529186824
 40
0.4134013768
 40
0.4746235862
 40
0.5366721528
 40
0.5996274104
 40
0.6635628583
 40
0.7285450612
 40
0.7946335649
 40
0.8618802834
 40
1.0
 40
1.0
 40
1.0
 40
1.0
 10
12.9093779853
 20
13.6512359884
 30
0.0
 10
12.9049106237
 20
13.6367796422
 30
0.0
 10
12.8967480649
 20
13.6075906734
 30
0.0
 10
12.8868689865
 20
13.5631436116
 30
0.0
 10
12.8793582798
 20
13.5180557495
 30
0.0
 10
12.8742235179
 20
13.4723726382
 30
0.0
 10
12.8714691675
 20
13.4261382273
 30
0.0
 10
12.871097495
 20
13.379397475
 30
0.0
 10
12.8731083726
 20
13.3321955611
 30
0.0
 10
12.8774993762
 20
13.2845780411
 30
0.0
 10
12.8842657287
 20
13.2365907303
 30
0.0
 10
12.8934003602
 20
13.1882797271
 30
0.0
 10
12.9048940172
 20
13.1396912039
 30
0.0
 10
12.9187350576
 20
13.0908719773
 30
0.0
 10
12.9349103996
 20
13.0418673138
 30
0.0
 10
12.9597859842
 20
12.9757640288
 30
0.0
 10
12.9815965167
 20
12.9269198301
 30
0.0
 10
12.9974250822
 20
12.8946646049
 30
0.0
  0
SPLINE
  5
2F4
100
AcDbEntity
  8
0
100
AcDbSpline
 62
7
  6
CONTINUOUS
 70
0
 71
3
 72
38
 73
34
 74
0
 42
0.0000001
 43
0.0000001
 44
0.0000000001
 40
0.0
 40
0.0
 40
0.0
 40
0.0
 40
0.0259061162
 40
0.0518554062
 40
0.0778906879
 40
0.1040540787
 40
0.1303866714
 40
0.1569282251
 40
0.1837168945
 40
0.2107890015
 40
0.2381788354
 40
0.2659184829
 40
0.2940377202
 40
0.3225639325
 40
0.3515220462
 40
0.3809345116
 40
0.4411898023
 40
0.4720755276
 40
0.503481079
 40
0.5354169882
 40
0.5678915738
 40
0.6009110356
 40
0.6344795533
 40
0.6685993567
 40
0.7032708038
 40
0.7384924959
 40
0.7742613537
 40
0.8105726602
 40
0.8474202559
 40
0.8847964465
 40
0.9226920177
 40
0.9610975915
 40
1.0
 40
1.0
 40
1.0
 40
1.0
 10
13.0228465744
 20
14.0184204772
 30
0.0
 10
13.026967516
 20
14.0317558112
 30
0.0
 10
13.0358835414
 20
14.0582477272
 30
0.0
 10
13.0512386986
 20
14.0973207604
 30
0.0
 10
13.0685673016
 20
14.1357126328
 30
0.0
 10
13.0878544878
 20
14.1733904134
 30
0.0
 10
13.109084305
 20
14.2103234595
 30
0.0
 10
13.1322389989
 20
14.2464813889
 30
0.0
 10
13.1572992337
 20
14.281834683
 30
0.0
 10
13.1842441755
 20
14.31635449
 30
0.0
 10
13.2130514974
 20
14.3500127007
 30
0.0
 10
13.2436972851
 20
14.3827820238
 30
0.0
 10
13.2761562793
 20
14.414635966
 30
0.0
 10
13.3104015694
 20
14.4455485949
 30
0.0
 10
13.3464057823
 20
14.4754955164
 30
0.0
 10
13.3971190527
 20
14.514413641
 30
0.0
 10
13.4508917932
 20
14.5509692824
 30
0.0
 10
13.5073916198
 20
14.5851491998
 30
0.0
 10
13.5517176799
 20
14.6099199165
 30
0.0
 10
13.5976039218
 20
14.6335914105
 30
0.0
 10
13.6450142074
 20
14.656145468
 30
0.0
 10
13.693909606
 20
14.6775637085
 30
0.0
 10
13.7442504549
 20
14.6978288989
 30
0.0
 10
13.7959957977
 20
14.7169246581
 30
0.0
 10
13.8491035534
 20
14.7348356232
 30
0.0
 10
13.9035305534
 20
14.7515473249
 30
0.0
 10
13.959232563
 20
14.7670462167
 30
0.0
 10
14.0161643072
 20
14.7813198216
 30
0.0
 10
14.0742795096
 20
14.794356593
 30
0.0
 10
14.1335308093
 20
14.8061459358
 30
0.0
 10
14.1938704982
 20
14.8166784426
 30
0.0
 10
14.2552486815
 20
14.8259453382
 30
0.0
 10
14.2965662124
 20
14.831241287
 30
0.0
 10
14.3173834121
 20
14.83368055
 30
0.0
  0
SPLINE
  5
2F5
100
AcDbEntity
  8
0
100
AcDbSpline
 62
7
  6
CONTINUOUS
 70
0
 71
3
 72
21
 73
17
 74
0
 42
0.0000001
 43
0.0000001
 44
0.0000000001
 40
0.0
 40
0.0
 40
0.0
 40
0.0
 40
0.0612412441
 40
0.1224928695
 40
0.1838031277
 40
0.2451858965
 40
0.3066700045
 40
0.3682875093
 40
0.4300699876
 40
0.4920533896
 40
0.5542756296
 40
0.6167767188
 40
0.679599224
 40
0.7427858554
 40
0.8704008459
 40
1.0
 40
1.0
 40
1.0
 40
1.0
 10
14.1814859412
 20
14.4017443738
 30
0.0
 10
14.1803642086
 20
14.3981144459
 30
0.0
 10
14.1783132341
 20
14.3907928063
 30
0.0
 10
14.1758239248
 20
14.3796598204
 30
0.0
 10
14.173924228
 20
14.3684020375
 30
0.0
 10
14.1726156065
 20
14.357046004
 30
0.0
 10
14.1718957743
 20
14.3456185144
 30
0.0
 10
14.1717600226
 20
14.3341445311
 30
0.0
 10
14.1722016178
 20
14.3226474124
 30
0.0
 10
14.1732115035
 20
14.3111487485
 30
0.0
 10
14.1747794648
 20
14.2996679978
 30
0.0
 10
14.1768939904
 20
14.2882225457
 30
0.0
 10
14.1795429024
 20
14.2768274593
 30
0.0
 10
14.1837839381
 20
14.2616708302
 30
0.0
 10
14.1903782647
 20
14.2428933718
 30
0.0
 10
14.1968735594
 20
14.2282978371
 30
0.0
 10
14.2004155668
 20
14.2210799849
 30
0.0
  0
SPLINE
  5
2F6
100
AcDbEntity
  8
0
100
AcDbSpline
 62
7
  6
CONTINUOUS
 70
0
 71
3
 72
22
 73
18
 74
0
 42
0.0000001
 43
0.0000001
 44
0.0000000001
 40
0.0
 40
0.0
 40
0.0
 40
0.0
 40
0.0602241337
 40
0.1204807976
 40
0.1808279561
 40
0.241301935
 40
0.3019579312
 40
0.3628521544
 40
0.4240478551
 40
0.4856133123
 40
0.5476199874
 40
0.6101418233
 40
0.6732533256
 40
0.7370268735
 40
0.801531294
 40
0.8668303754
 40
1.0
 40
1.0
 40
1.0
 40
1.0
 10
13.4162622477
 20
12.3038107309
 30
0.0
 10
13.4147918982
 20
12.2990526779
 30
0.0
 10
13.4121814924
 20
12.2894280341
 30
0.0
 10
13.4092782249
 20
12.2747479379
 30
0.0
 10
13.407390226
 20
12.2598817604
 30
0.0
 10
13.4065153887
 20
12.2448892056
 30
0.0
 10
13.4066422598
 20
12.2298268505
 30
0.0
 10
13.4077536622
 20
12.2147457075
 30
0.0
 10
13.4098270121
 20
12.1996911335
 30
0.0
 10
13.4128364257
 20
12.1847021843
 30
0.0
 10
13.4167540899
 20
12.1698117977
 30
0.0
 10
13.4215512828
 20
12.1550472096
 30
0.0
 10
13.4271995148
 20
12.1404306304
 30
0.0
 10
13.433671112
 20
12.1259804167
 30
0.0
 10
13.4409399458
 20
12.1117110459
 30
0.0
 10
13.4517293456
 20
12.092823873
 30
0.0
 10
13.4608499073
 20
12.0791460978
 30
0.0
 10
13.4673319538
 20
12.0702439138
 30
0.0
  0
SPLINE
  5
2F7
100
AcDbEntity
  8
0
100
AcDbSpline
 62
7
  6
CONTINUOUS
 70
0
 71
3
 72
16
 73
12
 74
0
 42
0.0000001
 43
0.0000001
 44
0.0000000001
 40
0.0
 40
0.0
 40
0.0
 40
0.0
 40
0.138147879
 40
0.2054143665
 40
0.2715175405
 40
0.4004311626
 40
0.5254296028
 40
0.6471247745
 40
0.7662363488
 40
0.8835709786
 40
1.0
 40
1.0
 40
1.0
 40
1.0
 10
14.4683424527
 20
14.1953711698
 30
0.0
 10
14.4671842902
 20
14.1977312567
 30
0.0
 10
14.4655884288
 20
14.2013052302
 30
0.0
 10
14.4637681791
 20
14.2061421471
 30
0.0
 10
14.4622033286
 20
14.2108829995
 30
0.0
 10
14.4606619374
 20
14.2167832584
 30
0.0
 10
14.4594885116
 20
14.2238444884
 30
0.0
 10
14.4590124562
 20
14.2308008065
 30
0.0
 10
14.459237023
 20
14.2376247934
 30
0.0
 10
14.4601620594
 20
14.2442881569
 30
0.0
 10
14.4612458354
 20
14.248613182
 30
0.0
 10
14.4618999994
 20
14.2507300462
 30
0.0
  0
LINE
  5
2F8
100
AcDbEntity
  8
0
100
AcDbLine
 62
7
  6
CONTINUOUS
 10
15.3964928373
 20
13.7457972335
 11
15.3810627403
 21
13.7726372479
  0
SPLINE
  5
2F9
100
AcDbEntity
  8
0
100
AcDbSpline
 62
7
  6
CONTINUOUS
 70
0
 71
3
 72
11
 73
7
 74
0
 42
0.0000001
 43
0.0000001
 44
0.0000000001
 40
0.0
 40
0.0
 40
0.0
 40
0.0
 40
0.2701868682
 40
0.5275514006
 40
0.7711110475
 40
1.0
 40
1.0
 40
1.0
 40
1.0
 10
15.349454539
 20
13.8444265186
 30
0.0
 10
15.3489942948
 20
13.8462368942
 30
0.0
 10
15.348022821
 20
13.8497538289
 30
0.0
 10
15.3463680922
 20
13.8548237968
 30
0.0
 10
15.3445619802
 20
13.8595374885
 30
0.0
 10
15.3432207302
 20
13.8625183758
 30
0.0
 10
15.3425235954
 20
13.8639389874
 30
0.0
  0
SPLINE
  5
2FA
100
AcDbEntity
  8
0
100
AcDbSpline
 62
7
  6
CONTINUOUS
 70
0
 71
3
 72
18
 73
14
 74
0
 42
0.0000001
 43
0.0000001
 44
0.0000000001
 40
0.0
 40
0.0
 40
0.0
 40
0.0
 40
0.1245910765
 40
0.2511769673
 40
0.3791674495
 40
0.5077741186
 40
0.6359294501
 40
0.6993974132
 40
0.762157901
 40
0.8239382003
 40
0.8844181815
 40
0.9432415776
 40
1.0
 40
1.0
 40
1.0
 40
1.0
 10
15.3810612545
 20
13.7726387564
 30
0.0
 10
15.3794164922
 20
13.7754611947
 30
0.0
 10
15.3761675296
 20
13.7811906121
 30
0.0
 10
15.3714814877
 20
13.7899595929
 30
0.0
 10
15.3669661008
 20
13.7989358569
 30
0.0
 10
15.3626797888
 20
13.8080694044
 30
0.0
 10
15.3593413858
 20
13.8157751965
 30
0.0
 10
15.356849192
 20
13.8219622383
 30
0.0
 10
15.3550930596
 20
13.8265686526
 30
0.0
 10
15.3534586218
 20
13.8311365671
 30
0.0
 10
15.3519613498
 20
13.8356427156
 30
0.0
 10
15.3506182231
 20
13.840059794
 30
0.0
 10
15.349821208
 20
13.8429842219
 30
0.0
 10
15.349454539
 20
13.8444265186
 30
0.0
  0
SPLINE
  5
2FB
100
AcDbEntity
  8
0
100
AcDbSpline
 62
7
  6
CONTINUOUS
 70
0
 71
3
 72
11
 73
7
 74
0
 42
0.0000001
 43
0.0000001
 44
0.0000000001
 40
0.0
 40
0.0
 40
0.0
 40
0.0
 40
0.2477917307
 40
0.4973892054
 40
0.748295581
 40
1.0
 40
1.0
 40
1.0
 40
1.0
 10
16.9116456294
 20
12.6839889007
 30
0.0
 10
16.9138161885
 20
12.6838840473
 30
0.0
 10
16.918167231
 20
12.683522238
 30
0.0
 10
16.9246597758
 20
12.6825351822
 30
0.0
 10
16.9311059816
 20
12.6811122365
 30
0.0
 10
16.9353415776
 20
12.6798786872
 30
0.0
 10
16.9374395948
 20
12.6791924256
 30
0.0
  0
SPLINE
  5
2FC
100
AcDbEntity
  8
0
100
AcDbSpline
 62
7
  6
CONTINUOUS
 70
0
 71
3
 72
15
 73
11
 74
0
 42
0.0000001
 43
0.0000001
 44
0.0000000001
 40
0.0
 40
0.0
 40
0.0
 40
0.0
 40
0.1594637899
 40
0.3106333949
 40
0.4519126137
 40
0.5826181473
 40
0.7026046518
 40
0.8119974334
 40
0.9110371817
 40
1.0
 40
1.0
 40
1.0
 40
1.0
 10
16.9116456294
 20
12.6839889007
 30
0.0
 10
16.9084129992
 20
12.6841450596
 30
0.0
 10
16.9021114862
 20
12.6843656367
 30
0.0
 10
16.8929389428
 20
12.6844405643
 30
0.0
 10
16.8843512528
 20
12.6842785288
 30
0.0
 10
16.8764035991
 20
12.6839067485
 30
0.0
 10
16.8691154939
 20
12.6833524709
 30
0.0
 10
16.8624867592
 20
12.6826417593
 30
0.0
 10
16.8565109015
 20
12.6817849853
 30
0.0
 10
16.8527552552
 20
12.6811038245
 30
0.0
 10
16.8509871074
 20
12.680738242
 30
0.0
  0
SPLINE
  5
2FD
100
AcDbEntity
  8
0
100
AcDbSpline
 62
7
  6
CONTINUOUS
 70
0
 71
3
 72
12
 73
8
 74
0
 42
0.0000001
 43
0.0000001
 44
0.0000000001
 40
0.0
 40
0.0
 40
0.0
 40
0.0
 40
0.2832952474
 40
0.5441665936
 40
0.6662679428
 40
0.7828779196
 40
1.0
 40
1.0
 40
1.0
 40
1.0
 10
16.8509856479
 20
12.6807389213
 30
0.0
 10
16.8496428399
 20
12.6804614435
 30
0.0
 10
16.8470820661
 20
12.6798307817
 30
0.0
 10
16.8440292265
 20
12.6787737881
 30
0.0
 10
16.8418170207
 20
12.6777939178
 30
0.0
 10
16.839856452
 20
12.6767808066
 30
0.0
 10
16.8384929122
 20
12.6759008192
 30
0.0
 10
16.8376610173
 20
12.675258693
 30
0.0
  0
SPLINE
  5
2FE
100
AcDbEntity
  8
0
100
AcDbSpline
 62
7
  6
CONTINUOUS
 70
0
 71
3
 72
32
 73
28
 74
0
 42
0.0000001
 43
0.0000001
 44
0.0000000001
 40
0.0
 40
0.0
 40
0.0
 40
0.0
 40
0.0222573408
 40
0.04462804
 40
0.0672226234
 40
0.0901461968
 40
0.1134962401
 40
0.1373608062
 40
0.1618175135
 40
0.1869328025
 40
0.2127616321
 40
0.2393478388
 40
0.266724318
 40
0.2949135956
 40
0.3239286749
 40
0.3537734532
 40
0.3844435765
 40
0.4159272287
 40
0.4482055122
 40
0.4812533149
 40
0.5495173655
 40
0.6204266969
 40
0.6936083427
 40
0.7686363014
 40
0.8450442644
 40
0.922335787
 40
1.0
 40
1.0
 40
1.0
 40
1.0
 10
17.6444390707
 20
12.0420786509
 30
0.0
 10
17.6439107047
 20
12.0403688821
 30
0.0
 10
17.6427006452
 20
12.0369851383
 30
0.0
 10
17.640442333
 20
12.0320676208
 30
0.0
 10
17.6377448654
 20
12.0273146687
 30
0.0
 10
17.6346156375
 20
12.0227389364
 30
0.0
 10
17.6310629024
 20
12.018351861
 30
0.0
 10
17.6270961343
 20
12.0141643135
 30
0.0
 10
17.6227256218
 20
12.0101865934
 30
0.0
 10
17.6179625896
 20
12.0064284172
 30
0.0
 10
17.6128192134
 20
12.0028988062
 30
0.0
 10
17.6073084287
 20
11.999606341
 30
0.0
 10
17.6014440659
 20
11.9965589645
 30
0.0
 10
17.5952407978
 20
11.9937639808
 30
0.0
 10
17.5887140438
 20
11.9912282333
 30
0.0
 10
17.5818800579
 20
11.9889578428
 30
0.0
 10
17.5747558252
 20
11.9869583014
 30
0.0
 10
17.567359057
 20
11.9852345777
 30
0.0
 10
17.5597080477
 20
11.983790782
 30
0.0
 10
17.5490790322
 20
11.9822270609
 30
0.0
 10
17.535271113
 20
11.9810143546
 30
0.0
 10
17.5181867797
 20
11.9807297364
 30
0.0
 10
17.5005784104
 20
11.9816027766
 30
0.0
 10
17.4826208639
 20
11.9836247026
 30
0.0
 10
17.4644915447
 20
11.9867755124
 30
0.0
 10
17.4463707984
 20
11.9910236357
 30
0.0
 10
17.4344158049
 20
11.99455932
 30
0.0
 10
17.4284808401
 20
11.9965006475
 30
0.0
  0
SPLINE
  5
2FF
100
AcDbEntity
  8
0
100
AcDbSpline
 62
7
  6
CONTINUOUS
 70
0
 71
3
 72
10
 73
6
 74
0
 42
0.0000001
 43
0.0000001
 44
0.0000000001
 40
0.0
 40
0.0
 40
0.0
 40
0.0
 40
0.2487604303
 40
0.4987958499
 40
1.0
 40
1.0
 40
1.0
 40
1.0
 10
14.4098847038
 20
13.7726372479
 30
0.0
 10
14.4083589068
 20
13.7702915779
 30
0.0
 10
14.4052193862
 20
13.7656394718
 30
0.0
 10
14.3985994442
 20
13.7565434579
 30
0.0
 10
14.3932373506
 20
13.7499956012
 30
0.0
 10
14.3894743629
 20
13.7457972335
 30
0.0
  0
SPLINE
  5
300
100
AcDbEntity
  8
0
100
AcDbSpline
 62
7
  6
CONTINUOUS
 70
0
 71
3
 72
22
 73
18
 74
0
 42
0.0000001
 43
0.0000001
 44
0.0000000001
 40
0.0
 40
0.0
 40
0.0
 40
0.0
 40
0.0351652291
 40
0.0737217779
 40
0.1158802703
 40
0.1617762851
 40
0.2114857508
 40
0.2650405001
 40
0.3224361576
 40
0.3836399456
 40
0.4485953696
 40
0.5172261449
 40
0.5894397223
 40
0.6651258785
 40
0.7441622186
 40
0.8264205713
 40
1.0
 40
1.0
 40
1.0
 40
1.0
 10
13.708063844
 20
13.2101720236
 30
0.0
 10
13.7082793796
 20
13.2096273249
 30
0.0
 10
13.7086633748
 20
13.2084579924
 30
0.0
 10
13.7090902811
 20
13.2065732222
 30
0.0
 10
13.7093933735
 20
13.2044840945
 30
0.0
 10
13.709572119
 20
13.2021947653
 30
0.0
 10
13.7096263724
 20
13.1997094915
 30
0.0
 10
13.7095559747
 20
13.1970332143
 30
0.0
 10
13.7093610672
 20
13.1941713286
 30
0.0
 10
13.7090419997
 20
13.1911297135
 30
0.0
 10
13.708599383
 20
13.1879146728
 30
0.0
 10
13.7080341117
 20
13.1845328967
 30
0.0
 10
13.7073472973
 20
13.1809914911
 30
0.0
 10
13.7065404021
 20
13.1772979238
 30
0.0
 10
13.7056150612
 20
13.1734599127
 30
0.0
 10
13.7042003482
 20
13.1680635857
 30
0.0
 10
13.7030046597
 20
13.1639717651
 30
0.0
 10
13.702150942
 20
13.1612091336
 30
0.0
  0
SPLINE
  5
301
100
AcDbEntity
  8
0
100
AcDbSpline
 62
7
  6
CONTINUOUS
 70
0
 71
3
 72
46
 73
42
 74
0
 42
0.0000001
 43
0.0000001
 44
0.0000000001
 40
0.0
 40
0.0
 40
0.0
 40
0.0
 40
0.0107123392
 40
0.0214620918
 40
0.0322860225
 40
0.0432196785
 40
0.0542967718
 40
0.06554881
 40
0.0770046458
 40
0.0886903024
 40
0.1006287638
 40
0.1128399063
 40
0.1253405381
 40
0.1381443623
 40
0.1512622212
 40
0.1647020132
 40
0.1925597686
 40
0.2217376495
 40
0.2522130101
 40
0.2839327041
 40
0.3168174767
 40
0.3507659828
 40
0.3856583439
 40
0.4213593535
 40
0.4577213967
 40
0.4945871493
 40
0.5317921747
 40
0.5691673244
 40
0.6065411137
 40
0.643742069
 40
0.6806011099
 40
0.7169538639
 40
0.7526431421
 40
0.7875214952
 40
0.8214539656
 40
0.8543209384
 40
0.8860213938
 40
0.9164764181
 40
0.9456334421
 40
0.9734700418
 40
1.0
 40
1.0
 40
1.0
 40
1.0
 10
14.8201827787
 20
14.1400122934
 30
0.0
 10
14.8197457076
 20
14.1385979381
 30
0.0
 10
14.8187671961
 20
14.1357949051
 30
0.0
 10
14.8169955797
 20
14.1316961135
 30
0.0
 10
14.8149222898
 20
14.1277066674
 30
0.0
 10
14.8125509948
 20
14.1238338938
 30
0.0
 10
14.8098860611
 20
14.1200843345
 30
0.0
 10
14.806932164
 20
14.1164645125
 30
0.0
 10
14.8036946103
 20
14.1129805369
 30
0.0
 10
14.8001790762
 20
14.1096383268
 30
0.0
 10
14.7963917114
 20
14.1064435097
 30
0.0
 10
14.7923391237
 20
14.1034014051
 30
0.0
 10
14.7880282679
 20
14.100517163
 30
0.0
 10
14.7834666363
 20
14.0977955202
 30
0.0
 10
14.7786619078
 20
14.0952410832
 30
0.0
 10
14.7718618107
 20
14.0920255583
 30
0.0
 10
14.7627833382
 20
14.0884636869
 30
0.0
 10
14.7511932778
 20
14.0849711001
 30
0.0
 10
14.7388560711
 20
14.082231729
 30
0.0
 10
14.7258556502
 20
14.0802635577
 30
0.0
 10
14.7122795998
 20
14.0790793229
 30
0.0
 10
14.6982198226
 20
14.0786867777
 30
0.0
 10
14.68377157
 20
14.0790884151
 30
0.0
 10
14.6690328808
 20
14.080281426
 30
0.0
 10
14.6541038689
 20
14.0822576648
 30
0.0
 10
14.639086023
 20
14.0850036798
 30
0.0
 10
14.6240814931
 20
14.0885007887
 30
0.0
 10
14.6091923752
 20
14.0927251966
 30
0.0
 10
14.5945200016
 20
14.0976481549
 30
0.0
 10
14.5801642274
 20
14.1032361593
 30
0.0
 10
14.5662227366
 20
14.1094511854
 30
0.0
 10
14.5527903624
 20
14.1162509627
 30
0.0
 10
14.539958432
 20
14.1235892775
 30
0.0
 10
14.5278141285
 20
14.1314163184
 30
0.0
 10
14.5164398984
 20
14.1396790543
 30
0.0
 10
14.5059129011
 20
14.1483216219
 30
0.0
 10
14.4963045067
 20
14.1572858253
 30
0.0
 10
14.4876799014
 20
14.1665114016
 30
0.0
 10
14.4800975416
 20
14.1759371921
 30
0.0
 10
14.4736098472
 20
14.1854992499
 30
0.0
 10
14.4699575707
 20
14.1920799053
 30
0.0
 10
14.4683424527
 20
14.1953711698
 30
0.0
  0
SPLINE
  5
302
100
AcDbEntity
  8
0
100
AcDbSpline
 62
7
  6
CONTINUOUS
 70
0
 71
3
 72
16
 73
12
 74
0
 42
0.0000001
 43
0.0000001
 44
0.0000000001
 40
0.0
 40
0.0
 40
0.0
 40
0.0
 40
0.138147879
 40
0.2054143665
 40
0.2715175405
 40
0.4004311626
 40
0.5254296028
 40
0.6471247745
 40
0.7662363488
 40
0.8835709786
 40
1.0
 40
1.0
 40
1.0
 40
1.0
 10
17.2925987458
 20
12.0974375269
 30
0.0
 10
17.2914405834
 20
12.0997976138
 30
0.0
 10
17.2898447219
 20
12.1033715873
 30
0.0
 10
17.2880244723
 20
12.1082085042
 30
0.0
 10
17.2864596218
 20
12.1129493565
 30
0.0
 10
17.2849182306
 20
12.1188496155
 30
0.0
 10
17.2837448048
 20
12.1259108455
 30
0.0
 10
17.2832687494
 20
12.1328671636
 30
0.0
 10
17.2834933162
 20
12.1396911505
 30
0.0
 10
17.2844183525
 20
12.146354514
 30
0.0
 10
17.2855021286
 20
12.1506795391
 30
0.0
 10
17.2861562925
 20
12.1527964033
 30
0.0
  0
SPLINE
  5
303
100
AcDbEntity
  8
0
100
AcDbSpline
 62
7
  6
CONTINUOUS
 70
0
 71
3
 72
22
 73
18
 74
0
 42
0.0000001
 43
0.0000001
 44
0.0000000001
 40
0.0
 40
0.0
 40
0.0
 40
0.0
 40
0.1410492449
 40
0.2109470739
 40
0.2801571377
 40
0.3484882762
 40
0.4157587593
 40
0.4817961767
 40
0.5464401738
 40
0.6095444233
 40
0.670979008
 40
0.7306329537
 40
0.7884168373
 40
0.8442662665
 40
0.8981437681
 40
0.9500458747
 40
1.0
 40
1.0
 40
1.0
 40
1.0
 10
17.4284808401
 20
11.9965006475
 30
0.0
 10
17.4207336508
 20
11.9990347537
 30
0.0
 10
17.4092820909
 20
12.0032588292
 30
0.0
 10
17.3944350208
 20
12.009721783
 30
0.0
 10
17.3836340087
 20
12.0149297491
 30
0.0
 10
17.3731819085
 20
12.0204899275
 30
0.0
 10
17.3631229895
 20
12.0263787282
 30
0.0
 10
17.3535002408
 20
12.0325710286
 30
0.0
 10
17.3443546692
 20
12.0390404635
 30
0.0
 10
17.3357252611
 20
12.045759516
 30
0.0
 10
17.3276487738
 20
12.0526996456
 30
0.0
 10
17.3201596191
 20
12.0598314257
 30
0.0
 10
17.3132896726
 20
12.0671246975
 30
0.0
 10
17.307068316
 20
12.0745486402
 30
0.0
 10
17.3015219436
 20
12.082072224
 30
0.0
 10
17.2966748686
 20
12.0896632144
 30
0.0
 10
17.2938705068
 20
12.0948459505
 30
0.0
 10
17.2925987458
 20
12.0974375269
 30
0.0
  0
SPLINE
  5
304
100
AcDbEntity
  8
0
100
AcDbSpline
 62
7
  6
CONTINUOUS
 70
0
 71
3
 72
21
 73
17
 74
0
 42
0.0000001
 43
0.0000001
 44
0.0000000001
 40
0.0
 40
0.0
 40
0.0
 40
0.0
 40
0.057315401
 40
0.1147678381
 40
0.1724978271
 40
0.2306405987
 40
0.2893254086
 40
0.3486760289
 40
0.408809208
 40
0.4698333241
 40
0.5318479264
 40
0.5949433728
 40
0.7246546073
 40
0.7914378719
 40
0.8595676421
 40
1.0
 40
1.0
 40
1.0
 40
1.0
 10
13.4283655954
 20
12.3429770666
 30
0.0
 10
13.4293383228
 20
12.3461248532
 30
0.0
 10
13.4314768865
 20
12.3523708008
 30
0.0
 10
13.4352497281
 20
12.3615467831
 30
0.0
 10
13.4395846821
 20
12.3705241289
 30
0.0
 10
13.444476185
 20
12.3792917247
 30
0.0
 10
13.4499184042
 20
12.3878390287
 30
0.0
 10
13.4559044678
 20
12.3961558102
 30
0.0
 10
13.4624271245
 20
12.4042321197
 30
0.0
 10
13.4694782913
 20
12.4120583274
 30
0.0
 10
13.4770496328
 20
12.4196253921
 30
0.0
 10
13.4879242528
 20
12.4294461501
 30
0.0
 10
13.4997277203
 20
12.4386183981
 30
0.0
 10
13.5123416734
 20
12.4471262443
 30
0.0
 10
13.525839255
 20
12.4554000996
 30
0.0
 10
13.5364512335
 20
12.4610147829
 30
0.0
 10
13.5437237347
 20
12.4645184025
 30
0.0
  0
SPLINE
  5
305
100
AcDbEntity
  8
0
100
AcDbSpline
 62
7
  6
CONTINUOUS
 70
0
 71
3
 72
16
 73
12
 74
0
 42
0.0000001
 43
0.0000001
 44
0.0000000001
 40
0.0
 40
0.0
 40
0.0
 40
0.0
 40
0.1401642091
 40
0.2765226564
 40
0.4087268231
 40
0.5364851695
 40
0.6595786154
 40
0.7778699799
 40
0.8352072161
 40
0.8913361857
 40
1.0
 40
1.0
 40
1.0
 40
1.0
 10
14.9686872456
 20
14.4664960611
 30
0.0
 10
14.9780089537
 20
14.4602198255
 30
0.0
 10
14.996100567
 20
14.4473859743
 30
0.0
 10
15.0218173664
 20
14.4270516738
 30
0.0
 10
15.0456304706
 20
14.4059877436
 30
0.0
 10
15.0674101714
 20
14.3843077641
 30
0.0
 10
15.0870377865
 20
14.3621288712
 30
0.0
 10
15.1016621901
 20
14.3431341892
 30
0.0
 10
15.1121549609
 20
14.327793859
 30
0.0
 10
15.1216340298
 20
14.3127135217
 30
0.0
 10
15.1279921111
 20
14.3011081883
 30
0.0
 10
15.1318301765
 20
14.2932870335
 30
0.0
  0
SPLINE
  5
306
100
AcDbEntity
  8
0
100
AcDbSpline
 62
7
  6
CONTINUOUS
 70
0
 71
3
 72
39
 73
35
 74
0
 42
0.0000001
 43
0.0000001
 44
0.0000000001
 40
0.0
 40
0.0
 40
0.0
 40
0.0
 40
0.0240823135
 40
0.0487938517
 40
0.0741453813
 40
0.1001418907
 40
0.1267833083
 40
0.1540647127
 40
0.1819767486
 40
0.2105059575
 40
0.2396351094
 40
0.2693435122
 40
0.2996073038
 40
0.3303997292
 40
0.3616913945
 40
0.3934505165
 40
0.4256431539
 40
0.4582334284
 40
0.4911837349
 40
0.5244549449
 40
0.5580066014
 40
0.5917971089
 40
0.6257839165
 40
0.6599236983
 40
0.6941725348
 40
0.7284860817
 40
0.762819745
 40
0.7971288539
 40
0.8313688312
 40
0.8654953709
 40
0.8994645895
 40
0.9332332763
 40
0.9667588462
 40
1.0
 40
1.0
 40
1.0
 40
1.0
 10
17.7178626765
 20
12.8946646049
 30
0.0
 10
17.7062496342
 20
12.918329497
 30
0.0
 10
17.6814404705
 20
12.9656595496
 30
0.0
 10
17.6402087653
 20
13.0356011869
 30
0.0
 10
17.5945634652
 20
13.1052647992
 30
0.0
 10
17.544594576
 20
13.1745142237
 30
0.0
 10
17.4903987399
 20
13.2432174007
 30
0.0
 10
17.4320809606
 20
13.3112422729
 30
0.0
 10
17.3697540054
 20
13.3784582248
 30
0.0
 10
17.3035383264
 20
13.4447360061
 30
0.0
 10
17.2335618338
 20
13.5099480862
 30
0.0
 10
17.1599596777
 20
13.5739688845
 30
0.0
 10
17.0828740008
 20
13.6366750341
 30
0.0
 10
17.0024536798
 20
13.6979456295
 30
0.0
 10
16.9188540461
 20
13.757662475
 30
0.0
 10
16.8322365898
 20
13.8157103207
 30
0.0
 10
16.742768649
 20
13.8719770973
 30
0.0
 10
16.6506230886
 20
13.9263541404
 30
0.0
 10
16.5559779673
 20
13.9787364076
 30
0.0
 10
16.4590161936
 20
14.0290226878
 30
0.0
 10
16.3599251709
 20
14.0771158021
 30
0.0
 10
16.2588964347
 20
14.1229227966
 30
0.0
 10
16.1561252816
 20
14.1663551248
 30
0.0
 10
16.0518103863
 20
14.2073288237
 30
0.0
 10
15.946153418
 20
14.2457646807
 30
0.0
 10
15.8393586469
 20
14.2815883873
 30
0.0
 10
15.7316325493
 20
14.3147306831
 30
0.0
 10
15.6231834021
 20
14.3451274904
 30
0.0
 10
15.5142208815
 20
14.3727200442
 30
0.0
 10
15.4049556375
 20
14.397454992
 30
0.0
 10
15.2955989524
 20
14.4192845302
 30
0.0
 10
15.1863620322
 20
14.4381664361
 30
0.0
 10
15.0774569893
 20
14.4540641684
 30
0.0
 10
15.0048741036
 20
14.4626931927
 30
0.0
 10
14.9686872456
 20
14.4664960611
 30
0.0
  0
SPLINE
  5
307
100
AcDbEntity
  8
0
100
AcDbSpline
 62
7
  6
CONTINUOUS
 70
0
 71
3
 72
19
 73
15
 74
0
 42
0.0000001
 43
0.0000001
 44
0.0000000001
 40
0.0
 40
0.0
 40
0.0
 40
0.0
 40
0.0580089975
 40
0.1164151
 40
0.1752663412
 40
0.2346128898
 40
0.2945024325
 40
0.3549793905
 40
0.4160859336
 40
0.4778618817
 40
0.603551293
 40
0.7323299425
 40
0.8644192557
 40
1.0
 40
1.0
 40
1.0
 40
1.0
 10
17.8418395963
 20
12.3322411097
 30
0.0
 10
17.8426090655
 20
12.3434791488
 30
0.0
 10
17.8437233514
 20
12.3660638605
 30
0.0
 10
17.8441239813
 20
12.4001026936
 30
0.0
 10
17.8432586893
 20
12.4343930327
 30
0.0
 10
17.8411281345
 20
12.4689163285
 30
0.0
 10
17.8377335496
 20
12.5036553884
 30
0.0
 10
17.8330767224
 20
12.5385923673
 30
0.0
 10
17.8271601029
 20
12.5737098307
 30
0.0
 10
17.8175412829
 20
12.6210178547
 30
0.0
 10
17.8023206151
 20
12.6805589797
 30
0.0
 10
17.7791851218
 20
12.7520158498
 30
0.0
 10
17.7511247123
 20
12.8237484244
 30
0.0
 10
17.7294610436
 20
12.8710296179
 30
0.0
 10
17.7178626765
 20
12.8946646049
 30
0.0
  0
SPLINE
  5
308
100
AcDbEntity
  8
0
100
AcDbSpline
 62
7
  6
CONTINUOUS
 70
0
 71
3
 72
15
 73
11
 74
0
 42
0.0000001
 43
0.0000001
 44
0.0000000001
 40
0.0
 40
0.0
 40
0.0
 40
0.0
 40
0.1304602002
 40
0.2602560797
 40
0.3889203081
 40
0.5159944619
 40
0.641039551
 40
0.7636402568
 40
0.8834096494
 40
1.0
 40
1.0
 40
1.0
 40
1.0
 10
17.5937342183
 20
12.4645184025
 30
0.0
 10
17.6054194393
 20
12.4606961658
 30
0.0
 10
17.6285723882
 20
12.4525778006
 30
0.0
 10
17.6626221534
 20
12.4389862562
 30
0.0
 10
17.695764162
 20
12.4240698724
 30
0.0
 10
17.7278175795
 20
12.4079098352
 30
0.0
 10
17.7586083279
 20
12.3905939604
 30
0.0
 10
17.7879693692
 20
12.3722160136
 30
0.0
 10
17.8157404332
 20
12.3528764857
 30
0.0
 10
17.8333486961
 20
12.3392144286
 30
0.0
 10
17.8418395963
 20
12.3322411097
 30
0.0
  0
SPLINE
  5
309
100
AcDbEntity
  8
0
100
AcDbSpline
 62
7
  6
CONTINUOUS
 70
0
 71
3
 72
15
 73
11
 74
0
 42
0.0000001
 43
0.0000001
 44
0.0000000001
 40
0.0
 40
0.0
 40
0.0
 40
0.0
 40
0.1467950839
 40
0.2878966436
 40
0.4229760053
 40
0.551769075
 40
0.6740355337
 40
0.789582359
 40
0.8982661724
 40
1.0
 40
1.0
 40
1.0
 40
1.0
 10
13.9272551437
 20
13.1006963814
 30
0.0
 10
13.9281384264
 20
13.1035546855
 30
0.0
 10
13.929794248
 20
13.1091844945
 30
0.0
 10
13.9319782181
 20
13.1175248406
 30
0.0
 10
13.9338094799
 20
13.1255740665
 30
0.0
 10
13.9352841282
 20
13.1333059519
 30
0.0
 10
13.9364000074
 20
13.1406955974
 30
0.0
 10
13.9371567924
 20
13.1477189365
 30
0.0
 10
13.937555836
 20
13.1543526201
 30
0.0
 10
13.9375863171
 20
13.1586435463
 30
0.0
 10
13.9375366977
 20
13.1607162784
 30
0.0
  0
SPLINE
  5
30A
100
AcDbEntity
  8
0
100
AcDbSpline
 62
7
  6
CONTINUOUS
 70
0
 71
3
 72
38
 73
34
 74
0
 42
0.0000001
 43
0.0000001
 44
0.0000000001
 40
0.0
 40
0.0
 40
0.0
 40
0.0
 40
0.038902408
 40
0.0773079804
 40
0.1152035507
 40
0.1525797404
 40
0.1894273354
 40
0.2257386419
 40
0.2615075001
 40
0.2967291928
 40
0.3314006402
 40
0.3655204438
 40
0.3990889613
 40
0.432108423
 40
0.4645830083
 40
0.4965189177
 40
0.5279244698
 40
0.5588101962
 40
0.6190654895
 40
0.6484779562
 40
0.6774360709
 40
0.7059622842
 40
0.7340815222
 40
0.7618211701
 40
0.7892110043
 40
0.8162831112
 40
0.8430717803
 40
0.8696133336
 40
0.8959459255
 40
0.9221093155
 40
0.9481445961
 40
0.974093885
 40
1.0
 40
1.0
 40
1.0
 40
1.0
 10
14.203914823
 20
14.4664960611
 30
0.0
 10
14.1830976236
 20
14.4640567982
 30
0.0
 10
14.1417800936
 20
14.4587608495
 30
0.0
 10
14.0804019119
 20
14.4494939541
 30
0.0
 10
14.0200622247
 20
14.4389614477
 30
0.0
 10
13.9608109262
 20
14.4271721054
 30
0.0
 10
13.9026957246
 20
14.4141353342
 30
0.0
 10
13.8457639805
 20
14.3998617295
 30
0.0
 10
13.7900619705
 20
14.3843628379
 30
0.0
 10
13.7356349697
 20
14.3676511361
 30
0.0
 10
13.6825272134
 20
14.3497401709
 30
0.0
 10
13.6307818704
 20
14.3306444118
 30
0.0
 10
13.5804410215
 20
14.3103792216
 30
0.0
 10
13.5315456231
 20
14.2889609813
 30
0.0
 10
13.4841353376
 20
14.266406924
 30
0.0
 10
13.4382490952
 20
14.2427354301
 30
0.0
 10
13.3939230342
 20
14.217964713
 30
0.0
 10
13.3374232054
 20
14.1837847945
 30
0.0
 10
13.2836504627
 20
14.1472291515
 30
0.0
 10
13.2329371902
 20
14.1083110252
 30
0.0
 10
13.1969329761
 20
14.0783641024
 30
0.0
 10
13.1626876852
 20
14.0474514723
 30
0.0
 10
13.1302286905
 20
14.0155975291
 30
0.0
 10
13.0995829024
 20
13.9828282053
 30
0.0
 10
13.0707755806
 20
13.9491699941
 30
0.0
 10
13.0438306393
 20
13.9146501868
 30
0.0
 10
13.018770405
 20
13.8792968929
 30
0.0
 10
12.9956157118
 20
13.843138964
 30
0.0
 10
12.9743858956
 20
13.8062059185
 30
0.0
 10
12.9550987102
 20
13.7685281392
 30
0.0
 10
12.937770108
 20
13.7301362681
 30
0.0
 10
12.9224149517
 20
13.6910632365
 30
0.0
 10
12.9134989266
 20
13.6645713217
 30
0.0
 10
12.9093779853
 20
13.6512359884
 30
0.0
  0
SPLINE
  5
30B
100
AcDbEntity
  8
0
100
AcDbSpline
 62
7
  6
CONTINUOUS
 70
0
 71
3
 72
34
 73
30
 74
0
 42
0.0000001
 43
0.0000001
 44
0.0000000001
 40
0.0
 40
0.0
 40
0.0
 40
0.0
 40
0.0164035453
 40
0.0322067036
 40
0.0476637912
 40
0.0630507229
 40
0.0786486138
 40
0.0947262121
 40
0.1115267368
 40
0.129261177
 40
0.1481051844
 40
0.1682015856
 40
0.1896627622
 40
0.2125761724
 40
0.2370078116
 40
0.2630061599
 40
0.2906056562
 40
0.31982819
 40
0.3506865841
 40
0.3831844015
 40
0.4173189402
 40
0.4530807916
 40
0.4904555463
 40
0.5294241146
 40
0.6120411597
 40
0.7007075907
 40
0.7951422239
 40
0.8950274659
 40
1.0
 40
1.0
 40
1.0
 40
1.0
 10
13.8674406301
 20
13.2428189846
 30
0.0
 10
13.8680377233
 20
13.2427933328
 30
0.0
 10
13.8692086861
 20
13.2426757437
 30
0.0
 10
13.8709050235
 20
13.2422818093
 30
0.0
 10
13.8724980007
 20
13.241673831
 30
0.0
 10
13.873983768
 20
13.2408526624
 30
0.0
 10
13.8753593938
 20
13.2398201979
 30
0.0
 10
13.8766227264
 20
13.2385790758
 30
0.0
 10
13.8777726291
 20
13.2371321484
 30
0.0
 10
13.878808419
 20
13.2354819364
 30
0.0
 10
13.8797299751
 20
13.2336308214
 30
0.0
 10
13.8805369497
 20
13.2315808574
 30
0.0
 10
13.8812291866
 20
13.2293341792
 30
0.0
 10
13.881806273
 20
13.22689296
 30
0.0
 10
13.8822678829
 20
13.2242595908
 30
0.0
 10
13.8826136933
 20
13.2214366664
 30
0.0
 10
13.8828433622
 20
13.2184270223
 30
0.0
 10
13.8829567652
 20
13.2152337169
 30
0.0
 10
13.8829536954
 20
13.2118600528
 30
0.0
 10
13.8828342435
 20
13.2083095291
 30
0.0
 10
13.8825984498
 20
13.2045858798
 30
0.0
 10
13.8822465915
 20
13.2006930232
 30
0.0
 10
13.8817790295
 20
13.1966350652
 30
0.0
 10
13.8809862979
 20
13.1908976266
 30
0.0
 10
13.879697565
 20
13.1833443571
 30
0.0
 10
13.8777301269
 20
13.1738635338
 30
0.0
 10
13.8753206431
 20
13.1638371936
 30
0.0
 10
13.8724791823
 20
13.1533083055
 30
0.0
 10
13.8703548333
 20
13.1461523896
 30
0.0
 10
13.8692256445
 20
13.1424983334
 30
0.0
  0
SPLINE
  5
30C
100
AcDbEntity
  8
0
100
AcDbSpline
 62
7
  6
CONTINUOUS
 70
0
 71
3
 72
23
 73
19
 74
0
 42
0.0000001
 43
0.0000001
 44
0.0000000001
 40
0.0
 40
0.0
 40
0.0
 40
0.0
 40
0.0549414749
 40
0.1120305015
 40
0.1710433768
 40
0.2317506856
 40
0.2939112209
 40
0.3572773522
 40
0.4215948367
 40
0.4866047467
 40
0.552044629
 40
0.6176498768
 40
0.6831551007
 40
0.7482952533
 40
0.8128075882
 40
0.876431231
 40
0.9389129478
 40
1.0
 40
1.0
 40
1.0
 40
1.0
 10
13.8692256445
 20
13.1424983334
 30
0.0
 10
13.8680458882
 20
13.1386806406
 30
0.0
 10
13.8655495837
 20
13.1309238137
 30
0.0
 10
13.8614907691
 20
13.1191639866
 30
0.0
 10
13.8570582538
 20
13.1070921339
 30
0.0
 10
13.8522710206
 20
13.0947600743
 30
0.0
 10
13.8471493951
 20
13.0822204608
 30
0.0
 10
13.8417152687
 20
13.0695269953
 30
0.0
 10
13.8359918338
 20
13.0567339858
 30
0.0
 10
13.8300035557
 20
13.0438961884
 30
0.0
 10
13.8237760368
 20
13.0310685452
 30
0.0
 10
13.8173359181
 20
13.0183059505
 30
0.0
 10
13.8107107592
 20
13.0056630272
 30
0.0
 10
13.8039289159
 20
12.9931938514
 30
0.0
 10
13.7970194365
 20
12.9809518279
 30
0.0
 10
13.79001187
 20
12.9689891911
 30
0.0
 10
13.7829362917
 20
12.9573572936
 30
0.0
 10
13.7781335971
 20
12.9497605622
 30
0.0
 10
13.7757250615
 20
12.9460272957
 30
0.0
  0
SPLINE
  5
30D
100
AcDbEntity
  8
0
100
AcDbSpline
 62
7
  6
CONTINUOUS
 70
0
 71
3
 72
11
 73
7
 74
0
 42
0.0000001
 43
0.0000001
 44
0.0000000001
 40
0.0
 40
0.0
 40
0.0
 40
0.0
 40
0.244650422
 40
0.4938767541
 40
0.7461656578
 40
1.0
 40
1.0
 40
1.0
 40
1.0
 10
13.8422172719
 20
12.9376128272
 30
0.0
 10
13.8451759736
 20
12.9418257421
 30
0.0
 10
13.8510687512
 20
12.950386841
 30
0.0
 10
13.8597249015
 20
12.9634875549
 30
0.0
 10
13.8682265169
 20
12.9769184399
 30
0.0
 10
13.8737384144
 20
12.9860323647
 30
0.0
 10
13.8764533535
 20
12.9906322319
 30
0.0
  0
SPLINE
  5
30E
100
AcDbEntity
  8
0
100
AcDbSpline
 62
7
  6
CONTINUOUS
 70
0
 71
3
 72
14
 73
10
 74
0
 42
0.0000001
 43
0.0000001
 44
0.0000000001
 40
0.0
 40
0.0
 40
0.0
 40
0.0
 40
0.265360391
 40
0.3950629424
 40
0.5223024739
 40
0.6467370441
 40
0.7680356169
 40
0.8858934105
 40
1.0
 40
1.0
 40
1.0
 40
1.0
 10
13.8957815522
 20
13.025596589
 30
0.0
 10
13.899080221
 20
13.0320093273
 30
0.0
 10
13.9038279484
 20
13.0416422898
 30
0.0
 10
13.9097304703
 20
13.0545516199
 30
0.0
 10
13.9138478291
 20
13.064063813
 30
0.0
 10
13.9176733015
 20
13.0734509384
 30
0.0
 10
13.9211926752
 20
13.082684839
 30
0.0
 10
13.924392999
 20
13.0917369497
 30
0.0
 10
13.9263395963
 20
13.0977336689
 30
0.0
 10
13.9272551437
 20
13.1006963814
 30
0.0
  0
SPLINE
  5
30F
100
AcDbEntity
  8
0
100
AcDbSpline
 62
7
  6
CONTINUOUS
 70
0
 71
3
 72
18
 73
14
 74
0
 42
0.0000001
 43
0.0000001
 44
0.0000000001
 40
0.0
 40
0.0
 40
0.0
 40
0.0
 40
0.1486057827
 40
0.2917794592
 40
0.4287997841
 40
0.558990787
 40
0.6817290837
 40
0.7401272098
 40
0.7964571909
 40
0.8506597072
 40
0.9026817833
 40
0.9524753504
 40
1.0
 40
1.0
 40
1.0
 40
1.0
 10
13.7757250615
 20
12.9460272957
 30
0.0
 10
13.7730568056
 20
12.9418914589
 30
0.0
 10
13.767734956
 20
12.9338239972
 30
0.0
 10
13.759653536
 20
12.9221440869
 30
0.0
 10
13.751653152
 20
12.911154198
 30
0.0
 10
13.7437784863
 20
12.9009153715
 30
0.0
 10
13.7372538219
 20
12.8929285275
 30
0.0
 10
13.7321243962
 20
12.8869659806
 30
0.0
 10
13.7283997591
 20
12.8827904426
 30
0.0
 10
13.724738659
 20
12.8788425264
 30
0.0
 10
13.7211462169
 20
12.8751276469
 30
0.0
 10
13.7176273999
 20
12.8716510075
 30
0.0
 10
13.7152785058
 20
12.8694431594
 30
0.0
 10
13.7141165511
 20
12.868381355
 30
0.0
  0
SPLINE
  5
310
100
AcDbEntity
  8
0
100
AcDbSpline
 62
7
  6
CONTINUOUS
 70
0
 71
3
 72
20
 73
16
 74
0
 42
0.0000001
 43
0.0000001
 44
0.0000000001
 40
0.0
 40
0.0
 40
0.0
 40
0.0
 40
0.1702529622
 40
0.3270814754
 40
0.4004461968
 40
0.4704473672
 40
0.5371069657
 40
0.6004618787
 40
0.6605648019
 40
0.7174904397
 40
0.7713360767
 40
0.8222280301
 40
0.8703284102
 40
0.9158366191
 40
1.0
 40
1.0
 40
1.0
 40
1.0
 10
13.7141165511
 20
12.868381355
 30
0.0
 10
13.712472641
 20
12.8668791354
 30
0.0
 10
13.7092567602
 20
12.8640552492
 30
0.0
 10
13.705157413
 20
12.8607905808
 30
0.0
 10
13.7019811714
 20
12.8584811455
 30
0.0
 10
13.6997090427
 20
12.8569361773
 30
0.0
 10
13.6974954576
 20
12.855540631
 30
0.0
 10
13.6953420913
 20
12.854295566
 30
0.0
 10
13.6932505215
 20
12.8532020033
 30
0.0
 10
13.6912223512
 20
12.8522607352
 30
0.0
 10
13.6892589908
 20
12.8514725214
 30
0.0
 10
13.6873619468
 20
12.8508380851
 30
0.0
 10
13.6855319696
 20
12.8503579346
 30
0.0
 10
13.6832444916
 20
12.8499353821
 30
0.0
 10
13.6815393046
 20
12.8498296589
 30
0.0
 10
13.6804394641
 20
12.8498769093
 30
0.0
  0
SPLINE
  5
311
100
AcDbEntity
  8
0
100
AcDbSpline
 62
7
  6
CONTINUOUS
 70
0
 71
3
 72
32
 73
28
 74
0
 42
0.0000001
 43
0.0000001
 44
0.0000000001
 40
0.0
 40
0.0
 40
0.0
 40
0.0
 40
0.0187103402
 40
0.0368127354
 40
0.0545040522
 40
0.071997735
 40
0.0895170704
 40
0.1072843833
 40
0.125511798
 40
0.144394149
 40
0.1641054098
 40
0.1847960668
 40
0.2065937234
 40
0.2296049148
 40
0.2539161718
 40
0.2795977996
 40
0.3067057277
 40
0.335282966
 40
0.3653629255
 40
0.396969641
 40
0.4648145225
 40
0.5388869425
 40
0.6191662194
 40
0.705569464
 40
0.797963932
 40
0.8961766509
 40
1.0
 40
1.0
 40
1.0
 40
1.0
 10
13.6804394641
 20
12.8498769093
 30
0.0
 10
13.6799384445
 20
12.8498984336
 30
0.0
 10
13.6789538618
 20
12.8499881584
 30
0.0
 10
13.6775184035
 20
12.8502738609
 30
0.0
 10
13.676154544
 20
12.8507082549
 30
0.0
 10
13.6748643129
 20
12.8512912074
 30
0.0
 10
13.673649285
 20
12.8520219505
 30
0.0
 10
13.6725109033
 20
12.8528995154
 30
0.0
 10
13.671450238
 20
12.8539225862
 30
0.0
 10
13.6704679917
 20
12.8550897461
 30
0.0
 10
13.6695647566
 20
12.856399717
 30
0.0
 10
13.6687408158
 20
12.8578511683
 30
0.0
 10
13.6679964294
 20
12.8594428827
 30
0.0
 10
13.6673319287
 20
12.861173674
 30
0.0
 10
13.666747492
 20
12.8630422648
 30
0.0
 10
13.6662434297
 20
12.8650473575
 30
0.0
 10
13.6658200246
 20
12.8671875473
 30
0.0
 10
13.6654774544
 20
12.8694613142
 30
0.0
 10
13.6652159606
 20
12.8718670626
 30
0.0
 10
13.6649699126
 20
12.8753307614
 30
0.0
 10
13.6648806689
 20
12.8799841043
 30
0.0
 10
13.6650997286
 20
12.8859379122
 30
0.0
 10
13.6656424503
 20
12.892369969
 30
0.0
 10
13.6665073384
 20
12.899261424
 30
0.0
 10
13.6676920812
 20
12.9065922162
 30
0.0
 10
13.6691933451
 20
12.9143406498
 30
0.0
 10
13.6703706481
 20
12.9196269163
 30
0.0
 10
13.6710085601
 20
12.9223355252
 30
0.0
  0
SPLINE
  5
312
100
AcDbEntity
  8
0
100
AcDbSpline
 62
7
  6
CONTINUOUS
 70
0
 71
3
 72
36
 73
32
 74
0
 42
0.0000001
 43
0.0000001
 44
0.0000000001
 40
0.0
 40
0.0
 40
0.0
 40
0.0
 40
0.0325338282
 40
0.0662888542
 40
0.1011404701
 40
0.136968424
 40
0.2110298047
 40
0.2874017725
 40
0.3649683251
 40
0.4425916908
 40
0.5191330448
 40
0.5934732229
 40
0.6294800524
 40
0.6645366192
 40
0.6985180046
 40
0.7313046954
 40
0.7627831537
 40
0.7928466536
 40
0.8213964976
 40
0.8483428927
 40
0.8736061412
 40
0.8971185706
 40
0.9188268495
 40
0.9386948349
 40
0.9567082235
 40
0.9650244118
 40
0.9728854775
 40
0.9802998061
 40
0.9872789269
 40
0.9938386538
 40
1.0
 40
1.0
 40
1.0
 40
1.0
 10
13.702150942
 20
13.1612091336
 30
0.0
 10
13.7015409593
 20
13.1592352289
 30
0.0
 10
13.7002534801
 20
13.1552270008
 30
0.0
 10
13.6981668193
 20
13.1491522658
 30
0.0
 10
13.6958949427
 20
13.1429211885
 30
0.0
 10
13.6925940866
 20
13.1343423921
 30
0.0
 10
13.6880667467
 20
13.1234124624
 30
0.0
 10
13.6821140733
 20
13.11021167
 30
0.0
 10
13.6756745267
 20
13.0969893465
 30
0.0
 10
13.6688478943
 20
13.0839505185
 30
0.0
 10
13.661740065
 20
13.0712973185
 30
0.0
 10
13.6556110372
 20
13.0611317752
 30
0.0
 10
13.6506458407
 20
13.0533463089
 30
0.0
 10
13.6469609023
 20
13.0477853479
 30
0.0
 10
13.6432897097
 20
13.0424618945
 30
0.0
 10
13.6396465261
 20
13.0373965662
 30
0.0
 10
13.6360455342
 20
13.0326089737
 30
0.0
 10
13.6325007295
 20
13.0281176337
 30
0.0
 10
13.6290259085
 20
13.0239398561
 30
0.0
 10
13.6256345775
 20
13.0200916946
 30
0.0
 10
13.6223398762
 20
13.0165878755
 30
0.0
 10
13.6191545441
 20
13.0134417219
 30
0.0
 10
13.6160907687
 20
13.0106649514
 30
0.0
 10
13.6131602637
 20
13.0082680019
 30
0.0
 10
13.6107784475
 20
13.0065508398
 30
0.0
 10
13.6089463362
 20
13.0053846996
 30
0.0
 10
13.607649196
 20
13.0046341163
 30
0.0
 10
13.6063933914
 20
13.0039846267
 30
0.0
 10
13.6051799605
 20
13.003436895
 30
0.0
 10
13.6040100556
 20
13.0029915098
 30
0.0
 10
13.6032364186
 20
13.002756002
 30
0.0
 10
13.6028578632
 20
13.0026570841
 30
0.0
  0
SPLINE
  5
313
100
AcDbEntity
  8
0
100
AcDbSpline
 62
7
  6
CONTINUOUS
 70
0
 71
3
 72
23
 73
19
 74
0
 42
0.0000001
 43
0.0000001
 44
0.0000000001
 40
0.0
 40
0.0
 40
0.0
 40
0.0
 40
0.0908154333
 40
0.1779655807
 40
0.2613702888
 40
0.3409623251
 40
0.416685262
 40
0.4884988164
 40
0.5563774313
 40
0.6203167414
 40
0.6803336433
 40
0.736474873
 40
0.7888194131
 40
0.8374897747
 40
0.8826597923
 40
0.9245725526
 40
0.9635490623
 40
1.0
 40
1.0
 40
1.0
 40
1.0
 10
13.8197332072
 20
13.2101568715
 30
0.0
 10
13.8209401895
 20
13.2114807304
 30
0.0
 10
13.8233302216
 20
13.214052587
 30
0.0
 10
13.826918932
 20
13.2177551684
 30
0.0
 10
13.8304338045
 20
13.221219295
 30
0.0
 10
13.8338698775
 20
13.2244402306
 30
0.0
 10
13.8372224751
 20
13.2274135123
 30
0.0
 10
13.8404869039
 20
13.2301351402
 30
0.0
 10
13.8436587693
 20
13.2326013577
 30
0.0
 10
13.8467336875
 20
13.2348089159
 30
0.0
 10
13.8497076199
 20
13.2367547866
 30
0.0
 10
13.8525765961
 20
13.2384364711
 30
0.0
 10
13.8553370346
 20
13.2398516235
 30
0.0
 10
13.8579854958
 20
13.240998434
 30
0.0
 10
13.8605189727
 20
13.2418750872
 30
0.0
 10
13.8629349012
 20
13.2424800363
 30
0.0
 10
13.8652301075
 20
13.2428114311
 30
0.0
 10
13.8667222387
 20
13.2428498476
 30
0.0
 10
13.8674406301
 20
13.2428189846
 30
0.0
  0
ENDSEC
  0
SECTION
  2
OBJECTS
  0
DICTIONARY
  5
C
100
AcDbDictionary
280
0
281
1
  3
ACAD_GROUP
350
D
  3
ACAD_MLINESTYLE
350
17
  3
ACAD_LAYOUT
350
1A
  3
ACAD_PLOTSETTINGS
350
19
  3
ACAD_PLOTSTYLENAME
350
E
  0
DICTIONARY
  5
D
102
{ACAD_REACTORS
330
C
102
}
100
AcDbDictionary
280
0
281
1
  0
ACDBDICTIONARYWDFLT
  5
E
102
{ACAD_REACTORS
330
C
102
}
100
AcDbDictionary
281
1
  3
Normal
350
F
100
AcDbDictionaryWithDefault
340
F
  0
DICTIONARY
  5
17
102
{ACAD_REACTORS
330
C
102
}
100
AcDbDictionary
280
0
281
1
  3
Standard
350
18
  0
DICTIONARY
  5
19
102
{ACAD_REACTORS
330
C
102
}
100
AcDbDictionary
281
1
  0
DICTIONARY
  5
1A
102
{ACAD_REACTORS
330
C
102
}
100
AcDbDictionary
281
1
  3
Model
350
314
  3
Layout1
350
315
  0
ACDBPLACEHOLDER
  5
F
102
{ACAD_REACTORS
330
E
102
}
  0
MLINESTYLE
  5
18
102
{ACAD_REACTORS
330
17
102
}
100
AcDbMlineStyle
  2
STANDARD
 70
0
  3

 62
256
 51
90.0
 52
90.0
 71
2
 49
0.5
 62
256
  6
BYLAYER
 49
-0.5
 62
256
  6
BYLAYER
  0
LAYOUT
  5
314
102
{ACAD_REACTORS
330
1A
102
}
100
AcDbPlotSettings
  1

  2
none_device
  4
ANSI_C_(22.00_x_17.00_Inches)
  6

 40
0.0
 41
0.0
 42
0.0
 43
0.0
 44
558.8
 45
431.8
 46
0.0
 47
0.0
 48
0.0
 49
0.0
140
0.0
141
0.0
142
1.0
143
1.0
 70
1024
 72
0
 73
0
 74
0
  7

 75
0
147
1.0
148
0.0
149
0.0
100
AcDbLayout
  1
Model
 70
0
 71
0
 10
0.0
 20
0.0
 11
22.0
 21
17.0
 12
0.0
 22
0.0
 32
0.0
 14
0.0
 24
0.0
 34
0.0
 15
0.0
 25
0.0
 35
0.0
146
0.0
 13
0.0
 23
0.0
 33
0.0
 16
1.0
 26
0.0
 36
0.0
 17
0.0
 27
1.0
 37
0.0
 76
0
330
217
345
0
346
0
  0
LAYOUT
  5
315
102
{ACAD_REACTORS
330
1A
102
}
100
AcDbPlotSettings
  1

  2
none_device
  4
ANSI_C_(22.00_x_17.00_Inches)
  6

 40
0.0
 41
0.0
 42
0.0
 43
0.0
 44
558.8
 45
431.8
 46
0.0
 47
0.0
 48
0.0
 49
0.0
140
0.0
141
0.0
142
1.0
143
1.0
 70
0
 72
0
 73
0
 74
0
  7

 75
0
147
1.0
148
0.0
149
0.0
100
AcDbLayout
  1
Layout1
 70
0
 71
1
 10
0.0
 20
0.0
 11
22.0
 21
17.0
 12
0.0
 22
0.0
 32
0.0
 14
0.0
 24
0.0
 34
0.0
 15
0.0
 25
0.0
 35
0.0
146
0.0
 13
0.0
 23
0.0
 33
0.0
 16
1.0
 26
0.0
 36
0.0
 17
0.0
 27
1.0
 37
0.0
 76
0
330
218
345
0
346
0
  0
ENDSEC
  0
EOF