999
DXF file: _cgs_temp_output.dxf
999
Pro/ENGINEER 2016360 by Parametric Technology Corporation
  0
SECTION
  2
HEADER
  9
$ACADVER
  1
AC1021
  9
$DWGCODEPAGE
  3
ANSI_1252
  9
$EXTMAX
 10
22.0
 20
17.0
 30
0.0
  9
$EXTMIN
 10
0.0
 20
0.0
 30
0.0
  9
$LIMMIN
 10
0.0
 20
0.0
  9
$LIMMAX
 10
22.0
 20
17.0
  9
$VIEWCTR
 10
11.0
 20
8.5
  9
$VIEWSIZE
 40
17.0
  9
$CLAYER
  8
0
  9
$LTSCALE
 40
1.21
  9
$CELTYPE
  6
BYLAYER
  9
$DIMSCALE
 40
1.0
  9
$DIMASZ
 40
0.1875
  9
$DIMEXO
 40
0.0625
  9
$DIMDLI
 40
0.836
  9
$DIMEXE
 40
0.125
  9
$DIMCEN
 40
0.198
  9
$DIMLFAC
 40
1.0
  9
$DIMBLK
  1
_CLOSED
  9
$DIMALT
 70
0
  9
$DIMALTF
 40
25.4
  9
$DIMTXT
 40
0.15625
  9
$DIMTOL
 70
0
  9
$DIMLIM
 70
0
  9
$DIMTFAC
 40
1.0
  9
$DIMGAP
 40
0.09
  9
$DIMDSEP
 70
46
  9
$AUNITS
 70
0
  9
$PDMODE
 70
3
  9
$PDSIZE
 40
0.3125
  9
$HANDSEED
  5
347
  9
$TILEMODE
 70
1
  9
$MEASUREMENT
 70
0
  9
$INSUNITS
 70
1
  0
ENDSEC
  0
SECTION
  2
CLASSES
  0
CLASS
  1
ACDBDICTIONARYWDFLT
  2
AcDbDictionaryWithDefault
  3
AutoCAD 2000
 90
0
 91
1
280
0
281
0
  0
CLASS
  1
ACDBPLACEHOLDER
  2
AcDbPlaceHolder
  3
AutoCAD 2000
 90
0
 91
1
280
0
281
0
  0
CLASS
  1
LAYOUT
  2
AcDbLayout
  3
AutoCAD 2000
 90
0
 91
0
280
0
281
0
  0
ENDSEC
  0
SECTION
  2
TABLES
  0
TABLE
  2
VPORT
  5
8
100
AcDbSymbolTable
 70
2
  0
VPORT
  5
1F4
100
AcDbSymbolTableRecord
100
AcDbViewportTableRecord
  2
*ACTIVE
 70
0
 10
0.0
 20
0.0
 11
1.0
 21
1.0
 12
11.0
 22
8.5
 13
0.0
 23
0.0
 14
1.0
 24
1.0
 15
0.0
 25
0.0
 16
0.0
 26
0.0
 36
1.0
 17
0.0
 27
0.0
 37
0.0
 40
17.0
 41
1.2941176471
 42
50.0
 43
0.0
 44
0.0
 50
0.0
 51
0.0
 71
0
 72
100
 73
1
 74
1
 75
0
 76
0
 77
0
 78
0
  0
ENDTAB
  0
TABLE
  2
LTYPE
  5
5
100
AcDbSymbolTable
 70
6
  0
LTYPE
  5
14
100
AcDbSymbolTableRecord
100
AcDbLinetypeTableRecord
  2
BYBLOCK
 70
0
  3

 72
65
 73
0
 40
0.0
  0
LTYPE
  5
15
100
AcDbSymbolTableRecord
100
AcDbLinetypeTableRecord
  2
BYLAYER
 70
0
  3

 72
65
 73
0
 40
0.0
  0
LTYPE
  5
16
100
AcDbSymbolTableRecord
100
AcDbLinetypeTableRecord
  2
CONTINUOUS
 70
64
  3
Solid line
 72
65
 73
0
 40
0.0
  0
LTYPE
  5
1F5
100
AcDbSymbolTableRecord
100
AcDbLinetypeTableRecord
  2
CENTER
 70
64
  3
____ _ ____ _ ____ _ ____ _ ____ _ ____ _ ____
 72
65
 73
4
 40
0.6
 49
0.375
 74
0
 49
-0.075
 74
0
 49
0.075
 74
0
 49
-0.075
 74
0
  0
LTYPE
  5
1F6
100
AcDbSymbolTableRecord
100
AcDbLinetypeTableRecord
  2
HIDDEN
 70
64
  3
- - - - - - - - - - - - - - - - - - - -
 72
65
 73
2
 40
0.2
 49
0.1
 74
0
 49
-0.1
 74
0
  0
LTYPE
  5
1F7
100
AcDbSymbolTableRecord
100
AcDbLinetypeTableRecord
  2
PHANTOM
 70
64
  3
_____ _ _ _____ _ _ _____ _ _ _____
 72
65
 73
6
 40
0.8
 49
0.45
 74
0
 49
-0.05
 74
0
 49
0.1
 74
0
 49
-0.05
 74
0
 49
0.1
 74
0
 49
-0.05
 74
0
  0
LTYPE
  5
1F8
100
AcDbSymbolTableRecord
100
AcDbLinetypeTableRecord
  2
DOT
 70
64
  3
. . . . . . . . . . . . . . . . . . . .
 72
65
 73
2
 40
0.2
 49
0.1
 74
0
 49
-0.1
 74
0
  0
LTYPE
  5
1F9
100
AcDbSymbolTableRecord
100
AcDbLinetypeTableRecord
  2
DASHED
 70
64
  3
- - - - - - - - - - - - - - - - - - - -
 72
65
 73
2
 40
0.2
 49
0.1
 74
0
 49
-0.1
 74
0
  0
ENDTAB
  0
TABLE
  2
LAYER
  5
2
100
AcDbSymbolTable
 70
36
  0
LAYER
  5
10
100
AcDbSymbolTableRecord
100
AcDbLayerTableRecord
  2
0
 70
0
 62
7
  6
CONTINUOUS
370
-3
390
F
  0
LAYER
  5
1FA
100
AcDbSymbolTableRecord
100
AcDbLayerTableRecord
  2
DEFAULT_1
 70
0
 62
7
  6
CENTER
370
-3
390
F
  0
LAYER
  5
1FB
100
AcDbSymbolTableRecord
100
AcDbLayerTableRecord
  2
DEFAULT_2
 70
0
 62
8
  6
HIDDEN
370
-3
390
F
  0
LAYER
  5
1FC
100
AcDbSymbolTableRecord
100
AcDbLayerTableRecord
  2
DEFAULT_3
 70
0
 62
7
  6
PHANTOM
370
-3
390
F
  0
LAYER
  5
1FD
100
AcDbSymbolTableRecord
100
AcDbLayerTableRecord
  2
01_ALL_DTM_PLN
 70
0
 62
7
  6
CONTINUOUS
370
-3
390
F
  0
LAYER
  5
1FE
100
AcDbSymbolTableRecord
100
AcDbLayerTableRecord
  2
01__ASM_ALL_DTM_PLN
 70
0
 62
7
  6
CONTINUOUS
370
-3
390
F
  0
LAYER
  5
1FF
100
AcDbSymbolTableRecord
100
AcDbLayerTableRecord
  2
01__ASM_DEF_DTM_PLN
 70
0
 62
7
  6
CONTINUOUS
370
-3
390
F
  0
LAYER
  5
200
100
AcDbSymbolTableRecord
100
AcDbLayerTableRecord
  2
01___PRT_ALL_DTM_PLN
 70
0
 62
7
  6
CONTINUOUS
370
-3
390
F
  0
LAYER
  5
201
100
AcDbSymbolTableRecord
100
AcDbLayerTableRecord
  2
01___PRT_DEF_DTM_PLN
 70
0
 62
7
  6
CONTINUOUS
370
-3
390
F
  0
LAYER
  5
202
100
AcDbSymbolTableRecord
100
AcDbLayerTableRecord
  2
02_ALL_AXES
 70
0
 62
7
  6
CONTINUOUS
370
-3
390
F
  0
LAYER
  5
203
100
AcDbSymbolTableRecord
100
AcDbLayerTableRecord
  2
02__ASM_ALL_AXES
 70
0
 62
7
  6
CONTINUOUS
370
-3
390
F
  0
LAYER
  5
204
100
AcDbSymbolTableRecord
100
AcDbLayerTableRecord
  2
02___PRT_ALL_AXES
 70
0
 62
7
  6
CONTINUOUS
370
-3
390
F
  0
LAYER
  5
205
100
AcDbSymbolTableRecord
100
AcDbLayerTableRecord
  2
03_ALL_CURVES
 70
0
 62
7
  6
CONTINUOUS
370
-3
390
F
  0
LAYER
  5
206
100
AcDbSymbolTableRecord
100
AcDbLayerTableRecord
  2
03__ASM_ALL_CURVES
 70
0
 62
7
  6
CONTINUOUS
370
-3
390
F
  0
LAYER
  5
207
100
AcDbSymbolTableRecord
100
AcDbLayerTableRecord
  2
03___PRT_ALL_CURVES
 70
0
 62
7
  6
CONTINUOUS
370
-3
390
F
  0
LAYER
  5
208
100
AcDbSymbolTableRecord
100
AcDbLayerTableRecord
  2
04_ALL_DTM_PNT
 70
0
 62
7
  6
CONTINUOUS
370
-3
390
F
  0
LAYER
  5
209
100
AcDbSymbolTableRecord
100
AcDbLayerTableRecord
  2
04__ASM_ALL_DTM_PNT
 70
0
 62
7
  6
CONTINUOUS
370
-3
390
F
  0
LAYER
  5
20A
100
AcDbSymbolTableRecord
100
AcDbLayerTableRecord
  2
04___PRT_ALL_DTM_PNT
 70
0
 62
7
  6
CONTINUOUS
370
-3
390
F
  0
LAYER
  5
20B
100
AcDbSymbolTableRecord
100
AcDbLayerTableRecord
  2
05_ALL_DTM_CSYS
 70
0
 62
7
  6
CONTINUOUS
370
-3
390
F
  0
LAYER
  5
20C
100
AcDbSymbolTableRecord
100
AcDbLayerTableRecord
  2
05__ASM_ALL_DTM_CSYS
 70
0
 62
7
  6
CONTINUOUS
370
-3
390
F
  0
LAYER
  5
20D
100
AcDbSymbolTableRecord
100
AcDbLayerTableRecord
  2
05__ASM_DEF_DTM_CSYS
 70
0
 62
7
  6
CONTINUOUS
370
-3
390
F
  0
LAYER
  5
20E
100
AcDbSymbolTableRecord
100
AcDbLayerTableRecord
  2
05___PRT_ALL_DTM_CSYS
 70
0
 62
7
  6
CONTINUOUS
370
-3
390
F
  0
LAYER
  5
20F
100
AcDbSymbolTableRecord
100
AcDbLayerTableRecord
  2
05___PRT_DEF_DTM_CSYS
 70
0
 62
7
  6
CONTINUOUS
370
-3
390
F
  0
LAYER
  5
210
100
AcDbSymbolTableRecord
100
AcDbLayerTableRecord
  2
06_ALL_SURFS
 70
0
 62
7
  6
CONTINUOUS
370
-3
390
F
  0
LAYER
  5
211
100
AcDbSymbolTableRecord
100
AcDbLayerTableRecord
  2
06__ASM_ALL_SURFS
 70
0
 62
7
  6
CONTINUOUS
370
-3
390
F
  0
LAYER
  5
212
100
AcDbSymbolTableRecord
100
AcDbLayerTableRecord
  2
06___PRT_ALL_SURFS
 70
0
 62
7
  6
CONTINUOUS
370
-3
390
F
  0
LAYER
  5
213
100
AcDbSymbolTableRecord
100
AcDbLayerTableRecord
  2
07__ASM_ALL_SKELETONS
 70
0
 62
7
  6
CONTINUOUS
370
-3
390
F
  0
LAYER
  5
214
100
AcDbSymbolTableRecord
100
AcDbLayerTableRecord
  2
NONE
 70
0
 62
7
  6
CONTINUOUS
370
-3
390
F
  0
LAYER
  5
215
100
AcDbSymbolTableRecord
100
AcDbLayerTableRecord
  2
SHELL
 70
0
 62
7
  6
CONTINUOUS
370
-3
390
F
  0
LAYER
  5
216
100
AcDbSymbolTableRecord
100
AcDbLayerTableRecord
  2
_6569
 70
0
 62
7
  6
CONTINUOUS
370
-3
390
F
  0
ENDTAB
  0
TABLE
  2
STYLE
  5
3
100
AcDbSymbolTable
 70
1
  0
STYLE
  5
11
100
AcDbSymbolTableRecord
100
AcDbTextStyleTableRecord
  2
STANDARD
 70
0
 40
0.0
 41
0.8
 50
0.0
 71
0
 42
0.2
  3
txt
  4

  0
STYLE
  5
217
100
AcDbSymbolTableRecord
100
AcDbTextStyleTableRecord
  2
TEXTSTYLE_1
 70
0
 40
0.0
 41
0.8
 50
0.0
 71
0
 42
0.2
  3
gdt
  4

  0
ENDTAB
  0
TABLE
  2
VIEW
  5
6
100
AcDbSymbolTable
 70
0
  0
ENDTAB
  0
TABLE
  2
UCS
  5
7
100
AcDbSymbolTable
 70
0
  0
ENDTAB
  0
TABLE
  2
APPID
  5
9
100
AcDbSymbolTable
 70
1
  0
APPID
  5
218
100
AcDbSymbolTableRecord
100
AcDbRegAppTableRecord
  2
ACAD
 70
0
  0
ENDTAB
  0
TABLE
  2
BLOCK_RECORD
  5
1
100
AcDbSymbolTable
 70
0
  0
BLOCK_RECORD
  5
219
100
AcDbSymbolTableRecord
100
AcDbBlockTableRecord
  2
*Model_Space
  0
BLOCK_RECORD
  5
21A
100
AcDbSymbolTableRecord
100
AcDbBlockTableRecord
  2
*Paper_Space
  0
ENDTAB
  0
TABLE
  2
DIMSTYLE
  5
A
100
AcDbSymbolTable
 70
1
100
AcDbDimStyleTable
 71
0
  0
DIMSTYLE
105
21B
100
AcDbSymbolTableRecord
100
AcDbDimStyleTableRecord
  2
STANDARD
 70
0
  3

  4

 40
1.0
 41
0.1875
 42
0.0625
 43
0.38
 44
0.125
 45
0.0
 46
0.0
 47
0.0001
 48
0.0001
140
0.15625
141
0.09
142
0.0
143
25.4
144
1.0
145
0.0
146
1.0
147
0.09
 71
0.0
 72
0.0
 73
1
 74
1
 75
0
 76
0
 77
0
 78
4
 79
1
170
0
171
3
172
0
173
0
174
0
175
0
176
0
177
0
178
0
270
2
179
4
271
4
272
4
273
2
274
2
275
0
280
0
281
0
282
0
283
1
284
4
285
0
286
0
287
3
288
0
340
11
278
46
  0
ENDTAB
  0
ENDSEC
  0
SECTION
  2
BLOCKS
  0
BLOCK
  5
20
100
AcDbEntity
  8
0
100
AcDbBlockBegin
  2
*Model_Space
 70
0
 10
0.0
 20
0.0
 30
0.0
  3
*Model_Space
  1

  0
ENDBLK
  5
21
100
AcDbEntity
  8
0
100
AcDbBlockEnd
  0
BLOCK
  5
1C
100
AcDbEntity
  8
0
100
AcDbBlockBegin
  2
*Paper_Space
 70
0
 10
0.0
 20
0.0
 30
0.0
  3
*Paper_Space
  1

  0
ENDBLK
  5
1D
100
AcDbEntity
  8
0
100
AcDbBlockEnd
  0
ENDSEC
  0
SECTION
  2
ENTITIES
  0
MTEXT
  5
21C
100
AcDbEntity
  8
0
100
AcDbMText
 62
7
  6
CONTINUOUS
  7
STANDARD
 71
1
 72
1
 10
15.9560215477
 20
0.9479130325
 30
0.0
 11
1.0
 21
0.0
 31
0.0
 44
0.9
  1
SCALE: 1:1.000
 40
0.3
 41
3.36
  0
LINE
  5
21D
100
AcDbEntity
  8
0
100
AcDbLine
 62
7
  6
CONTINUOUS
 10
0.0
 20
0.0
 11
0.0
 21
17.0
  0
LINE
  5
21E
100
AcDbEntity
  8
0
100
AcDbLine
 62
7
  6
CONTINUOUS
 10
0.0
 20
0.0
 11
22.0
 21
0.0
  0
LINE
  5
21F
100
AcDbEntity
  8
0
100
AcDbLine
 62
7
  6
CONTINUOUS
 10
0.0
 20
17.0
 11
22.0
 21
17.0
  0
LINE
  5
220
100
AcDbEntity
  8
0
100
AcDbLine
 62
7
  6
CONTINUOUS
 10
22.0
 20
0.0
 11
22.0
 21
17.0
  0
LINE
  5
221
100
AcDbEntity
  8
0
100
AcDbLine
 62
7
  6
CONTINUOUS
 10
4.2553672762
 20
4.124402681
 11
4.2553672762
 21
6.9158371125
  0
LINE
  5
222
100
AcDbEntity
  8
0
100
AcDbLine
 62
7
  6
CONTINUOUS
 10
4.7346500604
 20
3.6451198968
 11
7.5260844919
 21
3.6451198968
  0
LINE
  5
223
100
AcDbEntity
  8
0
100
AcDbLine
 62
7
  6
CONTINUOUS
 10
5.8416921416
 20
7.1028993835
 11
5.9860297089
 21
7.2618532703
  0
LINE
  5
224
100
AcDbEntity
  8
0
100
AcDbLine
 62
7
  6
CONTINUOUS
 10
6.4190424108
 20
7.1028993835
 11
6.2747048435
 21
6.9439454967
  0
LINE
  5
225
100
AcDbEntity
  8
0
100
AcDbLine
 62
7
  6
CONTINUOUS
 10
6.4190424108
 20
7.0546593185
 11
6.2747048435
 21
6.8957054317
  0
LINE
  5
226
100
AcDbEntity
  8
0
100
AcDbLine
 62
7
  6
CONTINUOUS
 10
7.1871803851
 20
7.2547412194
 11
6.8148478489
 21
6.8824086832
  0
LINE
  5
227
100
AcDbEntity
  8
0
100
AcDbLine
 62
7
  6
CONTINUOUS
 10
4.7680784898
 20
4.8356393241
 11
4.3957459536
 21
4.4633067879
  0
LINE
  5
228
100
AcDbEntity
  8
0
100
AcDbLine
 62
7
  6
CONTINUOUS
 10
4.3957459536
 20
6.5769330056
 11
4.7680784898
 21
6.2046004694
  0
LINE
  5
229
100
AcDbEntity
  8
0
100
AcDbLine
 62
7
  6
CONTINUOUS
 10
6.8148478489
 20
4.1578311104
 11
7.1871803851
 21
3.7854985742
  0
LINE
  5
22A
100
AcDbEntity
  8
0
100
AcDbLine
 62
7
  6
CONTINUOUS
 10
5.8203672762
 20
6.8355054153
 11
5.8203672762
 21
7.2592604298
  0
LINE
  5
22B
100
AcDbEntity
  8
0
100
AcDbLine
 62
7
  6
CONTINUOUS
 10
5.8416921416
 20
7.1028993835
 11
5.8416921416
 21
7.0546593185
  0
LINE
  5
22C
100
AcDbEntity
  8
0
100
AcDbLine
 62
7
  6
CONTINUOUS
 10
5.9860297089
 20
6.8957054317
 11
5.9860297089
 21
6.9439454967
  0
LINE
  5
22D
100
AcDbEntity
  8
0
100
AcDbLine
 62
7
  6
CONTINUOUS
 10
6.2747048435
 20
6.9439454967
 11
6.2747048435
 21
6.8957054317
  0
LINE
  5
22E
100
AcDbEntity
  8
0
100
AcDbLine
 62
7
  6
CONTINUOUS
 10
6.4190424108
 20
7.1028993835
 11
6.4190424108
 21
7.0546593185
  0
LINE
  5
22F
100
AcDbEntity
  8
0
100
AcDbLine
 62
7
  6
CONTINUOUS
 10
6.4403672762
 20
7.2592604298
 11
6.4403672762
 21
6.8355054153
  0
LINE
  5
230
100
AcDbEntity
  8
0
100
AcDbLine
 62
7
  6
CONTINUOUS
 10
5.0735541673
 20
3.7854985742
 11
5.4458867035
 21
4.1578311104
  0
LINE
  5
231
100
AcDbEntity
  8
0
100
AcDbLine
 62
7
  6
CONTINUOUS
 10
7.4926560626
 20
6.2046004694
 11
7.8649885988
 21
6.5769330056
  0
LINE
  5
232
100
AcDbEntity
  8
0
100
AcDbLine
 62
7
  6
CONTINUOUS
 10
7.8649885988
 20
4.4633067879
 11
7.4926560626
 21
4.8356393241
  0
LINE
  5
233
100
AcDbEntity
  8
0
100
AcDbLine
 62
7
  6
CONTINUOUS
 10
5.4458867035
 20
6.8824086832
 11
5.0735541673
 21
7.2547412194
  0
LINE
  5
234
100
AcDbEntity
  8
0
100
AcDbLine
 62
7
  6
CONTINUOUS
 10
5.8416921416
 20
7.0546593185
 11
5.9860297089
 21
6.8957054317
  0
LINE
  5
235
100
AcDbEntity
  8
0
100
AcDbLine
 62
7
  6
CONTINUOUS
 10
5.9860297089
 20
6.9439454967
 11
5.8416921416
 21
7.1028993835
  0
LINE
  5
236
100
AcDbEntity
  8
0
100
AcDbLine
 62
7
  6
CONTINUOUS
 10
5.9860297089
 20
6.8957054317
 11
6.2747048435
 21
6.8957054317
  0
LINE
  5
237
100
AcDbEntity
  8
0
100
AcDbLine
 62
7
  6
CONTINUOUS
 10
6.2747048435
 20
7.2618532703
 11
6.4190424108
 21
7.1028993835
  0
LINE
  5
238
100
AcDbEntity
  8
0
100
AcDbLine
 62
7
  6
CONTINUOUS
 10
6.2747048435
 20
6.9439454967
 11
5.9860297089
 21
6.9439454967
  0
LINE
  5
239
100
AcDbEntity
  8
0
100
AcDbLine
 62
7
  6
CONTINUOUS
 10
8.0053672762
 20
4.124402681
 11
8.0053672762
 21
6.9158371125
  0
LINE
  5
23A
100
AcDbEntity
  8
0
100
AcDbLine
 62
7
  6
CONTINUOUS
 10
5.9860297089
 20
7.2618532703
 11
6.0233128037
 21
7.2618532703
  0
LINE
  5
23B
100
AcDbEntity
  8
0
100
AcDbLine
 62
7
  6
CONTINUOUS
 10
6.2368712498
 20
7.2618532703
 11
6.2747048435
 21
7.2618532703
  0
LINE
  5
23C
100
AcDbEntity
  8
0
100
AcDbLine
 62
7
  6
CONTINUOUS
 10
4.7346500604
 20
7.3951198968
 11
7.5260844919
 21
7.3951198968
  0
LINE
  5
23D
100
AcDbEntity
  8
0
100
AcDbLine
 62
7
  6
CONTINUOUS
 10
4.1958720839
 20
13.0887977814
 11
4.1958720839
 21
13.6238402814
  0
LINE
  5
23E
100
AcDbEntity
  8
0
100
AcDbLine
 62
7
  6
CONTINUOUS
 10
4.7271220839
 20
13.0687977814
 11
4.7271220839
 21
12.4512552814
  0
LINE
  5
23F
100
AcDbEntity
  8
0
100
AcDbLine
 62
7
  6
CONTINUOUS
 10
4.8771220839
 20
11.6575477814
 11
4.8771220839
 21
12.4125477814
  0
LINE
  5
240
100
AcDbEntity
  8
0
100
AcDbLine
 62
7
  6
CONTINUOUS
 10
7.1446220839
 20
11.5375477814
 11
4.9971220839
 21
11.5375477814
  0
LINE
  5
241
100
AcDbEntity
  8
0
100
AcDbLine
 62
7
  6
CONTINUOUS
 10
5.9265345166
 20
13.0879615721
 11
5.7821969493
 21
12.8950013123
  0
LINE
  5
242
100
AcDbEntity
  8
0
100
AcDbLine
 62
7
  6
CONTINUOUS
 10
5.7821969493
 20
12.8552628406
 11
5.9265345166
 21
13.0482231004
  0
LINE
  5
243
100
AcDbEntity
  8
03__ASM_ALL_CURVES
100
AcDbLine
 62
8
  6
PHANTOM
 10
8.5239970839
 20
12.1156727814
 11
3.6177470839
 21
12.1156727814
  0
LINE
  5
244
100
AcDbEntity
  8
0
100
AcDbLine
 62
7
  6
CONTINUOUS
 10
5.7608720839
 20
12.6446897602
 11
5.7608720839
 21
13.159102332
  0
LINE
  5
245
100
AcDbEntity
  8
0
100
AcDbLine
 62
7
  6
CONTINUOUS
 10
5.7821969493
 20
12.8552628406
 11
5.7821969493
 21
12.8950013123
  0
LINE
  5
246
100
AcDbEntity
  8
0
100
AcDbLine
 62
7
  6
CONTINUOUS
 10
7.3759145839
 20
12.4125477814
 11
4.7658295839
 21
12.4125477814
  0
LINE
  5
247
100
AcDbEntity
  8
0
100
AcDbLine
 62
7
  6
CONTINUOUS
 10
5.9265345166
 20
13.0482231004
 11
5.9265345166
 21
13.0879615721
  0
LINE
  5
248
100
AcDbEntity
  8
0
100
AcDbLine
 62
7
  6
CONTINUOUS
 10
5.9265345166
 20
12.6623025807
 11
5.7821969493
 21
12.8552628406
  0
LINE
  5
249
100
AcDbEntity
  8
0
100
AcDbLine
 62
7
  6
CONTINUOUS
 10
6.2152096512
 20
13.0879615721
 11
6.2152096512
 21
13.0482231004
  0
LINE
  5
24A
100
AcDbEntity
  8
0
100
AcDbLine
 62
7
  6
CONTINUOUS
 10
6.3595472185
 20
12.8552628406
 11
6.2152096512
 21
12.6623025807
  0
LINE
  5
24B
100
AcDbEntity
  8
0
100
AcDbLine
 62
7
  6
CONTINUOUS
 10
6.2152096512
 20
12.6623025807
 11
6.1293223143
 21
12.6623025807
  0
LINE
  5
24C
100
AcDbEntity
  8
0
100
AcDbLine
 62
7
  6
CONTINUOUS
 10
6.012291026
 20
12.6623025807
 11
5.9265345166
 21
12.6623025807
  0
LINE
  5
24D
100
AcDbEntity
  8
0
100
AcDbLine
 62
7
  6
CONTINUOUS
 10
6.3595472185
 20
12.8552628406
 11
6.3595472185
 21
12.8950013123
  0
LINE
  5
24E
100
AcDbEntity
  8
0
100
AcDbLine
 62
7
  6
CONTINUOUS
 10
6.3808720839
 20
13.159102332
 11
6.3808720839
 21
12.6446897602
  0
LINE
  5
24F
100
AcDbEntity
  8
0
100
AcDbLine
 62
7
  6
CONTINUOUS
 10
5.9265345166
 20
13.0482231004
 11
6.2152096512
 21
13.0482231004
  0
LINE
  5
250
100
AcDbEntity
  8
0
100
AcDbLine
 62
7
  6
CONTINUOUS
 10
7.9258720855
 20
13.0687977814
 11
6.5522965146
 21
13.0687977814
  0
LINE
  5
251
100
AcDbEntity
  8
0
100
AcDbLine
 62
7
  6
CONTINUOUS
 10
5.5894476531
 20
13.0687977814
 11
4.2158720822
 21
13.0687977814
  0
LINE
  5
252
100
AcDbEntity
  8
0
100
AcDbLine
 62
7
  6
CONTINUOUS
 10
5.9265345166
 20
13.0879615721
 11
6.2152096512
 21
13.0879615721
  0
LINE
  5
253
100
AcDbEntity
  8
0
100
AcDbLine
 62
7
  6
CONTINUOUS
 10
6.2152096512
 20
13.0482231004
 11
6.3595472185
 21
12.8552628406
  0
LINE
  5
254
100
AcDbEntity
  8
0
100
AcDbLine
 62
7
  6
CONTINUOUS
 10
6.2152096512
 20
13.0879615721
 11
6.3595472185
 21
12.8950013123
  0
LINE
  5
255
100
AcDbEntity
  8
0
100
AcDbLine
 62
7
  6
CONTINUOUS
 10
4.2345795839
 20
13.6625477814
 11
7.9071645839
 21
13.6625477814
  0
LINE
  5
256
100
AcDbEntity
  8
0
100
AcDbLine
 62
7
  6
CONTINUOUS
 10
7.2646220839
 20
11.6575477814
 11
7.2646220839
 21
12.4125477814
  0
LINE
  5
257
100
AcDbEntity
  8
0
100
AcDbLine
 62
7
  6
CONTINUOUS
 10
7.4146220839
 20
12.4512552814
 11
7.4146220839
 21
13.0687977814
  0
LINE
  5
258
100
AcDbEntity
  8
0
100
AcDbLine
 62
7
  6
CONTINUOUS
 10
7.9458720839
 20
13.0887977814
 11
7.9458720839
 21
13.6238402814
  0
LINE
  5
259
100
AcDbEntity
  8
0
100
AcDbLine
 62
7
  6
CONTINUOUS
 10
16.0491052569
 20
3.5856247044
 11
16.5841477569
 21
3.5856247044
  0
LINE
  5
25A
100
AcDbEntity
  8
0
100
AcDbLine
 62
7
  6
CONTINUOUS
 10
15.6401596947
 20
7.217022337
 11
15.6787517467
 21
7.2488131144
  0
LINE
  5
25B
100
AcDbEntity
  8
0
100
AcDbLine
 62
7
  6
CONTINUOUS
 10
16.0291052569
 20
4.1168747044
 11
15.4115627569
 21
4.1168747044
  0
LINE
  5
25C
100
AcDbEntity
  8
0
100
AcDbLine
 62
7
  6
CONTINUOUS
 10
14.4978552569
 20
4.3868752069
 11
14.4978552569
 21
6.5343747044
  0
LINE
  5
25D
100
AcDbEntity
  8
0
100
AcDbLine
 62
7
  6
CONTINUOUS
 10
16.008530576
 20
7.202358078
 11
15.6226100563
 21
6.8844503044
  0
LINE
  5
25E
100
AcDbEntity
  8
0
100
AcDbLine
 62
7
  6
CONTINUOUS
 10
15.3728552569
 20
4.2668747044
 11
14.6178552569
 21
4.2668747044
  0
LINE
  5
25F
100
AcDbEntity
  8
0
100
AcDbLine
 62
7
  6
CONTINUOUS
 10
15.5806935941
 20
6.7689457719
 11
16.0291052569
 21
7.1383315551
  0
LINE
  5
260
100
AcDbEntity
  8
03__ASM_ALL_CURVES
100
AcDbLine
 62
8
  6
PHANTOM
 10
15.0759802569
 20
3.0131158336
 11
15.0759802569
 21
7.9085850837
  0
LINE
  5
261
100
AcDbEntity
  8
0
100
AcDbLine
 62
7
  6
CONTINUOUS
 10
15.3728552569
 20
6.7656672044
 11
15.3728552569
 21
4.1555835763
  0
LINE
  5
262
100
AcDbEntity
  8
0
100
AcDbLine
 62
7
  6
CONTINUOUS
 10
16.0291052569
 20
3.6056247044
 11
16.0291052569
 21
4.9792002737
  0
LINE
  5
263
100
AcDbEntity
  8
0
100
AcDbLine
 62
7
  6
CONTINUOUS
 10
16.0291052569
 20
5.9420491352
 11
16.0291052569
 21
7.3156247044
  0
LINE
  5
264
100
AcDbEntity
  8
0
100
AcDbLine
 62
7
  6
CONTINUOUS
 10
16.6228552569
 20
3.6243322044
 11
16.6228552569
 21
7.2969172044
  0
LINE
  5
265
100
AcDbEntity
  8
0
100
AcDbLine
 62
7
  6
CONTINUOUS
 10
15.6226100563
 20
6.8844503044
 11
15.662348528
 21
6.8362102394
  0
LINE
  5
266
100
AcDbEntity
  8
0
100
AcDbLine
 62
7
  6
CONTINUOUS
 10
15.3728552569
 20
6.6543747044
 11
14.6178552569
 21
6.6543747044
  0
LINE
  5
267
100
AcDbEntity
  8
0
100
AcDbLine
 62
7
  6
CONTINUOUS
 10
15.8155703161
 20
7.0434041912
 11
15.8553087878
 21
6.9951641262
  0
LINE
  5
268
100
AcDbEntity
  8
0
100
AcDbLine
 62
7
  6
CONTINUOUS
 10
15.623702143
 20
6.8043747044
 11
15.4115627569
 21
6.8043747044
  0
LINE
  5
269
100
AcDbEntity
  8
0
100
AcDbLine
 62
7
  6
CONTINUOUS
 10
16.0291052569
 20
7.1773816784
 11
16.008530576
 21
7.202358078
  0
LINE
  5
26A
100
AcDbEntity
  8
0
100
AcDbLine
 62
7
  6
CONTINUOUS
 10
16.0491052569
 20
7.3356247044
 11
16.5841477569
 21
7.3356247044
  0
LINE
  5
26B
100
AcDbEntity
  8
0
100
AcDbLine
 62
7
  6
CONTINUOUS
 10
13.4562731066
 20
13.8639724332
 11
13.5857888774
 21
14.2830856212
  0
LINE
  5
26C
100
AcDbEntity
  8
0
100
AcDbLine
 62
7
  6
CONTINUOUS
 10
14.3367946539
 20
13.2359458339
 11
14.1873084114
 21
12.7522081759
  0
LWPOLYLINE
  5
26D
100
AcDbEntity
  8
0
100
AcDbPolyline
 62
7
  6
CONTINUOUS
 90
4
 70
0
 10
13.635624797
 20
13.5431661201
 10
13.8053555326
 20
13.1769388665
 10
14.0476415084
 20
12.6833237163
 10
14.2203833438
 20
12.3511901431
  0
LINE
  5
26E
100
AcDbEntity
  8
0
100
AcDbLine
 62
7
  6
CONTINUOUS
 10
14.3212517558
 20
12.6776004438
 11
14.1384916816
 21
12.086188627
  0
LINE
  5
26F
100
AcDbEntity
  8
0
100
AcDbLine
 62
7
  6
CONTINUOUS
 10
14.8202503798
 20
13.6558110198
 11
14.9514156733
 21
13.9057693043
  0
LINE
  5
270
100
AcDbEntity
  8
0
100
AcDbLine
 62
7
  6
CONTINUOUS
 10
14.8304134449
 20
13.324577557
 11
14.8281612039
 21
13.6411335775
  0
LINE
  5
271
100
AcDbEntity
  8
0
100
AcDbLine
 62
7
  6
CONTINUOUS
 10
14.827952349
 20
13.670488462
 11
14.8256198119
 21
13.9983302322
  0
LINE
  5
272
100
AcDbEntity
  8
0
100
AcDbLine
 62
7
  6
CONTINUOUS
 10
14.8304133994
 20
13.3245773827
 11
14.8299648545
 21
13.3181042682
  0
LINE
  5
273
100
AcDbEntity
  8
0
100
AcDbLine
 62
7
  6
CONTINUOUS
 10
14.8299648545
 20
13.3181042682
 11
14.8287782703
 21
13.3127493652
  0
LINE
  5
274
100
AcDbEntity
  8
0
100
AcDbLine
 62
7
  6
CONTINUOUS
 10
15.3520251926
 20
13.6558110198
 11
15.2208598991
 21
13.4058527352
  0
LINE
  5
275
100
AcDbEntity
  8
0
100
AcDbLine
 62
7
  6
CONTINUOUS
 10
15.3763597778
 20
13.6569527288
 11
15.2451944843
 21
13.4069944442
  0
LINE
  5
276
100
AcDbEntity
  8
0
100
AcDbLine
 62
7
  6
CONTINUOUS
 10
16.6406293591
 20
11.7691526523
 11
17.1029557694
 21
11.7800990265
  0
LINE
  5
277
100
AcDbEntity
  8
0
100
AcDbLine
 62
7
  6
CONTINUOUS
 10
14.9549724927
 20
13.4058527352
 11
14.8202503798
 21
13.6558110198
  0
LINE
  5
278
100
AcDbEntity
  8
0
100
AcDbLine
 62
7
  6
CONTINUOUS
 10
13.7050865357
 20
13.5027517128
 11
14.1616045234
 21
13.2713060968
  0
LINE
  5
279
100
AcDbEntity
  8
0
100
AcDbLine
 62
7
  6
CONTINUOUS
 10
16.754104106
 20
11.9569599395
 11
17.1276722774
 21
11.7675682444
  0
LINE
  5
27A
100
AcDbEntity
  8
0
100
AcDbLine
 62
7
  6
CONTINUOUS
 10
16.8976686991
 20
13.5065120657
 11
16.6683047351
 21
13.2750664497
  0
LINE
  5
27B
100
AcDbEntity
  8
0
100
AcDbLine
 62
7
  6
CONTINUOUS
 10
15.2173030797
 20
13.9057693043
 11
15.3520251926
 21
13.6558110198
  0
LINE
  5
27C
100
AcDbEntity
  8
0
100
AcDbLine
 62
7
  6
CONTINUOUS
 10
15.2416376649
 20
13.9069110133
 11
15.3763597778
 21
13.6569527288
  0
LINE
  5
27D
100
AcDbEntity
  8
0
100
AcDbLine
 62
7
  6
CONTINUOUS
 10
15.2208598991
 20
13.4058527352
 11
15.2451944843
 21
13.4069944442
  0
LINE
  5
27E
100
AcDbEntity
  8
0
100
AcDbLine
 62
7
  6
CONTINUOUS
 10
15.2208598991
 20
13.4058527352
 11
14.9549724927
 21
13.4058527352
  0
LINE
  5
27F
100
AcDbEntity
  8
0
100
AcDbLine
 62
7
  6
CONTINUOUS
 10
16.9431880035
 20
13.5809584687
 11
16.962667154
 21
13.6439951421
  0
LINE
  5
280
100
AcDbEntity
  8
0
100
AcDbLine
 62
7
  6
CONTINUOUS
 10
16.6023190214
 20
11.9726973444
 11
16.4195589473
 21
11.3812855276
  0
LINE
  5
281
100
AcDbEntity
  8
0
100
AcDbLine
 62
7
  6
CONTINUOUS
 10
15.3520251926
 20
13.6558110198
 11
15.3763597778
 21
13.6569527288
  0
LINE
  5
282
100
AcDbEntity
  8
0
100
AcDbLine
 62
7
  6
CONTINUOUS
 10
16.9230126783
 20
12.5399489534
 11
16.9044876766
 21
12.4424686764
  0
LINE
  5
283
100
AcDbEntity
  8
0
100
AcDbLine
 62
7
  6
CONTINUOUS
 10
16.9044881728
 20
12.4424685231
 11
16.7550019303
 21
11.958730865
  0
LINE
  5
284
100
AcDbEntity
  8
0
100
AcDbLine
 62
7
  6
CONTINUOUS
 10
15.2416376649
 20
13.9069110133
 11
15.2173030797
 21
13.9057693043
  0
LINE
  5
285
100
AcDbEntity
  8
0
100
AcDbLine
 62
7
  6
CONTINUOUS
 10
14.9514156733
 20
13.9057693043
 11
14.9757502585
 21
13.9069110133
  0
LINE
  5
286
100
AcDbEntity
  8
0
100
AcDbLine
 62
7
  6
CONTINUOUS
 10
14.9514156733
 20
13.9057693043
 11
15.2173030797
 21
13.9057693043
  0
LINE
  5
287
100
AcDbEntity
  8
0
100
AcDbLine
 62
7
  6
CONTINUOUS
 10
14.9757502585
 20
13.9069110133
 11
15.2416376649
 21
13.9069110133
  0
LINE
  5
288
100
AcDbEntity
  8
0
100
AcDbLine
 62
7
  6
CONTINUOUS
 10
16.4803931049
 20
14.4541521274
 11
13.9093117327
 21
14.4541521274
  0
LINE
  5
289
100
AcDbEntity
  8
0
100
AcDbLine
 62
7
  6
CONTINUOUS
 10
17.9068370387
 20
12.4234474775
 11
17.0553326692
 21
14.1586309459
  0
LINE
  5
28A
100
AcDbEntity
  8
0
100
AcDbLine
 62
7
  6
CONTINUOUS
 10
17.794692373
 20
11.8457750003
 11
17.9242081439
 21
12.2648881883
  0
ARC
  5
28B
100
AcDbEntity
  8
0
100
AcDbCircle
 62
7
  6
CONTINUOUS
 10
4.7346500604
 20
4.124402681
 40
0.4792827843
100
AcDbArc
 50
135.0
 51
315.0
  0
ARC
  5
28C
100
AcDbEntity
  8
0
100
AcDbCircle
 62
7
  6
CONTINUOUS
 10
4.5559464554
 20
5.0477713584
 40
0.3
100
AcDbArc
 50
315.0
 51
16.6999884943
  0
ARC
  5
28D
100
AcDbEntity
  8
0
100
AcDbCircle
 62
7
  6
CONTINUOUS
 10
5.6580187378
 20
3.945699076
 40
0.3
100
AcDbArc
 50
73.3000115057
 51
135.0
  0
CIRCLE
  5
28E
100
AcDbEntity
  8
0
100
AcDbCircle
 62
7
  6
CONTINUOUS
 10
4.7553672762
 20
4.1451198968
 40
0.23875
  0
CIRCLE
  5
28F
100
AcDbEntity
  8
0
100
AcDbCircle
 62
7
  6
CONTINUOUS
 10
4.7553672762
 20
4.1451198968
 40
0.21875
  0
ARC
  5
290
100
AcDbEntity
  8
0
100
AcDbCircle
 62
7
  6
CONTINUOUS
 10
4.7346500604
 20
6.9158371125
 40
0.4792827843
100
AcDbArc
 50
45.0
 51
225.0
  0
ARC
  5
291
100
AcDbEntity
  8
0
100
AcDbCircle
 62
7
  6
CONTINUOUS
 10
4.5559464554
 20
5.9924684351
 40
0.3
100
AcDbArc
 50
343.3000115057
 51
45.0
  0
ARC
  5
292
100
AcDbEntity
  8
0
100
AcDbCircle
 62
7
  6
CONTINUOUS
 10
5.6580187378
 20
7.0945407175
 40
0.3
100
AcDbArc
 50
225.0
 51
286.6999884943
  0
CIRCLE
  5
293
100
AcDbEntity
  8
0
100
AcDbCircle
 62
7
  6
CONTINUOUS
 10
4.7553672762
 20
6.8951198968
 40
0.23875
  0
CIRCLE
  5
294
100
AcDbEntity
  8
03__ASM_ALL_CURVES
100
AcDbCircle
 62
8
  6
PHANTOM
 10
4.7553672762
 20
6.8951198968
 40
0.23875
  0
CIRCLE
  5
295
100
AcDbEntity
  8
0
100
AcDbCircle
 62
7
  6
CONTINUOUS
 10
4.7553672762
 20
6.8951198968
 40
0.21875
  0
ARC
  5
296
100
AcDbEntity
  8
0
100
AcDbCircle
 62
7
  6
CONTINUOUS
 10
5.8103672762
 20
6.8355054153
 40
0.01
100
AcDbArc
 50
283.6730080606
 51
360.0
  0
ARC
  5
297
100
AcDbEntity
  8
0
100
AcDbCircle
 62
7
  6
CONTINUOUS
 10
7.5260844919
 20
4.124402681
 40
0.4792827843
100
AcDbArc
 50
225.0
 51
45.0
  0
ARC
  5
298
100
AcDbEntity
  8
0
100
AcDbCircle
 62
7
  6
CONTINUOUS
 10
7.7047880969
 20
5.0477713584
 40
0.3
100
AcDbArc
 50
163.3000115057
 51
225.0
  0
ARC
  5
299
100
AcDbEntity
  8
0
100
AcDbCircle
 62
7
  6
CONTINUOUS
 10
6.6027158145
 20
3.945699076
 40
0.3
100
AcDbArc
 50
45.0
 51
106.6999884943
  0
CIRCLE
  5
29A
100
AcDbEntity
  8
0
100
AcDbCircle
 62
7
  6
CONTINUOUS
 10
7.5053672762
 20
4.1451198968
 40
0.23875
  0
CIRCLE
  5
29B
100
AcDbEntity
  8
0
100
AcDbCircle
 62
7
  6
CONTINUOUS
 10
7.5053672762
 20
4.1451198968
 40
0.21875
  0
CIRCLE
  5
29C
100
AcDbEntity
  8
03__ASM_ALL_CURVES
100
AcDbCircle
 62
8
  6
PHANTOM
 10
6.1303672762
 20
5.5201198968
 40
2.453125
  0
CIRCLE
  5
29D
100
AcDbEntity
  8
03__ASM_ALL_CURVES
100
AcDbCircle
 62
8
  6
PHANTOM
 10
6.1303672762
 20
5.5201198968
 40
1.9445436483
  0
CIRCLE
  5
29E
100
AcDbEntity
  8
0
100
AcDbCircle
 62
7
  6
CONTINUOUS
 10
6.1303672762
 20
5.5201198968
 40
1.34375
  0
CIRCLE
  5
29F
100
AcDbEntity
  8
0
100
AcDbCircle
 62
7
  6
CONTINUOUS
 10
6.1303672762
 20
5.5201198968
 40
1.19375
  0
ARC
  5
2A0
100
AcDbEntity
  8
0
100
AcDbCircle
 62
7
  6
CONTINUOUS
 10
7.5260844919
 20
6.9158371125
 40
0.4792827843
100
AcDbArc
 50
315.0
 51
135.0
  0
ARC
  5
2A1
100
AcDbEntity
  8
0
100
AcDbCircle
 62
7
  6
CONTINUOUS
 10
6.6027158145
 20
7.0945407175
 40
0.3
100
AcDbArc
 50
253.3000115057
 51
315.0
  0
ARC
  5
2A2
100
AcDbEntity
  8
0
100
AcDbCircle
 62
7
  6
CONTINUOUS
 10
7.7047880969
 20
5.9924684351
 40
0.3
100
AcDbArc
 50
135.0
 51
196.6999884943
  0
CIRCLE
  5
2A3
100
AcDbEntity
  8
0
100
AcDbCircle
 62
7
  6
CONTINUOUS
 10
7.5053672762
 20
6.8951198968
 40
0.23875
  0
CIRCLE
  5
2A4
100
AcDbEntity
  8
0
100
AcDbCircle
 62
7
  6
CONTINUOUS
 10
7.5053672762
 20
6.8951198968
 40
0.21875
  0
ARC
  5
2A5
100
AcDbEntity
  8
0
100
AcDbCircle
 62
7
  6
CONTINUOUS
 10
6.4503672762
 20
6.8355054153
 40
0.01
100
AcDbArc
 50
180.0
 51
256.3269919394
  0
ARC
  5
2A6
100
AcDbEntity
  8
0
100
AcDbCircle
 62
7
  6
CONTINUOUS
 10
4.9971220839
 20
11.6575477814
 40
0.12
100
AcDbArc
 50
180.0
 51
270.0
  0
ARC
  5
2A7
100
AcDbEntity
  8
0
100
AcDbCircle
 62
7
  6
CONTINUOUS
 10
7.1446220839
 20
11.6575477814
 40
0.12
100
AcDbArc
 50
270.0
 51
360.0
  0
ARC
  5
2A8
100
AcDbEntity
  8
0
100
AcDbCircle
 62
7
  6
CONTINUOUS
 10
4.2345795839
 20
13.6238402814
 40
0.0387075
100
AcDbArc
 50
90.0
 51
180.0
  0
ARC
  5
2A9
100
AcDbEntity
  8
0
100
AcDbCircle
 62
7
  6
CONTINUOUS
 10
7.9071645839
 20
13.6238402814
 40
0.0387075
100
AcDbArc
 50
0.0
 51
90.0
  0
ARC
  5
2AA
100
AcDbEntity
  8
0
100
AcDbCircle
 62
7
  6
CONTINUOUS
 10
7.3759145839
 20
12.4512552814
 40
0.0387075
100
AcDbArc
 50
270.0
 51
360.0
  0
ARC
  5
2AB
100
AcDbEntity
  8
0
100
AcDbCircle
 62
7
  6
CONTINUOUS
 10
4.7658295839
 20
12.4512552814
 40
0.0387075
100
AcDbArc
 50
180.0
 51
270.0
  0
ARC
  5
2AC
100
AcDbEntity
  8
0
100
AcDbCircle
 62
7
  6
CONTINUOUS
 10
4.2158720839
 20
13.0887977814
 40
0.02
100
AcDbArc
 50
180.0
 51
270.0
  0
ARC
  5
2AD
100
AcDbEntity
  8
0
100
AcDbCircle
 62
7
  6
CONTINUOUS
 10
7.9258720839
 20
13.0887977814
 40
0.02
100
AcDbArc
 50
270.0
 51
360.0
  0
ARC
  5
2AE
100
AcDbEntity
  8
0
100
AcDbCircle
 62
7
  6
CONTINUOUS
 10
5.7508859694
 20
13.1302143596
 40
0.0099869895
100
AcDbArc
 50
0.0763765557
 51
89.1062949061
  0
ARC
  5
2AF
100
AcDbEntity
  8
0
100
AcDbCircle
 62
7
  6
CONTINUOUS
 10
6.3908581982
 20
13.13021436
 40
0.0099869893
100
AcDbArc
 50
90.8930888993
 51
179.9247511708
  0
ARC
  5
2B0
100
AcDbEntity
  8
0
100
AcDbCircle
 62
7
  6
CONTINUOUS
 10
5.7508861731
 20
13.1590888469
 40
0.0099868116
100
AcDbArc
 50
0.0773729418
 51
89.3259380522
  0
ARC
  5
2B1
100
AcDbEntity
  8
0
100
AcDbCircle
 62
7
  6
CONTINUOUS
 10
6.3908579947
 20
13.1590888476
 40
0.0099868112
100
AcDbArc
 50
90.673371976
 51
179.9238577285
  0
ARC
  5
2B2
100
AcDbEntity
  8
0
100
AcDbCircle
 62
7
  6
CONTINUOUS
 10
15.5529847039
 20
6.9882641296
 40
0.125
100
AcDbArc
 50
315.1122216273
 51
47.8077469912
  0
ARC
  5
2B3
100
AcDbEntity
  8
0
100
AcDbCircle
 62
7
  6
CONTINUOUS
 10
15.9199692773
 20
7.2905731355
 40
0.125
100
AcDbArc
 50
211.1532497111
 51
303.848775075
  0
ARC
  5
2B4
100
AcDbEntity
  8
0
100
AcDbCircle
 62
7
  6
CONTINUOUS
 10
14.6178552569
 20
6.5343747044
 40
0.12
100
AcDbArc
 50
90.0
 51
180.0
  0
ARC
  5
2B5
100
AcDbEntity
  8
0
100
AcDbCircle
 62
7
  6
CONTINUOUS
 10
14.6178552569
 20
4.3868747044
 40
0.12
100
AcDbArc
 50
180.0
 51
270.0
  0
ARC
  5
2B6
100
AcDbEntity
  8
0
100
AcDbCircle
 62
7
  6
CONTINUOUS
 10
15.7359751459
 20
7.1793474208
 40
0.09
100
AcDbArc
 50
31.1532497111
 51
129.4804983512
  0
ARC
  5
2B7
100
AcDbEntity
  8
0
100
AcDbCircle
 62
7
  6
CONTINUOUS
 10
15.6973830939
 20
7.1475566435
 40
0.09
100
AcDbArc
 50
129.4804983512
 51
227.8077469912
  0
ARC
  5
2B8
100
AcDbEntity
  8
0
100
AcDbCircle
 62
7
  6
CONTINUOUS
 10
16.5841477569
 20
3.6243322044
 40
0.0387075
100
AcDbArc
 50
270.0
 51
360.0
  0
ARC
  5
2B9
100
AcDbEntity
  8
0
100
AcDbCircle
 62
7
  6
CONTINUOUS
 10
15.4115627569
 20
4.1555822044
 40
0.0387075
100
AcDbArc
 50
180.0
 51
270.0
  0
ARC
  5
2BA
100
AcDbEntity
  8
0
100
AcDbCircle
 62
7
  6
CONTINUOUS
 10
15.4115627569
 20
6.7656672044
 40
0.0387075
100
AcDbArc
 50
90.0
 51
180.0
  0
ARC
  5
2BB
100
AcDbEntity
  8
0
100
AcDbCircle
 62
7
  6
CONTINUOUS
 10
16.5841477569
 20
7.2969172044
 40
0.0387075
100
AcDbArc
 50
0.0
 51
90.0
  0
ARC
  5
2BC
100
AcDbEntity
  8
0
100
AcDbCircle
 62
7
  6
CONTINUOUS
 10
16.0491052569
 20
3.6056247044
 40
0.02
100
AcDbArc
 50
180.0
 51
270.0
  0
ARC
  5
2BD
100
AcDbEntity
  8
0
100
AcDbCircle
 62
7
  6
CONTINUOUS
 10
16.0491052569
 20
7.3156247044
 40
0.02
100
AcDbArc
 50
90.0
 51
180.0
  0
ARC
  5
2BE
100
AcDbEntity
  8
0
100
AcDbCircle
 62
7
  6
CONTINUOUS
 10
17.4687618256
 20
12.4403573664
 40
0.7543124569
100
AcDbArc
 50
243.1159764987
 51
243.3381198313
  0
ARC
  5
2BF
100
AcDbEntity
  8
0
100
AcDbCircle
 62
7
  6
CONTINUOUS
 10
13.9407349498
 20
12.835647301
 40
0.4884485181
100
AcDbArc
 50
62.8156615047
 51
63.1159788747
  0
ARC
  5
2C0
100
AcDbEntity
  8
0
100
AcDbCircle
 62
7
  6
CONTINUOUS
 10
17.3542382518
 20
11.9154369261
 40
0.1801751355
100
AcDbArc
 50
37.2407355576
 51
39.4753829329
  0
ARC
  5
2C1
100
AcDbEntity
  8
0
100
AcDbCircle
 62
7
  6
CONTINUOUS
 10
16.5153731186
 20
13.6248643389
 40
0.1801751355
100
AcDbArc
 50
37.2407355576
 51
39.475382933
  0
ARC
  5
2C2
100
AcDbEntity
  8
0
100
AcDbCircle
 62
7
  6
CONTINUOUS
 10
13.9824553851
 20
13.6248643389
 40
0.1801751355
100
AcDbArc
 50
37.2407355575
 51
39.475382933
  0
ARC
  5
2C3
100
AcDbEntity
  8
0
100
AcDbCircle
 62
7
  6
CONTINUOUS
 10
17.2272050801
 20
11.9573969003
 40
0.1770149799
100
AcDbArc
 50
106.5704790227
 51
108.3633784775
  0
ARC
  5
2C4
100
AcDbEntity
  8
0
100
AcDbCircle
 62
7
  6
CONTINUOUS
 10
16.3883399469
 20
13.6668243131
 40
0.1770149799
100
AcDbArc
 50
106.5704790226
 51
108.3633784776
  0
ARC
  5
2C5
100
AcDbEntity
  8
0
100
AcDbCircle
 62
7
  6
CONTINUOUS
 10
13.8554222134
 20
13.6668243131
 40
0.1770149799
100
AcDbArc
 50
106.5704790228
 51
108.3633784776
  0
ARC
  5
2C6
100
AcDbEntity
  8
0
100
AcDbCircle
 62
7
  6
CONTINUOUS
 10
15.025387033
 20
13.6565242888
 40
0.1114413599
100
AcDbArc
 50
70.8627585342
 51
89.9922538308
  0
ARC
  5
2C7
100
AcDbEntity
  8
0
100
AcDbCircle
 62
7
  6
CONTINUOUS
 10
15.0257416512
 20
13.6493435147
 40
0.111369525
100
AcDbArc
 50
270.0082984314
 51
294.5146009437
  0
ARC
  5
2C8
100
AcDbEntity
  8
0
100
AcDbCircle
 62
7
  6
CONTINUOUS
 10
16.7375019983
 20
13.2052218549
 40
0.0982740415
100
AcDbArc
 50
142.702332504
 51
143.6254597078
  0
ARC
  5
2C9
100
AcDbEntity
  8
0
100
AcDbCircle
 62
7
  6
CONTINUOUS
 10
16.6956933275
 20
13.2839241776
 40
0.035640539
100
AcDbArc
 50
64.2091711829
 51
67.2768038973
  0
SPLINE
  5
2CA
100
AcDbEntity
  8
0
100
AcDbSpline
 62
7
  6
CONTINUOUS
 70
0
 71
3
 72
13
 73
9
 74
0
 42
0.0000001
 43
0.0000001
 44
0.0000000001
 40
0.0
 40
0.0
 40
0.0
 40
0.0
 40
0.2987522636
 40
0.4442837716
 40
0.5835945762
 40
0.7139529415
 40
0.8313883502
 40
1.0
 40
1.0
 40
1.0
 40
1.0
 10
6.017148228
 20
7.2041432185
 30
0.0
 10
6.01743615
 20
7.2026360194
 30
0.0
 10
6.0176679388
 20
7.2003522618
 30
0.0
 10
6.0176271489
 20
7.1973534938
 30
0.0
 10
6.0174341241
 20
7.195227207
 30
0.0
 10
6.0170867754
 20
7.1932666818
 30
0.0
 10
6.0165290119
 20
7.1912002066
 30
0.0
 10
6.0160273186
 20
7.1898156707
 30
0.0
 10
6.0156854687
 20
7.1890199715
 30
0.0
  0
SPLINE
  5
2CB
100
AcDbEntity
  8
0
100
AcDbSpline
 62
7
  6
CONTINUOUS
 70
0
 71
3
 72
29
 73
25
 74
0
 42
0.0000001
 43
0.0000001
 44
0.0000000001
 40
0.0
 40
0.0
 40
0.0
 40
0.0
 40
0.008323075
 40
0.0124414609
 40
0.0129724836
 40
0.0134395096
 40
0.0148828612
 40
0.0172862203
 40
0.0206330649
 40
0.024907355
 40
0.0300936088
 40
0.0361769359
 40
0.0509779028
 40
0.0691994399
 40
0.1151215589
 40
0.1720755629
 40
0.2381410786
 40
0.3114412514
 40
0.3901634643
 40
0.4726016121
 40
0.5576118935
 40
0.6445823123
 40
0.8219511346
 40
1.0
 40
1.0
 40
1.0
 40
1.0
 10
6.2451827416
 20
7.1886573706
 30
0.0
 10
6.2452082859
 20
7.1886203199
 30
0.0
 10
6.2452509162
 20
7.1885548034
 30
0.0
 10
6.2452781469
 20
7.188515792
 30
0.0
 10
6.2452995439
 20
7.1884773264
 30
0.0
 10
6.2452878652
 20
7.1884941925
 30
0.0
 10
6.2452790545
 20
7.1885095992
 30
0.0
 10
6.2452574604
 20
7.1885457174
 30
0.0
 10
6.2452317304
 20
7.1885918359
 30
0.0
 10
6.2451984178
 20
7.1886531624
 30
0.0
 10
6.2451596587
 20
7.1887275264
 30
0.0
 10
6.2450963461
 20
7.1888535714
 30
0.0
 10
6.2450060795
 20
7.1890447679
 30
0.0
 10
6.24483612
 20
7.189436423
 30
0.0
 10
6.244601132
 20
7.1900478595
 30
0.0
 10
6.2443079952
 20
7.1909132407
 30
0.0
 10
6.244007469
 20
7.191931624
 30
0.0
 10
6.2437205717
 20
7.1930757601
 30
0.0
 10
6.2434680045
 20
7.1943185978
 30
0.0
 10
6.2432719794
 20
7.195635819
 30
0.0
 10
6.2431451883
 20
7.1970062938
 30
0.0
 10
6.2430677784
 20
7.1988943332
 30
0.0
 10
6.24314928
 20
7.201288948
 30
0.0
 10
6.2434056829
 20
7.2031976058
 30
0.0
 10
6.2435863243
 20
7.2041432185
 30
0.0
  0
SPLINE
  5
2CC
100
AcDbEntity
  8
0
100
AcDbSpline
 62
7
  6
CONTINUOUS
 70
0
 71
3
 72
19
 73
15
 74
0
 42
0.0000001
 43
0.0000001
 44
0.0000000001
 40
0.0
 40
0.0
 40
0.0
 40
0.0
 40
0.1257019461
 40
0.251012103
 40
0.3135130868
 40
0.3759500519
 40
0.4383363825
 40
0.500713096
 40
0.5630987992
 40
0.6255088962
 40
0.6879529616
 40
0.7504174886
 40
0.8751974665
 40
1.0
 40
1.0
 40
1.0
 40
1.0
 10
6.1303672762
 20
7.3288426131
 30
0.0
 10
6.1384358662
 20
7.3288426131
 30
0.0
 10
6.1545862036
 20
7.3273311322
 30
0.0
 10
6.1740330278
 20
7.3216505812
 30
0.0
 10
6.1886188157
 20
7.314862942
 30
0.0
 10
6.1989540744
 20
7.3086735142
 30
0.0
 10
6.2085667761
 20
7.3014246273
 30
0.0
 10
6.2173192394
 20
7.293160104
 30
0.0
 10
6.2250905915
 20
7.2839636175
 30
0.0
 10
6.2317551267
 20
7.2739298706
 30
0.0
 10
6.2372077696
 20
7.2631813555
 30
0.0
 10
6.2427353906
 20
7.2481035775
 30
0.0
 10
6.2462066321
 20
7.2281728507
 30
0.0
 10
6.2450894665
 20
7.2120117898
 30
0.0
 10
6.2435863243
 20
7.2041432185
 30
0.0
  0
SPLINE
  5
2CD
100
AcDbEntity
  8
0
100
AcDbSpline
 62
7
  6
CONTINUOUS
 70
0
 71
3
 72
21
 73
17
 74
0
 42
0.0000001
 43
0.0000001
 44
0.0000000001
 40
0.0
 40
0.0
 40
0.0
 40
0.0
 40
0.1247086876
 40
0.1871870034
 40
0.2496512158
 40
0.3120978705
 40
0.3745267924
 40
0.4369468966
 40
0.4993318182
 40
0.5616980074
 40
0.624086013
 40
0.6864895424
 40
0.7489707894
 40
0.8116075837
 40
0.8744189551
 40
1.0
 40
1.0
 40
1.0
 40
1.0
 10
6.017148228
 20
7.2041432185
 30
0.0
 10
6.0156456589
 20
7.2120087896
 30
0.0
 10
6.0148122558
 20
7.2241526707
 30
0.0
 10
6.0166048839
 20
7.2401092667
 30
0.0
 10
6.019377388
 20
7.2518499959
 30
0.0
 10
6.0235194861
 20
7.2631735859
 30
0.0
 10
6.0289789216
 20
7.2739211782
 30
0.0
 10
6.035643187
 20
7.283959728
 30
0.0
 10
6.0434142748
 20
7.2931627486
 30
0.0
 10
6.0521757211
 20
7.301423125
 30
0.0
 10
6.0617851776
 20
7.3086789917
 30
0.0
 10
6.0721218475
 20
7.3148679468
 30
0.0
 10
6.0830588474
 20
7.3199540057
 30
0.0
 10
6.0944772638
 20
7.3239236967
 30
0.0
 10
6.1101650012
 20
7.3277025945
 30
0.0
 10
6.1223034564
 20
7.3288426131
 30
0.0
 10
6.1303672762
 20
7.3288426131
 30
0.0
  0
SPLINE
  5
2CE
100
AcDbEntity
  8
0
100
AcDbSpline
 62
7
  6
CONTINUOUS
 70
0
 71
3
 72
20
 73
16
 74
0
 42
0.0000001
 43
0.0000001
 44
0.0000000001
 40
0.0
 40
0.0
 40
0.0
 40
0.0
 40
0.0075257506
 40
0.0136313114
 40
0.0216922122
 40
0.0318684367
 40
0.0442762201
 40
0.076157891
 40
0.1178281003
 40
0.1689568464
 40
0.2974029465
 40
0.4557892147
 40
0.6333102812
 40
0.8182046823
 40
1.0
 40
1.0
 40
1.0
 40
1.0
 10
7.1871803881
 20
3.7854985706
 30
0.0
 10
7.1871276766
 20
3.785551249
 30
0.0
 10
7.1869686778
 20
3.7855581896
 30
0.0
 10
7.1867671782
 20
3.785503497
 30
0.0
 10
7.1865405561
 20
3.7854138732
 30
0.0
 10
7.1862700005
 20
3.7852777273
 30
0.0
 10
7.1858019365
 20
3.7850086191
 30
0.0
 10
7.1850934196
 20
3.7845359891
 30
0.0
 10
7.1840991727
 20
3.7838035771
 30
0.0
 10
7.1823767947
 20
3.7824492396
 30
0.0
 10
7.1798198765
 20
3.7802887688
 30
0.0
 10
7.1763910842
 20
3.777224626
 30
0.0
 10
7.1726116516
 20
3.7737153905
 30
0.0
 10
7.1687222949
 20
3.7699850675
 30
0.0
 10
7.166135049
 20
3.7674372093
 30
0.0
 10
7.1648604906
 20
3.7661659223
 30
0.0
  0
SPLINE
  5
2CF
100
AcDbEntity
  8
0
100
AcDbSpline
 62
7
  6
CONTINUOUS
 70
0
 71
3
 72
20
 73
16
 74
0
 42
0.0000001
 43
0.0000001
 44
0.0000000001
 40
0.0
 40
0.0
 40
0.0
 40
0.0
 40
0.1822393446
 40
0.3673462968
 40
0.5448788246
 40
0.7031563328
 40
0.8314635729
 40
0.8825257704
 40
0.9241342787
 40
0.9559625567
 40
0.968345339
 40
0.9784952637
 40
0.9865259375
 40
0.9925935168
 40
1.0
 40
1.0
 40
1.0
 40
1.0
 10
5.4680429101
 20
4.1385850628
 30
0.0
 10
5.466772874
 20
4.1398508975
 30
0.0
 10
5.464196971
 20
4.1423866398
 30
0.0
 10
5.4603281797
 20
4.1460984931
 30
0.0
 10
5.456573967
 20
4.1495884475
 30
0.0
 10
5.4531718742
 20
4.1526351708
 30
0.0
 10
5.4506372654
 20
4.1547842832
 30
0.0
 10
5.4489313035
 20
4.1561327186
 30
0.0
 10
5.4479471472
 20
4.156862593
 30
0.0
 10
5.4472463082
 20
4.1573344137
 30
0.0
 10
5.4467836028
 20
4.157603914
 30
0.0
 10
5.446516452
 20
4.1577406274
 30
0.0
 10
5.4462927802
 20
4.1578312337
 30
0.0
 10
5.4460952066
 20
4.1578870207
 30
0.0
 10
5.4459382647
 20
4.1578826506
 30
0.0
 10
5.4458867233
 20
4.1578311302
 30
0.0
  0
SPLINE
  5
2D0
100
AcDbEntity
  8
0
100
AcDbSpline
 62
7
  6
CONTINUOUS
 70
0
 71
3
 72
20
 73
16
 74
0
 42
0.0000001
 43
0.0000001
 44
0.0000000001
 40
0.0
 40
0.0
 40
0.0
 40
0.0
 40
0.1816608366
 40
0.3664654167
 40
0.5439613211
 40
0.7022519029
 40
0.8310252483
 40
0.8820849978
 40
0.9236148636
 40
0.9554722849
 40
0.9679105385
 40
0.9781347461
 40
0.9862524324
 40
0.9924138321
 40
1.0
 40
1.0
 40
1.0
 40
1.0
 10
5.0958740617
 20
3.7661659223
 30
0.0
 10
5.094600547
 20
3.7674361681
 30
0.0
 10
5.0920149613
 20
3.7699821417
 30
0.0
 10
5.0881276644
 20
3.773710403
 30
0.0
 10
5.084351329
 20
3.7772193399
 30
0.0
 10
5.0809199715
 20
3.7802831005
 30
0.0
 10
5.0783634899
 20
3.7824461639
 30
0.0
 10
5.0766403341
 20
3.7838011418
 30
0.0
 10
5.0756475485
 20
3.7845314884
 30
0.0
 10
5.0749400806
 20
3.7850031265
 30
0.0
 10
5.074471791
 20
3.7852728395
 30
0.0
 10
5.0742002944
 20
3.7854099797
 30
0.0
 10
5.0739724851
 20
3.7855009821
 30
0.0
 10
5.0737697376
 20
3.7855569282
 30
0.0
 10
5.0736094826
 20
3.7855523617
 30
0.0
 10
5.0735556204
 20
3.7855000068
 30
0.0
  0
SPLINE
  5
2D1
100
AcDbEntity
  8
0
100
AcDbSpline
 62
7
  6
CONTINUOUS
 70
0
 71
3
 72
20
 73
16
 74
0
 42
0.0000001
 43
0.0000001
 44
0.0000000001
 40
0.0
 40
0.0
 40
0.0
 40
0.0
 40
0.0074064968
 40
0.013474084
 40
0.0215047626
 40
0.0316546865
 40
0.0440374607
 40
0.0758656928
 40
0.1174742253
 40
0.1685365408
 40
0.2968437288
 40
0.4551210872
 40
0.6326538074
 40
0.8177605525
 40
1.0
 40
1.0
 40
1.0
 40
1.0
 10
4.7680785096
 20
4.8356393439
 30
0.0
 10
4.7681300299
 20
4.8356908855
 30
0.0
 10
4.7681343997
 20
4.8358478276
 30
0.0
 10
4.7680786126
 20
4.8360454014
 30
0.0
 10
4.7679880062
 20
4.8362690734
 30
0.0
 10
4.7678512928
 20
4.8365362242
 30
0.0
 10
4.7675817929
 20
4.8369989291
 30
0.0
 10
4.7671099726
 20
4.837699768
 30
0.0
 10
4.7663800974
 20
4.8386839248
 30
0.0
 10
4.7650316607
 20
4.8403898869
 30
0.0
 10
4.7628825499
 20
4.8429244958
 30
0.0
 10
4.7598358261
 20
4.8463265881
 30
0.0
 10
4.7563458727
 20
4.8500807994
 30
0.0
 10
4.7526340195
 20
4.853949592
 30
0.0
 10
4.7500982774
 20
4.8565254937
 30
0.0
 10
4.7488324422
 20
4.8577955307
 30
0.0
  0
SPLINE
  5
2D2
100
AcDbEntity
  8
0
100
AcDbSpline
 62
7
  6
CONTINUOUS
 70
0
 71
3
 72
20
 73
16
 74
0
 42
0.0000001
 43
0.0000001
 44
0.0000000001
 40
0.0
 40
0.0
 40
0.0
 40
0.0
 40
0.0075257524
 40
0.0136313143
 40
0.0216922163
 40
0.0318684421
 40
0.0442762267
 40
0.0761579004
 40
0.117828112
 40
0.1689568592
 40
0.2974029598
 40
0.4557892269
 40
0.6333102898
 40
0.8182046866
 40
1.0
 40
1.0
 40
1.0
 40
1.0
 10
4.39574595
 20
4.4633067848
 30
0.0
 10
4.3957986285
 20
4.4633594964
 30
0.0
 10
4.395805569
 20
4.4635184953
 30
0.0
 10
4.3957508763
 20
4.4637199949
 30
0.0
 10
4.3956612526
 20
4.463946617
 30
0.0
 10
4.3955251066
 20
4.4642171726
 30
0.0
 10
4.3952559983
 20
4.4646852367
 30
0.0
 10
4.3947833683
 20
4.4653937536
 30
0.0
 10
4.3940509562
 20
4.4663880006
 30
0.0
 10
4.3926966188
 20
4.4681103785
 30
0.0
 10
4.390536148
 20
4.4706672968
 30
0.0
 10
4.3874720051
 20
4.474096089
 30
0.0
 10
4.3839627697
 20
4.4778755215
 30
0.0
 10
4.3802324468
 20
4.4817648781
 30
0.0
 10
4.3776845887
 20
4.4843521239
 30
0.0
 10
4.3764133017
 20
4.4856266823
 30
0.0
  0
SPLINE
  5
2D3
100
AcDbEntity
  8
0
100
AcDbSpline
 62
7
  6
CONTINUOUS
 70
0
 71
3
 72
33
 73
29
 74
0
 42
0.0000001
 43
0.0000001
 44
0.0000000001
 40
0.0
 40
0.0
 40
0.0
 40
0.0
 40
0.0700147543
 40
0.1357338201
 40
0.1968427399
 40
0.225727074
 40
0.2535623356
 40
0.2804522141
 40
0.3065449365
 40
0.332021413
 40
0.3570912036
 40
0.3819886205
 40
0.4069544314
 40
0.4322277436
 40
0.4580302616
 40
0.4845552659
 40
0.5119672359
 40
0.5403881623
 40
0.5699019832
 40
0.6005621752
 40
0.6323822834
 40
0.6993763192
 40
0.7344828347
 40
0.7705326694
 40
0.8074236075
 40
0.8450437495
 40
0.9219491991
 40
1.0
 40
1.0
 40
1.0
 40
1.0
 10
6.2453268227
 20
7.2262190494
 30
0.0
 10
6.2555681485
 20
7.22235814
 30
0.0
 10
6.2750104303
 20
7.2136879154
 30
0.0
 10
6.3012314738
 20
7.1973961314
 30
0.0
 10
6.3197553121
 20
7.1814018243
 30
0.0
 10
6.331901623
 20
7.167521518
 30
0.0
 10
6.3395151098
 20
7.1568692046
 30
0.0
 10
6.3457386952
 20
7.1458455204
 30
0.0
 10
6.3505317378
 20
7.1345257722
 30
0.0
 10
6.3538627268
 20
7.1229864014
 30
0.0
 10
6.3556950824
 20
7.1113038441
 30
0.0
 10
6.3560203102
 20
7.0995625393
 30
0.0
 10
6.3548393384
 20
7.08784425
 30
0.0
 10
6.3521512636
 20
7.0762333018
 30
0.0
 10
6.3479857671
 20
7.0648096051
 30
0.0
 10
6.342376242
 20
7.0536482464
 30
0.0
 10
6.3353555221
 20
7.0428278425
 30
0.0
 10
6.3269809267
 20
7.0324146549
 30
0.0
 10
6.3173102765
 20
7.0224741859
 30
0.0
 10
6.3064022715
 20
7.0130757391
 30
0.0
 10
6.2900360348
 20
7.0011380937
 30
0.0
 10
6.2717469546
 20
6.9907790341
 30
0.0
 10
6.2520019392
 20
6.9820097263
 30
0.0
 10
6.2361576442
 20
6.9761245444
 30
0.0
 10
6.2196162393
 20
6.9710819675
 30
0.0
 10
6.1966083221
 20
6.9654763247
 30
0.0
 10
6.1668087375
 20
6.9607966739
 30
0.0
 10
6.1425684206
 20
6.9595442644
 30
0.0
 10
6.1303672762
 20
6.9595442644
 30
0.0
  0
SPLINE
  5
2D4
100
AcDbEntity
  8
0
100
AcDbSpline
 62
7
  6
CONTINUOUS
 70
0
 71
3
 72
20
 73
16
 74
0
 42
0.0000001
 43
0.0000001
 44
0.0000000001
 40
0.0
 40
0.0
 40
0.0
 40
0.0
 40
0.1822393446
 40
0.3673462968
 40
0.5448788246
 40
0.7031563328
 40
0.8314635729
 40
0.8825257704
 40
0.9241342787
 40
0.9559625567
 40
0.968345339
 40
0.9784952637
 40
0.9865259375
 40
0.9925935168
 40
1.0
 40
1.0
 40
1.0
 40
1.0
 10
6.7926916422
 20
6.9016547307
 30
0.0
 10
6.7939616783
 20
6.900388896
 30
0.0
 10
6.7965375813
 20
6.8978531537
 30
0.0
 10
6.8004063727
 20
6.8941413004
 30
0.0
 10
6.8041605853
 20
6.890651346
 30
0.0
 10
6.8075626781
 20
6.8876046227
 30
0.0
 10
6.8100972869
 20
6.8854555103
 30
0.0
 10
6.8118032489
 20
6.8841070749
 30
0.0
 10
6.8127874051
 20
6.8833772005
 30
0.0
 10
6.8134882441
 20
6.8829053798
 30
0.0
 10
6.8139509495
 20
6.8826358795
 30
0.0
 10
6.8142181003
 20
6.8824991661
 30
0.0
 10
6.8144417721
 20
6.8824085598
 30
0.0
 10
6.8146393457
 20
6.8823527728
 30
0.0
 10
6.8147962876
 20
6.8823571429
 30
0.0
 10
6.814847829
 20
6.8824086633
 30
0.0
  0
SPLINE
  5
2D5
100
AcDbEntity
  8
0
100
AcDbSpline
 62
7
  6
CONTINUOUS
 70
0
 71
3
 72
20
 73
16
 74
0
 42
0.0000001
 43
0.0000001
 44
0.0000000001
 40
0.0
 40
0.0
 40
0.0
 40
0.0
 40
0.0075401655
 40
0.013667319
 40
0.021749636
 40
0.0319389596
 40
0.0443435714
 40
0.0761389931
 40
0.1176187212
 40
0.1686435589
 40
0.297396072
 40
0.4557281744
 40
0.6333129322
 40
0.818228896
 40
1.0
 40
1.0
 40
1.0
 40
1.0
 10
7.1871804071
 20
7.2547412414
 30
0.0
 10
7.1871276193
 20
7.2546884307
 30
0.0
 10
7.1869679195
 20
7.2546822888
 30
0.0
 10
7.1867661203
 20
7.2547374908
 30
0.0
 10
7.1865390291
 20
7.2548276031
 30
0.0
 10
7.1862682494
 20
7.254963987
 30
0.0
 10
7.1858007732
 20
7.2552326761
 30
0.0
 10
7.1850941764
 20
7.2557032492
 30
0.0
 10
7.1841022083
 20
7.2564325433
 30
0.0
 10
7.1823793832
 20
7.2577867514
 30
0.0
 10
7.1798224519
 20
7.2599498041
 30
0.0
 10
7.1763896519
 20
7.2630145564
 30
0.0
 10
7.1726109439
 20
7.2665255304
 30
0.0
 10
7.1687208417
 20
7.270256411
 30
0.0
 10
7.1661333277
 20
7.2728042872
 30
0.0
 10
7.1648588667
 20
7.2740754911
 30
0.0
  0
SPLINE
  5
2D6
100
AcDbEntity
  8
0
100
AcDbSpline
 62
7
  6
CONTINUOUS
 70
0
 71
3
 72
32
 73
28
 74
0
 42
0.0000001
 43
0.0000001
 44
0.0000000001
 40
0.0
 40
0.0
 40
0.0
 40
0.0
 40
0.0780472393
 40
0.1549452102
 40
0.1925603655
 40
0.2294457112
 40
0.2654894035
 40
0.3005888313
 40
0.3675655197
 40
0.4299749371
 40
0.459479111
 40
0.4878906812
 40
0.5152932874
 40
0.5418100873
 40
0.5676057839
 40
0.5928738195
 40
0.6178367889
 40
0.6427339093
 40
0.6678063666
 40
0.6932885225
 40
0.7193896835
 40
0.7462911858
 40
0.7741404114
 40
0.803040582
 40
0.8641870397
 40
0.9299467038
 40
1.0
 40
1.0
 40
1.0
 40
1.0
 10
6.1303672762
 20
6.9595442644
 30
0.0
 10
6.1181586493
 20
6.9595442644
 30
0.0
 10
6.0939040657
 20
6.9607980937
 30
0.0
 10
6.0640876907
 20
6.9654833819
 30
0.0
 10
6.0410682027
 20
6.9710953709
 30
0.0
 10
6.0245192487
 20
6.9761438484
 30
0.0
 10
6.0086691055
 20
6.9820352711
 30
0.0
 10
5.9889155082
 20
6.9908149619
 30
0.0
 10
5.9664580904
 20
7.0035463794
 30
0.0
 10
5.9468175398
 20
7.0189758907
 30
0.0
 10
5.933684522
 20
7.0324922252
 30
0.0
 10
5.9253147085
 20
7.04291543
 30
0.0
 10
5.9183019042
 20
7.0537460432
 30
0.0
 10
5.9127021105
 20
7.0649172715
 30
0.0
 10
5.9085478209
 20
7.0763502692
 30
0.0
 10
5.9058742523
 20
7.0879703106
 30
0.0
 10
5.9047093039
 20
7.099696677
 30
0.0
 10
5.9050519171
 20
7.1114452227
 30
0.0
 10
5.9069047071
 20
7.1231337655
 30
0.0
 10
5.9102568919
 20
7.1346779309
 30
0.0
 10
5.9150722028
 20
7.1460014421
 30
0.0
 10
5.9213204349
 20
7.1570268894
 30
0.0
 10
5.9289587074
 20
7.167679981
 30
0.0
 10
5.9411400454
 20
7.1815597719
 30
0.0
 10
5.9597098599
 20
7.1975479002
 30
0.0
 10
5.9859847089
 20
7.2138259403
 30
0.0
 10
6.0054616074
 20
7.2224833138
 30
0.0
 10
6.01571997
 20
7.2263365443
 30
0.0
  0
SPLINE
  5
2D7
100
AcDbEntity
  8
0
100
AcDbSpline
 62
7
  6
CONTINUOUS
 70
0
 71
3
 72
18
 73
14
 74
0
 42
0.0000001
 43
0.0000001
 44
0.0000000001
 40
0.0
 40
0.0
 40
0.0
 40
0.0
 40
0.1815328793
 40
0.3665472235
 40
0.5441273731
 40
0.7024804911
 40
0.831262187
 40
0.9237792926
 40
0.9556906216
 40
0.9783443126
 40
0.9864029713
 40
0.9924867484
 40
1.0
 40
1.0
 40
1.0
 40
1.0
 10
6.4501977127
 20
6.8538772575
 30
0.0
 10
6.449597702
 20
6.8538779772
 30
0.0
 10
6.4483861699
 20
6.8538870926
 30
0.0
 10
6.4465880215
 20
6.8539248472
 30
0.0
 10
6.4448672686
 20
6.8539883114
 30
0.0
 10
6.4433335034
 20
6.8540748614
 30
0.0
 10
6.4420831187
 20
6.8541811445
 30
0.0
 10
6.441251939
 20
6.8542846454
 30
0.0
 10
6.440775033
 20
6.8543812854
 30
0.0
 10
6.4405756108
 20
6.8544365793
 30
0.0
 10
6.4404629042
 20
6.8544853485
 30
0.0
 10
6.4404025456
 20
6.8545201789
 30
0.0
 10
6.4403672762
 20
6.8545595381
 30
0.0
 10
6.4403672762
 20
6.8545843712
 30
0.0
  0
SPLINE
  5
2D8
100
AcDbEntity
  8
0
100
AcDbSpline
 62
7
  6
CONTINUOUS
 70
0
 71
3
 72
20
 73
16
 74
0
 42
0.0000001
 43
0.0000001
 44
0.0000000001
 40
0.0
 40
0.0
 40
0.0
 40
0.0
 40
0.0074064929
 40
0.0134740834
 40
0.021504767
 40
0.0316546953
 40
0.044037471
 40
0.0758656878
 40
0.1174742066
 40
0.1685365328
 40
0.2968437354
 40
0.4551210817
 40
0.6326538107
 40
0.817760557
 40
1.0
 40
1.0
 40
1.0
 40
1.0
 10
6.814847829
 20
4.1578311302
 30
0.0
 10
6.8147962876
 20
4.1578826506
 30
0.0
 10
6.8146393453
 20
4.1578870203
 30
0.0
 10
6.8144417715
 20
4.1578312332
 30
0.0
 10
6.8142180995
 20
4.1577406267
 30
0.0
 10
6.8139509486
 20
4.1576039133
 30
0.0
 10
6.8134882438
 20
4.1573344134
 30
0.0
 10
6.812787405
 20
4.1568625934
 30
0.0
 10
6.8118032483
 20
4.1561327182
 30
0.0
 10
6.8100972862
 20
4.1547842814
 30
0.0
 10
6.8075626772
 20
4.1526351705
 30
0.0
 10
6.8041605848
 20
4.1495884467
 30
0.0
 10
6.8004063735
 20
4.1460984932
 30
0.0
 10
6.7965375809
 20
4.14238664
 30
0.0
 10
6.7939616792
 20
4.1398508979
 30
0.0
 10
6.7926916422
 20
4.1385850628
 30
0.0
  0
SPLINE
  5
2D9
100
AcDbEntity
  8
0
100
AcDbSpline
 62
7
  6
CONTINUOUS
 70
0
 71
3
 72
20
 73
16
 74
0
 42
0.0000001
 43
0.0000001
 44
0.0000000001
 40
0.0
 40
0.0
 40
0.0
 40
0.0
 40
0.1817893148
 40
0.366681654
 40
0.5442037181
 40
0.7025930195
 40
0.8310422772
 40
0.882172176
 40
0.9238431682
 40
0.9557251477
 40
0.9681328969
 40
0.9783089747
 40
0.9863696295
 40
0.9924748677
 40
1.0
 40
1.0
 40
1.0
 40
1.0
 10
7.8843228705
 20
6.5546114872
 30
0.0
 10
7.8830515192
 20
6.5558860959
 30
0.0
 10
7.8805035055
 20
6.558473474
 30
0.0
 10
7.8767729203
 20
6.5623630647
 30
0.0
 10
7.8732633794
 20
6.5661427894
 30
0.0
 10
7.8701989329
 20
6.5695718867
 30
0.0
 10
7.8680382322
 20
6.5721290478
 30
0.0
 10
7.8666837483
 20
6.5738515921
 30
0.0
 10
7.8659512602
 20
6.5748459302
 30
0.0
 10
7.8654785832
 20
6.5755545082
 30
0.0
 10
7.8652094518
 20
6.5760226091
 30
0.0
 10
7.8650732966
 20
6.5762931816
 30
0.0
 10
7.8649836704
 20
6.576519816
 30
0.0
 10
7.8649289777
 20
6.5767213194
 30
0.0
 10
7.8649359332
 20
6.5768803256
 30
0.0
 10
7.864988621
 20
6.5769330274
 30
0.0
  0
SPLINE
  5
2DA
100
AcDbEntity
  8
0
100
AcDbSpline
 62
7
  6
CONTINUOUS
 70
0
 71
3
 72
20
 73
16
 74
0
 42
0.0000001
 43
0.0000001
 44
0.0000000001
 40
0.0
 40
0.0
 40
0.0
 40
0.0
 40
0.182240909
 40
0.3673491982
 40
0.5448832043
 40
0.7031611797
 40
0.8314681469
 40
0.8825300198
 40
0.9241378405
 40
0.9559651714
 40
0.9683474651
 40
0.9784968931
 40
0.9865270691
 40
0.9925941677
 40
1.0
 40
1.0
 40
1.0
 40
1.0
 10
5.4680429607
 20
6.9016547812
 30
0.0
 10
5.4667729094
 20
6.9003889314
 30
0.0
 10
5.4641969784
 20
6.8978531599
 30
0.0
 10
5.4603281423
 20
6.8941412653
 30
0.0
 10
5.4565738929
 20
6.8906512781
 30
0.0
 10
5.4531717752
 20
6.8876045351
 30
0.0
 10
5.4506371556
 20
6.8854554205
 30
0.0
 10
5.4489311953
 20
6.8841069916
 30
0.0
 10
5.4479470486
 20
6.8833771299
 30
0.0
 10
5.4472462212
 20
6.8829053241
 30
0.0
 10
5.4467835273
 20
6.8826358384
 30
0.0
 10
5.4465163864
 20
6.8824991355
 30
0.0
 10
5.4462927242
 20
6.8824085416
 30
0.0
 10
5.4460951638
 20
6.8823527647
 30
0.0
 10
5.4459382291
 20
6.8823571569
 30
0.0
 10
5.4458867029
 20
6.8824086838
 30
0.0
  0
SPLINE
  5
2DB
100
AcDbEntity
  8
0
100
AcDbSpline
 62
7
  6
CONTINUOUS
 70
0
 71
3
 72
20
 73
16
 74
0
 42
0.0000001
 43
0.0000001
 44
0.0000000001
 40
0.0
 40
0.0
 40
0.0
 40
0.0
 40
0.1817893148
 40
0.366681654
 40
0.5442037182
 40
0.7025930195
 40
0.8310422772
 40
0.8821721761
 40
0.9238431683
 40
0.9557251477
 40
0.9681328969
 40
0.9783089747
 40
0.9863696295
 40
0.9924748678
 40
1.0
 40
1.0
 40
1.0
 40
1.0
 10
5.0958756857
 20
7.2740754911
 30
0.0
 10
5.094601077
 20
7.2728041398
 30
0.0
 10
5.0920136989
 20
7.270256126
 30
0.0
 10
5.0881241082
 20
7.2665255409
 30
0.0
 10
5.0843443836
 20
7.263016
 30
0.0
 10
5.0809152862
 20
7.2599515535
 30
0.0
 10
5.0783581251
 20
7.2577908528
 30
0.0
 10
5.0766355808
 20
7.2564363688
 30
0.0
 10
5.0756412427
 20
7.2557038808
 30
0.0
 10
5.0749326647
 20
7.2552312038
 30
0.0
 10
5.0744645638
 20
7.2549620724
 30
0.0
 10
5.0741939913
 20
7.2548259172
 30
0.0
 10
5.073967357
 20
7.254736291
 30
0.0
 10
5.0737658535
 20
7.2546815983
 30
0.0
 10
5.0736068473
 20
7.2546885538
 30
0.0
 10
5.0735541455
 20
7.2547412416
 30
0.0
  0
SPLINE
  5
2DC
100
AcDbEntity
  8
0
100
AcDbSpline
 62
7
  6
CONTINUOUS
 70
0
 71
3
 72
18
 73
14
 74
0
 42
0.0000001
 43
0.0000001
 44
0.0000000001
 40
0.0
 40
0.0
 40
0.0
 40
0.0
 40
0.1815315706
 40
0.3665441176
 40
0.5441224967
 40
0.7024744832
 40
0.8312561829
 40
0.923774612
 40
0.9556870454
 40
0.97834205
 40
0.9864014061
 40
0.9924858573
 40
1.0
 40
1.0
 40
1.0
 40
1.0
 10
5.8105369469
 20
6.8538772576
 30
0.0
 10
5.8111369461
 20
6.8538779777
 30
0.0
 10
5.8123484532
 20
6.8538870938
 30
0.0
 10
5.8141465637
 20
6.8539248483
 30
0.0
 10
5.8158672802
 20
6.8539883115
 30
0.0
 10
5.8174010172
 20
6.8540748596
 30
0.0
 10
5.8186513877
 20
6.8541811398
 30
0.0
 10
5.8194825652
 20
6.8542846388
 30
0.0
 10
5.8199594786
 20
6.8543812756
 30
0.0
 10
5.8201589087
 20
6.854436569
 30
0.0
 10
5.8202716243
 20
6.8544853362
 30
0.0
 10
5.82033199
 20
6.8545201672
 30
0.0
 10
5.8203672692
 20
6.8545595215
 30
0.0
 10
5.8203672762
 20
6.8545843573
 30
0.0
  0
SPLINE
  5
2DD
100
AcDbEntity
  8
0
100
AcDbSpline
 62
7
  6
CONTINUOUS
 70
0
 71
3
 72
16
 73
12
 74
0
 42
0.0000001
 43
0.0000001
 44
0.0000000001
 40
0.0
 40
0.0
 40
0.0
 40
0.0
 40
0.1814252101
 40
0.3661915768
 40
0.5437982326
 40
0.7022510204
 40
0.8311485711
 40
0.9237574267
 40
0.9781682257
 40
0.9923888742
 40
1.0
 40
1.0
 40
1.0
 40
1.0
 10
5.810498864
 20
7.2585452751
 30
0.0
 10
5.8111008431
 20
7.2585458429
 30
0.0
 10
5.8123159068
 20
7.2585549671
 30
0.0
 10
5.8141198677
 20
7.2585926095
 30
0.0
 10
5.8158471153
 20
7.2586566549
 30
0.0
 10
5.8173868497
 20
7.2587441869
 30
0.0
 10
5.8186450683
 20
7.2588517357
 30
0.0
 10
5.8195495136
 20
7.2589660762
 30
0.0
 10
5.820080878
 20
7.2590803749
 30
0.0
 10
5.8203103974
 20
7.2591737256
 30
0.0
 10
5.8203672762
 20
7.2592351756
 30
0.0
 10
5.8203672762
 20
7.2592604298
 30
0.0
  0
SPLINE
  5
2DE
100
AcDbEntity
  8
0
100
AcDbSpline
 62
7
  6
CONTINUOUS
 70
0
 71
3
 72
16
 73
12
 74
0
 42
0.0000001
 43
0.0000001
 44
0.0000000001
 40
0.0
 40
0.0
 40
0.0
 40
0.0
 40
0.1814267845
 40
0.3661947703
 40
0.5438035177
 40
0.7022575205
 40
0.8311551358
 40
0.9237624907
 40
0.9781706056
 40
0.9923898413
 40
1.0
 40
1.0
 40
1.0
 40
1.0
 10
6.4502358087
 20
7.258545275
 30
0.0
 10
6.4496338163
 20
7.2585458426
 30
0.0
 10
6.4484187256
 20
7.2585549657
 30
0.0
 10
6.4466147228
 20
7.2585926081
 30
0.0
 10
6.4448874358
 20
7.2586566549
 30
0.0
 10
6.4433476692
 20
7.2587441884
 30
0.0
 10
6.4420894353
 20
7.2588517417
 30
0.0
 10
6.4411849898
 20
7.2589660809
 30
0.0
 10
6.4406536407
 20
7.2590803884
 30
0.0
 10
6.4404241325
 20
7.2591737354
 30
0.0
 10
6.4403672683
 20
7.2592351938
 30
0.0
 10
6.4403672762
 20
7.2592604451
 30
0.0
  0
SPLINE
  5
2DF
100
AcDbEntity
  8
0
100
AcDbSpline
 62
7
  6
CONTINUOUS
 70
0
 71
3
 72
20
 73
16
 74
0
 42
0.0000001
 43
0.0000001
 44
0.0000000001
 40
0.0
 40
0.0
 40
0.0
 40
0.0
 40
0.1822411843
 40
0.3673497398
 40
0.5448839503
 40
0.7031620176
 40
0.8314689258
 40
0.8825307148
 40
0.9241384191
 40
0.9559656054
 40
0.9683478189
 40
0.9784971636
 40
0.9865272552
 40
0.9925942731
 40
1.0
 40
1.0
 40
1.0
 40
1.0
 10
7.5119021606
 20
6.1824442122
 30
0.0
 10
7.5106363087
 20
6.1837142656
 30
0.0
 10
7.5081005331
 20
6.1862902008
 30
0.0
 10
7.5043886331
 20
6.1901590429
 30
0.0
 10
7.5008986418
 20
6.1939132972
 30
0.0
 10
7.4978518972
 20
6.1973154174
 30
0.0
 10
7.4957027832
 20
6.1998500375
 30
0.0
 10
7.4943543564
 20
6.2015559966
 30
0.0
 10
7.4936244973
 20
6.2025401412
 30
0.0
 10
7.4931526941
 20
6.2032409665
 30
0.0
 10
7.4928832108
 20
6.2037036583
 30
0.0
 10
7.4927465097
 20
6.2039707976
 30
0.0
 10
7.4926559179
 20
6.204194458
 30
0.0
 10
7.4926001427
 20
6.2043920162
 30
0.0
 10
7.4926045386
 20
6.2045489496
 30
0.0
 10
7.4926560665
 20
6.2046004733
 30
0.0
  0
SPLINE
  5
2E0
100
AcDbEntity
  8
0
100
AcDbSpline
 62
7
  6
CONTINUOUS
 70
0
 71
3
 72
20
 73
16
 74
0
 42
0.0000001
 43
0.0000001
 44
0.0000000001
 40
0.0
 40
0.0
 40
0.0
 40
0.0
 40
0.0075401655
 40
0.013667319
 40
0.021749636
 40
0.0319389596
 40
0.0443435714
 40
0.0761389931
 40
0.1176187212
 40
0.1686435589
 40
0.297396072
 40
0.4557281744
 40
0.6333129322
 40
0.818228896
 40
1.0
 40
1.0
 40
1.0
 40
1.0
 10
7.8649886208
 20
4.4633067658
 30
0.0
 10
7.8649358101
 20
4.4633595536
 30
0.0
 10
7.8649296682
 20
4.4635192534
 30
0.0
 10
7.8649848702
 20
4.4637210526
 30
0.0
 10
7.8650749825
 20
4.4639481438
 30
0.0
 10
7.8652113664
 20
4.4642189235
 30
0.0
 10
7.8654800555
 20
4.4646863998
 30
0.0
 10
7.8659506286
 20
4.4653929965
 30
0.0
 10
7.8666799227
 20
4.4663849647
 30
0.0
 10
7.8680341308
 20
4.4681077897
 30
0.0
 10
7.8701971835
 20
4.4706647211
 30
0.0
 10
7.8732619358
 20
4.474097521
 30
0.0
 10
7.8767729098
 20
4.4778762291
 30
0.0
 10
7.8805037904
 20
4.4817663312
 30
0.0
 10
7.8830516666
 20
4.4843538453
 30
0.0
 10
7.8843228705
 20
4.4856283063
 30
0.0
  0
SPLINE
  5
2E1
100
AcDbEntity
  8
0
100
AcDbSpline
 62
7
  6
CONTINUOUS
 70
0
 71
3
 72
20
 73
16
 74
0
 42
0.0000001
 43
0.0000001
 44
0.0000000001
 40
0.0
 40
0.0
 40
0.0
 40
0.0
 40
0.1822393469
 40
0.3673462985
 40
0.5448788218
 40
0.7031563361
 40
0.8314635688
 40
0.8825257609
 40
0.9241342761
 40
0.9559625619
 40
0.9683453436
 40
0.9784952659
 40
0.9865259372
 40
0.9925935148
 40
1.0
 40
1.0
 40
1.0
 40
1.0
 10
7.5119021101
 20
4.8577955307
 30
0.0
 10
7.5106362754
 20
4.8565254946
 30
0.0
 10
7.5081005331
 20
4.8539495915
 30
0.0
 10
7.5043886799
 20
4.8500808003
 30
0.0
 10
7.5008987254
 20
4.8463265876
 30
0.0
 10
7.4978520021
 20
4.8429244948
 30
0.0
 10
7.4957028898
 20
4.8403898861
 30
0.0
 10
7.4943544544
 20
4.8386839242
 30
0.0
 10
7.49362458
 20
4.8376997678
 30
0.0
 10
7.4931527592
 20
4.8369989288
 30
0.0
 10
7.4928832589
 20
4.8365362234
 30
0.0
 10
7.4927465455
 20
4.8362690726
 30
0.0
 10
7.4926559392
 20
4.8360454008
 30
0.0
 10
7.4926001523
 20
4.8358478272
 30
0.0
 10
7.4926045224
 20
4.8356908854
 30
0.0
 10
7.4926560427
 20
4.8356393439
 30
0.0
  0
SPLINE
  5
2E2
100
AcDbEntity
  8
0
100
AcDbSpline
 62
7
  6
CONTINUOUS
 70
0
 71
3
 72
20
 73
16
 74
0
 42
0.0000001
 43
0.0000001
 44
0.0000000001
 40
0.0
 40
0.0
 40
0.0
 40
0.0
 40
0.1822397207
 40
0.367346575
 40
0.5448783746
 40
0.7031568751
 40
0.831462918
 40
0.8825242276
 40
0.9241338564
 40
0.9559634175
 40
0.968346082
 40
0.978495641
 40
0.9865258965
 40
0.9925931939
 40
1.0
 40
1.0
 40
1.0
 40
1.0
 10
4.7488324422
 20
6.1824442628
 30
0.0
 10
4.7500982794
 20
6.1837143014
 30
0.0
 10
4.7526340224
 20
6.1862902069
 30
0.0
 10
4.7563458745
 20
6.1901589925
 30
0.0
 10
4.7598358257
 20
6.1939132096
 30
0.0
 10
4.7628825445
 20
6.1973152934
 30
0.0
 10
4.7650316532
 20
6.1998498909
 30
0.0
 10
4.7663800747
 20
6.2015558516
 30
0.0
 10
4.767109959
 20
6.2025400185
 30
0.0
 10
4.767581802
 20
6.2032408698
 30
0.0
 10
4.7678513067
 20
6.2037035814
 30
0.0
 10
4.7679880141
 20
6.2039707262
 30
0.0
 10
4.7680786126
 20
6.2041943878
 30
0.0
 10
4.768134392
 20
6.2043919656
 30
0.0
 10
4.7681300186
 20
6.2045488924
 30
0.0
 10
4.7680785094
 20
6.2046004495
 30
0.0
  0
SPLINE
  5
2E3
100
AcDbEntity
  8
0
100
AcDbSpline
 62
7
  6
CONTINUOUS
 70
0
 71
3
 72
20
 73
16
 74
0
 42
0.0000001
 43
0.0000001
 44
0.0000000001
 40
0.0
 40
0.0
 40
0.0
 40
0.0
 40
0.0075401655
 40
0.013667319
 40
0.021749636
 40
0.0319389596
 40
0.0443435714
 40
0.0761389931
 40
0.1176187212
 40
0.1686435589
 40
0.297396072
 40
0.4557281744
 40
0.6333129322
 40
0.818228896
 40
1.0
 40
1.0
 40
1.0
 40
1.0
 10
4.3957459315
 20
6.5769330277
 30
0.0
 10
4.3957987422
 20
6.5768802399
 30
0.0
 10
4.3958048841
 20
6.5767205401
 30
0.0
 10
4.3957496821
 20
6.5765187409
 30
0.0
 10
4.3956595699
 20
6.5762916497
 30
0.0
 10
4.395523186
 20
6.57602087
 30
0.0
 10
4.3952544969
 20
6.5755533937
 30
0.0
 10
4.3947839237
 20
6.574846797
 30
0.0
 10
4.3940546296
 20
6.5738548289
 30
0.0
 10
4.3927004215
 20
6.5721320038
 30
0.0
 10
4.3905373689
 20
6.5695750724
 30
0.0
 10
4.3874726165
 20
6.5661422725
 30
0.0
 10
4.3839616425
 20
6.5623635644
 30
0.0
 10
4.380230762
 20
6.5584734623
 30
0.0
 10
4.3776828857
 20
6.5558859482
 30
0.0
 10
4.3764116819
 20
6.5546114872
 30
0.0
  0
SPLINE
  5
2E4
100
AcDbEntity
  8
0
100
AcDbSpline
 62
7
  6
CONTINUOUS
 70
0
 71
3
 72
20
 73
16
 74
0
 42
0.0000001
 43
0.0000001
 44
0.0000000001
 40
0.0
 40
0.0
 40
0.0
 40
0.0
 40
0.1246018351
 40
0.2492144905
 40
0.3116266002
 40
0.3740519207
 40
0.4364816414
 40
0.4989257755
 40
0.5613986214
 40
0.6239063611
 40
0.6864672323
 40
0.7490751258
 40
0.8117593538
 40
0.8745478649
 40
1.0
 40
1.0
 40
1.0
 40
1.0
 10
6.1831083854
 20
12.7803005436
 30
0.0
 10
6.1850025798
 20
12.7722032947
 30
0.0
 10
6.1868708919
 20
12.7554926606
 30
0.0
 10
6.1841920364
 20
12.7346607405
 30
0.0
 10
6.1791700432
 20
12.718753552
 30
0.0
 10
6.1740235085
 20
12.7073316496
 30
0.0
 10
6.1675811685
 20
12.6965867181
 30
0.0
 10
6.1599383743
 20
12.6866564424
 30
0.0
 10
6.1512168754
 20
12.6776524923
 30
0.0
 10
6.1415316805
 20
12.6696834333
 30
0.0
 10
6.1310249134
 20
12.6628190246
 30
0.0
 10
6.1198263788
 20
12.6571294619
 30
0.0
 10
6.108069941
 20
12.6526588607
 30
0.0
 10
6.0918585364
 20
12.6483768496
 30
0.0
 10
6.0792446854
 20
12.6470756184
 30
0.0
 10
6.0708720839
 20
12.6470756184
 30
0.0
  0
SPLINE
  5
2E5
100
AcDbEntity
  8
0
100
AcDbSpline
 62
7
  6
CONTINUOUS
 70
0
 71
3
 72
20
 73
16
 74
0
 42
0.0000001
 43
0.0000001
 44
0.0000000001
 40
0.0
 40
0.0
 40
0.0
 40
0.0
 40
0.1254663008
 40
0.1882633117
 40
0.2509472345
 40
0.3135479108
 40
0.3760990029
 40
0.4385961847
 40
0.5010571308
 40
0.5634896331
 40
0.6259115029
 40
0.6883302743
 40
0.7507408641
 40
0.8753713684
 40
1.0
 40
1.0
 40
1.0
 40
1.0
 10
6.0708720839
 20
12.6470756184
 30
0.0
 10
6.0624985413
 20
12.6470756184
 30
0.0
 10
6.0498833002
 20
12.6483778887
 30
0.0
 10
6.0336703281
 20
12.6526597757
 30
0.0
 10
6.021914099
 20
12.6571311529
 30
0.0
 10
6.0107167259
 20
12.662820378
 30
0.0
 10
6.0002116051
 20
12.6696839452
 30
0.0
 10
5.9905282601
 20
12.6776518255
 30
0.0
 10
5.9818079849
 20
12.6866537302
 30
0.0
 10
5.9741658937
 20
12.6965819412
 30
0.0
 10
5.9677245849
 20
12.7073253888
 30
0.0
 10
5.9625764459
 20
12.718745395
 30
0.0
 10
5.9575543506
 20
12.7346532856
 30
0.0
 10
5.954873263
 20
12.7554876944
 30
0.0
 10
5.9567411815
 20
12.7722015576
 30
0.0
 10
5.9586357823
 20
12.7803005436
 30
0.0
  0
SPLINE
  5
2E6
100
AcDbEntity
  8
0
100
AcDbSpline
 62
7
  6
CONTINUOUS
 70
0
 71
3
 72
14
 73
10
 74
0
 42
0.0000001
 43
0.0000001
 44
0.0000000001
 40
0.0
 40
0.0
 40
0.0
 40
0.0
 40
0.123237232
 40
0.2471880184
 40
0.3716495872
 40
0.4964796649
 40
0.6217518501
 40
0.7474515863
 40
1.0
 40
1.0
 40
1.0
 40
1.0
 10
5.5894476531
 20
13.0687977814
 30
0.0
 10
5.5934602452
 20
13.0687977814
 30
0.0
 10
5.6015114647
 20
13.0691904864
 30
0.0
 10
5.6135254954
 20
13.0706977331
 30
0.0
 10
5.6254885121
 20
13.0728614045
 30
0.0
 10
5.6373958716
 20
13.0755091848
 30
0.0
 10
5.6492535103
 20
13.0785342666
 30
0.0
 10
5.665052032
 20
13.0829176148
 30
0.0
 10
5.6768514737
 20
13.0864483457
 30
0.0
 10
5.6847316438
 20
13.0887977814
 30
0.0
  0
SPLINE
  5
2E7
100
AcDbEntity
  8
0
100
AcDbSpline
 62
7
  6
CONTINUOUS
 70
0
 71
3
 72
15
 73
11
 74
0
 42
0.0000001
 43
0.0000001
 44
0.0000000001
 40
0.0
 40
0.0
 40
0.0
 40
0.0
 40
0.0958570858
 40
0.2017501902
 40
0.3195274254
 40
0.4482508368
 40
0.5855171335
 40
0.7267207342
 40
0.866357196
 40
1.0
 40
1.0
 40
1.0
 40
1.0
 10
6.7331964499
 20
13.1519047564
 30
0.0
 10
6.7344901826
 20
13.1518607544
 30
0.0
 10
6.7372101383
 20
13.1514085487
 30
0.0
 10
6.7412051095
 20
13.149673154
 30
0.0
 10
6.7450382171
 20
13.1467889833
 30
0.0
 10
6.7485073227
 20
13.1428965681
 30
0.0
 10
6.7513547821
 20
13.1381608915
 30
0.0
 10
6.7535017173
 20
13.1329164289
 30
0.0
 10
6.7548472988
 20
13.1274652998
 30
0.0
 10
6.755264955
 20
13.1237872038
 30
0.0
 10
6.7553526367
 20
13.1219845854
 30
0.0
  0
SPLINE
  5
2E8
100
AcDbEntity
  8
0
100
AcDbSpline
 62
7
  6
CONTINUOUS
 70
0
 71
3
 72
15
 73
11
 74
0
 42
0.0000001
 43
0.0000001
 44
0.0000000001
 40
0.0
 40
0.0
 40
0.0
 40
0.0
 40
0.1336094709
 40
0.273292704
 40
0.4145549861
 40
0.5519353904
 40
0.6808229117
 40
0.7984454415
 40
0.9042357567
 40
1.0
 40
1.0
 40
1.0
 40
1.0
 10
7.1276852148
 20
13.1587451656
 30
0.0
 10
7.1275949595
 20
13.1605535719
 30
0.0
 10
7.1271680416
 20
13.1642441968
 30
0.0
 10
7.1258073325
 20
13.169712096
 30
0.0
 10
7.1236512621
 20
13.1749790468
 30
0.0
 10
7.1207621811
 20
13.1797170801
 30
0.0
 10
7.1172774414
 20
13.1836229173
 30
0.0
 10
7.1134071229
 20
13.1864860758
 30
0.0
 10
7.1093913588
 20
13.1881974884
 30
0.0
 10
7.1066610333
 20
13.1886329798
 30
0.0
 10
7.1053636744
 20
13.1886661899
 30
0.0
  0
SPLINE
  5
2E9
100
AcDbEntity
  8
0
100
AcDbSpline
 62
7
  6
CONTINUOUS
 70
0
 71
3
 72
14
 73
10
 74
0
 42
0.0000001
 43
0.0000001
 44
0.0000000001
 40
0.0
 40
0.0
 40
0.0
 40
0.0
 40
0.2525483897
 40
0.3782481254
 40
0.5035203198
 40
0.6283503998
 40
0.7528119673
 40
0.8767627614
 40
1.0
 40
1.0
 40
1.0
 40
1.0
 10
6.4570125239
 20
13.0887977814
 30
0.0
 10
6.4648926925
 20
13.0864483462
 30
0.0
 10
6.4766921517
 20
13.0829176806
 30
0.0
 10
6.492490684
 20
13.0785343804
 30
0.0
 10
6.5043483164
 20
13.0755092787
 30
0.0
 10
6.5162556652
 20
13.0728614552
 30
0.0
 10
6.528218675
 20
13.0706977487
 30
0.0
 10
6.5402327035
 20
13.0691904884
 30
0.0
 10
6.5482839227
 20
13.0687977814
 30
0.0
 10
6.5522965146
 20
13.0687977814
 30
0.0
  0
SPLINE
  5
2EA
100
AcDbEntity
  8
0
100
AcDbSpline
 62
7
  6
CONTINUOUS
 70
0
 71
3
 72
11
 73
7
 74
0
 42
0.0000001
 43
0.0000001
 44
0.0000000001
 40
0.0
 40
0.0
 40
0.0
 40
0.0
 40
0.2501428057
 40
0.4998230285
 40
0.7497941009
 40
1.0
 40
1.0
 40
1.0
 40
1.0
 10
6.3774011148
 20
12.6203861185
 30
0.0
 10
6.3783134487
 20
12.6201260552
 30
0.0
 10
6.3801763682
 20
12.6197326593
 30
0.0
 10
6.3830321258
 20
12.6196102971
 30
0.0
 10
6.3858627196
 20
12.620006826
 30
0.0
 10
6.3876707251
 20
12.6206530044
 30
0.0
 10
6.3885082796
 20
12.6210990343
 30
0.0
  0
SPLINE
  5
2EB
100
AcDbEntity
  8
0
100
AcDbSpline
 62
7
  6
CONTINUOUS
 70
0
 71
3
 72
33
 73
29
 74
0
 42
0.0000001
 43
0.0000001
 44
0.0000000001
 40
0.0
 40
0.0
 40
0.0
 40
0.0
 40
0.0713969219
 40
0.1069026106
 40
0.1420902712
 40
0.2111516289
 40
0.244931517
 40
0.278115373
 40
0.3424609468
 40
0.4040733959
 40
0.4339208621
 40
0.4631687058
 40
0.4918838486
 40
0.5201567875
 40
0.5480929044
 40
0.5758104394
 40
0.603439069
 40
0.631109714
 40
0.6589534255
 40
0.6870932984
 40
0.7156391673
 40
0.744688293
 40
0.7743155312
 40
0.8045763133
 40
0.8355086461
 40
0.8671261256
 40
0.9323356365
 40
1.0
 40
1.0
 40
1.0
 40
1.0
 10
6.0708720839
 20
13.0292871541
 30
0.0
 10
6.0834756243
 20
13.0292871541
 30
0.0
 10
6.1023768953
 20
13.0280589836
 30
0.0
 10
6.1271421248
 20
13.0239933868
 30
0.0
 10
6.1511792811
 20
13.0183753099
 30
0.0
 10
6.1743159636
 20
13.0104404365
 30
0.0
 10
6.1960710107
 20
13.0002335988
 30
0.0
 10
6.2162899037
 20
12.9888608461
 30
0.0
 10
6.2391466328
 20
12.9723154185
 30
0.0
 10
6.2585433257
 20
12.9525994733
 30
0.0
 10
6.2712599928
 20
12.9354677483
 30
0.0
 10
6.2792912323
 20
12.922180286
 30
0.0
 10
6.285844237
 20
12.9084111942
 30
0.0
 10
6.2908743033
 20
12.8942601255
 30
0.0
 10
6.2943500736
 20
12.8798292839
 30
0.0
 10
6.2962339982
 20
12.8652196028
 30
0.0
 10
6.2965188877
 20
12.8505386998
 30
0.0
 10
6.2952059115
 20
12.83589132
 30
0.0
 10
6.2922937259
 20
12.821384887
 30
0.0
 10
6.2878144636
 20
12.8071226462
 30
0.0
 10
6.2818008563
 20
12.7932052474
 30
0.0
 10
6.2742891496
 20
12.7797361105
 30
0.0
 10
6.2653444496
 20
12.7668050676
 30
0.0
 10
6.255028376
 20
12.7545038032
 30
0.0
 10
6.2434097513
 20
12.7429226347
 30
0.0
 10
6.2261300298
 20
12.7283933059
 30
0.0
 10
6.2016682905
 20
12.7125147653
 30
0.0
 10
6.180228264
 20
12.702776082
 30
0.0
 10
6.16903784
 20
12.6985989012
 30
0.0
  0
SPLINE
  5
2EC
100
AcDbEntity
  8
0
100
AcDbSpline
 62
7
  6
CONTINUOUS
 70
0
 71
3
 72
31
 73
27
 74
0
 42
0.0000001
 43
0.0000001
 44
0.0000000001
 40
0.0
 40
0.0
 40
0.0
 40
0.0
 40
0.0676630128
 40
0.1328696481
 40
0.164486109
 40
0.1954177092
 40
0.2552422134
 40
0.2842925372
 40
0.3128404037
 40
0.3409829808
 40
0.3688298332
 40
0.3965043047
 40
0.424137183
 40
0.4518594373
 40
0.4798007235
 40
0.5080790666
 40
0.5368001976
 40
0.5958414305
 40
0.6574684019
 40
0.7218293897
 40
0.7550208289
 40
0.7888080405
 40
0.8578842573
 40
0.8930792067
 40
0.9285916144
 40
1.0
 40
1.0
 40
1.0
 40
1.0
 10
5.9725663159
 20
12.6986511442
 30
0.0
 10
5.961383166
 20
12.7028330259
 30
0.0
 10
5.9399578418
 20
12.7125795146
 30
0.0
 10
5.9155170742
 20
12.728464368
 30
0.0
 10
5.8982516868
 20
12.7429986173
 30
0.0
 10
5.8829526064
 20
12.7582632709
 30
0.0
 10
5.8700000212
 20
12.7751544442
 30
0.0
 10
5.8599061532
 20
12.7932810821
 30
0.0
 10
5.8539019724
 20
12.8071980561
 30
0.0
 10
5.8494315296
 20
12.8214577496
 30
0.0
 10
5.846528317
 20
12.8359615874
 30
0.0
 10
5.8452233059
 20
12.8506055075
 30
0.0
 10
5.8455146098
 20
12.86528248
 30
0.0
 10
5.8474053516
 20
12.8798877234
 30
0.0
 10
5.8508860356
 20
12.8943135723
 30
0.0
 10
5.8559203284
 20
12.9084605749
 30
0.0
 10
5.8647395032
 20
12.9269736164
 30
0.0
 10
5.8796070017
 20
12.9489562066
 30
0.0
 10
5.902623275
 20
12.972334812
 30
0.0
 10
5.9254822983
 20
12.9888786289
 30
0.0
 10
5.9456983208
 20
13.0002462346
 30
0.0
 10
5.9674502837
 20
13.0104491244
 30
0.0
 10
5.9905829558
 20
13.0183802855
 30
0.0
 10
6.0146154501
 20
13.0239959447
 30
0.0
 10
6.0393750635
 20
13.0280595121
 30
0.0
 10
6.0582717231
 20
13.0292871541
 30
0.0
 10
6.0708720839
 20
13.0292871541
 30
0.0
  0
SPLINE
  5
2ED
100
AcDbEntity
  8
0
100
AcDbSpline
 62
7
  6
CONTINUOUS
 70
0
 71
3
 72
11
 73
7
 74
0
 42
0.0000001
 43
0.0000001
 44
0.0000000001
 40
0.0
 40
0.0
 40
0.0
 40
0.0
 40
0.2502049969
 40
0.5001789482
 40
0.7498561404
 40
1.0
 40
1.0
 40
1.0
 40
1.0
 10
5.7532358881
 20
12.6210990343
 30
0.0
 10
5.754073438
 20
12.6206530074
 30
0.0
 10
5.7558815411
 20
12.620007093
 30
0.0
 10
5.7587120509
 20
12.6196103108
 30
0.0
 10
5.761567845
 20
12.6197324864
 30
0.0
 10
5.7634307171
 20
12.6201260547
 30
0.0
 10
5.7643430529
 20
12.6203861185
 30
0.0
  0
SPLINE
  5
2EE
100
AcDbEntity
  8
0
100
AcDbSpline
 62
7
  6
CONTINUOUS
 70
0
 71
3
 72
15
 73
11
 74
0
 42
0.0000001
 43
0.0000001
 44
0.0000000001
 40
0.0
 40
0.0
 40
0.0
 40
0.0
 40
0.0958570712
 40
0.2017501785
 40
0.3195277191
 40
0.4482512524
 40
0.5855179172
 40
0.7267215357
 40
0.866357753
 40
1.0
 40
1.0
 40
1.0
 40
1.0
 10
5.4085477684
 20
13.1519047581
 30
0.0
 10
5.4072540209
 20
13.1518607547
 30
0.0
 10
5.4045340309
 20
13.1514085607
 30
0.0
 10
5.4005390152
 20
13.1496731258
 30
0.0
 10
5.3967058661
 20
13.1467889098
 30
0.0
 10
5.393236732
 20
13.1428964225
 30
0.0
 10
5.3903892743
 20
13.1381606625
 30
0.0
 10
5.3882423449
 20
13.1329161243
 30
0.0
 10
5.3868968026
 20
13.1274649291
 30
0.0
 10
5.3864791746
 20
13.1237867978
 30
0.0
 10
5.3863915106
 20
13.1219841651
 30
0.0
  0
SPLINE
  5
2EF
100
AcDbEntity
  8
0
100
AcDbSpline
 62
7
  6
CONTINUOUS
 70
0
 71
3
 72
15
 73
11
 74
0
 42
0.0000001
 43
0.0000001
 44
0.0000000001
 40
0.0
 40
0.0
 40
0.0
 40
0.0
 40
0.0957677298
 40
0.2015768459
 40
0.3193170006
 40
0.4480614228
 40
0.5853994511
 40
0.7266909158
 40
0.8663749456
 40
1.0
 40
1.0
 40
1.0
 40
1.0
 10
5.0363804934
 20
13.1886661899
 30
0.0
 10
5.0350831416
 20
13.1886329812
 30
0.0
 10
5.0323522675
 20
13.188201042
 30
0.0
 10
5.0283343093
 20
13.1864866719
 30
0.0
 10
5.0244740713
 20
13.1836124125
 30
0.0
 10
5.0209764953
 20
13.1797196594
 30
0.0
 10
5.0181033593
 20
13.174973826
 30
0.0
 10
5.0159349419
 20
13.1697136605
 30
0.0
 10
5.0145738033
 20
13.1642444611
 30
0.0
 10
5.0141492467
 20
13.1605537066
 30
0.0
 10
5.0140589532
 20
13.1587451668
 30
0.0
  0
SPLINE
  5
2F0
100
AcDbEntity
  8
0
100
AcDbSpline
 62
7
  6
CONTINUOUS
 70
0
 71
3
 72
15
 73
11
 74
0
 42
0.0000001
 43
0.0000001
 44
0.0000000001
 40
0.0
 40
0.0
 40
0.0
 40
0.0
 40
0.132168561
 40
0.2462742202
 40
0.3464192337
 40
0.4415194508
 40
0.5439875029
 40
0.6651747503
 40
0.8142479935
 40
1.0
 40
1.0
 40
1.0
 40
1.0
 10
15.5806935941
 20
6.7689457719
 30
0.0
 10
15.5805723981
 20
6.768846158
 30
0.0
 10
15.5803571827
 20
6.7686463816
 30
0.0
 10
15.5801106727
 20
6.7683132716
 30
0.0
 10
15.579977759
 20
6.7679637453
 30
0.0
 10
15.5799834857
 20
6.7676012126
 30
0.0
 10
15.580134559
 20
6.7672461267
 30
0.0
 10
15.5804213506
 20
6.7669033797
 30
0.0
 10
15.5808529029
 20
6.7665713725
 30
0.0
 10
15.5812059799
 20
6.7663852695
 30
0.0
 10
15.5814065098
 20
6.7662936172
 30
0.0
  0
SPLINE
  5
2F1
100
AcDbEntity
  8
0
100
AcDbSpline
 62
7
  6
CONTINUOUS
 70
0
 71
3
 72
14
 73
10
 74
0
 42
0.0000001
 43
0.0000001
 44
0.0000000001
 40
0.0
 40
0.0
 40
0.0
 40
0.0
 40
0.123237232
 40
0.2471880184
 40
0.3716495872
 40
0.4964796649
 40
0.6217518501
 40
0.7474515863
 40
1.0
 40
1.0
 40
1.0
 40
1.0
 10
16.0291052569
 20
5.9420491352
 30
0.0
 10
16.0291052569
 20
5.9380365431
 30
0.0
 10
16.029497962
 20
5.9299853236
 30
0.0
 10
16.0310052087
 20
5.9179712929
 30
0.0
 10
16.0331688801
 20
5.9060082762
 30
0.0
 10
16.0358166603
 20
5.8941009167
 30
0.0
 10
16.0388417422
 20
5.882243278
 30
0.0
 10
16.0432250904
 20
5.8664447563
 30
0.0
 10
16.0467558213
 20
5.8546453146
 30
0.0
 10
16.0491052569
 20
5.8467651445
 30
0.0
  0
SPLINE
  5
2F2
100
AcDbEntity
  8
0
100
AcDbSpline
 62
7
  6
CONTINUOUS
 70
0
 71
3
 72
15
 73
11
 74
0
 42
0.0000001
 43
0.0000001
 44
0.0000000001
 40
0.0
 40
0.0
 40
0.0
 40
0.0
 40
0.0958570741
 40
0.2017502023
 40
0.3195277849
 40
0.4482513681
 40
0.5855180707
 40
0.7267216933
 40
0.8663578602
 40
1.0
 40
1.0
 40
1.0
 40
1.0
 10
16.1122122337
 20
6.1229490199
 30
0.0
 10
16.1121682302
 20
6.1242427696
 30
0.0
 10
16.1117160348
 20
6.1269627645
 30
0.0
 10
16.1099805941
 20
6.1309577867
 30
0.0
 10
16.1070963688
 20
6.1347909408
 30
0.0
 10
16.1032038698
 20
6.1382600777
 30
0.0
 10
16.0984680972
 20
6.1411075349
 30
0.0
 10
16.0932235475
 20
6.1432544607
 30
0.0
 10
16.0877723432
 20
6.144599997
 30
0.0
 10
16.0840942072
 20
6.1450176198
 30
0.0
 10
16.0822915728
 20
6.145105281
 30
0.0
  0
SPLINE
  5
2F3
100
AcDbEntity
  8
0
100
AcDbSpline
 62
7
  6
CONTINUOUS
 70
0
 71
3
 72
15
 73
11
 74
0
 42
0.0000001
 43
0.0000001
 44
0.0000000001
 40
0.0
 40
0.0
 40
0.0
 40
0.0
 40
0.1336094709
 40
0.273292704
 40
0.4145549861
 40
0.5519353904
 40
0.6808229117
 40
0.7984454415
 40
0.9042357567
 40
1.0
 40
1.0
 40
1.0
 40
1.0
 10
16.1190526411
 20
4.4038115735
 30
0.0
 10
16.1208610475
 20
4.4039018288
 30
0.0
 10
16.1245516724
 20
4.4043287467
 30
0.0
 10
16.1300195716
 20
4.4056894558
 30
0.0
 10
16.1352865224
 20
4.4078455263
 30
0.0
 10
16.1400245557
 20
4.4107346072
 30
0.0
 10
16.1439303929
 20
4.4142193469
 30
0.0
 10
16.1467935513
 20
4.4180896654
 30
0.0
 10
16.1485049639
 20
4.4221054295
 30
0.0
 10
16.1489404554
 20
4.424835755
 30
0.0
 10
16.1489736655
 20
4.4261331139
 30
0.0
  0
SPLINE
  5
2F4
100
AcDbEntity
  8
0
100
AcDbSpline
 62
7
  6
CONTINUOUS
 70
0
 71
3
 72
15
 73
11
 74
0
 42
0.0000001
 43
0.0000001
 44
0.0000000001
 40
0.0
 40
0.0
 40
0.0
 40
0.0
 40
0.0958570872
 40
0.2017501905
 40
0.3195274263
 40
0.4482508392
 40
0.58551713
 40
0.7267207363
 40
0.8663571933
 40
1.0
 40
1.0
 40
1.0
 40
1.0
 10
16.1122122319
 20
4.7983003384
 30
0.0
 10
16.11216823
 20
4.7970066057
 30
0.0
 10
16.1117160242
 20
4.79428665
 30
0.0
 10
16.1099806296
 20
4.7902916787
 30
0.0
 10
16.1070964586
 20
4.7864585714
 30
0.0
 10
16.1032040437
 20
4.7829894655
 30
0.0
 10
16.0984683671
 20
4.7801420062
 30
0.0
 10
16.0932239044
 20
4.7779950712
 30
0.0
 10
16.0877727754
 20
4.7766494893
 30
0.0
 10
16.0840946794
 20
4.7762318334
 30
0.0
 10
16.0822920609
 20
4.7761441516
 30
0.0
  0
SPLINE
  5
2F5
100
AcDbEntity
  8
0
100
AcDbSpline
 62
7
  6
CONTINUOUS
 70
0
 71
3
 72
14
 73
10
 74
0
 42
0.0000001
 43
0.0000001
 44
0.0000000001
 40
0.0
 40
0.0
 40
0.0
 40
0.0
 40
0.1232384576
 40
0.2471883011
 40
0.3716457364
 40
0.4964757759
 40
0.6217503452
 40
0.7474513756
 40
1.0
 40
1.0
 40
1.0
 40
1.0
 10
16.0291052569
 20
4.9792002737
 30
0.0
 10
16.0291052569
 20
4.9832129203
 30
0.0
 10
16.0294972457
 20
4.9912641772
 30
0.0
 10
16.0310026629
 20
5.0032783623
 30
0.0
 10
16.0331655458
 20
5.0152414314
 30
0.0
 10
16.0358149836
 20
5.0271484278
 30
0.0
 10
16.0388418749
 20
5.0390057627
 30
0.0
 10
16.0432257299
 20
5.0548043271
 30
0.0
 10
16.0467558108
 20
5.0666040589
 30
0.0
 10
16.0491052569
 20
5.0744842644
 30
0.0
  0
SPLINE
  5
2F6
100
AcDbEntity
  8
0
100
AcDbSpline
 62
7
  6
CONTINUOUS
 70
0
 71
3
 72
15
 73
11
 74
0
 42
0.0000001
 43
0.0000001
 44
0.0000000001
 40
0.0
 40
0.0
 40
0.0
 40
0.0
 40
0.0957677299
 40
0.2015768459
 40
0.3193170006
 40
0.4480614228
 40
0.585399451
 40
0.7266909158
 40
0.8663749456
 40
1.0
 40
1.0
 40
1.0
 40
1.0
 10
16.1489736655
 20
6.4951162949
 30
0.0
 10
16.1489404568
 20
6.4964136467
 30
0.0
 10
16.1485085176
 20
6.4991445208
 30
0.0
 10
16.1467941475
 20
6.503162479
 30
0.0
 10
16.1439198881
 20
6.507022717
 30
0.0
 10
16.140027135
 20
6.510520293
 30
0.0
 10
16.1352813016
 20
6.513393429
 30
0.0
 10
16.1300211361
 20
6.5155618464
 30
0.0
 10
16.1245519367
 20
6.516922985
 30
0.0
 10
16.1208611822
 20
6.5173475416
 30
0.0
 10
16.1190526423
 20
6.5174378351
 30
0.0
  0
SPLINE
  5
2F7
100
AcDbEntity
  8
0
100
AcDbSpline
 62
7
  6
CONTINUOUS
 70
0
 71
3
 72
15
 73
11
 74
0
 42
0.0000001
 43
0.0000001
 44
0.0000000001
 40
0.0
 40
0.0
 40
0.0
 40
0.0
 40
0.1381135436
 40
0.2714885402
 40
0.4004246299
 40
0.5254200871
 40
0.6471125008
 40
0.7662285309
 40
0.8835680912
 40
1.0
 40
1.0
 40
1.0
 40
1.0
 10
16.5613019502
 20
12.3251488941
 30
0.0
 10
16.5686735346
 20
12.3101271844
 30
0.0
 10
16.5820971908
 20
12.2800580916
 30
0.0
 10
16.5983255605
 20
12.2342844364
 30
0.0
 10
16.6102014818
 20
12.1888253626
 30
0.0
 10
16.6176726361
 20
12.1438672441
 30
0.0
 10
16.6207014523
 20
12.0995802315
 30
0.0
 10
16.619271846
 20
12.0561347173
 30
0.0
 10
16.6133842607
 20
12.013710741
 30
0.0
 10
16.6064826963
 20
11.9861750056
 30
0.0
 10
16.6023181233
 20
11.9726976219
 30
0.0
  0
SPLINE
  5
2F8
100
AcDbEntity
  8
0
100
AcDbSpline
 62
7
  6
CONTINUOUS
 70
0
 71
3
 72
15
 73
11
 74
0
 42
0.0000001
 43
0.0000001
 44
0.0000000001
 40
0.0
 40
0.0
 40
0.0
 40
0.0
 40
0.1210802368
 40
0.2423351225
 40
0.364406564
 40
0.4876620799
 40
0.6124241397
 40
0.739141429
 40
0.868206963
 40
1.0
 40
1.0
 40
1.0
 40
1.0
 10
14.1384916816
 20
12.086188627
 30
0.0
 10
14.1335154723
 20
12.0700856078
 30
0.0
 10
14.1252789729
 20
12.0372949549
 30
0.0
 10
14.1182107742
 20
11.9869736112
 30
0.0
 10
14.1164152166
 20
11.9358864068
 30
0.0
 10
14.1197774243
 20
11.8843964703
 30
0.0
 10
14.1281974333
 20
11.8328395053
 30
0.0
 10
14.1414765022
 20
11.781487157
 30
0.0
 10
14.1594305892
 20
11.7305485078
 30
0.0
 10
14.1742262556
 20
11.6973413736
 30
0.0
 10
14.1823082737
 20
11.6808719522
 30
0.0
  0
SPLINE
  5
2F9
100
AcDbEntity
  8
0
100
AcDbSpline
 62
7
  6
CONTINUOUS
 70
0
 71
3
 72
44
 73
40
 74
0
 42
0.0000001
 43
0.0000001
 44
0.0000000001
 40
0.0
 40
0.0
 40
0.0
 40
0.0
 40
0.0275847517
 40
0.0560853792
 40
0.085524734
 40
0.1159388847
 40
0.147325118
 40
0.1796447695
 40
0.2128344803
 40
0.2468108599
 40
0.2814688029
 40
0.3166884477
 40
0.3523368309
 40
0.3882720173
 40
0.4243461724
 40
0.460408319
 40
0.4963079712
 40
0.53189778
 40
0.5670373497
 40
0.6015950776
 40
0.6354537442
 40
0.6685112389
 40
0.7006863029
 40
0.7319205104
 40
0.7621821959
 40
0.7914698333
 40
0.8198128818
 40
0.8472735418
 40
0.8739431271
 40
0.8870219859
 40
0.8999497625
 40
0.9127425616
 40
0.9254198845
 40
0.9380012776
 40
0.9504986059
 40
0.9629247038
 40
0.9752976502
 40
0.9876456013
 40
1.0
 40
1.0
 40
1.0
 40
1.0
 10
14.1823082737
 20
11.6808719522
 30
0.0
 10
14.1930845133
 20
11.6589122848
 30
0.0
 10
14.2172162929
 20
11.6153262783
 30
0.0
 10
14.2597312184
 20
11.55242027
 30
0.0
 10
14.3087786832
 20
11.4912185795
 30
0.0
 10
14.3639810839
 20
11.4319740129
 30
0.0
 10
14.4249750923
 20
11.3749134226
 30
0.0
 10
14.4913810976
 20
11.320300963
 30
0.0
 10
14.5627811571
 20
11.2684005661
 30
0.0
 10
14.6387322966
 20
11.2194854108
 30
0.0
 10
14.7187577304
 20
11.1738224369
 30
0.0
 10
14.8023513694
 20
11.1316764959
 30
0.0
 10
14.8889796704
 20
11.0933001357
 30
0.0
 10
14.9780840439
 20
11.0589258215
 30
0.0
 10
15.0690906247
 20
11.0287743681
 30
0.0
 10
15.1614090941
 20
11.0030339408
 30
0.0
 10
15.2544447035
 20
10.9818768983
 30
0.0
 10
15.3476002572
 20
10.9654438925
 30
0.0
 10
15.4402835203
 20
10.9538493981
 30
0.0
 10
15.5319144797
 20
10.947186141
 30
0.0
 10
15.621928739
 20
10.9455140768
 30
0.0
 10
15.7097853024
 20
10.9488805364
 30
0.0
 10
15.7949686058
 20
10.9573060614
 30
0.0
 10
15.8769915248
 20
10.9708052541
 30
0.0
 10
15.9553950951
 20
10.9893817292
 30
0.0
 10
16.0297414407
 20
11.0130415205
 30
0.0
 10
16.0996072067
 20
11.0417929614
 30
0.0
 10
16.1645518117
 20
11.0756479754
 30
0.0
 10
16.2145259026
 20
11.1083382746
 30
0.0
 10
16.2514227687
 20
11.1370178264
 30
0.0
 10
16.2773722169
 20
11.15963966
 30
0.0
 10
16.3017001993
 20
11.1834917023
 30
0.0
 10
16.3243275809
 20
11.2085525874
 30
0.0
 10
16.3451684453
 20
11.2347851817
 30
0.0
 10
16.364148134
 20
11.2621246244
 30
0.0
 10
16.3811833519
 20
11.2905020785
 30
0.0
 10
16.3961928742
 20
11.3198538655
 30
0.0
 10
16.409124983
 20
11.3501078772
 30
0.0
 10
16.416324368
 20
11.3708184253
 30
0.0
 10
16.4195589473
 20
11.3812855276
 30
0.0
  0
SPLINE
  5
2FA
100
AcDbEntity
  8
0
100
AcDbSpline
 62
7
  6
CONTINUOUS
 70
0
 71
3
 72
49
 73
45
 74
0
 42
0.0000001
 43
0.0000001
 44
0.0000000001
 40
0.0
 40
0.0
 40
0.0
 40
0.0
 40
0.0107120887
 40
0.0214616449
 40
0.0322854662
 40
0.0432189431
 40
0.0542958808
 40
0.0655478367
 40
0.0770034769
 40
0.0886888786
 40
0.1006272691
 40
0.112838252
 40
0.1253385584
 40
0.1381422767
 40
0.1512599899
 40
0.1646994604
 40
0.1925569198
 40
0.2217342534
 40
0.2368148678
 40
0.2522142406
 40
0.2839335059
 40
0.3002379512
 40
0.3168216671
 40
0.3507698282
 40
0.3856616
 40
0.4213621873
 40
0.4577236789
 40
0.4945889032
 40
0.5317933724
 40
0.5691678506
 40
0.6065409878
 40
0.6437412444
 40
0.6805997189
 40
0.7169517877
 40
0.7526405777
 40
0.7875184709
 40
0.8214502285
 40
0.8543168808
 40
0.8860172052
 40
0.9164711517
 40
0.9312156718
 40
0.9456327272
 40
0.9734747351
 40
1.0
 40
1.0
 40
1.0
 40
1.0
 10
14.3212526539
 20
12.6776001662
 30
0.0
 10
14.3240351451
 20
12.6866048591
 30
0.0
 10
14.3302642595
 20
12.7044509608
 30
0.0
 10
14.3415441477
 20
12.7305462848
 30
0.0
 10
14.3547450854
 20
12.7559451502
 30
0.0
 10
14.3698409568
 20
12.7806026269
 30
0.0
 10
14.386807774
 20
12.8044748802
 30
0.0
 10
14.4056152114
 20
12.8275203101
 30
0.0
 10
14.4262271098
 20
12.8497019804
 30
0.0
 10
14.4486086795
 20
12.8709814121
 30
0.0
 10
14.4727224671
 20
12.8913207182
 30
0.0
 10
14.4985239072
 20
12.9106886679
 30
0.0
 10
14.5259688058
 20
12.9290529008
 30
0.0
 10
14.5550117862
 20
12.9463796816
 30
0.0
 10
14.5856019535
 20
12.9626426053
 30
0.0
 10
14.6288954474
 20
12.9831161034
 30
0.0
 10
14.6866945436
 20
13.005790908
 30
0.0
 10
14.7475070716
 20
13.0241190142
 30
0.0
 10
14.7985300181
 20
13.0364749473
 30
0.0
 10
14.852151574
 20
13.0474556807
 30
0.0
 10
14.9073717869
 20
13.0558157885
 30
0.0
 10
14.9639190921
 20
13.0616728636
 30
0.0
 10
15.0225768707
 20
13.0659411583
 30
0.0
 10
15.0977510085
 20
13.068037923
 30
0.0
 10
15.1897369143
 20
13.0654825339
 30
0.0
 10
15.2835734882
 20
13.0578860188
 30
0.0
 10
15.3786213643
 20
13.0453039311
 30
0.0
 10
15.474235095
 20
13.0278218916
 30
0.0
 10
15.5697634009
 20
13.0055556432
 30
0.0
 10
15.6645574766
 20
12.9786615196
 30
0.0
 10
15.7579710254
 20
12.9473182764
 30
0.0
 10
15.8493689847
 20
12.9117411658
 30
0.0
 10
15.938129985
 20
12.8721734652
 30
0.0
 10
16.0236486299
 20
12.8288804464
 30
0.0
 10
16.1053456646
 20
12.7821609423
 30
0.0
 10
16.1826641424
 20
12.7323286005
 30
0.0
 10
16.2550795993
 20
12.67972242
 30
0.0
 10
16.3221031982
 20
12.6246988059
 30
0.0
 10
16.383273073
 20
12.5676265661
 30
0.0
 10
16.4295226472
 20
12.5181581691
 30
0.0
 10
16.4631338987
 20
12.4778758522
 30
0.0
 10
16.4937501542
 20
12.4381378856
 30
0.0
 10
16.5277649681
 20
12.3879950181
 30
0.0
 10
16.5510207106
 20
12.3460998576
 30
0.0
 10
16.5613019502
 20
12.3251488941
 30
0.0
  0
SPLINE
  5
2FB
100
AcDbEntity
  8
0
100
AcDbSpline
 62
7
  6
CONTINUOUS
 70
0
 71
3
 72
9
 73
5
 74
0
 42
0.0000001
 43
0.0000001
 44
0.0000000001
 40
0.0
 40
0.0
 40
0.0
 40
0.0
 40
0.2571096065
 40
1.0
 40
1.0
 40
1.0
 40
1.0
 10
14.1410733989
 20
13.7095874231
 30
0.0
 10
14.1418143055
 20
13.7080776142
 30
0.0
 10
14.1445776891
 20
13.7021486221
 30
0.0
 10
14.1468538851
 20
13.6959882317
 30
0.0
 10
14.1482069231
 20
13.6913210085
 30
0.0
  0
SPLINE
  5
2FC
100
AcDbEntity
  8
0
100
AcDbSpline
 62
7
  6
CONTINUOUS
 70
0
 71
3
 72
11
 73
7
 74
0
 42
0.0000001
 43
0.0000001
 44
0.0000000001
 40
0.0
 40
0.0
 40
0.0
 40
0.0
 40
0.2628855969
 40
0.5150175481
 40
0.7594838749
 40
1.0
 40
1.0
 40
1.0
 40
1.0
 10
14.1482069231
 20
13.6913210085
 30
0.0
 10
14.1493524816
 20
13.6873694733
 30
0.0
 10
14.1511288799
 20
13.6794798188
 30
0.0
 10
14.1521211179
 20
13.6675950096
 30
0.0
 10
14.1513696278
 20
13.6560406749
 30
0.0
 10
14.1497014769
 20
13.6485982484
 30
0.0
 10
14.1485893699
 20
13.6450021367
 30
0.0
  0
SPLINE
  5
2FD
100
AcDbEntity
  8
0
100
AcDbSpline
 62
7
  6
CONTINUOUS
 70
0
 71
3
 72
31
 73
27
 74
0
 42
0.0000001
 43
0.0000001
 44
0.0000000001
 40
0.0
 40
0.0
 40
0.0
 40
0.0
 40
0.0623481856
 40
0.0936051818
 40
0.1248494428
 40
0.1872564203
 40
0.2497060073
 40
0.2809845308
 40
0.3122724702
 40
0.3748058715
 40
0.4373703462
 40
0.4686938394
 40
0.5000179705
 40
0.5313401839
 40
0.5626569155
 40
0.5939678742
 40
0.6252700855
 40
0.6565619404
 40
0.6878449069
 40
0.7191163371
 40
0.7503768188
 40
0.8127930826
 40
0.8751720915
 40
0.9064061945
 40
0.9376565668
 40
1.0
 40
1.0
 40
1.0
 40
1.0
 10
15.0257577814
 20
13.5379739908
 30
0.0
 10
15.0183207998
 20
13.5379739908
 30
0.0
 10
15.007114715
 20
13.5391113647
 30
0.0
 10
14.9926701922
 20
13.5428076126
 30
0.0
 10
14.9786587988
 20
13.5479409481
 30
0.0
 10
14.9622066426
 20
13.5569355531
 30
0.0
 10
14.9478521988
 20
13.5690017318
 30
0.0
 10
14.9379448118
 20
13.5801745151
 30
0.0
 10
14.9291723284
 20
13.592271333
 30
0.0
 10
14.9204600717
 20
13.6089056833
 30
0.0
 10
14.9151075283
 20
13.6269075595
 30
0.0
 10
14.9129340628
 20
13.6417032528
 30
0.0
 10
14.9123763483
 20
13.6529161883
 30
0.0
 10
14.9128882202
 20
13.6641293469
 30
0.0
 10
14.9144706613
 20
13.6752411118
 30
0.0
 10
14.9171145857
 20
13.6861465154
 30
0.0
 10
14.920788808
 20
13.696746136
 30
0.0
 10
14.9254687842
 20
13.7069385805
 30
0.0
 10
14.9311152803
 20
13.7166243628
 30
0.0
 10
14.9376718517
 20
13.7257157115
 30
0.0
 10
14.9475469688
 20
13.736905256
 30
0.0
 10
14.9618781166
 20
13.7489868565
 30
0.0
 10
14.9783150784
 20
13.7579924524
 30
0.0
 10
14.9923195192
 20
13.7631296532
 30
0.0
 10
15.0067607704
 20
13.7668286266
 30
0.0
 10
15.0179656848
 20
13.7679656477
 30
0.0
 10
15.0254020995
 20
13.7679656477
 30
0.0
  0
SPLINE
  5
2FE
100
AcDbEntity
  8
0
100
AcDbSpline
 62
7
  6
CONTINUOUS
 70
0
 71
3
 72
14
 73
10
 74
0
 42
0.0000001
 43
0.0000001
 44
0.0000000001
 40
0.0
 40
0.0
 40
0.0
 40
0.0
 40
0.1187310477
 40
0.2380492822
 40
0.3586326627
 40
0.4811134124
 40
0.606047713
 40
0.7339163014
 40
1.0
 40
1.0
 40
1.0
 40
1.0
 10
16.7550019303
 20
11.958730865
 30
0.0
 10
16.7503330088
 20
11.9436222295
 30
0.0
 10
16.7394159988
 20
11.9137868637
 30
0.0
 10
16.718529773
 20
11.8707452393
 30
0.0
 10
16.6932219982
 20
11.8295553731
 30
0.0
 10
16.663633497
 20
11.7903921928
 30
0.0
 10
16.6299321901
 20
11.7533842013
 30
0.0
 10
16.5790742505
 20
11.7064954318
 30
0.0
 10
16.5361401922
 20
11.6758499628
 30
0.0
 10
16.5059251106
 20
11.6573299961
 30
0.0
  0
SPLINE
  5
2FF
100
AcDbEntity
  8
0
100
AcDbSpline
 62
7
  6
CONTINUOUS
 70
0
 71
3
 72
15
 73
11
 74
0
 42
0.0000001
 43
0.0000001
 44
0.0000000001
 40
0.0
 40
0.0
 40
0.0
 40
0.0
 40
0.1349646499
 40
0.2661919665
 40
0.394017182
 40
0.5189039249
 40
0.6413773214
 40
0.761969564
 40
0.8812846483
 40
1.0
 40
1.0
 40
1.0
 40
1.0
 10
14.2224929194
 20
12.363785795
 30
0.0
 10
14.2151798603
 20
12.3801592009
 30
0.0
 10
14.2018965659
 20
12.4129794836
 30
0.0
 10
14.1860308478
 20
12.4629250032
 30
0.0
 10
14.1746139652
 20
12.5127068622
 30
0.0
 10
14.1677287633
 20
12.5621459782
 30
0.0
 10
14.1654476566
 20
12.6110528532
 30
0.0
 10
14.1678077083
 20
12.6592208137
 30
0.0
 10
14.1748465235
 20
12.7064237339
 30
0.0
 10
14.1826513694
 20
12.7371379826
 30
0.0
 10
14.1873084114
 20
12.7522081759
 30
0.0
  0
SPLINE
  5
300
100
AcDbEntity
  8
0
100
AcDbSpline
 62
7
  6
CONTINUOUS
 70
0
 71
3
 72
23
 73
19
 74
0
 42
0.0000001
 43
0.0000001
 44
0.0000000001
 40
0.0
 40
0.0
 40
0.0
 40
0.0
 40
0.0511017237
 40
0.1044432561
 40
0.1600099315
 40
0.2178117637
 40
0.2778005569
 40
0.3398021986
 40
0.4035785386
 40
0.4688341195
 40
0.5352387607
 40
0.6024239867
 40
0.6700023517
 40
0.7375677987
 40
0.8047184105
 40
0.8710921056
 40
0.9363272027
 40
1.0
 40
1.0
 40
1.0
 40
1.0
 10
17.0553326692
 20
14.1586309459
 30
0.0
 10
17.0502653224
 20
14.1689571129
 30
0.0
 10
17.0386589092
 20
14.1894655086
 30
0.0
 10
17.0177683221
 20
14.218869677
 30
0.0
 10
16.9932613894
 20
14.2473523177
 30
0.0
 10
16.9653903395
 20
14.274721519
 30
0.0
 10
16.9344040261
 20
14.3008092256
 30
0.0
 10
16.9005732415
 20
14.3254389215
 30
0.0
 10
16.864189409
 20
14.3484113501
 30
0.0
 10
16.8255799118
 20
14.3695512897
 30
0.0
 10
16.78508456
 20
14.3886750885
 30
0.0
 10
16.7430700439
 20
14.4056276842
 30
0.0
 10
16.6999130491
 20
14.4202490227
 30
0.0
 10
16.6560099786
 20
14.4324194831
 30
0.0
 10
16.611751163
 20
14.4420193716
 30
0.0
 10
16.5675281282
 20
14.4489645494
 30
0.0
 10
16.5237484939
 20
14.4531748098
 30
0.0
 10
16.4947252431
 20
14.4541521274
 30
0.0
 10
16.4803931049
 20
14.4541521274
 30
0.0
  0
SPLINE
  5
301
100
AcDbEntity
  8
0
100
AcDbSpline
 62
7
  6
CONTINUOUS
 70
0
 71
3
 72
14
 73
10
 74
0
 42
0.0000001
 43
0.0000001
 44
0.0000000001
 40
0.0
 40
0.0
 40
0.0
 40
0.0
 40
0.1110364996
 40
0.223678958
 40
0.3394031956
 40
0.4595087413
 40
0.716319215
 40
0.8546984664
 40
1.0
 40
1.0
 40
1.0
 40
1.0
 10
17.1023761097
 20
12.0647452968
 30
0.0
 10
17.1034195342
 20
12.0681193168
 30
0.0
 10
17.1060316168
 20
12.0747696349
 30
0.0
 10
17.11141295
 20
12.0841680851
 30
0.0
 10
17.1182304359
 20
12.0929521025
 30
0.0
 10
17.1294030779
 20
12.1039905333
 30
0.0
 10
17.1431037707
 20
12.1132724848
 30
0.0
 10
17.1585947988
 20
12.1207532912
 30
0.0
 10
17.167051751
 20
12.1239415777
 30
0.0
 10
17.1714378413
 20
12.1253978473
 30
0.0
  0
SPLINE
  5
302
100
AcDbEntity
  8
0
100
AcDbSpline
 62
7
  6
CONTINUOUS
 70
0
 71
3
 72
20
 73
16
 74
0
 42
0.0000001
 43
0.0000001
 44
0.0000000001
 40
0.0
 40
0.0
 40
0.0
 40
0.0
 40
0.0555845487
 40
0.1137627105
 40
0.1742968358
 40
0.2368744349
 40
0.3011466454
 40
0.366720741
 40
0.5000244681
 40
0.6333266114
 40
0.7631175142
 40
0.8257022408
 40
0.8862365775
 40
0.9444089427
 40
1.0
 40
1.0
 40
1.0
 40
1.0
 10
17.1714431973
 20
12.1261493797
 30
0.0
 10
17.1778535052
 20
12.1276562845
 30
0.0
 10
17.1911151304
 20
12.1301588801
 30
0.0
 10
17.2116619761
 20
12.1323844407
 30
0.0
 10
17.2331434719
 20
12.1331446435
 30
0.0
 10
17.2553469975
 20
12.1324436373
 30
0.0
 10
17.2780553257
 20
12.1302771801
 30
0.0
 10
17.3088695943
 20
12.1254483143
 30
0.0
 10
17.3471562118
 20
12.115944338
 30
0.0
 10
17.3912580442
 20
12.0995374116
 30
0.0
 10
17.4257157645
 20
12.0819468567
 30
0.0
 10
17.4509918464
 20
12.0658244945
 30
0.0
 10
17.4683002335
 20
12.0530776259
 30
0.0
 10
17.4840097165
 20
12.039648738
 30
0.0
 10
17.4935483152
 20
12.0301012978
 30
0.0
 10
17.4979909176
 20
12.0252395853
 30
0.0
  0
SPLINE
  5
303
100
AcDbEntity
  8
0
100
AcDbSpline
 62
7
  6
CONTINUOUS
 70
0
 71
3
 72
9
 73
5
 74
0
 42
0.0000001
 43
0.0000001
 44
0.0000000001
 40
0.0
 40
0.0
 40
0.0
 40
0.0
 40
0.5134132844
 40
1.0
 40
1.0
 40
1.0
 40
1.0
 10
17.4976756529
 20
12.0244726607
 30
0.0
 10
17.5006464004
 20
12.0205620997
 30
0.0
 10
17.5061140941
 20
12.0126960895
 30
0.0
 10
17.5108058105
 20
12.0043383986
 30
0.0
 10
17.5128562656
 20
12.0001600103
 30
0.0
  0
SPLINE
  5
304
100
AcDbEntity
  8
0
100
AcDbSpline
 62
7
  6
CONTINUOUS
 70
0
 71
3
 72
9
 73
5
 74
0
 42
0.0000001
 43
0.0000001
 44
0.0000000001
 40
0.0
 40
0.0
 40
0.0
 40
0.0
 40
0.2571096065
 40
1.0
 40
1.0
 40
1.0
 40
1.0
 10
16.6739911324
 20
13.7095874231
 30
0.0
 10
16.674732039
 20
13.7080776142
 30
0.0
 10
16.6774954226
 20
13.7021486221
 30
0.0
 10
16.6797716186
 20
13.6959882317
 30
0.0
 10
16.6811246566
 20
13.6913210085
 30
0.0
  0
SPLINE
  5
305
100
AcDbEntity
  8
0
100
AcDbSpline
 62
7
  6
CONTINUOUS
 70
0
 71
3
 72
11
 73
7
 74
0
 42
0.0000001
 43
0.0000001
 44
0.0000000001
 40
0.0
 40
0.0
 40
0.0
 40
0.0
 40
0.2628855969
 40
0.5150175481
 40
0.7594838749
 40
1.0
 40
1.0
 40
1.0
 40
1.0
 10
16.6811246566
 20
13.6913210085
 30
0.0
 10
16.6822702151
 20
13.6873694733
 30
0.0
 10
16.6840466134
 20
13.6794798188
 30
0.0
 10
16.6850388514
 20
13.6675950096
 30
0.0
 10
16.6842873613
 20
13.6560406749
 30
0.0
 10
16.6826192104
 20
13.6485982484
 30
0.0
 10
16.6815071034
 20
13.6450021367
 30
0.0
  0
SPLINE
  5
306
100
AcDbEntity
  8
0
100
AcDbSpline
 62
7
  6
CONTINUOUS
 70
0
 71
3
 72
9
 73
5
 74
0
 42
0.0000001
 43
0.0000001
 44
0.0000000001
 40
0.0
 40
0.0
 40
0.0
 40
0.0
 40
0.2552181365
 40
1.0
 40
1.0
 40
1.0
 40
1.0
 10
16.6683047351
 20
13.2750664497
 30
0.0
 10
16.6674863646
 20
13.2742406519
 30
0.0
 10
16.6643303744
 20
13.2709554242
 30
0.0
 10
16.6613809936
 20
13.267470575
 30
0.0
 10
16.6593251802
 20
13.2647716015
 30
0.0
  0
SPLINE
  5
307
100
AcDbEntity
  8
0
100
AcDbSpline
 62
7
  6
CONTINUOUS
 70
0
 71
3
 72
9
 73
5
 74
0
 42
0.0000001
 43
0.0000001
 44
0.0000000001
 40
0.0
 40
0.0
 40
0.0
 40
0.0
 40
0.5078131859
 40
1.0
 40
1.0
 40
1.0
 40
1.0
 10
16.6583759259
 20
13.2635043728
 30
0.0
 10
16.6553866603
 20
13.2594458961
 30
0.0
 10
16.6501137514
 20
13.2509769243
 30
0.0
 10
16.6463504212
 20
13.2417321234
 30
0.0
 10
16.6449080128
 20
13.2370644881
 30
0.0
  0
SPLINE
  5
308
100
AcDbEntity
  8
0
100
AcDbSpline
 62
7
  6
CONTINUOUS
 70
0
 71
3
 72
9
 73
5
 74
0
 42
0.0000001
 43
0.0000001
 44
0.0000000001
 40
0.0
 40
0.0
 40
0.0
 40
0.0
 40
0.2571096065
 40
1.0
 40
1.0
 40
1.0
 40
1.0
 10
17.5128562656
 20
12.0001600103
 30
0.0
 10
17.5135971722
 20
11.9986502015
 30
0.0
 10
17.5163605558
 20
11.9927212094
 30
0.0
 10
17.5186367518
 20
11.986560819
 30
0.0
 10
17.5199897898
 20
11.9818935958
 30
0.0
  0
SPLINE
  5
309
100
AcDbEntity
  8
0
100
AcDbSpline
 62
7
  6
CONTINUOUS
 70
0
 71
3
 72
11
 73
7
 74
0
 42
0.0000001
 43
0.0000001
 44
0.0000000001
 40
0.0
 40
0.0
 40
0.0
 40
0.0
 40
0.2628855969
 40
0.5150175481
 40
0.7594838749
 40
1.0
 40
1.0
 40
1.0
 40
1.0
 10
17.5199897898
 20
11.9818935958
 30
0.0
 10
17.5211353483
 20
11.9779420606
 30
0.0
 10
17.5229117466
 20
11.9700524061
 30
0.0
 10
17.5239039846
 20
11.9581675969
 30
0.0
 10
17.5231524945
 20
11.9466132621
 30
0.0
 10
17.5214843437
 20
11.9391708357
 30
0.0
 10
17.5203722367
 20
11.9355747239
 30
0.0
  0
SPLINE
  5
30A
100
AcDbEntity
  8
0
100
AcDbSpline
 62
7
  6
CONTINUOUS
 70
0
 71
3
 72
14
 73
10
 74
0
 42
0.0000001
 43
0.0000001
 44
0.0000000001
 40
0.0
 40
0.0
 40
0.0
 40
0.0
 40
0.1110364996
 40
0.223678958
 40
0.3394031956
 40
0.4595087413
 40
0.716319215
 40
0.8546984664
 40
1.0
 40
1.0
 40
1.0
 40
1.0
 10
16.2635109765
 20
13.7741727095
 30
0.0
 10
16.264554401
 20
13.7775467296
 30
0.0
 10
16.2671664836
 20
13.7841970477
 30
0.0
 10
16.2725478167
 20
13.7935954978
 30
0.0
 10
16.2793653026
 20
13.8023795152
 30
0.0
 10
16.2905379446
 20
13.8134179461
 30
0.0
 10
16.3042386374
 20
13.8226998976
 30
0.0
 10
16.3197296655
 20
13.830180704
 30
0.0
 10
16.3281866177
 20
13.8333689904
 30
0.0
 10
16.3325727081
 20
13.83482526
 30
0.0
  0
SPLINE
  5
30B
100
AcDbEntity
  8
0
100
AcDbSpline
 62
7
  6
CONTINUOUS
 70
0
 71
3
 72
20
 73
16
 74
0
 42
0.0000001
 43
0.0000001
 44
0.0000000001
 40
0.0
 40
0.0
 40
0.0
 40
0.0
 40
0.0555845487
 40
0.1137627105
 40
0.1742968358
 40
0.2368744349
 40
0.3011466454
 40
0.366720741
 40
0.5000244681
 40
0.6333266114
 40
0.7631175142
 40
0.8257022408
 40
0.8862365775
 40
0.9444089427
 40
1.0
 40
1.0
 40
1.0
 40
1.0
 10
16.3325780641
 20
13.8355767925
 30
0.0
 10
16.338988372
 20
13.8370836972
 30
0.0
 10
16.3522499971
 20
13.8395862929
 30
0.0
 10
16.3727968428
 20
13.8418118535
 30
0.0
 10
16.3942783387
 20
13.8425720563
 30
0.0
 10
16.4164818643
 20
13.84187105
 30
0.0
 10
16.4391901925
 20
13.8397045929
 30
0.0
 10
16.4700044611
 20
13.8348757271
 30
0.0
 10
16.5082910786
 20
13.8253717508
 30
0.0
 10
16.5523929109
 20
13.8089648243
 30
0.0
 10
16.5868506313
 20
13.7913742695
 30
0.0
 10
16.6121267132
 20
13.7752519072
 30
0.0
 10
16.6294351003
 20
13.7625050386
 30
0.0
 10
16.6451445832
 20
13.7490761508
 30
0.0
 10
16.6546831819
 20
13.7395287105
 30
0.0
 10
16.6591257844
 20
13.7346669981
 30
0.0
  0
SPLINE
  5
30C
100
AcDbEntity
  8
0
100
AcDbSpline
 62
7
  6
CONTINUOUS
 70
0
 71
3
 72
9
 73
5
 74
0
 42
0.0000001
 43
0.0000001
 44
0.0000000001
 40
0.0
 40
0.0
 40
0.0
 40
0.0
 40
0.5134132844
 40
1.0
 40
1.0
 40
1.0
 40
1.0
 10
16.6588105197
 20
13.7339000735
 30
0.0
 10
16.6617812672
 20
13.7299895124
 30
0.0
 10
16.6672489608
 20
13.7221235023
 30
0.0
 10
16.6719406773
 20
13.7137658113
 30
0.0
 10
16.6739911324
 20
13.7095874231
 30
0.0
  0
SPLINE
  5
30D
100
AcDbEntity
  8
0
100
AcDbSpline
 62
7
  6
CONTINUOUS
 70
0
 71
3
 72
20
 73
16
 74
0
 42
0.0000001
 43
0.0000001
 44
0.0000000001
 40
0.0
 40
0.0
 40
0.0
 40
0.0
 40
0.148008405
 40
0.2891048881
 40
0.3568330969
 40
0.4226571419
 40
0.5486646925
 40
0.6090955799
 40
0.6679602911
 40
0.7254516887
 40
0.7817972694
 40
0.8371707855
 40
0.8917859146
 40
0.9459415763
 40
1.0
 40
1.0
 40
1.0
 40
1.0
 10
13.9093117327
 20
14.4541521274
 30
0.0
 10
13.8900189044
 20
14.4541521274
 30
0.0
 10
13.8523074203
 20
14.4524498428
 30
0.0
 10
13.8061962217
 20
14.4456511456
 30
0.0
 10
13.7713490114
 20
14.4373503703
 30
0.0
 10
13.7389684695
 20
14.4274950039
 30
0.0
 10
13.7084692533
 20
14.4148504612
 30
0.0
 10
13.6805321745
 20
14.3992363089
 30
0.0
 10
13.6613930399
 20
14.3863491721
 30
0.0
 10
13.6438936114
 20
14.3721368429
 30
0.0
 10
13.6281594765
 20
14.3566284138
 30
0.0
 10
13.6143111123
 20
14.3398948558
 30
0.0
 10
13.6024903401
 20
14.3220080187
 30
0.0
 10
13.5928198787
 20
14.3030658503
 30
0.0
 10
13.5878693353
 20
14.2898179855
 30
0.0
 10
13.5857888774
 20
14.2830856212
 30
0.0
  0
SPLINE
  5
30E
100
AcDbEntity
  8
0
100
AcDbSpline
 62
7
  6
CONTINUOUS
 70
0
 71
3
 72
23
 73
19
 74
0
 42
0.0000001
 43
0.0000001
 44
0.0000000001
 40
0.0
 40
0.0
 40
0.0
 40
0.0
 40
0.0774856318
 40
0.1535955131
 40
0.2279717352
 40
0.300364137
 40
0.3705972561
 40
0.4385272216
 40
0.5040484944
 40
0.5671053884
 40
0.6277205361
 40
0.6859829868
 40
0.7420545319
 40
0.7961812955
 40
0.8486603517
 40
0.8998271129
 40
0.9501094344
 40
1.0
 40
1.0
 40
1.0
 40
1.0
 10
13.7050865357
 20
13.5027517128
 30
0.0
 10
13.6941787048
 20
13.5082817679
 30
0.0
 10
13.6728194817
 20
13.5197720313
 30
0.0
 10
13.6420182904
 20
13.5383999799
 30
0.0
 10
13.6129079106
 20
13.5581795472
 30
0.0
 10
13.5856804037
 20
13.5789873805
 30
0.0
 10
13.5604990285
 20
13.6007046949
 30
0.0
 10
13.5375162145
 20
13.6232154908
 30
0.0
 10
13.5168718108
 20
13.6463963945
 30
0.0
 10
13.4987043276
 20
13.6701317685
 30
0.0
 10
13.4831319188
 20
13.694297963
 30
0.0
 10
13.4702723274
 20
13.7187776726
 30
0.0
 10
13.4602335497
 20
13.7434474809
 30
0.0
 10
13.4531300685
 20
13.7681759674
 30
0.0
 10
13.449058618
 20
13.7928025557
 30
0.0
 10
13.4481003796
 20
13.8171464322
 30
0.0
 10
13.4503296804
 20
13.8409974406
 30
0.0
 10
13.4539482598
 20
13.8564492262
 30
0.0
 10
13.4562731066
 20
13.8639724332
 30
0.0
  0
SPLINE
  5
30F
100
AcDbEntity
  8
0
100
AcDbSpline
 62
7
  6
CONTINUOUS
 70
0
 71
3
 72
15
 73
11
 74
0
 42
0.0000001
 43
0.0000001
 44
0.0000000001
 40
0.0
 40
0.0
 40
0.0
 40
0.0
 40
0.1441972141
 40
0.2845377299
 40
0.4199423269
 40
0.5496250743
 40
0.6729473533
 40
0.7893621762
 40
0.8984342023
 40
1.0
 40
1.0
 40
1.0
 40
1.0
 10
14.1638849962
 20
13.2701424237
 30
0.0
 10
14.1723533957
 20
13.2657931667
 30
0.0
 10
14.1888175653
 20
13.2567203874
 30
0.0
 10
14.2122519515
 20
13.2418719796
 30
0.0
 10
14.2338925697
 20
13.2260849607
 30
0.0
 10
14.2535210778
 20
13.2095485789
 30
0.0
 10
14.2709382771
 20
13.1924393164
 30
0.0
 10
14.2859849481
 20
13.1749661757
 30
0.0
 10
14.2985108593
 20
13.1573387064
 30
0.0
 10
14.3053574389
 20
13.1451953891
 30
0.0
 10
14.3082917942
 20
13.1391661057
 30
0.0
  0
SPLINE
  5
310
100
AcDbEntity
  8
0
100
AcDbSpline
 62
7
  6
CONTINUOUS
 70
0
 71
3
 72
20
 73
16
 74
0
 42
0.0000001
 43
0.0000001
 44
0.0000000001
 40
0.0
 40
0.0
 40
0.0
 40
0.0
 40
0.0555845487
 40
0.1137627105
 40
0.1742968358
 40
0.2368744349
 40
0.3011466454
 40
0.366720741
 40
0.5000244681
 40
0.6333266114
 40
0.7631175142
 40
0.8257022408
 40
0.8862365775
 40
0.9444089427
 40
1.0
 40
1.0
 40
1.0
 40
1.0
 10
13.7996603306
 20
13.8355767925
 30
0.0
 10
13.8060706385
 20
13.8370836972
 30
0.0
 10
13.8193322636
 20
13.8395862929
 30
0.0
 10
13.8398791093
 20
13.8418118535
 30
0.0
 10
13.8613606052
 20
13.8425720563
 30
0.0
 10
13.8835641308
 20
13.84187105
 30
0.0
 10
13.906272459
 20
13.8397045929
 30
0.0
 10
13.9370867276
 20
13.8348757271
 30
0.0
 10
13.9753733451
 20
13.8253717508
 30
0.0
 10
14.0194751774
 20
13.8089648243
 30
0.0
 10
14.0539328978
 20
13.7913742695
 30
0.0
 10
14.0792089797
 20
13.7752519072
 30
0.0
 10
14.0965173668
 20
13.7625050386
 30
0.0
 10
14.1122268497
 20
13.7490761508
 30
0.0
 10
14.1217654484
 20
13.7395287105
 30
0.0
 10
14.1262080509
 20
13.7346669981
 30
0.0
  0
SPLINE
  5
311
100
AcDbEntity
  8
0
100
AcDbSpline
 62
7
  6
CONTINUOUS
 70
0
 71
3
 72
9
 73
5
 74
0
 42
0.0000001
 43
0.0000001
 44
0.0000000001
 40
0.0
 40
0.0
 40
0.0
 40
0.0
 40
0.5134132844
 40
1.0
 40
1.0
 40
1.0
 40
1.0
 10
14.1258927861
 20
13.7339000735
 30
0.0
 10
14.1288635337
 20
13.7299895124
 30
0.0
 10
14.1343312273
 20
13.7221235023
 30
0.0
 10
14.1390229438
 20
13.7137658113
 30
0.0
 10
14.1410733989
 20
13.7095874231
 30
0.0
  0
SPLINE
  5
312
100
AcDbEntity
  8
0
100
AcDbSpline
 62
7
  6
CONTINUOUS
 70
0
 71
3
 72
14
 73
10
 74
0
 42
0.0000001
 43
0.0000001
 44
0.0000000001
 40
0.0
 40
0.0
 40
0.0
 40
0.0
 40
0.1110364996
 40
0.223678958
 40
0.3394031956
 40
0.4595087413
 40
0.716319215
 40
0.8546984664
 40
1.0
 40
1.0
 40
1.0
 40
1.0
 10
13.7305932429
 20
13.7741727095
 30
0.0
 10
13.7316366675
 20
13.7775467296
 30
0.0
 10
13.7342487501
 20
13.7841970477
 30
0.0
 10
13.7396300832
 20
13.7935954978
 30
0.0
 10
13.7464475691
 20
13.8023795152
 30
0.0
 10
13.7576202111
 20
13.8134179461
 30
0.0
 10
13.7713209039
 20
13.8226998976
 30
0.0
 10
13.786811932
 20
13.830180704
 30
0.0
 10
13.7952688842
 20
13.8333689904
 30
0.0
 10
13.7996549746
 20
13.83482526
 30
0.0
  0
SPLINE
  5
313
100
AcDbEntity
  8
0
100
AcDbSpline
 62
7
  6
CONTINUOUS
 70
0
 71
3
 72
14
 73
10
 74
0
 42
0.0000001
 43
0.0000001
 44
0.0000000001
 40
0.0
 40
0.0
 40
0.0
 40
0.0
 40
0.1204798859
 40
0.2411208306
 40
0.3626339072
 40
0.4856141267
 40
0.6104909611
 40
0.7376001888
 40
1.0
 40
1.0
 40
1.0
 40
1.0
 10
17.9242081439
 20
12.2648881883
 30
0.0
 10
17.9261450725
 20
12.2711560915
 30
0.0
 10
17.9293475445
 20
12.283919799
 30
0.0
 10
17.9320920545
 20
12.3035095199
 30
0.0
 10
17.9327811461
 20
12.3234156563
 30
0.0
 10
17.9314455309
 20
12.3435161508
 30
0.0
 10
17.9281444235
 20
12.3636968924
 30
0.0
 10
17.9211139955
 20
12.3908392469
 30
0.0
 10
17.9131315869
 20
12.410620537
 30
0.0
 10
17.9068370387
 20
12.4234474775
 30
0.0
  0
SPLINE
  5
314
100
AcDbEntity
  8
0
100
AcDbSpline
 62
7
  6
CONTINUOUS
 70
0
 71
3
 72
11
 73
7
 74
0
 42
0.0000001
 43
0.0000001
 44
0.0000000001
 40
0.0
 40
0.0
 40
0.0
 40
0.0
 40
0.256300421
 40
0.5072475768
 40
0.7545242363
 40
1.0
 40
1.0
 40
1.0
 40
1.0
 10
16.8976686991
 20
13.5065120657
 30
0.0
 10
16.9029646211
 20
13.5118560522
 30
0.0
 10
16.9128873152
 20
13.523007359
 30
0.0
 10
16.9256216805
 20
13.5411918122
 30
0.0
 10
16.935905069
 20
13.5605102737
 30
0.0
 10
16.9410604883
 20
13.574073827
 30
0.0
 10
16.9431880035
 20
13.5809584687
 30
0.0
  0
SPLINE
  5
315
100
AcDbEntity
  8
0
100
AcDbSpline
 62
7
  6
CONTINUOUS
 70
0
 71
3
 72
25
 73
21
 74
0
 42
0.0000001
 43
0.0000001
 44
0.0000000001
 40
0.0
 40
0.0
 40
0.0
 40
0.0
 40
0.0230100025
 40
0.0461019109
 40
0.0693994211
 40
0.0930173034
 40
0.1415659145
 40
0.1924485734
 40
0.2461824096
 40
0.3030816208
 40
0.3632570136
 40
0.4266313202
 40
0.4929751241
 40
0.5619212602
 40
0.633006145
 40
0.7056870144
 40
0.7793568584
 40
0.853388262
 40
0.9271715172
 40
1.0
 40
1.0
 40
1.0
 40
1.0
 10
17.794692373
 20
11.8457750003
 30
0.0
 10
17.7930131677
 20
11.8403410898
 30
0.0
 10
17.789098292
 20
11.8296155302
 30
0.0
 10
17.7816356699
 20
11.8141412586
 30
0.0
 10
17.7726251218
 20
11.7993357881
 30
0.0
 10
17.7584860753
 20
11.7804077697
 30
0.0
 10
17.737007803
 20
11.7586373657
 30
0.0
 10
17.7062724626
 20
11.7362900029
 30
0.0
 10
17.6708548826
 20
11.7176081813
 30
0.0
 10
17.6312540928
 20
11.7026964129
 30
0.0
 10
17.5879630111
 20
11.6916367654
 30
0.0
 10
17.5415063313
 20
11.6844905866
 30
0.0
 10
17.492447742
 20
11.6813065994
 30
0.0
 10
17.4413929205
 20
11.6820908477
 30
0.0
 10
17.3889830128
 20
11.6868183136
 30
0.0
 10
17.3358883936
 20
11.6954215131
 30
0.0
 10
17.2827930919
 20
11.7077744874
 30
0.0
 10
17.2303795797
 20
11.7237229365
 30
0.0
 10
17.1793437587
 20
11.7430581889
 30
0.0
 10
17.1463704835
 20
11.7581732341
 30
0.0
 10
17.1302833271
 20
11.766250855
 30
0.0
  0
SPLINE
  5
316
100
AcDbEntity
  8
0
100
AcDbSpline
 62
7
  6
CONTINUOUS
 70
0
 71
3
 72
30
 73
26
 74
0
 42
0.0000001
 43
0.0000001
 44
0.0000000001
 40
0.0
 40
0.0
 40
0.0
 40
0.0
 40
0.0214552593
 40
0.0432083406
 40
0.0655334292
 40
0.088673703
 40
0.1380539813
 40
0.1646157661
 40
0.1924833215
 40
0.2521181607
 40
0.3167130088
 40
0.3506754172
 40
0.3855802703
 40
0.4576472604
 40
0.5317236473
 40
0.6064803059
 40
0.6805455339
 40
0.7525922746
 40
0.7874846312
 40
0.8214295165
 40
0.8543025905
 40
0.886011688
 40
0.9456313642
 40
0.9734897798
 40
1.0
 40
1.0
 40
1.0
 40
1.0
 10
17.5203722367
 20
11.9355747239
 30
0.0
 10
17.5193506502
 20
11.9322713194
 30
0.0
 10
17.5168046296
 20
11.9257592038
 30
0.0
 10
17.51158229
 20
11.9165416238
 30
0.0
 10
17.5049819535
 20
11.9079092434
 30
0.0
 10
17.4941844364
 20
11.8970407843
 30
0.0
 10
17.4809481479
 20
11.8878413263
 30
0.0
 10
17.4659668388
 20
11.8803655356
 30
0.0
 10
17.4488329494
 20
11.8736403404
 30
0.0
 10
17.4249854371
 20
11.8675567422
 30
0.0
 10
17.3995919374
 20
11.8646287575
 30
0.0
 10
17.3780820651
 20
11.8640298906
 30
0.0
 10
17.3553671873
 20
11.8646594653
 30
0.0
 10
17.3263037883
 20
11.8678082328
 30
0.0
 10
17.2914021299
 20
11.8750882452
 30
0.0
 10
17.257032952
 20
11.8857227019
 30
0.0
 10
17.2241240505
 20
11.899425505
 30
0.0
 10
17.1983688224
 20
11.9132411257
 30
0.0
 10
17.1792768117
 20
11.9255480498
 30
0.0
 10
17.1660062579
 20
11.935185113
 30
0.0
 10
17.1537251521
 20
11.9452682924
 30
0.0
 10
17.1390834125
 20
11.9589277171
 30
0.0
 10
17.1263597792
 20
11.9734334775
 30
0.0
 10
17.1160367732
 20
11.9886508945
 30
0.0
 10
17.1117742676
 20
11.9963245168
 30
0.0
 10
17.1098920807
 20
12.0001600103
 30
0.0
  0
SPLINE
  5
317
100
AcDbEntity
  8
0
100
AcDbSpline
 62
7
  6
CONTINUOUS
 70
0
 71
3
 72
9
 73
5
 74
0
 42
0.0000001
 43
0.0000001
 44
0.0000000001
 40
0.0
 40
0.0
 40
0.0
 40
0.0
 40
0.2583562671
 40
1.0
 40
1.0
 40
1.0
 40
1.0
 10
17.4979909176
 20
12.0252395853
 30
0.0
 10
17.4997315595
 20
12.0233347333
 30
0.0
 10
17.5063385456
 20
12.0158446467
 30
0.0
 10
17.5124075787
 20
12.0078725616
 30
0.0
 10
17.5165041428
 20
12.001701198
 30
0.0
  0
SPLINE
  5
318
100
AcDbEntity
  8
0
100
AcDbSpline
 62
7
  6
CONTINUOUS
 70
0
 71
3
 72
9
 73
5
 74
0
 42
0.0000001
 43
0.0000001
 44
0.0000000001
 40
0.0
 40
0.0
 40
0.0
 40
0.0
 40
0.2567074215
 40
1.0
 40
1.0
 40
1.0
 40
1.0
 10
17.5165041428
 20
12.001701198
 30
0.0
 10
17.5174447504
 20
12.0002841979
 30
0.0
 10
17.5210259243
 20
11.994710035
 30
0.0
 10
17.5242666773
 20
11.988914411
 30
0.0
 10
17.526436159
 20
11.9844934721
 30
0.0
  0
SPLINE
  5
319
100
AcDbEntity
  8
0
100
AcDbSpline
 62
7
  6
CONTINUOUS
 70
0
 71
3
 72
15
 73
11
 74
0
 42
0.0000001
 43
0.0000001
 44
0.0000000001
 40
0.0
 40
0.0
 40
0.0
 40
0.0
 40
0.1240328238
 40
0.2566564912
 40
0.3943323686
 40
0.5318180034
 40
0.6641587954
 40
0.7876424465
 40
0.899569081
 40
1.0
 40
1.0
 40
1.0
 40
1.0
 10
15.8293739876
 20
13.7630829327
 30
0.0
 10
15.8309471595
 20
13.7622475231
 30
0.0
 10
15.8340810737
 20
13.7602820281
 30
0.0
 10
15.8384371444
 20
13.7566342312
 30
0.0
 10
15.8423378866
 20
13.7522380825
 30
0.0
 10
15.8455555388
 20
13.747320375
 30
0.0
 10
15.8478191866
 20
13.7421160458
 30
0.0
 10
15.8490808943
 20
13.7369565405
 30
0.0
 10
15.8492914731
 20
13.7321070701
 30
0.0
 10
15.8488003581
 20
13.7290703886
 30
0.0
 10
15.8484093776
 20
13.7276821103
 30
0.0
  0
SPLINE
  5
31A
100
AcDbEntity
  8
0
100
AcDbSpline
 62
7
  6
CONTINUOUS
 70
0
 71
3
 72
15
 73
11
 74
0
 42
0.0000001
 43
0.0000001
 44
0.0000000001
 40
0.0
 40
0.0
 40
0.0
 40
0.0
 40
0.2112177049
 40
0.2716991967
 40
0.3348761075
 40
0.4675718391
 40
0.6053800496
 40
0.7432241916
 40
0.8759656618
 40
1.0
 40
1.0
 40
1.0
 40
1.0
 10
16.0866718659
 20
13.987923304
 30
0.0
 10
16.0874944283
 20
13.9908514755
 30
0.0
 10
16.0876384317
 20
13.9949137532
 30
0.0
 10
16.086734499
 20
13.999646838
 30
0.0
 10
16.0857100739
 20
14.003200109
 30
0.0
 10
16.0837555005
 20
14.0076171719
 30
0.0
 10
16.0805205448
 20
14.012555782
 30
0.0
 10
16.0765758596
 20
14.0169476311
 30
0.0
 10
16.0721903335
 20
14.0205892606
 30
0.0
 10
16.0690388581
 20
14.0225493467
 30
0.0
 10
16.0674574824
 20
14.0233796098
 30
0.0
  0
SPLINE
  5
31B
100
AcDbEntity
  8
0
100
AcDbSpline
 62
7
  6
CONTINUOUS
 70
0
 71
3
 72
22
 73
18
 74
0
 42
0.0000001
 43
0.0000001
 44
0.0000000001
 40
0.0
 40
0.0
 40
0.0
 40
0.0
 40
0.0654886722
 40
0.1282098024
 40
0.1884265987
 40
0.2465271788
 40
0.3030837959
 40
0.3587600804
 40
0.4142680048
 40
0.4703174142
 40
0.5275756935
 40
0.586651725
 40
0.6480525455
 40
0.7121732382
 40
0.7793117141
 40
0.8496419346
 40
1.0
 40
1.0
 40
1.0
 40
1.0
 10
16.2477644012
 20
13.6939208849
 30
0.0
 10
16.2458874525
 20
13.6977457042
 30
0.0
 10
16.2425586294
 20
13.7054111293
 30
0.0
 10
16.2388545208
 20
13.7171205563
 30
0.0
 10
16.2365810017
 20
13.7287050455
 30
0.0
 10
16.2357753614
 20
13.740084095
 30
0.0
 10
16.2364407354
 20
13.7511785653
 30
0.0
 10
16.2385731915
 20
13.7619165152
 30
0.0
 10
16.2421676822
 20
13.7722226845
 30
0.0
 10
16.2471900764
 20
13.782027663
 30
0.0
 10
16.2536023683
 20
13.7912673613
 30
0.0
 10
16.2613661022
 20
13.799875494
 30
0.0
 10
16.2704202385
 20
13.8078040256
 30
0.0
 10
16.2807034088
 20
13.8150092507
 30
0.0
 10
16.2921550881
 20
13.8214431043
 30
0.0
 10
16.309255074
 20
13.8291191452
 30
0.0
 10
16.3230556927
 20
13.8333383186
 30
0.0
 10
16.3325780641
 20
13.8355767925
 30
0.0
  0
SPLINE
  5
31C
100
AcDbEntity
  8
0
100
AcDbSpline
 62
7
  6
CONTINUOUS
 70
0
 71
3
 72
36
 73
32
 74
0
 42
0.0000001
 43
0.0000001
 44
0.0000000001
 40
0.0
 40
0.0
 40
0.0
 40
0.0
 40
0.0262315297
 40
0.0511104732
 40
0.074824481
 40
0.0976819692
 40
0.1200854303
 40
0.142474319
 40
0.1652798786
 40
0.1888956895
 40
0.2136496719
 40
0.2397848426
 40
0.2674648921
 40
0.2967640461
 40
0.3276959688
 40
0.360209269
 40
0.3942029009
 40
0.4295400379
 40
0.5034771063
 40
0.541693457
 40
0.5804180658
 40
0.6194060191
 40
0.6584040139
 40
0.697159531
 40
0.7354279648
 40
0.8095299271
 40
0.8790358369
 40
0.9116784688
 40
0.9427607805
 40
0.9722142818
 40
1.0
 40
1.0
 40
1.0
 40
1.0
 10
16.6875710258
 20
13.6939208849
 30
0.0
 10
16.689883698
 20
13.6892081545
 30
0.0
 10
16.6938686487
 20
13.6797547626
 30
0.0
 10
16.697853634
 20
13.6652730238
 30
0.0
 10
16.69960982
 20
13.6510252854
 30
0.0
 10
16.6990935445
 20
13.637168887
 30
0.0
 10
16.6963102499
 20
13.623851298
 30
0.0
 10
16.6912740911
 20
13.611223691
 30
0.0
 10
16.6840626204
 20
13.5994187454
 30
0.0
 10
16.6747505753
 20
13.5885654288
 30
0.0
 10
16.6634511867
 20
13.5787632338
 30
0.0
 10
16.6502855298
 20
13.5700918598
 30
0.0
 10
16.6353796466
 20
13.5626336876
 30
0.0
 10
16.6188826551
 20
13.5564382053
 30
0.0
 10
16.6009458873
 20
13.5515716617
 30
0.0
 10
16.5817418651
 20
13.5480692698
 30
0.0
 10
16.5614500929
 20
13.5459624929
 30
0.0
 10
16.5327749482
 20
13.5450348667
 30
0.0
 10
16.5032330973
 20
13.5470311503
 30
0.0
 10
16.4733912188
 20
13.5517028599
 30
0.0
 10
16.4507008871
 20
13.5566068937
 30
0.0
 10
16.4281754297
 20
13.5628278266
 30
0.0
 10
16.4060260596
 20
13.5702978738
 30
0.0
 10
16.3844674802
 20
13.5789559784
 30
0.0
 10
16.3570817753
 20
13.591822732
 30
0.0
 10
16.3255402989
 20
13.610174002
 30
0.0
 10
16.2975011912
 20
13.6317860588
 30
0.0
 10
16.2783971694
 20
13.6504229104
 30
0.0
 10
16.2661762568
 20
13.6645411105
 30
0.0
 10
16.2558873131
 20
13.6789452203
 30
0.0
 10
16.2502140965
 20
13.6889289306
 30
0.0
 10
16.2477644012
 20
13.6939208849
 30
0.0
  0
SPLINE
  5
31D
100
AcDbEntity
  8
0
100
AcDbSpline
 62
7
  6
CONTINUOUS
 70
0
 71
3
 72
16
 73
12
 74
0
 42
0.0000001
 43
0.0000001
 44
0.0000000001
 40
0.0
 40
0.0
 40
0.0
 40
0.0
 40
0.1306637705
 40
0.2615760578
 40
0.391718595
 40
0.5201798222
 40
0.6460406804
 40
0.7684446173
 40
0.8866573829
 40
0.9439876192
 40
1.0
 40
1.0
 40
1.0
 40
1.0
 10
15.6813725407
 20
13.6190476861
 30
0.0
 10
15.7269844506
 20
13.608567004
 30
0.0
 10
15.8176802067
 20
13.584804646
 30
0.0
 10
15.9511122116
 20
13.541176503
 30
0.0
 10
16.0809561629
 20
13.4899016233
 30
0.0
 10
16.2057862834
 20
13.4315531156
 30
0.0
 10
16.3242510514
 20
13.3667534233
 30
0.0
 10
16.435066086
 20
13.2962137411
 30
0.0
 10
16.5209068053
 20
13.2326302146
 30
0.0
 10
16.5845976767
 20
13.1794800854
 30
0.0
 10
16.6147146281
 20
13.1522371121
 30
0.0
 10
16.6293034643
 20
13.1384654036
 30
0.0
  0
SPLINE
  5
31E
100
AcDbEntity
  8
0
100
AcDbSpline
 62
7
  6
CONTINUOUS
 70
0
 71
3
 72
13
 73
9
 74
0
 42
0.0000001
 43
0.0000001
 44
0.0000000001
 40
0.0
 40
0.0
 40
0.0
 40
0.0
 40
0.2711952982
 40
0.5251947347
 40
0.6469921354
 40
0.7661612324
 40
0.8835343107
 40
1.0
 40
1.0
 40
1.0
 40
1.0
 10
16.2710269475
 20
13.7095874231
 30
0.0
 10
16.2683758148
 20
13.7149898636
 30
0.0
 10
16.2639803503
 20
13.7258414192
 30
0.0
 10
16.260891366
 20
13.73994976
 30
0.0
 10
16.2601415076
 20
13.7509240783
 30
0.0
 10
16.2604044373
 20
13.7588859334
 30
0.0
 10
16.2614832879
 20
13.7666587091
 30
0.0
 10
16.2627474232
 20
13.771703682
 30
0.0
 10
16.2635109765
 20
13.7741727095
 30
0.0
  0
SPLINE
  5
31F
100
AcDbEntity
  8
0
100
AcDbSpline
 62
7
  6
CONTINUOUS
 70
0
 71
3
 72
14
 73
10
 74
0
 42
0.0000001
 43
0.0000001
 44
0.0000000001
 40
0.0
 40
0.0
 40
0.0
 40
0.0
 40
0.2456960082
 40
0.3693204401
 40
0.4936263488
 40
0.6187613592
 40
0.744918583
 40
0.8720620451
 40
1.0
 40
1.0
 40
1.0
 40
1.0
 10
15.5885301652
 20
13.6549317792
 30
0.0
 10
15.5959847794
 20
13.651602142
 30
0.0
 10
15.6071648031
 20
13.6465402074
 30
0.0
 10
15.6221783173
 20
13.6399323694
 30
0.0
 10
15.6335896767
 20
13.635086944
 30
0.0
 10
15.6451790541
 20
13.6304510153
 30
0.0
 10
15.6569815757
 20
13.6261041713
 30
0.0
 10
15.6690320183
 20
13.622182976
 30
0.0
 10
15.6772291681
 20
13.6199997482
 30
0.0
 10
15.6813725407
 20
13.6190476861
 30
0.0
  0
SPLINE
  5
320
100
AcDbEntity
  8
0
100
AcDbSpline
 62
7
  6
CONTINUOUS
 70
0
 71
3
 72
12
 73
8
 74
0
 42
0.0000001
 43
0.0000001
 44
0.0000000001
 40
0.0
 40
0.0
 40
0.0
 40
0.0
 40
0.2466667843
 40
0.5222690611
 40
0.6580618926
 40
0.7851053839
 40
1.0
 40
1.0
 40
1.0
 40
1.0
 10
15.5256572333
 20
13.7242161134
 30
0.0
 10
15.5244615153
 20
13.7241999563
 30
0.0
 10
15.5219287598
 20
13.7237813663
 30
0.0
 10
15.5189836331
 20
13.7224538081
 30
0.0
 10
15.5168706213
 20
13.7209044993
 30
0.0
 10
15.515225696
 20
13.7192690111
 30
0.0
 10
15.5143228577
 20
13.7178243718
 30
0.0
 10
15.5139728474
 20
13.7168431304
 30
0.0
  0
SPLINE
  5
321
100
AcDbEntity
  8
0
100
AcDbSpline
 62
7
  6
CONTINUOUS
 70
0
 71
3
 72
11
 73
7
 74
0
 42
0.0000001
 43
0.0000001
 44
0.0000000001
 40
0.0
 40
0.0
 40
0.0
 40
0.0
 40
0.2420701327
 40
0.4906080494
 40
0.7444166411
 40
1.0
 40
1.0
 40
1.0
 40
1.0
 10
15.3953352841
 20
13.3012196737
 30
0.0
 10
15.3961911049
 20
13.3008777935
 30
0.0
 10
15.3979712761
 20
13.3002926058
 30
0.0
 10
15.400768608
 20
13.2997817781
 30
0.0
 10
15.4036607615
 20
13.2996744268
 30
0.0
 10
15.4056003412
 20
13.2999055896
 30
0.0
 10
15.4065472515
 20
13.3001295139
 30
0.0
  0
SPLINE
  5
322
100
AcDbEntity
  8
0
100
AcDbSpline
 62
7
  6
CONTINUOUS
 70
0
 71
3
 72
11
 73
7
 74
0
 42
0.0000001
 43
0.0000001
 44
0.0000000001
 40
0.0
 40
0.0
 40
0.0
 40
0.0
 40
0.2165217354
 40
0.4581270713
 40
0.7205777229
 40
1.0
 40
1.0
 40
1.0
 40
1.0
 10
14.8214226311
 20
13.3001295139
 30
0.0
 10
14.8220643932
 20
13.2998918581
 30
0.0
 10
14.8235217979
 20
13.2996701004
 30
0.0
 10
14.8258023391
 20
13.2997992063
 30
0.0
 10
14.8282317518
 20
13.3003246218
 30
0.0
 10
14.8298518815
 20
13.3008905303
 30
0.0
 10
14.8306714162
 20
13.3012196737
 30
0.0
  0
SPLINE
  5
323
100
AcDbEntity
  8
0
100
AcDbSpline
 62
7
  6
CONTINUOUS
 70
0
 71
3
 72
15
 73
11
 74
0
 42
0.0000001
 43
0.0000001
 44
0.0000000001
 40
0.0
 40
0.0
 40
0.0
 40
0.0
 40
0.0909223202
 40
0.2027909469
 40
0.3328521439
 40
0.4744561464
 40
0.6198157753
 40
0.7605039264
 40
0.8887370491
 40
1.0
 40
1.0
 40
1.0
 40
1.0
 10
14.6092917414
 20
13.7630829654
 30
0.0
 10
14.6084117705
 20
13.7621735316
 30
0.0
 10
14.6065425711
 20
13.7600548121
 30
0.0
 10
14.6036883236
 20
13.7564034349
 30
0.0
 10
14.6006161093
 20
13.7520356307
 30
0.0
 10
14.5974740591
 20
13.7471535429
 30
0.0
 10
14.5944606123
 20
13.7420188381
 30
0.0
 10
14.5917284879
 20
13.7369394857
 30
0.0
 10
14.5894151204
 20
13.732178912
 30
0.0
 10
14.5880884484
 20
13.7291193111
 30
0.0
 10
14.587512574
 20
13.7276817938
 30
0.0
  0
SPLINE
  5
324
100
AcDbEntity
  8
0
100
AcDbSpline
 62
7
  6
CONTINUOUS
 70
0
 71
3
 72
15
 73
11
 74
0
 42
0.0000001
 43
0.0000001
 44
0.0000000001
 40
0.0
 40
0.0
 40
0.0
 40
0.0
 40
0.0904776589
 40
0.2020840694
 40
0.3320905768
 40
0.4738051304
 40
0.6193738807
 40
0.7602876529
 40
0.8886781408
 40
1.0
 40
1.0
 40
1.0
 40
1.0
 10
14.1617977772
 20
14.0233796099
 30
0.0
 10
14.1609170665
 20
14.0224747572
 30
0.0
 10
14.1590442383
 20
14.0203621243
 30
0.0
 10
14.1561813419
 20
14.0167150456
 30
0.0
 10
14.1530942588
 20
14.0123435069
 30
0.0
 10
14.1499325724
 20
14.0074509403
 30
0.0
 10
14.1468974624
 20
14.0023014084
 30
0.0
 10
14.144144089
 20
13.997206353
 30
0.0
 10
14.1418120234
 20
13.9924320593
 30
0.0
 10
14.1404740424
 20
13.9893642242
 30
0.0
 10
14.1398931607
 20
13.9879233051
 30
0.0
  0
SPLINE
  5
325
100
AcDbEntity
  8
0
100
AcDbSpline
 62
7
  6
CONTINUOUS
 70
0
 71
3
 72
9
 73
5
 74
0
 42
0.0000001
 43
0.0000001
 44
0.0000000001
 40
0.0
 40
0.0
 40
0.0
 40
0.0
 40
0.2557998627
 40
1.0
 40
1.0
 40
1.0
 40
1.0
 10
14.8200045188
 20
13.9983802392
 30
0.0
 10
14.8203983136
 20
13.9983760685
 30
0.0
 10
14.8219319923
 20
13.998279367
 30
0.0
 10
14.823473335
 20
13.9978227121
 30
0.0
 10
14.8244430642
 20
13.9972125224
 30
0.0
  0
SPLINE
  5
326
100
AcDbEntity
  8
0
100
AcDbSpline
 62
7
  6
CONTINUOUS
 70
0
 71
3
 72
12
 73
8
 74
0
 42
0.0000001
 43
0.0000001
 44
0.0000000001
 40
0.0
 40
0.0
 40
0.0
 40
0.0
 40
0.24650168
 40
0.5222062795
 40
0.6580800279
 40
0.7851729501
 40
1.0
 40
1.0
 40
1.0
 40
1.0
 10
15.4092412654
 20
13.9983802403
 30
0.0
 10
15.4080435703
 20
13.9983676549
 30
0.0
 10
15.4055041039
 20
13.9979544026
 30
0.0
 10
15.4025494903
 20
13.9966293719
 30
0.0
 10
15.4004281661
 20
13.9950792943
 30
0.0
 10
15.3987769707
 20
13.9934421575
 30
0.0
 10
15.3978704591
 20
13.9919951038
 30
0.0
 10
15.3975192811
 20
13.9910120967
 30
0.0
  0
SPLINE
  5
327
100
AcDbEntity
  8
0
100
AcDbSpline
 62
7
  6
CONTINUOUS
 70
0
 71
3
 72
13
 73
9
 74
0
 42
0.0000001
 43
0.0000001
 44
0.0000000001
 40
0.0
 40
0.0
 40
0.0
 40
0.0
 40
0.1375309899
 40
0.2700584166
 40
0.3984030818
 40
0.5232557172
 40
0.7651228439
 40
1.0
 40
1.0
 40
1.0
 40
1.0
 10
16.6293034643
 20
13.1384654036
 30
0.0
 10
16.6318861321
 20
13.1360273923
 30
0.0
 10
16.6371269483
 20
13.131416807
 30
0.0
 10
16.645248999
 20
13.1250945335
 30
0.0
 10
16.6533748469
 20
13.1193290561
 30
0.0
 10
16.6640424745
 20
13.1122794781
 30
0.0
 10
16.6773225218
 20
13.1042101884
 30
0.0
 10
16.6879520638
 20
13.0979992804
 30
0.0
 10
16.6931674476
 20
13.0949024634
 30
0.0
  0
SPLINE
  5
328
100
AcDbEntity
  8
0
100
AcDbSpline
 62
7
  6
CONTINUOUS
 70
0
 71
3
 72
30
 73
26
 74
0
 42
0.0000001
 43
0.0000001
 44
0.0000000001
 40
0.0
 40
0.0
 40
0.0
 40
0.0
 40
0.0214552593
 40
0.0432083406
 40
0.0655334292
 40
0.088673703
 40
0.1380539813
 40
0.1646157661
 40
0.1924833215
 40
0.2521181607
 40
0.3167130088
 40
0.3506754172
 40
0.3855802703
 40
0.4576472604
 40
0.5317236473
 40
0.6064803059
 40
0.6805455339
 40
0.7525922746
 40
0.7874846312
 40
0.8214295165
 40
0.8543025905
 40
0.886011688
 40
0.9456313642
 40
0.9734897798
 40
1.0
 40
1.0
 40
1.0
 40
1.0
 10
16.6815071034
 20
13.6450021367
 30
0.0
 10
16.6804855169
 20
13.6416987321
 30
0.0
 10
16.6779394964
 20
13.6351866165
 30
0.0
 10
16.6727171568
 20
13.6259690365
 30
0.0
 10
16.6661168202
 20
13.6173366562
 30
0.0
 10
16.6553193032
 20
13.6064681971
 30
0.0
 10
16.6420830147
 20
13.5972687391
 30
0.0
 10
16.6271017055
 20
13.5897929484
 30
0.0
 10
16.6099678162
 20
13.5830677531
 30
0.0
 10
16.5861203039
 20
13.5769841549
 30
0.0
 10
16.5607268042
 20
13.5740561703
 30
0.0
 10
16.5392169318
 20
13.5734573034
 30
0.0
 10
16.5165020541
 20
13.574086878
 30
0.0
 10
16.4874386551
 20
13.5772356455
 30
0.0
 10
16.4525369966
 20
13.5845156579
 30
0.0
 10
16.4181678187
 20
13.5951501147
 30
0.0
 10
16.3852589173
 20
13.6088529177
 30
0.0
 10
16.3595036892
 20
13.6226685384
 30
0.0
 10
16.3404116784
 20
13.6349754625
 30
0.0
 10
16.3271411247
 20
13.6446125257
 30
0.0
 10
16.3148600188
 20
13.6546957052
 30
0.0
 10
16.3002182792
 20
13.6683551298
 30
0.0
 10
16.2874946459
 20
13.6828608902
 30
0.0
 10
16.2771716399
 20
13.6980783072
 30
0.0
 10
16.2729091343
 20
13.7057519296
 30
0.0
 10
16.2710269475
 20
13.7095874231
 30
0.0
  0
SPLINE
  5
329
100
AcDbEntity
  8
0
100
AcDbSpline
 62
7
  6
CONTINUOUS
 70
0
 71
3
 72
15
 73
11
 74
0
 42
0.0000001
 43
0.0000001
 44
0.0000000001
 40
0.0
 40
0.0
 40
0.0
 40
0.0
 40
0.1136499789
 40
0.2434103065
 40
0.384693649
 40
0.5300138226
 40
0.6709366775
 40
0.7996012727
 40
0.9100859138
 40
1.0
 40
1.0
 40
1.0
 40
1.0
 10
17.562478956
 20
12.2527398082
 30
0.0
 10
17.5628232469
 20
12.2542900915
 30
0.0
 10
17.5636863228
 20
12.2575829015
 30
0.0
 10
17.5653532
 20
12.2626961377
 30
0.0
 10
17.5674671769
 20
12.2681197241
 30
0.0
 10
17.5699372449
 20
12.2735624018
 30
0.0
 10
17.5726288824
 20
12.2787009025
 30
0.0
 10
17.575378334
 20
12.2832495479
 30
0.0
 10
17.5780369157
 20
12.2870057347
 30
0.0
 10
17.5798479298
 20
12.2891494265
 30
0.0
 10
17.5807208472
 20
12.2900530438
 30
0.0
  0
SPLINE
  5
32A
100
AcDbEntity
  8
0
100
AcDbSpline
 62
7
  6
CONTINUOUS
 70
0
 71
3
 72
15
 73
11
 74
0
 42
0.0000001
 43
0.0000001
 44
0.0000000001
 40
0.0
 40
0.0
 40
0.0
 40
0.0
 40
0.0903232297
 40
0.201124681
 40
0.3300198118
 40
0.4707184969
 40
0.6157524914
 40
0.7568954616
 40
0.8864850634
 40
1.0
 40
1.0
 40
1.0
 40
1.0
 10
17.1152733216
 20
12.4925996803
 30
0.0
 10
17.1144024848
 20
12.4916909277
 30
0.0
 10
17.1125946873
 20
12.4895416475
 30
0.0
 10
17.1099414935
 20
12.4857806607
 30
0.0
 10
17.1072035601
 20
12.4812371031
 30
0.0
 10
17.1045146005
 20
12.4761195951
 30
0.0
 10
17.1020569435
 20
12.4706992312
 30
0.0
 10
17.0999414353
 20
12.4653024993
 30
0.0
 10
17.0982731267
 20
12.4602116836
 30
0.0
 10
17.0974085522
 20
12.4569333829
 30
0.0
 10
17.0970624184
 20
12.4553898986
 30
0.0
  0
SPLINE
  5
32B
100
AcDbEntity
  8
0
100
AcDbSpline
 62
7
  6
CONTINUOUS
 70
0
 71
3
 72
22
 73
18
 74
0
 42
0.0000001
 43
0.0000001
 44
0.0000000001
 40
0.0
 40
0.0
 40
0.0
 40
0.0
 40
0.0654886722
 40
0.1282098024
 40
0.1884265987
 40
0.2465271788
 40
0.3030837959
 40
0.3587600804
 40
0.4142680048
 40
0.4703174142
 40
0.5275756935
 40
0.586651725
 40
0.6480525455
 40
0.7121732382
 40
0.7793117141
 40
0.8496419346
 40
1.0
 40
1.0
 40
1.0
 40
1.0
 10
17.0866295344
 20
11.9844934721
 30
0.0
 10
17.0847525857
 20
11.9883182915
 30
0.0
 10
17.0814237626
 20
11.9959837166
 30
0.0
 10
17.077719654
 20
12.0076931435
 30
0.0
 10
17.075446135
 20
12.0192776327
 30
0.0
 10
17.0746404946
 20
12.0306566823
 30
0.0
 10
17.0753058686
 20
12.0417511526
 30
0.0
 10
17.0774383247
 20
12.0524891025
 30
0.0
 10
17.0810328154
 20
12.0627952717
 30
0.0
 10
17.0860552096
 20
12.0726002502
 30
0.0
 10
17.0924675016
 20
12.0818399485
 30
0.0
 10
17.1002312355
 20
12.0904480813
 30
0.0
 10
17.1092853718
 20
12.0983766128
 30
0.0
 10
17.1195685421
 20
12.105581838
 30
0.0
 10
17.1310202213
 20
12.1120156916
 30
0.0
 10
17.1481202073
 20
12.1196917324
 30
0.0
 10
17.161920826
 20
12.1239109058
 30
0.0
 10
17.1714431973
 20
12.1261493797
 30
0.0
  0
SPLINE
  5
32C
100
AcDbEntity
  8
0
100
AcDbSpline
 62
7
  6
CONTINUOUS
 70
0
 71
3
 72
36
 73
32
 74
0
 42
0.0000001
 43
0.0000001
 44
0.0000000001
 40
0.0
 40
0.0
 40
0.0
 40
0.0
 40
0.0262315297
 40
0.0511104732
 40
0.074824481
 40
0.0976819692
 40
0.1200854303
 40
0.142474319
 40
0.1652798786
 40
0.1888956895
 40
0.2136496719
 40
0.2397848426
 40
0.2674648921
 40
0.2967640461
 40
0.3276959688
 40
0.360209269
 40
0.3942029009
 40
0.4295400379
 40
0.5034771063
 40
0.541693457
 40
0.5804180658
 40
0.6194060191
 40
0.6584040139
 40
0.697159531
 40
0.7354279648
 40
0.8095299271
 40
0.8790358369
 40
0.9116784688
 40
0.9427607805
 40
0.9722142818
 40
1.0
 40
1.0
 40
1.0
 40
1.0
 10
17.526436159
 20
11.9844934721
 30
0.0
 10
17.5287488312
 20
11.9797807418
 30
0.0
 10
17.5327337819
 20
11.9703273498
 30
0.0
 10
17.5367187673
 20
11.955845611
 30
0.0
 10
17.5384749532
 20
11.9415978727
 30
0.0
 10
17.5379586778
 20
11.9277414742
 30
0.0
 10
17.5351753832
 20
11.9144238853
 30
0.0
 10
17.5301392243
 20
11.9017962782
 30
0.0
 10
17.5229277537
 20
11.8899913327
 30
0.0
 10
17.5136157086
 20
11.8791380161
 30
0.0
 10
17.5023163199
 20
11.8693358211
 30
0.0
 10
17.489150663
 20
11.860664447
 30
0.0
 10
17.4742447798
 20
11.8532062749
 30
0.0
 10
17.4577477883
 20
11.8470107926
 30
0.0
 10
17.4398110206
 20
11.842144249
 30
0.0
 10
17.4206069984
 20
11.838641857
 30
0.0
 10
17.4003152261
 20
11.8365350802
 30
0.0
 10
17.3716400814
 20
11.835607454
 30
0.0
 10
17.3420982306
 20
11.8376037376
 30
0.0
 10
17.3122563521
 20
11.8422754472
 30
0.0
 10
17.2895660203
 20
11.847179481
 30
0.0
 10
17.2670405629
 20
11.8534004139
 30
0.0
 10
17.2448911928
 20
11.860870461
 30
0.0
 10
17.2233326135
 20
11.8695285656
 30
0.0
 10
17.1959469085
 20
11.8823953193
 30
0.0
 10
17.1644054321
 20
11.9007465893
 30
0.0
 10
17.1363663244
 20
11.922358646
 30
0.0
 10
17.1172623026
 20
11.9409954977
 30
0.0
 10
17.10504139
 20
11.9551136978
 30
0.0
 10
17.0947524463
 20
11.9695178075
 30
0.0
 10
17.0890792298
 20
11.9795015178
 30
0.0
 10
17.0866295344
 20
11.9844934721
 30
0.0
  0
SPLINE
  5
32D
100
AcDbEntity
  8
0
100
AcDbSpline
 62
7
  6
CONTINUOUS
 70
0
 71
3
 72
13
 73
9
 74
0
 42
0.0000001
 43
0.0000001
 44
0.0000000001
 40
0.0
 40
0.0
 40
0.0
 40
0.0
 40
0.2711952982
 40
0.5251947347
 40
0.6469921354
 40
0.7661612324
 40
0.8835343107
 40
1.0
 40
1.0
 40
1.0
 40
1.0
 10
17.1098920807
 20
12.0001600103
 30
0.0
 10
17.107240948
 20
12.0055624509
 30
0.0
 10
17.1028454835
 20
12.0164140065
 30
0.0
 10
17.0997564992
 20
12.0305223472
 30
0.0
 10
17.0990066409
 20
12.0414966656
 30
0.0
 10
17.0992695705
 20
12.0494585207
 30
0.0
 10
17.1003484211
 20
12.0572312964
 30
0.0
 10
17.1016125565
 20
12.0622762693
 30
0.0
 10
17.1023761097
 20
12.0647452968
 30
0.0
  0
SPLINE
  5
32E
100
AcDbEntity
  8
0
100
AcDbSpline
 62
7
  6
CONTINUOUS
 70
0
 71
3
 72
12
 73
8
 74
0
 42
0.0000001
 43
0.0000001
 44
0.0000000001
 40
0.0
 40
0.0
 40
0.0
 40
0.0
 40
0.1055258982
 40
0.2206558914
 40
0.4688138128
 40
0.7311037214
 40
1.0
 40
1.0
 40
1.0
 40
1.0
 10
16.9230126783
 20
12.5399489534
 30
0.0
 10
16.9232178326
 20
12.5425833136
 30
0.0
 10
16.9236794127
 20
12.5480892341
 30
0.0
 10
16.924714304
 20
12.5597824568
 30
0.0
 10
16.9260779981
 20
12.5753873656
 30
0.0
 10
16.9275844385
 20
12.5948441196
 30
0.0
 10
16.9284037036
 20
12.6081205671
 30
0.0
 10
16.9287454489
 20
12.61484497
 30
0.0
  0
SPLINE
  5
32F
100
AcDbEntity
  8
0
100
AcDbSpline
 62
7
  6
CONTINUOUS
 70
0
 71
3
 72
9
 73
5
 74
0
 42
0.0000001
 43
0.0000001
 44
0.0000000001
 40
0.0
 40
0.0
 40
0.0
 40
0.0
 40
0.2583562671
 40
1.0
 40
1.0
 40
1.0
 40
1.0
 10
16.6591257844
 20
13.7346669981
 30
0.0
 10
16.6608664262
 20
13.7327621461
 30
0.0
 10
16.6674734124
 20
13.7252720595
 30
0.0
 10
16.6735424454
 20
13.7172999743
 30
0.0
 10
16.6776390095
 20
13.7111286108
 30
0.0
  0
SPLINE
  5
330
100
AcDbEntity
  8
0
100
AcDbSpline
 62
7
  6
CONTINUOUS
 70
0
 71
3
 72
9
 73
5
 74
0
 42
0.0000001
 43
0.0000001
 44
0.0000000001
 40
0.0
 40
0.0
 40
0.0
 40
0.0
 40
0.2567074215
 40
1.0
 40
1.0
 40
1.0
 40
1.0
 10
16.6776390095
 20
13.7111286108
 30
0.0
 10
16.6785796172
 20
13.7097116106
 30
0.0
 10
16.682160791
 20
13.7041374477
 30
0.0
 10
16.6854015441
 20
13.6983418238
 30
0.0
 10
16.6875710258
 20
13.6939208849
 30
0.0
  0
SPLINE
  5
331
100
AcDbEntity
  8
0
100
AcDbSpline
 62
7
  6
CONTINUOUS
 70
0
 71
3
 72
9
 73
5
 74
0
 42
0.0000001
 43
0.0000001
 44
0.0000000001
 40
0.0
 40
0.0
 40
0.0
 40
0.0
 40
0.2467603725
 40
1.0
 40
1.0
 40
1.0
 40
1.0
 10
16.9495943556
 20
13.5761536133
 30
0.0
 10
16.9490049847
 20
13.5764418711
 30
0.0
 10
16.9465853084
 20
13.5775441105
 30
0.0
 10
16.9440395441
 20
13.5783774045
 30
0.0
 10
16.9420846695
 20
13.5788125347
 30
0.0
  0
SPLINE
  5
332
100
AcDbEntity
  8
0
100
AcDbSpline
 62
7
  6
CONTINUOUS
 70
0
 71
3
 72
13
 73
9
 74
0
 42
0.0000001
 43
0.0000001
 44
0.0000000001
 40
0.0
 40
0.0
 40
0.0
 40
0.0
 40
0.2711952982
 40
0.5251947347
 40
0.6469921354
 40
0.7661612324
 40
0.8835343107
 40
1.0
 40
1.0
 40
1.0
 40
1.0
 10
13.738109214
 20
13.7095874231
 30
0.0
 10
13.7354580812
 20
13.7149898636
 30
0.0
 10
13.7310626168
 20
13.7258414192
 30
0.0
 10
13.7279736325
 20
13.73994976
 30
0.0
 10
13.7272237741
 20
13.7509240783
 30
0.0
 10
13.7274867037
 20
13.7588859334
 30
0.0
 10
13.7285655544
 20
13.7666587091
 30
0.0
 10
13.7298296897
 20
13.771703682
 30
0.0
 10
13.7305932429
 20
13.7741727095
 30
0.0
  0
SPLINE
  5
333
100
AcDbEntity
  8
0
100
AcDbSpline
 62
7
  6
CONTINUOUS
 70
0
 71
3
 72
22
 73
18
 74
0
 42
0.0000001
 43
0.0000001
 44
0.0000000001
 40
0.0
 40
0.0
 40
0.0
 40
0.0
 40
0.0654886722
 40
0.1282098024
 40
0.1884265987
 40
0.2465271788
 40
0.3030837959
 40
0.3587600804
 40
0.4142680048
 40
0.4703174142
 40
0.5275756935
 40
0.586651725
 40
0.6480525455
 40
0.7121732382
 40
0.7793117141
 40
0.8496419346
 40
1.0
 40
1.0
 40
1.0
 40
1.0
 10
13.7148466677
 20
13.6939208849
 30
0.0
 10
13.712969719
 20
13.6977457042
 30
0.0
 10
13.7096408959
 20
13.7054111293
 30
0.0
 10
13.7059367873
 20
13.7171205563
 30
0.0
 10
13.7036632682
 20
13.7287050455
 30
0.0
 10
13.7028576279
 20
13.740084095
 30
0.0
 10
13.7035230019
 20
13.7511785653
 30
0.0
 10
13.705655458
 20
13.7619165152
 30
0.0
 10
13.7092499487
 20
13.7722226845
 30
0.0
 10
13.7142723429
 20
13.782027663
 30
0.0
 10
13.7206846348
 20
13.7912673613
 30
0.0
 10
13.7284483687
 20
13.799875494
 30
0.0
 10
13.737502505
 20
13.8078040256
 30
0.0
 10
13.7477856753
 20
13.8150092507
 30
0.0
 10
13.7592373546
 20
13.8214431043
 30
0.0
 10
13.7763373405
 20
13.8291191452
 30
0.0
 10
13.7901379592
 20
13.8333383186
 30
0.0
 10
13.7996603306
 20
13.8355767925
 30
0.0
  0
SPLINE
  5
334
100
AcDbEntity
  8
0
100
AcDbSpline
 62
7
  6
CONTINUOUS
 70
0
 71
3
 72
36
 73
32
 74
0
 42
0.0000001
 43
0.0000001
 44
0.0000000001
 40
0.0
 40
0.0
 40
0.0
 40
0.0
 40
0.0262315297
 40
0.0511104732
 40
0.074824481
 40
0.0976819692
 40
0.1200854303
 40
0.142474319
 40
0.1652798786
 40
0.1888956895
 40
0.2136496719
 40
0.2397848426
 40
0.2674648921
 40
0.2967640461
 40
0.3276959688
 40
0.360209269
 40
0.3942029009
 40
0.4295400379
 40
0.5034771063
 40
0.541693457
 40
0.5804180658
 40
0.6194060191
 40
0.6584040139
 40
0.697159531
 40
0.7354279648
 40
0.8095299271
 40
0.8790358369
 40
0.9116784688
 40
0.9427607805
 40
0.9722142818
 40
1.0
 40
1.0
 40
1.0
 40
1.0
 10
14.1546532923
 20
13.6939208849
 30
0.0
 10
14.1569659645
 20
13.6892081545
 30
0.0
 10
14.1609509152
 20
13.6797547626
 30
0.0
 10
14.1649359005
 20
13.6652730238
 30
0.0
 10
14.1666920865
 20
13.6510252854
 30
0.0
 10
14.166175811
 20
13.637168887
 30
0.0
 10
14.1633925164
 20
13.623851298
 30
0.0
 10
14.1583563576
 20
13.611223691
 30
0.0
 10
14.1511448869
 20
13.5994187454
 30
0.0
 10
14.1418328418
 20
13.5885654288
 30
0.0
 10
14.1305334532
 20
13.5787632338
 30
0.0
 10
14.1173677963
 20
13.5700918598
 30
0.0
 10
14.1024619131
 20
13.5626336876
 30
0.0
 10
14.0859649216
 20
13.5564382053
 30
0.0
 10
14.0680281538
 20
13.5515716617
 30
0.0
 10
14.0488241316
 20
13.5480692698
 30
0.0
 10
14.0285323593
 20
13.5459624929
 30
0.0
 10
13.9998572147
 20
13.5450348667
 30
0.0
 10
13.9703153638
 20
13.5470311503
 30
0.0
 10
13.9404734853
 20
13.5517028599
 30
0.0
 10
13.9177831536
 20
13.5566068937
 30
0.0
 10
13.8952576961
 20
13.5628278266
 30
0.0
 10
13.8731083261
 20
13.5702978738
 30
0.0
 10
13.8515497467
 20
13.5789559784
 30
0.0
 10
13.8241640418
 20
13.591822732
 30
0.0
 10
13.7926225654
 20
13.610174002
 30
0.0
 10
13.7645834577
 20
13.6317860588
 30
0.0
 10
13.7454794359
 20
13.6504229104
 30
0.0
 10
13.7332585233
 20
13.6645411105
 30
0.0
 10
13.7229695796
 20
13.6789452203
 30
0.0
 10
13.717296363
 20
13.6889289306
 30
0.0
 10
13.7148466677
 20
13.6939208849
 30
0.0
  0
SPLINE
  5
335
100
AcDbEntity
  8
0
100
AcDbSpline
 62
7
  6
CONTINUOUS
 70
0
 71
3
 72
36
 73
32
 74
0
 42
0.0000001
 43
0.0000001
 44
0.0000000001
 40
0.0
 40
0.0
 40
0.0
 40
0.0
 40
0.0599389405
 40
0.0901302731
 40
0.1204669268
 40
0.1509958564
 40
0.1817548359
 40
0.212759326
 40
0.244013893
 40
0.3071880013
 40
0.3391513792
 40
0.371306823
 40
0.435982307
 40
0.4684849484
 40
0.501014496
 40
0.5335230603
 40
0.565963568
 40
0.5982927681
 40
0.6304687363
 40
0.6624572598
 40
0.6942291586
 40
0.7257627597
 40
0.7570482177
 40
0.788082704
 40
0.8188739808
 40
0.8494348387
 40
0.8797891752
 40
0.9099819834
 40
0.9400660145
 40
0.9700725097
 40
1.0
 40
1.0
 40
1.0
 40
1.0
 10
15.0877416736
 20
13.430382121
 30
0.0
 10
15.0741521155
 20
13.430382121
 30
0.0
 10
15.0536337649
 20
13.4325912152
 30
0.0
 10
15.0272434235
 20
13.4397577938
 30
0.0
 10
15.0079575203
 20
13.4472369333
 30
0.0
 10
14.9894344677
 20
13.4567196101
 30
0.0
 10
14.9718489014
 20
13.468124827
 30
0.0
 10
14.9553592905
 20
13.4813307944
 30
0.0
 10
14.9349994538
 20
13.5012372439
 30
0.0
 10
14.917518078
 20
13.5242066226
 30
0.0
 10
14.9034299949
 20
13.5494322265
 30
0.0
 10
14.8915917393
 20
13.5761636267
 30
0.0
 10
14.8834838259
 20
13.6045456059
 30
0.0
 10
14.8792948971
 20
13.6336835959
 30
0.0
 10
14.8781399152
 20
13.6558003636
 30
0.0
 10
14.8789774895
 20
13.6779147817
 30
0.0
 10
14.8818145892
 20
13.699817692
 30
0.0
 10
14.886612826
 20
13.7212986293
 30
0.0
 10
14.8933302187
 20
13.7421521106
 30
0.0
 10
14.9019080449
 20
13.7621746417
 30
0.0
 10
14.9122520993
 20
13.7811796952
 30
0.0
 10
14.924278379
 20
13.7989764189
 30
0.0
 10
14.9378602786
 20
13.8154006615
 30
0.0
 10
14.9528750194
 20
13.830289887
 30
0.0
 10
14.9691783224
 20
13.8434970795
 30
0.0
 10
14.9866049089
 20
13.8549047835
 30
0.0
 10
15.0049975009
 20
13.8643882979
 30
0.0
 10
15.024176602
 20
13.8718675264
 30
0.0
 10
15.0439639984
 20
13.8772578872
 30
0.0
 10
15.0641494242
 20
13.8805088899
 30
0.0
 10
15.0777486376
 20
13.8812399185
 30
0.0
 10
15.0845338988
 20
13.8812399185
 30
0.0
  0
SPLINE
  5
336
100
AcDbEntity
  8
0
100
AcDbSpline
 62
7
  6
CONTINUOUS
 70
0
 71
3
 72
36
 73
32
 74
0
 42
0.0000001
 43
0.0000001
 44
0.0000000001
 40
0.0
 40
0.0
 40
0.0
 40
0.0
 40
0.0599389405
 40
0.0901302731
 40
0.1204669268
 40
0.1509958564
 40
0.1817548359
 40
0.212759326
 40
0.244013893
 40
0.3071880013
 40
0.3391513792
 40
0.371306823
 40
0.435982307
 40
0.4684849484
 40
0.501014496
 40
0.5335230603
 40
0.565963568
 40
0.5982927681
 40
0.6304687363
 40
0.6624572598
 40
0.6942291586
 40
0.7257627597
 40
0.7570482177
 40
0.788082704
 40
0.8188739808
 40
0.8494348387
 40
0.8797891752
 40
0.9099819834
 40
0.9400660145
 40
0.9700725097
 40
1.0
 40
1.0
 40
1.0
 40
1.0
 10
15.0845338988
 20
13.8812399185
 30
0.0
 10
15.0981234569
 20
13.8812399185
 30
0.0
 10
15.1186418075
 20
13.8790308244
 30
0.0
 10
15.1450321489
 20
13.8718642457
 30
0.0
 10
15.1643180521
 20
13.8643851062
 30
0.0
 10
15.1828411047
 20
13.8549024294
 30
0.0
 10
15.200426671
 20
13.8434972126
 30
0.0
 10
15.2169162819
 20
13.8302912451
 30
0.0
 10
15.2372761186
 20
13.8103847957
 30
0.0
 10
15.2547574944
 20
13.7874154169
 30
0.0
 10
15.2688455776
 20
13.762189813
 30
0.0
 10
15.2806838331
 20
13.7354584128
 30
0.0
 10
15.2887917465
 20
13.7070764337
 30
0.0
 10
15.2929806753
 20
13.6779384436
 30
0.0
 10
15.2941356572
 20
13.655821676
 30
0.0
 10
15.2932980829
 20
13.6337072578
 30
0.0
 10
15.2904609832
 20
13.6118043475
 30
0.0
 10
15.2856627464
 20
13.5903234103
 30
0.0
 10
15.2789453537
 20
13.5694699289
 30
0.0
 10
15.2703675276
 20
13.5494473979
 30
0.0
 10
15.2600234731
 20
13.5304423443
 30
0.0
 10
15.2479971934
 20
13.5126456207
 30
0.0
 10
15.2344152938
 20
13.496221378
 30
0.0
 10
15.219400553
 20
13.4813321526
 30
0.0
 10
15.20309725
 20
13.46812496
 30
0.0
 10
15.1856706635
 20
13.4567172561
 30
0.0
 10
15.1672780715
 20
13.4472337416
 30
0.0
 10
15.1480989704
 20
13.4397545132
 30
0.0
 10
15.128311574
 20
13.4343641523
 30
0.0
 10
15.1081261482
 20
13.4311131496
 30
0.0
 10
15.0945269348
 20
13.430382121
 30
0.0
 10
15.0877416736
 20
13.430382121
 30
0.0
  0
SPLINE
  5
337
100
AcDbEntity
  8
0
100
AcDbSpline
 62
7
  6
CONTINUOUS
 70
0
 71
3
 72
19
 73
15
 74
0
 42
0.0000001
 43
0.0000001
 44
0.0000000001
 40
0.0
 40
0.0
 40
0.0
 40
0.0
 40
0.0549110602
 40
0.1100337158
 40
0.1655886622
 40
0.2217886568
 40
0.3368225594
 40
0.4565836783
 40
0.5186122017
 40
0.5821976165
 40
0.6474288519
 40
0.7143780672
 40
0.8535951338
 40
1.0
 40
1.0
 40
1.0
 40
1.0
 10
14.3367953416
 20
13.2359456214
 30
0.0
 10
14.3401537684
 20
13.2468164254
 30
0.0
 10
14.3477337581
 20
13.2683475903
 30
0.0
 10
14.3616055907
 20
13.2997636679
 30
0.0
 10
14.377958842
 20
13.3302688788
 30
0.0
 10
14.4032167169
 20
13.3699392094
 30
0.0
 10
14.4411347371
 20
13.4170996482
 30
0.0
 10
14.4859544931
 20
13.4594782408
 30
0.0
 10
14.5259677295
 20
13.4908842578
 30
0.0
 10
14.5584808888
 20
13.5134330718
 30
0.0
 10
14.5930773287
 20
13.5346491328
 30
0.0
 10
14.6425347561
 20
13.5614609861
 30
0.0
 10
14.7093564496
 20
13.5912854195
 30
0.0
 10
14.7654474131
 20
13.6104192196
 30
0.0
 10
14.7945300113
 20
13.6190476861
 30
0.0
  0
SPLINE
  5
338
100
AcDbEntity
  8
0
100
AcDbSpline
 62
7
  6
CONTINUOUS
 70
0
 71
3
 72
11
 73
7
 74
0
 42
0.0000001
 43
0.0000001
 44
0.0000000001
 40
0.0
 40
0.0
 40
0.0
 40
0.0
 40
0.2383698724
 40
0.4860003565
 40
0.7405944709
 40
1.0
 40
1.0
 40
1.0
 40
1.0
 10
14.7945300113
 20
13.6190476861
 30
0.0
 10
14.7972768071
 20
13.6198626283
 30
0.0
 10
14.8028282755
 20
13.6216903858
 30
0.0
 10
14.8111589538
 20
13.624831941
 30
0.0
 10
14.819624899
 20
13.6283177746
 30
0.0
 10
14.8252908943
 20
13.6307813972
 30
0.0
 10
14.8281410573
 20
13.6320456662
 30
0.0
  0
SPLINE
  5
339
100
AcDbEntity
  8
0
100
AcDbSpline
 62
7
  6
CONTINUOUS
 70
0
 71
3
 72
9
 73
5
 74
0
 42
0.0000001
 43
0.0000001
 44
0.0000000001
 40
0.0
 40
0.0
 40
0.0
 40
0.0
 40
0.2583562671
 40
1.0
 40
1.0
 40
1.0
 40
1.0
 10
14.1262080509
 20
13.7346669981
 30
0.0
 10
14.1279486927
 20
13.7327621461
 30
0.0
 10
14.1345556789
 20
13.7252720595
 30
0.0
 10
14.1406247119
 20
13.7172999743
 30
0.0
 10
14.144721276
 20
13.7111286108
 30
0.0
  0
SPLINE
  5
33A
100
AcDbEntity
  8
0
100
AcDbSpline
 62
7
  6
CONTINUOUS
 70
0
 71
3
 72
9
 73
5
 74
0
 42
0.0000001
 43
0.0000001
 44
0.0000000001
 40
0.0
 40
0.0
 40
0.0
 40
0.0
 40
0.2567074215
 40
1.0
 40
1.0
 40
1.0
 40
1.0
 10
14.144721276
 20
13.7111286108
 30
0.0
 10
14.1456618837
 20
13.7097116106
 30
0.0
 10
14.1492430575
 20
13.7041374477
 30
0.0
 10
14.1524838106
 20
13.6983418238
 30
0.0
 10
14.1546532923
 20
13.6939208849
 30
0.0
  0
SPLINE
  5
33B
100
AcDbEntity
  8
0
100
AcDbSpline
 62
7
  6
CONTINUOUS
 70
0
 71
3
 72
30
 73
26
 74
0
 42
0.0000001
 43
0.0000001
 44
0.0000000001
 40
0.0
 40
0.0
 40
0.0
 40
0.0
 40
0.0214552593
 40
0.0432083406
 40
0.0655334292
 40
0.088673703
 40
0.1380539813
 40
0.1646157661
 40
0.1924833215
 40
0.2521181607
 40
0.3167130088
 40
0.3506754172
 40
0.3855802703
 40
0.4576472604
 40
0.5317236473
 40
0.6064803059
 40
0.6805455339
 40
0.7525922746
 40
0.7874846312
 40
0.8214295165
 40
0.8543025905
 40
0.886011688
 40
0.9456313642
 40
0.9734897798
 40
1.0
 40
1.0
 40
1.0
 40
1.0
 10
14.1485893699
 20
13.6450021367
 30
0.0
 10
14.1475677834
 20
13.6416987321
 30
0.0
 10
14.1450217628
 20
13.6351866165
 30
0.0
 10
14.1397994233
 20
13.6259690365
 30
0.0
 10
14.1331990867
 20
13.6173366562
 30
0.0
 10
14.1224015697
 20
13.6064681971
 30
0.0
 10
14.1091652812
 20
13.5972687391
 30
0.0
 10
14.094183972
 20
13.5897929484
 30
0.0
 10
14.0770500827
 20
13.5830677531
 30
0.0
 10
14.0532025704
 20
13.5769841549
 30
0.0
 10
14.0278090707
 20
13.5740561703
 30
0.0
 10
14.0062991983
 20
13.5734573034
 30
0.0
 10
13.9835843206
 20
13.574086878
 30
0.0
 10
13.9545209216
 20
13.5772356455
 30
0.0
 10
13.9196192631
 20
13.5845156579
 30
0.0
 10
13.8852500852
 20
13.5951501147
 30
0.0
 10
13.8523411838
 20
13.6088529177
 30
0.0
 10
13.8265859557
 20
13.6226685384
 30
0.0
 10
13.8074939449
 20
13.6349754625
 30
0.0
 10
13.7942233912
 20
13.6446125257
 30
0.0
 10
13.7819422853
 20
13.6546957052
 30
0.0
 10
13.7673005457
 20
13.6683551298
 30
0.0
 10
13.7545769124
 20
13.6828608902
 30
0.0
 10
13.7442539064
 20
13.6980783072
 30
0.0
 10
13.7399914008
 20
13.7057519296
 30
0.0
 10
13.738109214
 20
13.7095874231
 30
0.0
  0
SPLINE
  5
33C
100
AcDbEntity
  8
03__ASM_ALL_CURVES
100
AcDbSpline
 62
8
  6
PHANTOM
 70
0
 71
3
 72
399
 73
395
 74
0
 42
0.0000001
 43
0.0000001
 44
0.0000000001
 40
0.0
 40
0.0
 40
0.0
 40
0.0
 40
0.015625
 40
0.0234375
 40
0.03125
 40
0.0390625
 40
0.04296875
 40
0.046875
 40
0.05078125
 40
0.0546875
 40
0.056640625
 40
0.05859375
 40
0.0595703125
 40
0.060546875
 40
0.0615234375
 40
0.0620117188
 40
0.0622558594
 40
0.0625
 40
0.0627441406
 40
0.0629882812
 40
0.0634765625
 40
0.064453125
 40
0.0654296875
 40
0.06640625
 40
0.068359375
 40
0.0703125
 40
0.07421875
 40
0.078125
 40
0.08203125
 40
0.0859375
 40
0.09375
 40
0.1015625
 40
0.10546875
 40
0.109375
 40
0.11328125
 40
0.1171875
 40
0.119140625
 40
0.12109375
 40
0.1220703125
 40
0.123046875
 40
0.1240234375
 40
0.1245117188
 40
0.1247558594
 40
0.125
 40
0.1252441406
 40
0.1254882812
 40
0.1259765625
 40
0.126953125
 40
0.1279296875
 40
0.12890625
 40
0.130859375
 40
0.1328125
 40
0.13671875
 40
0.140625
 40
0.14453125
 40
0.1484375
 40
0.15625
 40
0.1640625
 40
0.16796875
 40
0.171875
 40
0.17578125
 40
0.1796875
 40
0.181640625
 40
0.18359375
 40
0.1845703125
 40
0.185546875
 40
0.1865234375
 40
0.1870117188
 40
0.1872558594
 40
0.1875
 40
0.1877441406
 40
0.1879882812
 40
0.1884765625
 40
0.189453125
 40
0.1904296875
 40
0.19140625
 40
0.193359375
 40
0.1953125
 40
0.19921875
 40
0.203125
 40
0.20703125
 40
0.2109375
 40
0.21875
 40
0.2265625
 40
0.23046875
 40
0.234375
 40
0.23828125
 40
0.2421875
 40
0.244140625
 40
0.24609375
 40
0.2470703125
 40
0.248046875
 40
0.2490234375
 40
0.2495117188
 40
0.2497558594
 40
0.25
 40
0.2502441406
 40
0.2504882812
 40
0.2509765625
 40
0.251953125
 40
0.2529296875
 40
0.25390625
 40
0.255859375
 40
0.2578125
 40
0.26171875
 40
0.265625
 40
0.26953125
 40
0.2734375
 40
0.28125
 40
0.2890625
 40
0.29296875
 40
0.296875
 40
0.30078125
 40
0.3046875
 40
0.306640625
 40
0.30859375
 40
0.3095703125
 40
0.310546875
 40
0.3115234375
 40
0.3120117188
 40
0.3125
 40
0.3129882812
 40
0.3134765625
 40
0.314453125
 40
0.3154296875
 40
0.31640625
 40
0.318359375
 40
0.3203125
 40
0.32421875
 40
0.328125
 40
0.33203125
 40
0.3359375
 40
0.34375
 40
0.3515625
 40
0.35546875
 40
0.359375
 40
0.36328125
 40
0.3671875
 40
0.369140625
 40
0.37109375
 40
0.3720703125
 40
0.373046875
 40
0.3740234375
 40
0.3745117188
 40
0.375
 40
0.3754882812
 40
0.3759765625
 40
0.376953125
 40
0.3779296875
 40
0.37890625
 40
0.380859375
 40
0.3828125
 40
0.38671875
 40
0.390625
 40
0.39453125
 40
0.3984375
 40
0.40625
 40
0.4140625
 40
0.41796875
 40
0.421875
 40
0.42578125
 40
0.4296875
 40
0.431640625
 40
0.43359375
 40
0.4345703125
 40
0.435546875
 40
0.4365234375
 40
0.4370117188
 40
0.4372558594
 40
0.4375
 40
0.4377441406
 40
0.4379882812
 40
0.4384765625
 40
0.439453125
 40
0.4404296875
 40
0.44140625
 40
0.443359375
 40
0.4453125
 40
0.44921875
 40
0.453125
 40
0.45703125
 40
0.4609375
 40
0.46875
 40
0.4765625
 40
0.48046875
 40
0.484375
 40
0.48828125
 40
0.4921875
 40
0.494140625
 40
0.49609375
 40
0.4970703125
 40
0.498046875
 40
0.4990234375
 40
0.4995117188
 40
0.4997558594
 40
0.5
 40
0.5002441406
 40
0.5004882812
 40
0.5009765625
 40
0.501953125
 40
0.5029296875
 40
0.50390625
 40
0.505859375
 40
0.5078125
 40
0.51171875
 40
0.515625
 40
0.51953125
 40
0.5234375
 40
0.53125
 40
0.5390625
 40
0.54296875
 40
0.546875
 40
0.55078125
 40
0.5546875
 40
0.556640625
 40
0.55859375
 40
0.5595703125
 40
0.560546875
 40
0.5615234375
 40
0.5620117188
 40
0.5622558594
 40
0.5625
 40
0.5627441406
 40
0.5629882812
 40
0.5634765625
 40
0.564453125
 40
0.5654296875
 40
0.56640625
 40
0.568359375
 40
0.5703125
 40
0.57421875
 40
0.578125
 40
0.58203125
 40
0.5859375
 40
0.59375
 40
0.6015625
 40
0.60546875
 40
0.609375
 40
0.61328125
 40
0.6171875
 40
0.619140625
 40
0.62109375
 40
0.6220703125
 40
0.623046875
 40
0.6240234375
 40
0.6245117188
 40
0.6247558594
 40
0.625
 40
0.6252441406
 40
0.6254882812
 40
0.6259765625
 40
0.626953125
 40
0.6279296875
 40
0.62890625
 40
0.630859375
 40
0.6328125
 40
0.63671875
 40
0.640625
 40
0.64453125
 40
0.6484375
 40
0.65625
 40
0.6640625
 40
0.66796875
 40
0.671875
 40
0.67578125
 40
0.6796875
 40
0.681640625
 40
0.68359375
 40
0.6845703125
 40
0.685546875
 40
0.6865234375
 40
0.6870117188
 40
0.6872558594
 40
0.6875
 40
0.6877441406
 40
0.6879882812
 40
0.6884765625
 40
0.689453125
 40
0.6904296875
 40
0.69140625
 40
0.693359375
 40
0.6953125
 40
0.69921875
 40
0.703125
 40
0.70703125
 40
0.7109375
 40
0.71875
 40
0.7265625
 40
0.73046875
 40
0.734375
 40
0.73828125
 40
0.7421875
 40
0.744140625
 40
0.74609375
 40
0.7470703125
 40
0.748046875
 40
0.7490234375
 40
0.7495117188
 40
0.7497558594
 40
0.75
 40
0.7502441406
 40
0.7504882812
 40
0.7509765625
 40
0.751953125
 40
0.7529296875
 40
0.75390625
 40
0.755859375
 40
0.7578125
 40
0.76171875
 40
0.765625
 40
0.76953125
 40
0.7734375
 40
0.78125
 40
0.7890625
 40
0.79296875
 40
0.796875
 40
0.80078125
 40
0.8046875
 40
0.806640625
 40
0.80859375
 40
0.8095703125
 40
0.810546875
 40
0.8115234375
 40
0.8120117188
 40
0.8122558594
 40
0.8125
 40
0.8127441406
 40
0.8129882812
 40
0.8134765625
 40
0.814453125
 40
0.8154296875
 40
0.81640625
 40
0.818359375
 40
0.8203125
 40
0.82421875
 40
0.828125
 40
0.83203125
 40
0.8359375
 40
0.84375
 40
0.8515625
 40
0.85546875
 40
0.859375
 40
0.86328125
 40
0.8671875
 40
0.869140625
 40
0.87109375
 40
0.8720703125
 40
0.873046875
 40
0.8740234375
 40
0.8745117188
 40
0.8747558594
 40
0.875
 40
0.8752441406
 40
0.8754882812
 40
0.8759765625
 40
0.876953125
 40
0.8779296875
 40
0.87890625
 40
0.880859375
 40
0.8828125
 40
0.88671875
 40
0.890625
 40
0.89453125
 40
0.8984375
 40
0.90625
 40
0.9140625
 40
0.91796875
 40
0.921875
 40
0.92578125
 40
0.9296875
 40
0.931640625
 40
0.93359375
 40
0.9345703125
 40
0.935546875
 40
0.9365234375
 40
0.9370117188
 40
0.9372558594
 40
0.9375
 40
0.9377441406
 40
0.9379882812
 40
0.9384765625
 40
0.939453125
 40
0.9404296875
 40
0.94140625
 40
0.943359375
 40
0.9453125
 40
0.94921875
 40
0.953125
 40
0.95703125
 40
0.9609375
 40
0.96875
 40
0.9765625
 40
0.984375
 40
1.0
 40
1.0
 40
1.0
 40
1.0
 10
17.6493996998
 20
12.0925987178
 30
0.0
 10
17.6337015248
 20
12.1172808368
 30
0.0
 10
17.6101542622
 20
12.1543040153
 30
0.0
 10
17.5787579124
 20
12.2036682533
 30
0.0
 10
17.5552106493
 20
12.2406914318
 30
0.0
 10
17.5355879323
 20
12.2715440808
 30
0.0
 10
17.5198897538
 20
12.2962261993
 30
0.0
 10
17.5081161333
 20
12.3147377901
 30
0.0
 10
17.4963424618
 20
12.3332493736
 30
0.0
 10
17.4865312274
 20
12.3486757158
 30
0.0
 10
17.4786818851
 20
12.3610167389
 30
0.0
 10
17.473776854
 20
12.3687299938
 30
0.0
 10
17.4698509788
 20
12.3749003332
 30
0.0
 10
17.4669116388
 20
12.3795288122
 30
0.0
 10
17.4644460718
 20
12.3833835732
 30
0.0
 10
17.462751804
 20
12.3860864291
 30
0.0
 10
17.4617342648
 20
12.3876238556
 30
0.0
 10
17.4611102318
 20
12.388796821
 30
0.0
 10
17.4599544065
 20
12.3898937355
 30
0.0
 10
17.4585988011
 20
12.3913828155
 30
0.0
 10
17.4561400661
 20
12.3939763459
 30
0.0
 10
17.4526727718
 20
12.3976878511
 30
0.0
 10
17.4484926784
 20
12.4021388915
 30
0.0
 10
17.4429259757
 20
12.4080745781
 30
0.0
 10
17.4359652842
 20
12.4154938556
 30
0.0
 10
17.4248294707
 20
12.4273648844
 30
0.0
 10
17.4109092602
 20
12.442203607
 30
0.0
 10
17.3942051977
 20
12.4600101014
 30
0.0
 10
17.3775010844
 20
12.4778165884
 30
0.0
 10
17.3552289511
 20
12.5015585737
 30
0.0
 10
17.3273887778
 20
12.5312360542
 30
0.0
 10
17.2995486088
 20
12.5609135358
 30
0.0
 10
17.2772764688
 20
12.5846555195
 30
0.0
 10
17.2605723755
 20
12.6024620111
 30
0.0
 10
17.2438682379
 20
12.6202684884
 30
0.0
 10
17.2299482612
 20
12.6351072639
 30
0.0
 10
17.2188119708
 20
12.6469781848
 30
0.0
 10
17.211852493
 20
12.654397737
 30
0.0
 10
17.2062832991
 20
12.6603328597
 30
0.0
 10
17.2021108163
 20
12.6647856231
 30
0.0
 10
17.1986197102
 20
12.6684917374
 30
0.0
 10
17.1962034833
 20
12.6710948915
 30
0.0
 10
17.1947797693
 20
12.6725685519
 30
0.0
 10
17.1938331521
 20
12.6737128305
 30
0.0
 10
17.1924233678
 20
12.674707904
 30
0.0
 10
17.1907052134
 20
12.676086713
 30
0.0
 10
17.1876231703
 20
12.6784753803
 30
0.0
 10
17.183259605
 20
12.6819004395
 30
0.0
 10
17.1780064822
 20
12.6860050843
 30
0.0
 10
17.1710082018
 20
12.6914798393
 30
0.0
 10
17.1622583369
 20
12.6983226341
 30
0.0
 10
17.1482596789
 20
12.7092714684
 30
0.0
 10
17.1307609701
 20
12.7229573869
 30
0.0
 10
17.1097626852
 20
12.7393805425
 30
0.0
 10
17.0887643559
 20
12.7558036837
 30
0.0
 10
17.0607665991
 20
12.7777012104
 30
0.0
 10
17.0257693973
 20
12.8050731169
 30
0.0
 10
16.9907721992
 20
12.8324450248
 30
0.0
 10
16.9627744364
 20
12.8543425492
 30
0.0
 10
16.941776125
 20
12.8707656973
 30
0.0
 10
16.9207777728
 20
12.8871888271
 30
0.0
 10
16.9032792732
 20
12.9008748256
 30
0.0
 10
16.8892801886
 20
12.9118234968
 30
0.0
 10
16.8805314094
 20
12.9186667069
 30
0.0
 10
16.8735309005
 20
12.9241406095
 30
0.0
 10
16.868284586
 20
12.9282478585
 30
0.0
 10
16.8638997192
 20
12.9316647696
 30
0.0
 10
16.860855703
 20
12.9340679827
 30
0.0
 10
16.8590766199
 20
12.9354234857
 30
0.0
 10
16.8578539888
 20
12.9364901479
 30
0.0
 10
16.8562044555
 20
12.9373655507
 30
0.0
 10
16.8541539859
 20
12.9385994679
 30
0.0
 10
16.8504962852
 20
12.94072774
 30
0.0
 10
16.8453072705
 20
12.9437843791
 30
0.0
 10
16.8390649273
 20
12.9474453904
 30
0.0
 10
16.8307472258
 20
12.9523291683
 30
0.0
 10
16.8203482422
 20
12.9584330587
 30
0.0
 10
16.8037109061
 20
12.9681997484
 30
0.0
 10
16.78291388
 20
12.9804079509
 30
0.0
 10
16.7579576012
 20
12.9950578623
 30
0.0
 10
16.7330012816
 20
13.0097077555
 30
0.0
 10
16.6997262031
 20
13.0292409527
 30
0.0
 10
16.6581323498
 20
13.0536574468
 30
0.0
 10
16.6165384993
 20
13.0780739429
 30
0.0
 10
16.5832634164
 20
13.0976071369
 30
0.0
 10
16.55830711
 20
13.11225704
 30
0.0
 10
16.5333507816
 20
13.1269069139
 30
0.0
 10
16.5125539099
 20
13.1391152334
 30
0.0
 10
16.4959162589
 20
13.1488816844
 30
0.0
 10
16.4855180768
 20
13.1549861823
 30
0.0
 10
16.47719873
 20
13.1598687133
 30
0.0
 10
16.4709614133
 20
13.1635335337
 30
0.0
 10
16.465756672
 20
13.1665782551
 30
0.0
 10
16.4621270459
 20
13.1687278024
 30
0.0
 10
16.4600315937
 20
13.1699276313
 30
0.0
 10
16.4585202328
 20
13.1709077422
 30
0.0
 10
16.456778649
 20
13.1715811385
 30
0.0
 10
16.4545368416
 20
13.1725859856
 30
0.0
 10
16.4505762634
 20
13.1742946217
 30
0.0
 10
16.4449378556
 20
13.1767615906
 30
0.0
 10
16.4381633935
 20
13.1797107987
 30
0.0
 10
16.4291337018
 20
13.1836469723
 30
0.0
 10
16.4178455858
 20
13.1885658552
 30
0.0
 10
16.39978516
 20
13.1964368135
 30
0.0
 10
16.3772094356
 20
13.2062752555
 30
0.0
 10
16.3501186486
 20
13.2180814956
 30
0.0
 10
16.3230278396
 20
13.2298877063
 30
0.0
 10
16.2869067686
 20
13.2456293308
 30
0.0
 10
16.2417554277
 20
13.2653063588
 30
0.0
 10
16.1966040859
 20
13.2849833843
 30
0.0
 10
16.1604830164
 20
13.3007250128
 30
0.0
 10
16.1333922028
 20
13.3125312112
 30
0.0
 10
16.1063014332
 20
13.3243374975
 30
0.0
 10
16.0837256548
 20
13.3341757958
 30
0.0
 10
16.0656653391
 20
13.3420470471
 30
0.0
 10
16.0543769427
 20
13.3469651843
 30
0.0
 10
16.0453478267
 20
13.3509028885
 30
0.0
 10
16.0385716058
 20
13.3538474202
 30
0.0
 10
16.0329387007
 20
13.3563290206
 30
0.0
 10
16.0284010992
 20
13.3582518966
 30
0.0
 10
16.025083363
 20
13.3598645722
 30
0.0
 10
16.0214394056
 20
13.3608263756
 30
0.0
 10
16.0166947492
 20
13.3623361382
 30
0.0
 10
16.0107248318
 20
13.3641453362
 30
0.0
 10
16.0035776656
 20
13.3663497625
 30
0.0
 10
15.9940422656
 20
13.3692773355
 30
0.0
 10
15.982125017
 20
13.3729407949
 30
0.0
 10
15.9630563006
 20
13.3788000982
 30
0.0
 10
15.939220789
 20
13.3861249931
 30
0.0
 10
15.9106180105
 20
13.3949145387
 30
0.0
 10
15.8820152761
 20
13.4037041722
 30
0.0
 10
15.8438782814
 20
13.4154236527
 30
0.0
 10
15.7962070435
 20
13.4300730149
 30
0.0
 10
15.7485358031
 20
13.444722369
 30
0.0
 10
15.7103988124
 20
13.4564418625
 30
0.0
 10
15.6817960661
 20
13.4652314569
 30
0.0
 10
15.6531933321
 20
13.474021149
 30
0.0
 10
15.6293576821
 20
13.4813455884
 30
0.0
 10
15.6102892479
 20
13.4872058206
 30
0.0
 10
15.5983712812
 20
13.490866916
 30
0.0
 10
15.5888373552
 20
13.4937993414
 30
0.0
 10
15.5816856858
 20
13.4959889432
 30
0.0
 10
15.5757298579
 20
13.4978445234
 30
0.0
 10
15.5709564561
 20
13.4992596573
 30
0.0
 10
15.5674002855
 20
13.5005104512
 30
0.0
 10
15.5637529614
 20
13.5010381366
 30
0.0
 10
15.5589217038
 20
13.5019943084
 30
0.0
 10
15.5528717072
 20
13.5031028604
 30
0.0
 10
15.5456163873
 20
13.5044702172
 30
0.0
 10
15.5359409942
 20
13.5062804032
 30
0.0
 10
15.5238473121
 20
13.5085475721
 30
0.0
 10
15.5044971082
 20
13.5121725628
 30
0.0
 10
15.4803094605
 20
13.516704652
 30
0.0
 10
15.4512842373
 20
13.5221427943
 30
0.0
 10
15.4222590264
 20
13.5275810341
 30
0.0
 10
15.3835587409
 20
13.5348319866
 30
0.0
 10
15.3351833856
 20
13.5438956885
 30
0.0
 10
15.2868080296
 20
13.5529593877
 30
0.0
 10
15.2481077451
 20
13.5602103444
 30
0.0
 10
15.2190825312
 20
13.5656485715
 30
0.0
 10
15.1900573193
 20
13.5710867618
 30
0.0
 10
15.1658696366
 20
13.5756187015
 30
0.0
 10
15.1465195041
 20
13.5792439971
 30
0.0
 10
15.1344256402
 20
13.5815103899
 30
0.0
 10
15.1247506203
 20
13.5833221689
 30
0.0
 10
15.1174941603
 20
13.5846846592
 30
0.0
 10
15.1114477309
 20
13.5858084373
 30
0.0
 10
15.1072140124
 20
13.5866179063
 30
0.0
 10
15.1047966464
 20
13.5870448218
 30
0.0
 10
15.1029782646
 20
13.5874654019
 30
0.0
 10
15.1011803614
 20
13.587502227
 30
0.0
 10
15.0987760139
 20
13.5876851852
 30
0.0
 10
15.094571734
 20
13.5879429951
 30
0.0
 10
15.0885638799
 20
13.588343901
 30
0.0
 10
15.0813551997
 20
13.5888110316
 30
0.0
 10
15.0717433659
 20
13.5894387472
 30
0.0
 10
15.0597286629
 20
13.5902217226
 30
0.0
 10
15.0405050881
 20
13.591475416
 30
0.0
 10
15.0164756368
 20
13.5930422127
 30
0.0
 10
14.9876402879
 20
13.594922506
 30
0.0
 10
14.9588049409
 20
13.5968027625
 30
0.0
 10
14.9203578109
 20
13.5993097842
 30
0.0
 10
14.872298899
 20
13.6024435563
 30
0.0
 10
14.8242399858
 20
13.6055773318
 30
0.0
 10
14.7857928577
 20
13.6080843481
 30
0.0
 10
14.7569575053
 20
13.6099646204
 30
0.0
 10
14.7281221766
 20
13.6118448546
 30
0.0
 10
14.7040926623
 20
13.6134118352
 30
0.0
 10
14.6848692161
 20
13.6146651537
 30
0.0
 10
14.6728541859
 20
13.6154490833
 30
0.0
 10
14.6632430236
 20
13.6160748401
 30
0.0
 10
14.6560322919
 20
13.616547955
 30
0.0
 10
14.6500308566
 20
13.6169301378
 30
0.0
 10
14.6458151179
 20
13.6172213715
 30
0.0
 10
14.6434291303
 20
13.6173507763
 30
0.0
 10
14.6415748317
 20
13.6175521001
 30
0.0
 10
14.6399682616
 20
13.6173548505
 30
0.0
 10
14.6377397577
 20
13.6172308779
 30
0.0
 10
14.633880136
 20
13.6169491507
 30
0.0
 10
14.6283453424
 20
13.6165805485
 30
0.0
 10
14.6217125994
 20
13.6161237304
 30
0.0
 10
14.6128657952
 20
13.6155197026
 30
0.0
 10
14.6018083675
 20
13.6147629343
 30
0.0
 10
14.584115881
 20
13.6135530739
 30
0.0
 10
14.5620004795
 20
13.6120404159
 30
0.0
 10
14.5354619091
 20
13.6102253688
 30
0.0
 10
14.5089233624
 20
13.6084102835
 30
0.0
 10
14.4735386252
 20
13.6059901833
 30
0.0
 10
14.4293077068
 20
13.602965053
 30
0.0
 10
14.3850767862
 20
13.5999399259
 30
0.0
 10
14.3496920526
 20
13.5975198204
 30
0.0
 10
14.3231534949
 20
13.595704751
 30
0.0
 10
14.296614966
 20
13.5938896448
 30
0.0
 10
14.2744994354
 20
13.5923771707
 30
0.0
 10
14.256807212
 20
13.5911669351
 30
0.0
 10
14.2457491148
 20
13.5904111215
 30
0.0
 10
14.2369036849
 20
13.5898051341
 30
0.0
 10
14.2302667433
 20
13.5893543027
 30
0.0
 10
14.2247450861
 20
13.5889669695
 30
0.0
 10
14.2208620137
 20
13.5887186803
 30
0.0
 10
14.2186710839
 20
13.5885411317
 30
0.0
 10
14.2169490981
 20
13.5885084503
 30
0.0
 10
14.2155282815
 20
13.5880916834
 30
0.0
 10
14.2135288083
 20
13.5876699675
 30
0.0
 10
14.2100786753
 20
13.5868695441
 30
0.0
 10
14.2051243248
 20
13.5857587162
 30
0.0
 10
14.1991900571
 20
13.5844117543
 30
0.0
 10
14.1912738746
 20
13.582620684
 30
0.0
 10
14.1813799563
 20
13.5803801756
 30
0.0
 10
14.165548955
 20
13.5767962957
 30
0.0
 10
14.1457604546
 20
13.5723161256
 30
0.0
 10
14.1220141464
 20
13.5669400587
 30
0.0
 10
14.098267867
 20
13.5615639551
 30
0.0
 10
14.066606151
 20
13.5543958299
 30
0.0
 10
14.02702901
 20
13.5454356685
 30
0.0
 10
13.987451866
 20
13.5364755103
 30
0.0
 10
13.9557901547
 20
13.5293073801
 30
0.0
 10
13.9320438612
 20
13.5239312915
 30
0.0
 10
13.9082976059
 20
13.5185551683
 30
0.0
 10
13.8885089409
 20
13.5140751735
 30
0.0
 10
13.8726782751
 20
13.5104909361
 30
0.0
 10
13.8627835031
 20
13.5082513377
 30
0.0
 10
13.8548690729
 20
13.5064583994
 30
0.0
 10
13.8489294517
 20
13.5051171444
 30
0.0
 10
13.8439918513
 20
13.5039884609
 30
0.0
 10
13.8405118164
 20
13.5032199128
 30
0.0
 10
13.8385602536
 20
13.5027471246
 30
0.0
 10
13.8369922714
 20
13.5024872354
 30
0.0
 10
13.8358230151
 20
13.5018653473
 30
0.0
 10
13.8341249266
 20
13.5011624324
 30
0.0
 10
13.8312180717
 20
13.4998735002
 30
0.0
 10
13.8270315436
 20
13.4980629261
 30
0.0
 10
13.8220222109
 20
13.4958770719
 30
0.0
 10
13.8153380357
 20
13.4929671981
 30
0.0
 10
13.806984551
 20
13.4893282812
 30
0.0
 10
13.7936180062
 20
13.4835068942
 30
0.0
 10
13.7769101577
 20
13.4762298586
 30
0.0
 10
13.756860597
 20
13.4674975452
 30
0.0
 10
13.7368110744
 20
13.4587651972
 30
0.0
 10
13.7100783643
 20
13.4471220787
 30
0.0
 10
13.6766624817
 20
13.432568176
 30
0.0
 10
13.6432465955
 20
13.4180142763
 30
0.0
 10
13.6165138911
 20
13.406371153
 30
0.0
 10
13.5964643513
 20
13.3976388194
 30
0.0
 10
13.5764148552
 20
13.3889064521
 30
0.0
 10
13.5597068059
 20
13.3816295841
 30
0.0
 10
13.5463406706
 20
13.3758078552
 30
0.0
 10
13.5379861435
 20
13.3721698086
 30
0.0
 10
13.531304108
 20
13.3692581484
 30
0.0
 10
13.5262882383
 20
13.3670777516
 30
0.0
 10
13.5221221627
 20
13.3652501028
 30
0.0
 10
13.5191787968
 20
13.3639916517
 30
0.0
 10
13.5175392081
 20
13.3632398984
 30
0.0
 10
13.516190259
 20
13.3627680263
 30
0.0
 10
13.5152971732
 20
13.361944702
 30
0.0
 10
13.5139473819
 20
13.3609695268
 30
0.0
 10
13.5116593331
 20
13.3592058529
 30
0.0
 10
13.5083519589
 20
13.3567161804
 30
0.0
 10
13.5043996888
 20
13.3537157916
 30
0.0
 10
13.4991242047
 20
13.3497197376
 30
0.0
 10
13.4925318322
 20
13.3447231416
 30
0.0
 10
13.4819829282
 20
13.3367294422
 30
0.0
 10
13.4687971784
 20
13.3267370248
 30
0.0
 10
13.4529741157
 20
13.3147462496
 30
0.0
 10
13.4371510965
 20
13.3027554408
 30
0.0
 10
13.4160537223
 20
13.2867677075
 30
0.0
 10
13.3896820105
 20
13.2667830365
 30
0.0
 10
13.3633102943
 20
13.2467983681
 30
0.0
 10
13.3422129271
 20
13.2308106307
 30
0.0
 10
13.3263898871
 20
13.2188198341
 30
0.0
 10
13.3105669026
 20
13.206829013
 30
0.0
 10
13.2973809093
 20
13.1968367386
 30
0.0
 10
13.286832502
 20
13.1888427476
 30
0.0
 10
13.2802388654
 20
13.1838468936
 30
0.0
 10
13.2749659762
 20
13.1798493164
 30
0.0
 10
13.2710057782
 20
13.1768535814
 30
0.0
 10
13.2677232083
 20
13.1743493482
 30
0.0
 10
13.2653908797
 20
13.1726116676
 30
0.0
 10
13.2641120358
 20
13.1715948447
 30
0.0
 10
13.2630010224
 20
13.1708994486
 30
0.0
 10
13.262470573
 20
13.1699470993
 30
0.0
 10
13.2615608
 20
13.1687669284
 30
0.0
 10
13.2600630489
 20
13.16665987
 30
0.0
 10
13.2578740764
 20
13.1636716187
 30
0.0
 10
13.2552684234
 20
13.1600763723
 30
0.0
 10
13.2517868447
 20
13.1552859744
 30
0.0
 10
13.2474373965
 20
13.1492968595
 30
0.0
 10
13.240476868
 20
13.1397149002
 30
0.0
 10
13.2317766916
 20
13.1277372367
 30
0.0
 10
13.2213362724
 20
13.1133641324
 30
0.0
 10
13.2108959087
 20
13.0989910036
 30
0.0
 10
13.1969754044
 20
13.0798268404
 30
0.0
 10
13.1795747812
 20
13.0558716332
 30
0.0
 10
13.1621741532
 20
13.031916428
 30
0.0
 10
13.1482536566
 20
13.0127522616
 30
0.0
 10
13.1378132694
 20
12.9983791423
 30
0.0
 10
13.1273729386
 20
12.9840060022
 30
0.0
 10
13.1186724873
 20
12.9720284503
 30
0.0
 10
13.1117125194
 20
12.9624462634
 30
0.0
 10
13.1073616446
 20
12.9564577276
 30
0.0
 10
13.1038829941
 20
12.951666141
 30
0.0
 10
13.101268395
 20
12.9480745262
 30
0.0
 10
13.0991074128
 20
12.9450749126
 30
0.0
 10
13.0975596943
 20
12.9429881378
 30
0.0
 10
13.0967299818
 20
12.9417754674
 30
0.0
 10
13.0959536119
 20
12.9409229463
 30
0.0
 10
13.0957662349
 20
12.939852612
 30
0.0
 10
13.0953109515
 20
12.9385014752
 30
0.0
 10
13.0946099272
 20
12.9361015874
 30
0.0
 10
13.0935584197
 20
12.932691683
 30
0.0
 10
13.0923180312
 20
12.9285918763
 30
0.0
 10
13.0906566981
 20
12.923128234
 30
0.0
 10
13.0885825935
 20
12.9162977339
 30
0.0
 10
13.0852625944
 20
12.9053694632
 30
0.0
 10
13.0811130868
 20
12.8917089431
 30
0.0
 10
13.0761334671
 20
12.8753163969
 30
0.0
 10
13.0711539038
 20
12.8589238299
 30
0.0
 10
13.0645144662
 20
12.8370670811
 30
0.0
 10
13.0562151766
 20
12.8097461425
 30
0.0
 10
13.047915882
 20
12.7824252055
 30
0.0
 10
13.0412764525
 20
12.7605684542
 30
0.0
 10
13.036296865
 20
12.7441758946
 30
0.0
 10
13.0313173358
 20
12.7277833206
 30
0.0
 10
13.0271675466
 20
12.7141228871
 30
0.0
 10
13.0238481219
 20
12.7031944398
 30
0.0
 10
13.0217725555
 20
12.6963643889
 30
0.0
 10
13.020114223
 20
12.6908998246
 30
0.0
 10
13.0188646673
 20
12.6868028349
 30
0.0
 10
13.0178418415
 20
12.6833841166
 30
0.0
 10
13.0170896156
 20
12.6809999631
 30
0.0
 10
13.0167163702
 20
12.6796236161
 30
0.0
 10
13.0162769988
 20
12.6786307195
 30
0.0
 10
13.0164470777
 20
12.6774873551
 30
0.0
 10
13.0164612665
 20
12.676015354
 30
0.0
 10
13.0165851432
 20
12.6734148984
 30
0.0
 10
13.0167103274
 20
12.6697127466
 30
0.0
 10
13.0168827131
 20
12.6652646921
 30
0.0
 10
13.017104819
 20
12.6593358642
 30
0.0
 10
13.0173851021
 20
12.6519241748
 30
0.0
 10
13.0178320736
 20
12.6400658376
 30
0.0
 10
13.0183912963
 20
12.6252427906
 30
0.0
 10
13.0190621456
 20
12.6074551879
 30
0.0
 10
13.0197330533
 20
12.5896675709
 30
0.0
 10
13.0206275764
 20
12.5659507532
 30
0.0
 10
13.0217457379
 20
12.5363047292
 30
0.0
 10
13.0228638943
 20
12.5066587064
 30
0.0
 10
13.0237584257
 20
12.482941887
 30
0.0
 10
13.0244293085
 20
12.4651542752
 30
0.0
 10
13.025100251
 20
12.4473666527
 30
0.0
 10
13.0256591838
 20
12.4325436676
 30
0.0
 10
13.0261067466
 20
12.420685204
 30
0.0
 10
13.0263855249
 20
12.4132738363
 30
0.0
 10
13.0266107196
 20
12.407344348
 30
0.0
 10
13.0267736687
 20
12.402898311
 30
0.0
 10
13.0269283775
 20
12.3991898471
 30
0.0
 10
13.0269995479
 20
12.3966006595
 30
0.0
 10
13.0270981854
 20
12.3951106043
 30
0.0
 10
13.027008865
 20
12.3940226964
 30
0.0
 10
13.0275437545
 20
12.3928215143
 30
0.0
 10
13.0280392092
 20
12.3912594494
 30
0.0
 10
13.0290076999
 20
12.3885074268
 30
0.0
 10
13.0303382215
 20
12.3845855904
 30
0.0
 10
13.0319575488
 20
12.3798752672
 30
0.0
 10
13.0341087227
 20
12.3735962751
 30
0.0
 10
13.036800405
 20
12.3657470424
 30
0.0
 10
13.0411055792
 20
12.3531885453
 30
0.0
 10
13.0464875678
 20
12.3374903295
 30
0.0
 10
13.0529457309
 20
12.318652511
 30
0.0
 10
13.0594039536
 20
12.2998146816
 30
0.0
 10
13.0680148965
 20
12.2746975796
 30
0.0
 10
13.0787785822
 20
12.2433012008
 30
0.0
 10
13.0916950019
 20
12.2056255468
 30
0.0
 10
13.1089168961
 20
12.1553913413
 30
0.0
 10
13.1218333164
 20
12.1177156872
 30
0.0
 10
13.1304442634
 20
12.0925985845
 30
0.0
  0
SPLINE
  5
33D
100
AcDbEntity
  8
03__ASM_ALL_CURVES
100
AcDbSpline
 62
8
  6
PHANTOM
 70
0
 71
3
 72
399
 73
395
 74
0
 42
0.0000001
 43
0.0000001
 44
0.0000000001
 40
0.0
 40
0.0
 40
0.0
 40
0.0
 40
0.015625
 40
0.0234375
 40
0.03125
 40
0.0390625
 40
0.04296875
 40
0.046875
 40
0.05078125
 40
0.0546875
 40
0.056640625
 40
0.05859375
 40
0.0595703125
 40
0.060546875
 40
0.0615234375
 40
0.0620117188
 40
0.0622558594
 40
0.0625
 40
0.0627441406
 40
0.0629882812
 40
0.0634765625
 40
0.064453125
 40
0.0654296875
 40
0.06640625
 40
0.068359375
 40
0.0703125
 40
0.07421875
 40
0.078125
 40
0.08203125
 40
0.0859375
 40
0.09375
 40
0.1015625
 40
0.10546875
 40
0.109375
 40
0.11328125
 40
0.1171875
 40
0.119140625
 40
0.12109375
 40
0.1220703125
 40
0.123046875
 40
0.1240234375
 40
0.1245117188
 40
0.1247558594
 40
0.125
 40
0.1252441406
 40
0.1254882812
 40
0.1259765625
 40
0.126953125
 40
0.1279296875
 40
0.12890625
 40
0.130859375
 40
0.1328125
 40
0.13671875
 40
0.140625
 40
0.14453125
 40
0.1484375
 40
0.15625
 40
0.1640625
 40
0.16796875
 40
0.171875
 40
0.17578125
 40
0.1796875
 40
0.181640625
 40
0.18359375
 40
0.1845703125
 40
0.185546875
 40
0.1865234375
 40
0.1870117188
 40
0.1872558594
 40
0.1875
 40
0.1877441406
 40
0.1879882812
 40
0.1884765625
 40
0.189453125
 40
0.1904296875
 40
0.19140625
 40
0.193359375
 40
0.1953125
 40
0.19921875
 40
0.203125
 40
0.20703125
 40
0.2109375
 40
0.21875
 40
0.2265625
 40
0.23046875
 40
0.234375
 40
0.23828125
 40
0.2421875
 40
0.244140625
 40
0.24609375
 40
0.2470703125
 40
0.248046875
 40
0.2490234375
 40
0.2495117188
 40
0.2497558594
 40
0.25
 40
0.2502441406
 40
0.2504882812
 40
0.2509765625
 40
0.251953125
 40
0.2529296875
 40
0.25390625
 40
0.255859375
 40
0.2578125
 40
0.26171875
 40
0.265625
 40
0.26953125
 40
0.2734375
 40
0.28125
 40
0.2890625
 40
0.29296875
 40
0.296875
 40
0.30078125
 40
0.3046875
 40
0.306640625
 40
0.30859375
 40
0.3095703125
 40
0.310546875
 40
0.3115234375
 40
0.3120117188
 40
0.3125
 40
0.3129882812
 40
0.3134765625
 40
0.314453125
 40
0.3154296875
 40
0.31640625
 40
0.318359375
 40
0.3203125
 40
0.32421875
 40
0.328125
 40
0.33203125
 40
0.3359375
 40
0.34375
 40
0.3515625
 40
0.35546875
 40
0.359375
 40
0.36328125
 40
0.3671875
 40
0.369140625
 40
0.37109375
 40
0.3720703125
 40
0.373046875
 40
0.3740234375
 40
0.3745117188
 40
0.375
 40
0.3754882812
 40
0.3759765625
 40
0.376953125
 40
0.3779296875
 40
0.37890625
 40
0.380859375
 40
0.3828125
 40
0.38671875
 40
0.390625
 40
0.39453125
 40
0.3984375
 40
0.40625
 40
0.4140625
 40
0.41796875
 40
0.421875
 40
0.42578125
 40
0.4296875
 40
0.431640625
 40
0.43359375
 40
0.4345703125
 40
0.435546875
 40
0.4365234375
 40
0.4370117188
 40
0.4372558594
 40
0.4375
 40
0.4377441406
 40
0.4379882812
 40
0.4384765625
 40
0.439453125
 40
0.4404296875
 40
0.44140625
 40
0.443359375
 40
0.4453125
 40
0.44921875
 40
0.453125
 40
0.45703125
 40
0.4609375
 40
0.46875
 40
0.4765625
 40
0.48046875
 40
0.484375
 40
0.48828125
 40
0.4921875
 40
0.494140625
 40
0.49609375
 40
0.4970703125
 40
0.498046875
 40
0.4990234375
 40
0.4995117188
 40
0.4997558594
 40
0.5
 40
0.5002441406
 40
0.5004882812
 40
0.5009765625
 40
0.501953125
 40
0.5029296875
 40
0.50390625
 40
0.505859375
 40
0.5078125
 40
0.51171875
 40
0.515625
 40
0.51953125
 40
0.5234375
 40
0.53125
 40
0.5390625
 40
0.54296875
 40
0.546875
 40
0.55078125
 40
0.5546875
 40
0.556640625
 40
0.55859375
 40
0.5595703125
 40
0.560546875
 40
0.5615234375
 40
0.5620117188
 40
0.5622558594
 40
0.5625
 40
0.5627441406
 40
0.5629882812
 40
0.5634765625
 40
0.564453125
 40
0.5654296875
 40
0.56640625
 40
0.568359375
 40
0.5703125
 40
0.57421875
 40
0.578125
 40
0.58203125
 40
0.5859375
 40
0.59375
 40
0.6015625
 40
0.60546875
 40
0.609375
 40
0.61328125
 40
0.6171875
 40
0.619140625
 40
0.62109375
 40
0.6220703125
 40
0.623046875
 40
0.6240234375
 40
0.6245117188
 40
0.6247558594
 40
0.625
 40
0.6252441406
 40
0.6254882812
 40
0.6259765625
 40
0.626953125
 40
0.6279296875
 40
0.62890625
 40
0.630859375
 40
0.6328125
 40
0.63671875
 40
0.640625
 40
0.64453125
 40
0.6484375
 40
0.65625
 40
0.6640625
 40
0.66796875
 40
0.671875
 40
0.67578125
 40
0.6796875
 40
0.681640625
 40
0.68359375
 40
0.6845703125
 40
0.685546875
 40
0.6865234375
 40
0.6870117188
 40
0.6872558594
 40
0.6875
 40
0.6877441406
 40
0.6879882812
 40
0.6884765625
 40
0.689453125
 40
0.6904296875
 40
0.69140625
 40
0.693359375
 40
0.6953125
 40
0.69921875
 40
0.703125
 40
0.70703125
 40
0.7109375
 40
0.71875
 40
0.7265625
 40
0.73046875
 40
0.734375
 40
0.73828125
 40
0.7421875
 40
0.744140625
 40
0.74609375
 40
0.7470703125
 40
0.748046875
 40
0.7490234375
 40
0.7495117188
 40
0.7497558594
 40
0.75
 40
0.7502441406
 40
0.7504882812
 40
0.7509765625
 40
0.751953125
 40
0.7529296875
 40
0.75390625
 40
0.755859375
 40
0.7578125
 40
0.76171875
 40
0.765625
 40
0.76953125
 40
0.7734375
 40
0.78125
 40
0.7890625
 40
0.79296875
 40
0.796875
 40
0.80078125
 40
0.8046875
 40
0.806640625
 40
0.80859375
 40
0.8095703125
 40
0.810546875
 40
0.8115234375
 40
0.8120117188
 40
0.8122558594
 40
0.8125
 40
0.8127441406
 40
0.8129882812
 40
0.8134765625
 40
0.814453125
 40
0.8154296875
 40
0.81640625
 40
0.818359375
 40
0.8203125
 40
0.82421875
 40
0.828125
 40
0.83203125
 40
0.8359375
 40
0.84375
 40
0.8515625
 40
0.85546875
 40
0.859375
 40
0.86328125
 40
0.8671875
 40
0.869140625
 40
0.87109375
 40
0.8720703125
 40
0.873046875
 40
0.8740234375
 40
0.8745117188
 40
0.8747558594
 40
0.875
 40
0.8752441406
 40
0.8754882812
 40
0.8759765625
 40
0.876953125
 40
0.8779296875
 40
0.87890625
 40
0.880859375
 40
0.8828125
 40
0.88671875
 40
0.890625
 40
0.89453125
 40
0.8984375
 40
0.90625
 40
0.9140625
 40
0.91796875
 40
0.921875
 40
0.92578125
 40
0.9296875
 40
0.931640625
 40
0.93359375
 40
0.9345703125
 40
0.935546875
 40
0.9365234375
 40
0.9370117188
 40
0.9372558594
 40
0.9375
 40
0.9377441406
 40
0.9379882812
 40
0.9384765625
 40
0.939453125
 40
0.9404296875
 40
0.94140625
 40
0.943359375
 40
0.9453125
 40
0.94921875
 40
0.953125
 40
0.95703125
 40
0.9609375
 40
0.96875
 40
0.9765625
 40
0.984375
 40
1.0
 40
1.0
 40
1.0
 40
1.0
 10
13.1304441979
 20
12.0925987178
 30
0.0
 10
13.1461423729
 20
12.0679165988
 30
0.0
 10
13.1696896355
 20
12.0308934203
 30
0.0
 10
13.2010859853
 20
11.9815291822
 30
0.0
 10
13.2246332484
 20
11.9445060038
 30
0.0
 10
13.2442559654
 20
11.9136533548
 30
0.0
 10
13.2599541439
 20
11.8889712363
 30
0.0
 10
13.2717277644
 20
11.8704596455
 30
0.0
 10
13.2835014359
 20
11.851948062
 30
0.0
 10
13.2933126703
 20
11.8365217197
 30
0.0
 10
13.3011620126
 20
11.8241806967
 30
0.0
 10
13.3060670437
 20
11.8164674417
 30
0.0
 10
13.3099929189
 20
11.8102971024
 30
0.0
 10
13.3129322589
 20
11.8056686234
 30
0.0
 10
13.3153978259
 20
11.8018138623
 30
0.0
 10
13.3170920937
 20
11.7991110064
 30
0.0
 10
13.3181096329
 20
11.79757358
 30
0.0
 10
13.3187336659
 20
11.7964006145
 30
0.0
 10
13.3198894912
 20
11.7953037001
 30
0.0
 10
13.3212450966
 20
11.7938146201
 30
0.0
 10
13.3237038316
 20
11.7912210896
 30
0.0
 10
13.3271711259
 20
11.7875095844
 30
0.0
 10
13.3313512193
 20
11.783058544
 30
0.0
 10
13.336917922
 20
11.7771228574
 30
0.0
 10
13.3438786135
 20
11.76970358
 30
0.0
 10
13.355014427
 20
11.7578325511
 30
0.0
 10
13.3689346375
 20
11.7429938285
 30
0.0
 10
13.3856387
 20
11.7251873342
 30
0.0
 10
13.4023428133
 20
11.7073808472
 30
0.0
 10
13.4246149466
 20
11.6836388619
 30
0.0
 10
13.4524551199
 20
11.6539613813
 30
0.0
 10
13.4802952889
 20
11.6242838998
 30
0.0
 10
13.5025674289
 20
11.600541916
 30
0.0
 10
13.5192715222
 20
11.5827354245
 30
0.0
 10
13.5359756598
 20
11.5649289472
 30
0.0
 10
13.5498956365
 20
11.5500901716
 30
0.0
 10
13.5610319269
 20
11.5382192507
 30
0.0
 10
13.5679914047
 20
11.5307996985
 30
0.0
 10
13.5735605986
 20
11.5248645759
 30
0.0
 10
13.5777330814
 20
11.5204118125
 30
0.0
 10
13.5812241875
 20
11.5167056982
 30
0.0
 10
13.5836404143
 20
11.514102544
 30
0.0
 10
13.5850641284
 20
11.5126288836
 30
0.0
 10
13.5860107456
 20
11.511484605
 30
0.0
 10
13.5874205299
 20
11.5104895316
 30
0.0
 10
13.5891386843
 20
11.5091107226
 30
0.0
 10
13.5922207274
 20
11.5067220553
 30
0.0
 10
13.5965842927
 20
11.503296996
 30
0.0
 10
13.6018374155
 20
11.4991923513
 30
0.0
 10
13.6088356959
 20
11.4937175963
 30
0.0
 10
13.6175855608
 20
11.4868748015
 30
0.0
 10
13.6315842187
 20
11.4759259671
 30
0.0
 10
13.6490829276
 20
11.4622400486
 30
0.0
 10
13.6700812125
 20
11.4458168931
 30
0.0
 10
13.6910795418
 20
11.4293937518
 30
0.0
 10
13.7190772986
 20
11.4074962251
 30
0.0
 10
13.7540745004
 20
11.3801243187
 30
0.0
 10
13.7890716985
 20
11.3527524108
 30
0.0
 10
13.8170694613
 20
11.3308548864
 30
0.0
 10
13.8380677727
 20
11.3144317382
 30
0.0
 10
13.8590661249
 20
11.2980086084
 30
0.0
 10
13.8765646245
 20
11.2843226099
 30
0.0
 10
13.8905637091
 20
11.2733739387
 30
0.0
 10
13.8993124883
 20
11.2665307287
 30
0.0
 10
13.9063129972
 20
11.2610568261
 30
0.0
 10
13.9115593117
 20
11.2569495771
 30
0.0
 10
13.9159441785
 20
11.253532666
 30
0.0
 10
13.9189881947
 20
11.2511294528
 30
0.0
 10
13.9207672778
 20
11.2497739499
 30
0.0
 10
13.9219899089
 20
11.2487072876
 30
0.0
 10
13.9236394422
 20
11.2478318848
 30
0.0
 10
13.9256899118
 20
11.2465979676
 30
0.0
 10
13.9293476125
 20
11.2444696956
 30
0.0
 10
13.9345366272
 20
11.2414130564
 30
0.0
 10
13.9407789704
 20
11.2377520452
 30
0.0
 10
13.9490966719
 20
11.2328682673
 30
0.0
 10
13.9594956555
 20
11.2267643769
 30
0.0
 10
13.9761329916
 20
11.2169976872
 30
0.0
 10
13.9969300177
 20
11.2047894847
 30
0.0
 10
14.0218862965
 20
11.1901395732
 30
0.0
 10
14.0468426161
 20
11.1754896801
 30
0.0
 10
14.0801176946
 20
11.1559564828
 30
0.0
 10
14.1217115479
 20
11.1315399888
 30
0.0
 10
14.1633053984
 20
11.1071234926
 30
0.0
 10
14.1965804813
 20
11.0875902987
 30
0.0
 10
14.2215367877
 20
11.0729403955
 30
0.0
 10
14.2464931161
 20
11.0582905217
 30
0.0
 10
14.2672899878
 20
11.0460822021
 30
0.0
 10
14.2839276388
 20
11.0363157512
 30
0.0
 10
14.2943258209
 20
11.0302112533
 30
0.0
 10
14.3026451677
 20
11.0253287222
 30
0.0
 10
14.3088824844
 20
11.0216639019
 30
0.0
 10
14.3140872257
 20
11.0186191804
 30
0.0
 10
14.3177168518
 20
11.0164696332
 30
0.0
 10
14.319812304
 20
11.0152698042
 30
0.0
 10
14.3213236649
 20
11.0142896934
 30
0.0
 10
14.3230652487
 20
11.0136162971
 30
0.0
 10
14.3253070561
 20
11.0126114499
 30
0.0
 10
14.3292676343
 20
11.0109028139
 30
0.0
 10
14.3349060421
 20
11.0084358449
 30
0.0
 10
14.3416805042
 20
11.0054866368
 30
0.0
 10
14.3507101959
 20
11.0015504633
 30
0.0
 10
14.3619983119
 20
10.9966315803
 30
0.0
 10
14.3800587377
 20
10.9887606221
 30
0.0
 10
14.4026344621
 20
10.9789221801
 30
0.0
 10
14.4297252491
 20
10.96711594
 30
0.0
 10
14.4568160581
 20
10.9553097292
 30
0.0
 10
14.4929371291
 20
10.9395681048
 30
0.0
 10
14.53808847
 20
10.9198910768
 30
0.0
 10
14.5832398118
 20
10.9002140513
 30
0.0
 10
14.6193608813
 20
10.8844724228
 30
0.0
 10
14.6464516949
 20
10.8726662243
 30
0.0
 10
14.6735424645
 20
10.8608599381
 30
0.0
 10
14.6961182429
 20
10.8510216398
 30
0.0
 10
14.7141785586
 20
10.8431503885
 30
0.0
 10
14.725466955
 20
10.8382322513
 30
0.0
 10
14.734496071
 20
10.834294547
 30
0.0
 10
14.7412722919
 20
10.8313500153
 30
0.0
 10
14.746905197
 20
10.828868415
 30
0.0
 10
14.7514427985
 20
10.826945539
 30
0.0
 10
14.7547605347
 20
10.8253328634
 30
0.0
 10
14.7584044921
 20
10.82437106
 30
0.0
 10
14.7631491485
 20
10.8228612973
 30
0.0
 10
14.7691190659
 20
10.8210520994
 30
0.0
 10
14.7762662321
 20
10.8188476731
 30
0.0
 10
14.7858016321
 20
10.8159201001
 30
0.0
 10
14.7977188807
 20
10.8122566407
 30
0.0
 10
14.8167875971
 20
10.8063973374
 30
0.0
 10
14.8406231087
 20
10.7990724424
 30
0.0
 10
14.8692258871
 20
10.7902828968
 30
0.0
 10
14.8978286216
 20
10.7814932633
 30
0.0
 10
14.9359656163
 20
10.7697737829
 30
0.0
 10
14.9836368542
 20
10.7551244206
 30
0.0
 10
15.0313080946
 20
10.7404750665
 30
0.0
 10
15.0694450853
 20
10.7287555731
 30
0.0
 10
15.0980478316
 20
10.7199659786
 30
0.0
 10
15.1266505656
 20
10.7111762866
 30
0.0
 10
15.1504862156
 20
10.7038518472
 30
0.0
 10
15.1695546498
 20
10.697991615
 30
0.0
 10
15.1814726165
 20
10.6943305195
 30
0.0
 10
15.1910065425
 20
10.6913980941
 30
0.0
 10
15.1981582119
 20
10.6892084923
 30
0.0
 10
15.2041140398
 20
10.6873529122
 30
0.0
 10
15.2088874416
 20
10.6859377782
 30
0.0
 10
15.2124436122
 20
10.6846869844
 30
0.0
 10
15.2160909363
 20
10.6841592989
 30
0.0
 10
15.2209221939
 20
10.6832031271
 30
0.0
 10
15.2269721905
 20
10.6820945752
 30
0.0
 10
15.2342275104
 20
10.6807272184
 30
0.0
 10
15.2439029035
 20
10.6789170323
 30
0.0
 10
15.2559965856
 20
10.6766498635
 30
0.0
 10
15.2753467895
 20
10.6730248728
 30
0.0
 10
15.2995344372
 20
10.6684927836
 30
0.0
 10
15.3285596604
 20
10.6630546413
 30
0.0
 10
15.3575848713
 20
10.6576164014
 30
0.0
 10
15.3962851568
 20
10.650365449
 30
0.0
 10
15.4446605121
 20
10.6413017471
 30
0.0
 10
15.4930358681
 20
10.6322380479
 30
0.0
 10
15.5317361526
 20
10.6249870911
 30
0.0
 10
15.5607613664
 20
10.6195488641
 30
0.0
 10
15.5897865784
 20
10.6141106737
 30
0.0
 10
15.6139742611
 20
10.6095787341
 30
0.0
 10
15.6333243936
 20
10.6059534384
 30
0.0
 10
15.6454182575
 20
10.6036870456
 30
0.0
 10
15.6550932774
 20
10.6018752666
 30
0.0
 10
15.6623497374
 20
10.6005127764
 30
0.0
 10
15.6683961668
 20
10.5993889982
 30
0.0
 10
15.6726298853
 20
10.5985795292
 30
0.0
 10
15.6750472513
 20
10.5981526138
 30
0.0
 10
15.6768656331
 20
10.5977320336
 30
0.0
 10
15.6786635363
 20
10.5976952085
 30
0.0
 10
15.6810678838
 20
10.5975122504
 30
0.0
 10
15.6852721637
 20
10.5972544405
 30
0.0
 10
15.6912800178
 20
10.5968535346
 30
0.0
 10
15.698488698
 20
10.5963864039
 30
0.0
 10
15.7081005318
 20
10.5957586883
 30
0.0
 10
15.7201152348
 20
10.594975713
 30
0.0
 10
15.7393388096
 20
10.5937220195
 30
0.0
 10
15.7633682609
 20
10.5921552228
 30
0.0
 10
15.7922036098
 20
10.5902749296
 30
0.0
 10
15.8210389568
 20
10.588394673
 30
0.0
 10
15.8594860868
 20
10.5858876514
 30
0.0
 10
15.9075449987
 20
10.5827538792
 30
0.0
 10
15.9556039119
 20
10.5796201038
 30
0.0
 10
15.99405104
 20
10.5771130874
 30
0.0
 10
16.0228863924
 20
10.5752328151
 30
0.0
 10
16.0517217211
 20
10.5733525809
 30
0.0
 10
16.0757512354
 20
10.5717856004
 30
0.0
 10
16.0949746816
 20
10.5705322819
 30
0.0
 10
16.1069897118
 20
10.5697483523
 30
0.0
 10
16.1166008741
 20
10.5691225954
 30
0.0
 10
16.1238116058
 20
10.5686494806
 30
0.0
 10
16.1298130411
 20
10.5682672977
 30
0.0
 10
16.1340287798
 20
10.5679760641
 30
0.0
 10
16.1364147674
 20
10.5678466592
 30
0.0
 10
16.138269066
 20
10.5676453355
 30
0.0
 10
16.1398756361
 20
10.567842585
 30
0.0
 10
16.14210414
 20
10.5679665576
 30
0.0
 10
16.1459637617
 20
10.5682482848
 30
0.0
 10
16.1514985553
 20
10.5686168871
 30
0.0
 10
16.1581312983
 20
10.5690737051
 30
0.0
 10
16.1669781025
 20
10.5696777329
 30
0.0
 10
16.1780355302
 20
10.5704345013
 30
0.0
 10
16.1957280167
 20
10.5716443617
 30
0.0
 10
16.2178434182
 20
10.5731570197
 30
0.0
 10
16.2443819886
 20
10.5749720668
 30
0.0
 10
16.2709205353
 20
10.576787152
 30
0.0
 10
16.3063052725
 20
10.5792072523
 30
0.0
 10
16.3505361909
 20
10.5822323826
 30
0.0
 10
16.3947671115
 20
10.5852575096
 30
0.0
 10
16.4301518451
 20
10.5876776151
 30
0.0
 10
16.4566904028
 20
10.5894926846
 30
0.0
 10
16.4832289317
 20
10.5913077908
 30
0.0
 10
16.5053444623
 20
10.5928202649
 30
0.0
 10
16.5230366857
 20
10.5940305004
 30
0.0
 10
16.5340947829
 20
10.5947863141
 30
0.0
 10
16.5429402128
 20
10.5953923015
 30
0.0
 10
16.5495771544
 20
10.5958431328
 30
0.0
 10
16.5550988116
 20
10.596230466
 30
0.0
 10
16.558981884
 20
10.5964787553
 30
0.0
 10
16.5611728138
 20
10.5966563038
 30
0.0
 10
16.5628947996
 20
10.5966889853
 30
0.0
 10
16.5643156162
 20
10.5971057522
 30
0.0
 10
16.5663150894
 20
10.597527468
 30
0.0
 10
16.5697652224
 20
10.5983278915
 30
0.0
 10
16.5747195729
 20
10.5994387194
 30
0.0
 10
16.5806538406
 20
10.6007856813
 30
0.0
 10
16.5885700231
 20
10.6025767516
 30
0.0
 10
16.5984639414
 20
10.60481726
 30
0.0
 10
16.6142949427
 20
10.6084011398
 30
0.0
 10
16.6340834431
 20
10.61288131
 30
0.0
 10
16.6578297513
 20
10.6182573768
 30
0.0
 10
16.6815760307
 20
10.6236334804
 30
0.0
 10
16.7132377467
 20
10.6308016057
 30
0.0
 10
16.7528148877
 20
10.639761767
 30
0.0
 10
16.7923920317
 20
10.6487219253
 30
0.0
 10
16.824053743
 20
10.6558900555
 30
0.0
 10
16.8478000365
 20
10.6612661441
 30
0.0
 10
16.8715462918
 20
10.6666422673
 30
0.0
 10
16.8913349568
 20
10.6711222621
 30
0.0
 10
16.9071656226
 20
10.6747064995
 30
0.0
 10
16.9170603946
 20
10.6769460979
 30
0.0
 10
16.9249748248
 20
10.6787390362
 30
0.0
 10
16.930914446
 20
10.6800802912
 30
0.0
 10
16.9358520464
 20
10.6812089747
 30
0.0
 10
16.9393320813
 20
10.6819775228
 30
0.0
 10
16.9412836441
 20
10.682450311
 30
0.0
 10
16.9428516262
 20
10.6827102001
 30
0.0
 10
16.9440208826
 20
10.6833320882
 30
0.0
 10
16.9457189711
 20
10.6840350031
 30
0.0
 10
16.948625826
 20
10.6853239353
 30
0.0
 10
16.9528123541
 20
10.6871345094
 30
0.0
 10
16.9578216868
 20
10.6893203636
 30
0.0
 10
16.964505862
 20
10.6922302375
 30
0.0
 10
16.9728593467
 20
10.6958691544
 30
0.0
 10
16.9862258915
 20
10.7016905413
 30
0.0
 10
17.00293374
 20
10.708967577
 30
0.0
 10
17.0229833007
 20
10.7176998903
 30
0.0
 10
17.0430328233
 20
10.7264322383
 30
0.0
 10
17.0697655334
 20
10.7380753569
 30
0.0
 10
17.103181416
 20
10.7526292595
 30
0.0
 10
17.1365973022
 20
10.7671831592
 30
0.0
 10
17.1633300066
 20
10.7788262825
 30
0.0
 10
17.1833795464
 20
10.7875586162
 30
0.0
 10
17.2034290425
 20
10.7962909834
 30
0.0
 10
17.2201370918
 20
10.8035678514
 30
0.0
 10
17.2335032271
 20
10.8093895803
 30
0.0
 10
17.2418577542
 20
10.8130276269
 30
0.0
 10
17.2485397897
 20
10.8159392871
 30
0.0
 10
17.2535556594
 20
10.818119684
 30
0.0
 10
17.257721735
 20
10.8199473327
 30
0.0
 10
17.2606651009
 20
10.8212057838
 30
0.0
 10
17.2623046896
 20
10.8219575371
 30
0.0
 10
17.2636536387
 20
10.8224294092
 30
0.0
 10
17.2645467245
 20
10.8232527335
 30
0.0
 10
17.2658965158
 20
10.8242279088
 30
0.0
 10
17.2681845646
 20
10.8259915826
 30
0.0
 10
17.2714919388
 20
10.8284812552
 30
0.0
 10
17.2754442089
 20
10.831481644
 30
0.0
 10
17.280719693
 20
10.8354776979
 30
0.0
 10
17.2873120655
 20
10.840474294
 30
0.0
 10
17.2978609695
 20
10.8484679934
 30
0.0
 10
17.3110467193
 20
10.8584604108
 30
0.0
 10
17.326869782
 20
10.870451186
 30
0.0
 10
17.3426928012
 20
10.8824419948
 30
0.0
 10
17.3637901753
 20
10.8984297281
 30
0.0
 10
17.3901618872
 20
10.918414399
 30
0.0
 10
17.4165336034
 20
10.9383990675
 30
0.0
 10
17.4376309706
 20
10.9543868048
 30
0.0
 10
17.4534540106
 20
10.9663776014
 30
0.0
 10
17.469276995
 20
10.9783684226
 30
0.0
 10
17.4824629884
 20
10.988360697
 30
0.0
 10
17.4930113957
 20
10.9963546879
 30
0.0
 10
17.4996050323
 20
11.0013505419
 30
0.0
 10
17.5048779215
 20
11.0053481192
 30
0.0
 10
17.5088381195
 20
11.0083438541
 30
0.0
 10
17.5121206894
 20
11.0108480873
 30
0.0
 10
17.514453018
 20
11.012585768
 30
0.0
 10
17.5157318619
 20
11.0136025909
 30
0.0
 10
17.5168428753
 20
11.0142979869
 30
0.0
 10
17.5173733247
 20
11.0152503362
 30
0.0
 10
17.5182830977
 20
11.0164305071
 30
0.0
 10
17.5197808488
 20
11.0185375656
 30
0.0
 10
17.5219698213
 20
11.0215258168
 30
0.0
 10
17.5245754743
 20
11.0251210632
 30
0.0
 10
17.528057053
 20
11.0299114611
 30
0.0
 10
17.5324065012
 20
11.0359005761
 30
0.0
 10
17.5393670297
 20
11.0454825354
 30
0.0
 10
17.5480672061
 20
11.0574601989
 30
0.0
 10
17.5585076253
 20
11.0718333031
 30
0.0
 10
17.5689479889
 20
11.086206432
 30
0.0
 10
17.5828684933
 20
11.1053705952
 30
0.0
 10
17.6002691165
 20
11.1293258024
 30
0.0
 10
17.6176697445
 20
11.1532810076
 30
0.0
 10
17.631590241
 20
11.1724451739
 30
0.0
 10
17.6420306283
 20
11.1868182932
 30
0.0
 10
17.6524709591
 20
11.2011914334
 30
0.0
 10
17.6611714104
 20
11.2131689853
 30
0.0
 10
17.6681313783
 20
11.2227511721
 30
0.0
 10
17.6724822531
 20
11.228739708
 30
0.0
 10
17.6759609036
 20
11.2335312945
 30
0.0
 10
17.6785755027
 20
11.2371229094
 30
0.0
 10
17.6807364849
 20
11.240122523
 30
0.0
 10
17.6822842034
 20
11.2422092977
 30
0.0
 10
17.6831139159
 20
11.2434219682
 30
0.0
 10
17.6838902858
 20
11.2442744892
 30
0.0
 10
17.6840776628
 20
11.2453448236
 30
0.0
 10
17.6845329462
 20
11.2466959603
 30
0.0
 10
17.6852339705
 20
11.2490958481
 30
0.0
 10
17.686285478
 20
11.2525057525
 30
0.0
 10
17.6875258665
 20
11.2566055593
 30
0.0
 10
17.6891871996
 20
11.2620692015
 30
0.0
 10
17.6912613042
 20
11.2688997016
 30
0.0
 10
17.6945813033
 20
11.2798279723
 30
0.0
 10
17.6987308109
 20
11.2934884924
 30
0.0
 10
17.7037104306
 20
11.3098810386
 30
0.0
 10
17.7086899939
 20
11.3262736057
 30
0.0
 10
17.7153294315
 20
11.3481303544
 30
0.0
 10
17.7236287211
 20
11.375451293
 30
0.0
 10
17.7319280157
 20
11.4027722301
 30
0.0
 10
17.7385674452
 20
11.4246289813
 30
0.0
 10
17.7435470327
 20
11.441021541
 30
0.0
 10
17.7485265619
 20
11.457414115
 30
0.0
 10
17.7526763511
 20
11.4710745485
 30
0.0
 10
17.7559957758
 20
11.4820029957
 30
0.0
 10
17.7580713422
 20
11.4888330466
 30
0.0
 10
17.7597296747
 20
11.4942976109
 30
0.0
 10
17.7609792304
 20
11.4983946006
 30
0.0
 10
17.7620020562
 20
11.5018133189
 30
0.0
 10
17.7627542821
 20
11.5041974725
 30
0.0
 10
17.7631275275
 20
11.5055738194
 30
0.0
 10
17.7635668989
 20
11.506566716
 30
0.0
 10
17.76339682
 20
11.5077100805
 30
0.0
 10
17.7633826312
 20
11.5091820816
 30
0.0
 10
17.7632587545
 20
11.5117825371
 30
0.0
 10
17.7631335703
 20
11.515484689
 30
0.0
 10
17.7629611846
 20
11.5199327434
 30
0.0
 10
17.7627390787
 20
11.5258615714
 30
0.0
 10
17.7624587956
 20
11.5332732607
 30
0.0
 10
17.7620118241
 20
11.545131598
 30
0.0
 10
17.7614526014
 20
11.559954645
 30
0.0
 10
17.7607817521
 20
11.5777422476
 30
0.0
 10
17.7601108444
 20
11.5955298647
 30
0.0
 10
17.7592163213
 20
11.6192466824
 30
0.0
 10
17.7580981598
 20
11.6488927063
 30
0.0
 10
17.7569800034
 20
11.6785387292
 30
0.0
 10
17.756085472
 20
11.7022555486
 30
0.0
 10
17.7554145892
 20
11.7200431603
 30
0.0
 10
17.7547436467
 20
11.7378307829
 30
0.0
 10
17.7541847139
 20
11.752653768
 30
0.0
 10
17.7537371511
 20
11.7645122316
 30
0.0
 10
17.7534583728
 20
11.7719235993
 30
0.0
 10
17.7532331781
 20
11.7778530875
 30
0.0
 10
17.753070229
 20
11.7822991246
 30
0.0
 10
17.7529155202
 20
11.7860075884
 30
0.0
 10
17.7528443497
 20
11.788596776
 30
0.0
 10
17.7527457123
 20
11.7900868312
 30
0.0
 10
17.7528350327
 20
11.7911747392
 30
0.0
 10
17.7523001432
 20
11.7923759213
 30
0.0
 10
17.7518046885
 20
11.7939379862
 30
0.0
 10
17.7508361978
 20
11.7966900088
 30
0.0
 10
17.7495056762
 20
11.8006118451
 30
0.0
 10
17.7478863489
 20
11.8053221683
 30
0.0
 10
17.745735175
 20
11.8116011604
 30
0.0
 10
17.7430434927
 20
11.8194503932
 30
0.0
 10
17.7387383185
 20
11.8320088903
 30
0.0
 10
17.7333563299
 20
11.8477071061
 30
0.0
 10
17.7268981668
 20
11.8665449246
 30
0.0
 10
17.7204399441
 20
11.8853827539
 30
0.0
 10
17.7118290012
 20
11.9104998559
 30
0.0
 10
17.7010653155
 20
11.9418962347
 30
0.0
 10
17.6881488957
 20
11.9795718887
 30
0.0
 10
17.6709270016
 20
12.0298060943
 30
0.0
 10
17.6580105813
 20
12.0674817483
 30
0.0
 10
17.6493996343
 20
12.0925988511
 30
0.0
  0
SPLINE
  5
33E
100
AcDbEntity
  8
03__ASM_ALL_CURVES
100
AcDbSpline
 62
8
  6
PHANTOM
 70
0
 71
3
 72
158
 73
154
 74
0
 42
0.0000001
 43
0.0000001
 44
0.0000000001
 40
0.0
 40
0.0
 40
0.0
 40
0.0
 40
0.015625
 40
0.03125
 40
0.0390625
 40
0.046875
 40
0.0546875
 40
0.05859375
 40
0.060546875
 40
0.0625
 40
0.064453125
 40
0.06640625
 40
0.0703125
 40
0.078125
 40
0.09375
 40
0.109375
 40
0.1171875
 40
0.12109375
 40
0.123046875
 40
0.125
 40
0.126953125
 40
0.12890625
 40
0.1328125
 40
0.140625
 40
0.15625
 40
0.171875
 40
0.1796875
 40
0.18359375
 40
0.1875
 40
0.19140625
 40
0.1953125
 40
0.203125
 40
0.21875
 40
0.234375
 40
0.2421875
 40
0.24609375
 40
0.25
 40
0.25390625
 40
0.2578125
 40
0.265625
 40
0.28125
 40
0.296875
 40
0.3046875
 40
0.30859375
 40
0.3125
 40
0.31640625
 40
0.3203125
 40
0.328125
 40
0.34375
 40
0.359375
 40
0.3671875
 40
0.37109375
 40
0.375
 40
0.37890625
 40
0.3828125
 40
0.390625
 40
0.40625
 40
0.421875
 40
0.4296875
 40
0.43359375
 40
0.4375
 40
0.44140625
 40
0.4453125
 40
0.453125
 40
0.46875
 40
0.484375
 40
0.4921875
 40
0.49609375
 40
0.5
 40
0.50390625
 40
0.5078125
 40
0.515625
 40
0.53125
 40
0.546875
 40
0.5546875
 40
0.55859375
 40
0.560546875
 40
0.5625
 40
0.564453125
 40
0.56640625
 40
0.5703125
 40
0.578125
 40
0.59375
 40
0.609375
 40
0.6171875
 40
0.62109375
 40
0.623046875
 40
0.625
 40
0.626953125
 40
0.62890625
 40
0.6328125
 40
0.640625
 40
0.65625
 40
0.671875
 40
0.6796875
 40
0.68359375
 40
0.685546875
 40
0.6875
 40
0.689453125
 40
0.69140625
 40
0.6953125
 40
0.703125
 40
0.71875
 40
0.7265625
 40
0.734375
 40
0.7421875
 40
0.74609375
 40
0.748046875
 40
0.75
 40
0.751953125
 40
0.75390625
 40
0.7578125
 40
0.765625
 40
0.7734375
 40
0.78125
 40
0.7890625
 40
0.796875
 40
0.8046875
 40
0.80859375
 40
0.810546875
 40
0.8125
 40
0.814453125
 40
0.81640625
 40
0.8203125
 40
0.828125
 40
0.8359375
 40
0.84375
 40
0.8515625
 40
0.859375
 40
0.8671875
 40
0.87109375
 40
0.873046875
 40
0.875
 40
0.876953125
 40
0.87890625
 40
0.8828125
 40
0.890625
 40
0.8984375
 40
0.90625
 40
0.9140625
 40
0.921875
 40
0.9296875
 40
0.93359375
 40
0.935546875
 40
0.9375
 40
0.939453125
 40
0.94140625
 40
0.9453125
 40
0.953125
 40
0.9609375
 40
0.96875
 40
0.984375
 40
1.0
 40
1.0
 40
1.0
 40
1.0
 10
13.4841272032
 20
12.9473124242
 30
0.0
 10
13.4856550255
 20
12.9449102408
 30
0.0
 10
13.4887108088
 20
12.940105894
 30
0.0
 10
13.4925298455
 20
12.9341003615
 30
0.0
 10
13.4955865288
 20
12.9292961434
 30
0.0
 10
13.4978750948
 20
12.9256924155
 30
0.0
 10
13.4997947821
 20
12.9226911035
 30
0.0
 10
13.501113937
 20
12.9205866633
 30
0.0
 10
13.5019061915
 20
12.919389625
 30
0.0
 10
13.5023920633
 20
12.9184763557
 30
0.0
 10
13.5032919856
 20
12.9176222993
 30
0.0
 10
13.5043474674
 20
12.9164629045
 30
0.0
 10
13.5062617375
 20
12.9144435745
 30
0.0
 10
13.5100423306
 20
12.9103980108
 30
0.0
 10
13.5154702849
 20
12.9046228895
 30
0.0
 10
13.5208811385
 20
12.8988438966
 30
0.0
 10
13.5246856727
 20
12.8948037531
 30
0.0
 10
13.5265670237
 20
12.8927769704
 30
0.0
 10
13.527675518
 20
12.8916295774
 30
0.0
 10
13.5284125552
 20
12.8907386444
 30
0.0
 10
13.5295102081
 20
12.8899638803
 30
0.0
 10
13.5308479755
 20
12.8888903466
 30
0.0
 10
13.5332474969
 20
12.8870304774
 30
0.0
 10
13.5380056898
 20
12.8832976655
 30
0.0
 10
13.5448193725
 20
12.8779696236
 30
0.0
 10
13.5516458074
 20
12.8726482971
 30
0.0
 10
13.5563861474
 20
12.8689060836
 30
0.0
 10
13.5591565122
 20
12.8667952926
 30
0.0
 10
13.5610603925
 20
12.8651342879
 30
0.0
 10
13.5636290467
 20
12.8637711205
 30
0.0
 10
13.5668220023
 20
12.8618496285
 30
0.0
 10
13.5725180912
 20
12.85853591
 30
0.0
 10
13.5805957644
 20
12.8537727048
 30
0.0
 10
13.588705316
 20
12.8490336575
 30
0.0
 10
13.5943567751
 20
12.8456861179
 30
0.0
 10
13.5976198632
 20
12.8438177733
 30
0.0
 10
13.5999733384
 20
12.8422915398
 30
0.0
 10
13.6026853355
 20
12.8412429387
 30
0.0
 10
13.6061762499
 20
12.8396781505
 30
0.0
 10
13.6123438816
 20
12.837017918
 30
0.0
 10
13.6211221418
 20
12.833172707
 30
0.0
 10
13.6299194821
 20
12.82935816
 30
0.0
 10
13.6360604017
 20
12.8266549978
 30
0.0
 10
13.6395932923
 20
12.8251576704
 30
0.0
 10
13.6421764986
 20
12.8239020876
 30
0.0
 10
13.6450136545
 20
12.8231531854
 30
0.0
 10
13.6487079411
 20
12.8219778579
 30
0.0
 10
13.6552142923
 20
12.8200039598
 30
0.0
 10
13.664486859
 20
12.8171362872
 30
0.0
 10
13.6737695475
 20
12.8143019352
 30
0.0
 10
13.6802617282
 20
12.8122813882
 30
0.0
 10
13.6839782828
 20
12.8111793662
 30
0.0
 10
13.6867471163
 20
12.8102055495
 30
0.0
 10
13.6895869111
 20
12.8097946456
 30
0.0
 10
13.693348555
 20
12.8090503647
 30
0.0
 10
13.6999429341
 20
12.8078399732
 30
0.0
 10
13.709357694
 20
12.806057947
 30
0.0
 10
13.718773671
 20
12.804312074
 30
0.0
 10
13.7253663463
 20
12.803051068
 30
0.0
 10
13.7291306675
 20
12.8023863243
 30
0.0
 10
13.7319622476
 20
12.8017313857
 30
0.0
 10
13.7347619319
 20
12.8016740547
 30
0.0
 10
13.738506007
 20
12.8013891001
 30
0.0
 10
13.7450525656
 20
12.8009881923
 30
0.0
 10
13.7544106986
 20
12.8003594251
 30
0.0
 10
13.7637558206
 20
12.7997686103
 30
0.0
 10
13.7703205947
 20
12.7993145691
 30
0.0
 10
13.7740360454
 20
12.7991131099
 30
0.0
 10
13.7769235544
 20
12.7987995999
 30
0.0
 10
13.7794253036
 20
12.7991067559
 30
0.0
 10
13.7828955117
 20
12.7992998207
 30
0.0
 10
13.7889058396
 20
12.799738357
 30
0.0
 10
13.7975235123
 20
12.8003137136
 30
0.0
 10
13.8061343418
 20
12.8009018073
 30
0.0
 10
13.8121542501
 20
12.8013225118
 30
0.0
 10
13.8151775092
 20
12.8015159621
 30
0.0
 10
13.8168833734
 20
12.8016541887
 30
0.0
 10
13.8182241073
 20
12.8016796372
 30
0.0
 10
13.8193303547
 20
12.8020041294
 30
0.0
 10
13.8208871372
 20
12.8023324836
 30
0.0
 10
13.8235734561
 20
12.8029556226
 30
0.0
 10
13.8289733245
 20
12.8041672559
 30
0.0
 10
13.8366714479
 20
12.8059178638
 30
0.0
 10
13.8443816007
 20
12.8076556486
 30
0.0
 10
13.849764628
 20
12.8088852343
 30
0.0
 10
13.8524741034
 20
12.8094836887
 30
0.0
 10
13.8539935949
 20
12.8098517949
 30
0.0
 10
13.855214422
 20
12.8100541458
 30
0.0
 10
13.8561248052
 20
12.8105383455
 30
0.0
 10
13.8574469282
 20
12.8110856403
 30
0.0
 10
13.8597102706
 20
12.8120891362
 30
0.0
 10
13.8642729662
 20
12.8140634693
 30
0.0
 10
13.8707702827
 20
12.8169025624
 30
0.0
 10
13.8772822874
 20
12.8197293932
 30
0.0
 10
13.8818244196
 20
12.8217208936
 30
0.0
 10
13.8841160367
 20
12.8227007844
 30
0.0
 10
13.8853926264
 20
12.8232860925
 30
0.0
 10
13.8864429144
 20
12.8236534931
 30
0.0
 10
13.8871382722
 20
12.8242945306
 30
0.0
 10
13.8881892083
 20
12.8250538081
 30
0.0
 10
13.8899707817
 20
12.8264269262
 30
0.0
 10
13.8935747957
 20
12.8291416263
 30
0.0
 10
13.8976765903
 20
12.8322574973
 30
0.0
 10
13.9017829152
 20
12.83536934
 30
0.0
 10
13.9048661463
 20
12.8377019501
 30
0.0
 10
13.9074219933
 20
12.8396517102
 30
0.0
 10
13.9092379363
 20
12.8410046701
 30
0.0
 10
13.910233643
 20
12.8417963668
 30
0.0
 10
13.9110986765
 20
12.8423378013
 30
0.0
 10
13.9115116837
 20
12.8430792993
 30
0.0
 10
13.9122200321
 20
12.8439981787
 30
0.0
 10
13.9133861764
 20
12.8456387328
 30
0.0
 10
13.9150905297
 20
12.8479653729
 30
0.0
 10
13.9171191968
 20
12.8507646624
 30
0.0
 10
13.9191525987
 20
12.8535618798
 30
0.0
 10
13.9211836184
 20
12.8563600643
 30
0.0
 10
13.9232194323
 20
12.8591564527
 30
0.0
 10
13.9249019483
 20
12.8614919573
 30
0.0
 10
13.9261070027
 20
12.8631167164
 30
0.0
 10
13.9267530155
 20
12.8640609002
 30
0.0
 10
13.9273574962
 20
12.8647246719
 30
0.0
 10
13.9275033877
 20
12.8655580329
 30
0.0
 10
13.927857871
 20
12.8666100262
 30
0.0
 10
13.9284036847
 20
12.8684785765
 30
0.0
 10
13.9292224099
 20
12.8711335175
 30
0.0
 10
13.9301880812
 20
12.8743256477
 30
0.0
 10
13.9311585624
 20
12.8775160402
 30
0.0
 10
13.9321266026
 20
12.8807071828
 30
0.0
 10
13.9330995971
 20
12.8838970626
 30
0.0
 10
13.9338959456
 20
12.8865588799
 30
0.0
 10
13.9344816305
 20
12.8884151778
 30
0.0
 10
13.9347722387
 20
12.8894867999
 30
0.0
 10
13.9351143327
 20
12.8902598679
 30
0.0
 10
13.9349819094
 20
12.8911500901
 30
0.0
 10
13.9349708624
 20
12.8922961882
 30
0.0
 10
13.9348744092
 20
12.8943209001
 30
0.0
 10
13.9347769643
 20
12.8972033862
 30
0.0
 10
13.9346426488
 20
12.9006666548
 30
0.0
 10
13.934513307
 20
12.9041287177
 30
0.0
 10
13.9343814523
 20
12.9075913178
 30
0.0
 10
13.9342546754
 20
12.9110529747
 30
0.0
 10
13.9341341963
 20
12.9139403853
 30
0.0
 10
13.9340787859
 20
12.9159563228
 30
0.0
 10
13.9340019866
 20
12.9171164779
 30
0.0
 10
13.9340715315
 20
12.9179635216
 30
0.0
 10
13.9336550671
 20
12.9188987605
 30
0.0
 10
13.9332693067
 20
12.9201149822
 30
0.0
 10
13.9325152411
 20
12.9222577035
 30
0.0
 10
13.9314792988
 20
12.9253112403
 30
0.0
 10
13.9302184922
 20
12.928978692
 30
0.0
 10
13.9285435931
 20
12.9338675069
 30
0.0
 10
13.926447836
 20
12.9399789125
 30
0.0
 10
13.9247718805
 20
12.9448679191
 30
0.0
 10
13.9239338214
 20
12.9473124371
 30
0.0
  0
SPLINE
  5
33F
100
AcDbEntity
  8
03__ASM_ALL_CURVES
100
AcDbSpline
 62
8
  6
PHANTOM
 70
0
 71
3
 72
158
 73
154
 74
0
 42
0.0000001
 43
0.0000001
 44
0.0000000001
 40
0.0
 40
0.0
 40
0.0
 40
0.0
 40
0.015625
 40
0.03125
 40
0.0390625
 40
0.046875
 40
0.0546875
 40
0.05859375
 40
0.060546875
 40
0.0625
 40
0.064453125
 40
0.06640625
 40
0.0703125
 40
0.078125
 40
0.09375
 40
0.109375
 40
0.1171875
 40
0.12109375
 40
0.123046875
 40
0.125
 40
0.126953125
 40
0.12890625
 40
0.1328125
 40
0.140625
 40
0.15625
 40
0.171875
 40
0.1796875
 40
0.18359375
 40
0.1875
 40
0.19140625
 40
0.1953125
 40
0.203125
 40
0.21875
 40
0.234375
 40
0.2421875
 40
0.24609375
 40
0.25
 40
0.25390625
 40
0.2578125
 40
0.265625
 40
0.28125
 40
0.296875
 40
0.3046875
 40
0.30859375
 40
0.3125
 40
0.31640625
 40
0.3203125
 40
0.328125
 40
0.34375
 40
0.359375
 40
0.3671875
 40
0.37109375
 40
0.375
 40
0.37890625
 40
0.3828125
 40
0.390625
 40
0.40625
 40
0.421875
 40
0.4296875
 40
0.43359375
 40
0.4375
 40
0.44140625
 40
0.4453125
 40
0.453125
 40
0.46875
 40
0.484375
 40
0.4921875
 40
0.49609375
 40
0.5
 40
0.50390625
 40
0.5078125
 40
0.515625
 40
0.53125
 40
0.546875
 40
0.5546875
 40
0.55859375
 40
0.560546875
 40
0.5625
 40
0.564453125
 40
0.56640625
 40
0.5703125
 40
0.578125
 40
0.59375
 40
0.609375
 40
0.6171875
 40
0.62109375
 40
0.623046875
 40
0.625
 40
0.626953125
 40
0.62890625
 40
0.6328125
 40
0.640625
 40
0.65625
 40
0.671875
 40
0.6796875
 40
0.68359375
 40
0.685546875
 40
0.6875
 40
0.689453125
 40
0.69140625
 40
0.6953125
 40
0.703125
 40
0.71875
 40
0.7265625
 40
0.734375
 40
0.7421875
 40
0.74609375
 40
0.748046875
 40
0.75
 40
0.751953125
 40
0.75390625
 40
0.7578125
 40
0.765625
 40
0.7734375
 40
0.78125
 40
0.7890625
 40
0.796875
 40
0.8046875
 40
0.80859375
 40
0.810546875
 40
0.8125
 40
0.814453125
 40
0.81640625
 40
0.8203125
 40
0.828125
 40
0.8359375
 40
0.84375
 40
0.8515625
 40
0.859375
 40
0.8671875
 40
0.87109375
 40
0.873046875
 40
0.875
 40
0.876953125
 40
0.87890625
 40
0.8828125
 40
0.890625
 40
0.8984375
 40
0.90625
 40
0.9140625
 40
0.921875
 40
0.9296875
 40
0.93359375
 40
0.935546875
 40
0.9375
 40
0.939453125
 40
0.94140625
 40
0.9453125
 40
0.953125
 40
0.9609375
 40
0.96875
 40
0.984375
 40
1.0
 40
1.0
 40
1.0
 40
1.0
 10
13.9239338278
 20
12.9473124242
 30
0.0
 10
13.9224060054
 20
12.9497146075
 30
0.0
 10
13.9193502222
 20
12.9545189543
 30
0.0
 10
13.9155311855
 20
12.9605244868
 30
0.0
 10
13.9124745022
 20
12.9653287049
 30
0.0
 10
13.9101859361
 20
12.9689324328
 30
0.0
 10
13.9082662488
 20
12.9719337448
 30
0.0
 10
13.9069470939
 20
12.974038185
 30
0.0
 10
13.9061548394
 20
12.9752352233
 30
0.0
 10
13.9056689676
 20
12.9761484926
 30
0.0
 10
13.9047690453
 20
12.977002549
 30
0.0
 10
13.9037135635
 20
12.9781619438
 30
0.0
 10
13.9017992934
 20
12.9801812738
 30
0.0
 10
13.8980187004
 20
12.9842268375
 30
0.0
 10
13.892590746
 20
12.9900019588
 30
0.0
 10
13.8871798924
 20
12.9957809517
 30
0.0
 10
13.8833753583
 20
12.9998210952
 30
0.0
 10
13.8814940072
 20
13.0018478779
 30
0.0
 10
13.880385513
 20
13.0029952709
 30
0.0
 10
13.8796484758
 20
13.0038862039
 30
0.0
 10
13.8785508228
 20
13.004660968
 30
0.0
 10
13.8772130555
 20
13.0057345017
 30
0.0
 10
13.8748135341
 20
13.0075943709
 30
0.0
 10
13.8700553411
 20
13.0113271828
 30
0.0
 10
13.8632416584
 20
13.0166552247
 30
0.0
 10
13.8564152235
 20
13.0219765512
 30
0.0
 10
13.8516748836
 20
13.0257187647
 30
0.0
 10
13.8489045187
 20
13.0278295557
 30
0.0
 10
13.8470006385
 20
13.0294905604
 30
0.0
 10
13.8444319842
 20
13.0308537278
 30
0.0
 10
13.8412390286
 20
13.0327752199
 30
0.0
 10
13.8355429398
 20
13.0360889383
 30
0.0
 10
13.8274652665
 20
13.0408521435
 30
0.0
 10
13.8193557149
 20
13.0455911908
 30
0.0
 10
13.8137042558
 20
13.0489387304
 30
0.0
 10
13.8104411678
 20
13.050807075
 30
0.0
 10
13.8080876925
 20
13.0523333085
 30
0.0
 10
13.8053756955
 20
13.0533819096
 30
0.0
 10
13.8018847811
 20
13.0549466978
 30
0.0
 10
13.7957171494
 20
13.0576069304
 30
0.0
 10
13.7869388892
 20
13.0614521413
 30
0.0
 10
13.7781415488
 20
13.0652666883
 30
0.0
 10
13.7720006293
 20
13.0679698505
 30
0.0
 10
13.7684677387
 20
13.0694671779
 30
0.0
 10
13.7658845323
 20
13.0707227607
 30
0.0
 10
13.7630473764
 20
13.0714716629
 30
0.0
 10
13.7593530898
 20
13.0726469904
 30
0.0
 10
13.7528467386
 20
13.0746208885
 30
0.0
 10
13.7435741719
 20
13.0774885611
 30
0.0
 10
13.7342914834
 20
13.0803229131
 30
0.0
 10
13.7277993028
 20
13.0823434601
 30
0.0
 10
13.7240827481
 20
13.0834454821
 30
0.0
 10
13.7213139146
 20
13.0844192988
 30
0.0
 10
13.7184741198
 20
13.0848302027
 30
0.0
 10
13.7147124759
 20
13.0855744836
 30
0.0
 10
13.7081180969
 20
13.0867848751
 30
0.0
 10
13.6987033369
 20
13.0885669013
 30
0.0
 10
13.6892873599
 20
13.0903127743
 30
0.0
 10
13.6826946847
 20
13.0915737803
 30
0.0
 10
13.6789303634
 20
13.092238524
 30
0.0
 10
13.6760987833
 20
13.0928934626
 30
0.0
 10
13.673299099
 20
13.0929507936
 30
0.0
 10
13.669555024
 20
13.0932357482
 30
0.0
 10
13.6630084654
 20
13.093636656
 30
0.0
 10
13.6536503323
 20
13.0942654232
 30
0.0
 10
13.6443052104
 20
13.094856238
 30
0.0
 10
13.6377404363
 20
13.0953102792
 30
0.0
 10
13.6340249856
 20
13.0955117384
 30
0.0
 10
13.6311374765
 20
13.0958252484
 30
0.0
 10
13.6286357273
 20
13.0955180924
 30
0.0
 10
13.6251655193
 20
13.0953250276
 30
0.0
 10
13.6191551913
 20
13.0948864913
 30
0.0
 10
13.6105375187
 20
13.0943111347
 30
0.0
 10
13.6019266891
 20
13.093723041
 30
0.0
 10
13.5959067808
 20
13.0933023365
 30
0.0
 10
13.5928835218
 20
13.0931088862
 30
0.0
 10
13.5911776575
 20
13.0929706596
 30
0.0
 10
13.5898369237
 20
13.0929452111
 30
0.0
 10
13.5887306763
 20
13.0926207189
 30
0.0
 10
13.5871738937
 20
13.0922923647
 30
0.0
 10
13.5844875749
 20
13.0916692257
 30
0.0
 10
13.5790877064
 20
13.0904575924
 30
0.0
 10
13.571389583
 20
13.0887069845
 30
0.0
 10
13.5636794303
 20
13.0869691997
 30
0.0
 10
13.5582964029
 20
13.085739614
 30
0.0
 10
13.5555869275
 20
13.0851411596
 30
0.0
 10
13.554067436
 20
13.0847730534
 30
0.0
 10
13.5528466089
 20
13.0845707025
 30
0.0
 10
13.5519362257
 20
13.0840865028
 30
0.0
 10
13.5506141027
 20
13.083539208
 30
0.0
 10
13.5483507604
 20
13.0825357121
 30
0.0
 10
13.5437880647
 20
13.080561379
 30
0.0
 10
13.5372907482
 20
13.0777222859
 30
0.0
 10
13.5307787435
 20
13.0748954551
 30
0.0
 10
13.5262366113
 20
13.0729039547
 30
0.0
 10
13.5239449942
 20
13.0719240639
 30
0.0
 10
13.5226684046
 20
13.0713387558
 30
0.0
 10
13.5216181165
 20
13.0709713552
 30
0.0
 10
13.5209227588
 20
13.0703303177
 30
0.0
 10
13.5198718227
 20
13.0695710402
 30
0.0
 10
13.5180902492
 20
13.0681979221
 30
0.0
 10
13.5144862352
 20
13.065483222
 30
0.0
 10
13.5103844407
 20
13.0623673511
 30
0.0
 10
13.5062781157
 20
13.0592555083
 30
0.0
 10
13.5031948846
 20
13.0569228982
 30
0.0
 10
13.5006390376
 20
13.0549731381
 30
0.0
 10
13.4988230947
 20
13.0536201782
 30
0.0
 10
13.497827388
 20
13.0528284815
 30
0.0
 10
13.4969623545
 20
13.052287047
 30
0.0
 10
13.4965493473
 20
13.051545549
 30
0.0
 10
13.4958409989
 20
13.0506266696
 30
0.0
 10
13.4946748546
 20
13.0489861155
 30
0.0
 10
13.4929705013
 20
13.0466594754
 30
0.0
 10
13.4909418341
 20
13.0438601859
 30
0.0
 10
13.4889084322
 20
13.0410629685
 30
0.0
 10
13.4868774126
 20
13.038264784
 30
0.0
 10
13.4848415987
 20
13.0354683956
 30
0.0
 10
13.4831590827
 20
13.033132891
 30
0.0
 10
13.4819540282
 20
13.0315081319
 30
0.0
 10
13.4813080154
 20
13.0305639481
 30
0.0
 10
13.4807035348
 20
13.0299001764
 30
0.0
 10
13.4805576433
 20
13.0290668154
 30
0.0
 10
13.48020316
 20
13.0280148221
 30
0.0
 10
13.4796573462
 20
13.0261462718
 30
0.0
 10
13.478838621
 20
13.0234913308
 30
0.0
 10
13.4778729498
 20
13.0202992006
 30
0.0
 10
13.4769024685
 20
13.0171088081
 30
0.0
 10
13.4759344284
 20
13.0139176655
 30
0.0
 10
13.4749614339
 20
13.0107277857
 30
0.0
 10
13.4741650853
 20
13.0080659684
 30
0.0
 10
13.4735794004
 20
13.0062096705
 30
0.0
 10
13.4732887923
 20
13.0051380484
 30
0.0
 10
13.4729466982
 20
13.0043649804
 30
0.0
 10
13.4730791215
 20
13.0034747583
 30
0.0
 10
13.4730901686
 20
13.0023286601
 30
0.0
 10
13.4731866218
 20
13.0003039482
 30
0.0
 10
13.4732840667
 20
12.9974214621
 30
0.0
 10
13.4734183821
 20
12.9939581936
 30
0.0
 10
13.4735477239
 20
12.9904961306
 30
0.0
 10
13.4736795786
 20
12.9870335305
 30
0.0
 10
13.4738063556
 20
12.9835718736
 30
0.0
 10
13.4739268347
 20
12.980684463
 30
0.0
 10
13.4739822451
 20
12.9786685255
 30
0.0
 10
13.4740590444
 20
12.9775083704
 30
0.0
 10
13.4739894995
 20
12.9766613267
 30
0.0
 10
13.4744059639
 20
12.9757260878
 30
0.0
 10
13.4747917242
 20
12.9745098661
 30
0.0
 10
13.4755457899
 20
12.9723671448
 30
0.0
 10
13.4765817322
 20
12.969313608
 30
0.0
 10
13.4778425388
 20
12.9656461563
 30
0.0
 10
13.4795174378
 20
12.9607573414
 30
0.0
 10
13.4816131949
 20
12.9546459358
 30
0.0
 10
13.4832891505
 20
12.9497569292
 30
0.0
 10
13.4841272095
 20
12.9473124112
 30
0.0
  0
SPLINE
  5
340
100
AcDbEntity
  8
03__ASM_ALL_CURVES
100
AcDbSpline
 62
8
  6
PHANTOM
 70
0
 71
3
 72
375
 73
371
 74
0
 42
0.0000001
 43
0.0000001
 44
0.0000000001
 40
0.0
 40
0.0
 40
0.0
 40
0.0
 40
0.015625
 40
0.0234375
 40
0.03125
 40
0.0390625
 40
0.04296875
 40
0.046875
 40
0.05078125
 40
0.0546875
 40
0.056640625
 40
0.05859375
 40
0.0595703125
 40
0.060546875
 40
0.0615234375
 40
0.0620117188
 40
0.0622558594
 40
0.0625
 40
0.0627441406
 40
0.0629882812
 40
0.0634765625
 40
0.064453125
 40
0.0654296875
 40
0.06640625
 40
0.068359375
 40
0.0703125
 40
0.07421875
 40
0.078125
 40
0.08203125
 40
0.0859375
 40
0.09375
 40
0.1015625
 40
0.10546875
 40
0.109375
 40
0.11328125
 40
0.1171875
 40
0.119140625
 40
0.12109375
 40
0.1220703125
 40
0.123046875
 40
0.1240234375
 40
0.1245117188
 40
0.1247558594
 40
0.125
 40
0.1252441406
 40
0.1254882812
 40
0.1259765625
 40
0.126953125
 40
0.1279296875
 40
0.12890625
 40
0.130859375
 40
0.1328125
 40
0.13671875
 40
0.140625
 40
0.14453125
 40
0.1484375
 40
0.15625
 40
0.1640625
 40
0.16796875
 40
0.171875
 40
0.17578125
 40
0.1796875
 40
0.181640625
 40
0.18359375
 40
0.1845703125
 40
0.185546875
 40
0.1865234375
 40
0.1870117188
 40
0.1875
 40
0.1879882812
 40
0.1884765625
 40
0.189453125
 40
0.1904296875
 40
0.19140625
 40
0.193359375
 40
0.1953125
 40
0.19921875
 40
0.203125
 40
0.20703125
 40
0.2109375
 40
0.21875
 40
0.2265625
 40
0.234375
 40
0.23828125
 40
0.2421875
 40
0.244140625
 40
0.24609375
 40
0.248046875
 40
0.2490234375
 40
0.2495117188
 40
0.25
 40
0.2504882812
 40
0.2509765625
 40
0.251953125
 40
0.25390625
 40
0.255859375
 40
0.2578125
 40
0.26171875
 40
0.265625
 40
0.2734375
 40
0.28125
 40
0.2890625
 40
0.296875
 40
0.30078125
 40
0.3046875
 40
0.306640625
 40
0.30859375
 40
0.310546875
 40
0.3115234375
 40
0.3120117188
 40
0.3125
 40
0.3129882812
 40
0.3134765625
 40
0.314453125
 40
0.31640625
 40
0.318359375
 40
0.3203125
 40
0.32421875
 40
0.328125
 40
0.3359375
 40
0.34375
 40
0.3515625
 40
0.359375
 40
0.36328125
 40
0.3671875
 40
0.369140625
 40
0.37109375
 40
0.373046875
 40
0.3740234375
 40
0.3745117188
 40
0.375
 40
0.3754882812
 40
0.3759765625
 40
0.376953125
 40
0.37890625
 40
0.380859375
 40
0.3828125
 40
0.38671875
 40
0.390625
 40
0.3984375
 40
0.40625
 40
0.4140625
 40
0.421875
 40
0.42578125
 40
0.4296875
 40
0.431640625
 40
0.43359375
 40
0.435546875
 40
0.4365234375
 40
0.4370117188
 40
0.4375
 40
0.4379882812
 40
0.4384765625
 40
0.439453125
 40
0.44140625
 40
0.443359375
 40
0.4453125
 40
0.44921875
 40
0.453125
 40
0.4609375
 40
0.46875
 40
0.4765625
 40
0.48046875
 40
0.484375
 40
0.48828125
 40
0.4921875
 40
0.494140625
 40
0.49609375
 40
0.4970703125
 40
0.498046875
 40
0.4990234375
 40
0.4995117188
 40
0.5
 40
0.5004882812
 40
0.5009765625
 40
0.501953125
 40
0.5029296875
 40
0.50390625
 40
0.505859375
 40
0.5078125
 40
0.51171875
 40
0.515625
 40
0.51953125
 40
0.5234375
 40
0.53125
 40
0.5390625
 40
0.54296875
 40
0.546875
 40
0.55078125
 40
0.5546875
 40
0.556640625
 40
0.55859375
 40
0.5595703125
 40
0.560546875
 40
0.5615234375
 40
0.5620117188
 40
0.5622558594
 40
0.5625
 40
0.5627441406
 40
0.5629882812
 40
0.5634765625
 40
0.564453125
 40
0.5654296875
 40
0.56640625
 40
0.568359375
 40
0.5703125
 40
0.57421875
 40
0.578125
 40
0.58203125
 40
0.5859375
 40
0.59375
 40
0.6015625
 40
0.60546875
 40
0.609375
 40
0.61328125
 40
0.6171875
 40
0.619140625
 40
0.62109375
 40
0.6220703125
 40
0.623046875
 40
0.6240234375
 40
0.6245117188
 40
0.6247558594
 40
0.625
 40
0.6252441406
 40
0.6254882812
 40
0.6259765625
 40
0.626953125
 40
0.6279296875
 40
0.62890625
 40
0.630859375
 40
0.6328125
 40
0.63671875
 40
0.640625
 40
0.64453125
 40
0.6484375
 40
0.65625
 40
0.6640625
 40
0.66796875
 40
0.671875
 40
0.67578125
 40
0.6796875
 40
0.681640625
 40
0.68359375
 40
0.6845703125
 40
0.685546875
 40
0.6865234375
 40
0.6870117188
 40
0.6872558594
 40
0.6875
 40
0.6877441406
 40
0.6879882812
 40
0.6884765625
 40
0.689453125
 40
0.6904296875
 40
0.69140625
 40
0.693359375
 40
0.6953125
 40
0.69921875
 40
0.703125
 40
0.70703125
 40
0.7109375
 40
0.71875
 40
0.7265625
 40
0.73046875
 40
0.734375
 40
0.73828125
 40
0.7421875
 40
0.744140625
 40
0.74609375
 40
0.7470703125
 40
0.748046875
 40
0.7490234375
 40
0.7495117188
 40
0.7497558594
 40
0.75
 40
0.7502441406
 40
0.7504882812
 40
0.7509765625
 40
0.751953125
 40
0.7529296875
 40
0.75390625
 40
0.755859375
 40
0.7578125
 40
0.76171875
 40
0.765625
 40
0.76953125
 40
0.7734375
 40
0.78125
 40
0.7890625
 40
0.79296875
 40
0.796875
 40
0.80078125
 40
0.8046875
 40
0.806640625
 40
0.80859375
 40
0.8095703125
 40
0.810546875
 40
0.8115234375
 40
0.8120117188
 40
0.8122558594
 40
0.8125
 40
0.8127441406
 40
0.8129882812
 40
0.8134765625
 40
0.814453125
 40
0.8154296875
 40
0.81640625
 40
0.818359375
 40
0.8203125
 40
0.82421875
 40
0.828125
 40
0.83203125
 40
0.8359375
 40
0.84375
 40
0.8515625
 40
0.85546875
 40
0.859375
 40
0.86328125
 40
0.8671875
 40
0.869140625
 40
0.87109375
 40
0.8720703125
 40
0.873046875
 40
0.8740234375
 40
0.8745117188
 40
0.8747558594
 40
0.875
 40
0.8752441406
 40
0.8754882812
 40
0.8759765625
 40
0.876953125
 40
0.8779296875
 40
0.87890625
 40
0.880859375
 40
0.8828125
 40
0.88671875
 40
0.890625
 40
0.89453125
 40
0.8984375
 40
0.90625
 40
0.9140625
 40
0.91796875
 40
0.921875
 40
0.92578125
 40
0.9296875
 40
0.931640625
 40
0.93359375
 40
0.9345703125
 40
0.935546875
 40
0.9365234375
 40
0.9370117188
 40
0.9372558594
 40
0.9375
 40
0.9377441406
 40
0.9379882812
 40
0.9384765625
 40
0.939453125
 40
0.9404296875
 40
0.94140625
 40
0.943359375
 40
0.9453125
 40
0.94921875
 40
0.953125
 40
0.95703125
 40
0.9609375
 40
0.96875
 40
0.9765625
 40
0.984375
 40
1.0
 40
1.0
 40
1.0
 40
1.0
 10
17.1809652544
 20
12.0925987178
 30
0.0
 10
17.1685216217
 20
12.1121637451
 30
0.0
 10
17.1498561726
 20
12.1415112862
 30
0.0
 10
17.1249689073
 20
12.1806413409
 30
0.0
 10
17.1063034578
 20
12.2099888819
 30
0.0
 10
17.0907489183
 20
12.2344451663
 30
0.0
 10
17.0783052828
 20
12.2540101932
 30
0.0
 10
17.0689725668
 20
12.268683965
 30
0.0
 10
17.0596398104
 20
12.2833577309
 30
0.0
 10
17.051862639
 20
12.2955858872
 30
0.0
 10
17.0456406206
 20
12.305368372
 30
0.0
 10
17.0417524996
 20
12.3114825166
 30
0.0
 10
17.038640536
 20
12.3163736225
 30
0.0
 10
17.0363105793
 20
12.3200425262
 30
0.0
 10
17.0343561732
 20
12.323098119
 30
0.0
 10
17.0330131606
 20
12.3252406194
 30
0.0
 10
17.0322065774
 20
12.326459307
 30
0.0
 10
17.0317119188
 20
12.3273890934
 30
0.0
 10
17.0307957189
 20
12.3282585958
 30
0.0
 10
17.0297211574
 20
12.3294389601
 30
0.0
 10
17.0277721668
 20
12.3314948003
 30
0.0
 10
17.0250237112
 20
12.3344368371
 30
0.0
 10
17.0217102339
 20
12.3379650887
 30
0.0
 10
17.0172976187
 20
12.3426701901
 30
0.0
 10
17.0117800164
 20
12.3485513045
 30
0.0
 10
17.0029528773
 20
12.3579612342
 30
0.0
 10
16.9919186019
 20
12.369723596
 30
0.0
 10
16.9786776221
 20
12.3838384517
 30
0.0
 10
16.9654366019
 20
12.3979533016
 30
0.0
 10
16.9477819226
 20
12.4167731036
 30
0.0
 10
16.9257135681
 20
12.4402978552
 30
0.0
 10
16.903645217
 20
12.4638226076
 30
0.0
 10
16.8859905323
 20
12.4826424083
 30
0.0
 10
16.8727495281
 20
12.4967572619
 30
0.0
 10
16.8595084887
 20
12.5108721041
 30
0.0
 10
16.8484743986
 20
12.5226345079
 30
0.0
 10
16.8396468816
 20
12.532044352
 30
0.0
 10
16.8341302412
 20
12.5379256842
 30
0.0
 10
16.8297156514
 20
12.5426303385
 30
0.0
 10
16.8264082069
 20
12.5461599559
 30
0.0
 10
16.8236408761
 20
12.5490977194
 30
0.0
 10
16.8217255809
 20
12.5511611882
 30
0.0
 10
16.8205970309
 20
12.5523293296
 30
0.0
 10
16.8198466662
 20
12.5532363766
 30
0.0
 10
16.8187291581
 20
12.5540251517
 30
0.0
 10
16.8173672111
 20
12.5551181063
 30
0.0
 10
16.8149241365
 20
12.5570115556
 30
0.0
 10
16.8114652247
 20
12.5597265323
 30
0.0
 10
16.8073011781
 20
12.562980203
 30
0.0
 10
16.8017537798
 20
12.5673199329
 30
0.0
 10
16.794817935
 20
12.572744081
 30
0.0
 10
16.7837214758
 20
12.5814230053
 30
0.0
 10
16.7698505956
 20
12.5922715621
 30
0.0
 10
16.7532056706
 20
12.6052898725
 30
0.0
 10
16.7365607105
 20
12.6183081717
 30
0.0
 10
16.7143674425
 20
12.6356659077
 30
0.0
 10
16.6866258543
 20
12.6573630769
 30
0.0
 10
16.6588842636
 20
12.6790602448
 30
0.0
 10
16.6366909996
 20
12.696417983
 30
0.0
 10
16.6200460276
 20
12.7094362759
 30
0.0
 10
16.603401147
 20
12.7224546097
 30
0.0
 10
16.5895301286
 20
12.7333030937
 30
0.0
 10
16.5784339511
 20
12.7419821664
 30
0.0
 10
16.5714973895
 20
12.7474059369
 30
0.0
 10
16.5659514626
 20
12.7517464418
 30
0.0
 10
16.5617829206
 20
12.754997745
 30
0.0
 10
16.558338074
 20
12.7577201291
 30
0.0
 10
16.555517293
 20
12.7598689585
 30
0.0
 10
16.5535790553
 20
12.7615600355
 30
0.0
 10
16.5509638771
 20
12.7629478316
 30
0.0
 10
16.547713437
 20
12.7649041664
 30
0.0
 10
16.5435692573
 20
12.7673132375
 30
0.0
 10
16.5386309676
 20
12.7702196806
 30
0.0
 10
16.5320344523
 20
12.774089504
 30
0.0
 10
16.5237929611
 20
12.7789286439
 30
0.0
 10
16.5106042542
 20
12.7866702278
 30
0.0
 10
16.494119167
 20
12.7963475646
 30
0.0
 10
16.4743367209
 20
12.8079602157
 30
0.0
 10
16.4545543664
 20
12.819572908
 30
0.0
 10
16.4281778606
 20
12.835056482
 30
0.0
 10
16.3952072472
 20
12.8544109647
 30
0.0
 10
16.3556424706
 20
12.8776362942
 30
0.0
 10
16.3226719334
 20
12.8969908811
 30
0.0
 10
16.2962952599
 20
12.912474226
 30
0.0
 10
16.2798103935
 20
12.9221520553
 30
0.0
 10
16.2666212303
 20
12.9298926269
 30
0.0
 10
16.2567328352
 20
12.935702688
 30
0.0
 10
16.2484814444
 20
12.9405296689
 30
0.0
 10
16.2427271788
 20
12.943937476
 30
0.0
 10
16.2394051318
 20
12.9458396374
 30
0.0
 10
16.23700908
 20
12.9473934663
 30
0.0
 10
16.234248042
 20
12.9484610422
 30
0.0
 10
16.2306939693
 20
12.9500540871
 30
0.0
 10
16.2244150253
 20
12.9527628911
 30
0.0
 10
16.2154761167
 20
12.956673926
 30
0.0
 10
16.2047361526
 20
12.9613494839
 30
0.0
 10
16.1904208367
 20
12.9675897377
 30
0.0
 10
16.1725251043
 20
12.9753879399
 30
0.0
 10
16.14389282
 20
12.987866246
 30
0.0
 10
16.1081021587
 20
13.0034637201
 30
0.0
 10
16.0651535024
 20
13.0221808764
 30
0.0
 10
16.0222047863
 20
13.0408979366
 30
0.0
 10
15.9864142746
 20
13.0564956511
 30
0.0
 10
15.957781691
 20
13.0689734762
 30
0.0
 10
15.9398867192
 20
13.0767729009
 30
0.0
 10
15.9255698422
 20
13.0830106458
 30
0.0
 10
15.9148346475
 20
13.0876938687
 30
0.0
 10
15.9058808166
 20
13.0915809215
 30
0.0
 10
15.8996285116
 20
13.0943325376
 30
0.0
 10
15.8960317566
 20
13.0958569868
 30
0.0
 10
15.8934018247
 20
13.0971352669
 30
0.0
 10
15.8905133599
 20
13.0978977253
 30
0.0
 10
15.8867522526
 20
13.0990942609
 30
0.0
 10
15.8801282987
 20
13.1011043681
 30
0.0
 10
15.870687474
 20
13.1040197771
 30
0.0
 10
15.8593490819
 20
13.1074995084
 30
0.0
 10
15.8442345099
 20
13.1121457025
 30
0.0
 10
15.8253401703
 20
13.1179512015
 30
0.0
 10
15.7951098557
 20
13.1272412542
 30
0.0
 10
15.7573217462
 20
13.1388533866
 30
0.0
 10
15.7119761092
 20
13.1527881451
 30
0.0
 10
15.6666304405
 20
13.166722799
 30
0.0
 10
15.6288424105
 20
13.1783351927
 30
0.0
 10
15.598611937
 20
13.1876247228
 30
0.0
 10
15.579718001
 20
13.1934315501
 30
0.0
 10
15.5646026008
 20
13.1980750179
 30
0.0
 10
15.5532667389
 20
13.2015630783
 30
0.0
 10
15.5438179979
 20
13.2044524275
 30
0.0
 10
15.5372081758
 20
13.2065090559
 30
0.0
 10
15.5334244259
 20
13.2076310528
 30
0.0
 10
15.530605512
 20
13.2086224702
 30
0.0
 10
15.5277143582
 20
13.2090408181
 30
0.0
 10
15.5238846845
 20
13.2097985084
 30
0.0
 10
15.5171710154
 20
13.2110313324
 30
0.0
 10
15.5075861975
 20
13.2128412011
 30
0.0
 10
15.4960817887
 20
13.214992202
 30
0.0
 10
15.4807434946
 20
13.2178674827
 30
0.0
 10
15.4615703128
 20
13.2214590911
 30
0.0
 10
15.4308933976
 20
13.227207058
 30
0.0
 10
15.3925471934
 20
13.2343915351
 30
0.0
 10
15.3465317734
 20
13.2430131286
 30
0.0
 10
15.3005163496
 20
13.2516346086
 30
0.0
 10
15.2621701549
 20
13.2588193693
 30
0.0
 10
15.2314932206
 20
13.2645667691
 30
0.0
 10
15.2123200873
 20
13.2681598187
 30
0.0
 10
15.1969816937
 20
13.2710321413
 30
0.0
 10
15.1854775891
 20
13.2731921795
 30
0.0
 10
15.1758918193
 20
13.2749737729
 30
0.0
 10
15.1691798494
 20
13.276257073
 30
0.0
 10
15.1653474531
 20
13.2769338879
 30
0.0
 10
15.1624646625
 20
13.277600659
 30
0.0
 10
15.1596143379
 20
13.27765904
 30
0.0
 10
15.1558025806
 20
13.2779490947
 30
0.0
 10
15.1491372816
 20
13.2783578162
 30
0.0
 10
15.1396126674
 20
13.2789933966
 30
0.0
 10
15.1281843111
 20
13.2797339671
 30
0.0
 10
15.1129460903
 20
13.2807291225
 30
0.0
 10
15.0938984555
 20
13.2819704207
 30
0.0
 10
15.0634221608
 20
13.2839579767
 30
0.0
 10
15.0253268197
 20
13.2864419139
 30
0.0
 10
14.9796123981
 20
13.2894228577
 30
0.0
 10
14.9415170516
 20
13.2919069241
 30
0.0
 10
14.9110407688
 20
13.2938941958
 30
0.0
 10
14.8881835707
 20
13.2953846259
 30
0.0
 10
14.8653263195
 20
13.2968751416
 30
0.0
 10
14.8462787753
 20
13.2981169723
 30
0.0
 10
14.8310403702
 20
13.2991110317
 30
0.0
 10
14.8215172089
 20
13.2997309645
 30
0.0
 10
14.8138967518
 20
13.3002300126
 30
0.0
 10
14.8081866878
 20
13.3005958055
 30
0.0
 10
14.8034115084
 20
13.300927651
 30
0.0
 10
14.7996290281
 20
13.3011325307
 30
0.0
 10
14.796689254
 20
13.3014517698
 30
0.0
 10
14.7941423039
 20
13.3011389897
 30
0.0
 10
14.7906091518
 20
13.3009427222
 30
0.0
 10
14.7862397908
 20
13.3006216418
 30
0.0
 10
14.7809764062
 20
13.300268767
 30
0.0
 10
14.7739655986
 20
13.299786943
 30
0.0
 10
14.7651996791
 20
13.2991885405
 30
0.0
 10
14.7511755548
 20
13.2982289294
 30
0.0
 10
14.7336449372
 20
13.2970301591
 30
0.0
 10
14.7126083943
 20
13.2955913159
 30
0.0
 10
14.6915717983
 20
13.2941525581
 30
0.0
 10
14.6635230222
 20
13.2922341846
 30
0.0
 10
14.628462046
 20
13.2898362275
 30
0.0
 10
14.593401071
 20
13.2874382681
 30
0.0
 10
14.5653522928
 20
13.2855198985
 30
0.0
 10
14.5443157032
 20
13.2840811288
 30
0.0
 10
14.5232791364
 20
13.28264233
 30
0.0
 10
14.505748593
 20
13.2814434217
 30
0.0
 10
14.4917243176
 20
13.280484092
 30
0.0
 10
14.4829587827
 20
13.2798849734
 30
0.0
 10
14.4759471855
 20
13.2794046192
 30
0.0
 10
14.4706862132
 20
13.2790472541
 30
0.0
 10
14.4663093048
 20
13.2787402228
 30
0.0
 10
14.4632312701
 20
13.2785434088
 30
0.0
 10
14.4614945634
 20
13.2784026695
 30
0.0
 10
14.4601295793
 20
13.2783767636
 30
0.0
 10
14.4590033261
 20
13.2780464008
 30
0.0
 10
14.4574183832
 20
13.2777121149
 30
0.0
 10
14.4546835311
 20
13.2770776351
 30
0.0
 10
14.4507563155
 20
13.2761971038
 30
0.0
 10
14.4460523389
 20
13.2751293938
 30
0.0
 10
14.4397773377
 20
13.2737096478
 30
0.0
 10
14.4319346244
 20
13.2719336411
 30
0.0
 10
14.4193857029
 20
13.2690927705
 30
0.0
 10
14.4036997502
 20
13.2655414282
 30
0.0
 10
14.3848765215
 20
13.2612799264
 30
0.0
 10
14.3660533157
 20
13.2570183955
 30
0.0
 10
14.3409557
 20
13.2513363644
 30
0.0
 10
14.3095836833
 20
13.2442338218
 30
0.0
 10
14.2782116644
 20
13.2371312817
 30
0.0
 10
14.2531140523
 20
13.2314492466
 30
0.0
 10
14.2342908354
 20
13.2271877276
 30
0.0
 10
14.2154676486
 20
13.2229261811
 30
0.0
 10
14.1997815655
 20
13.2193749779
 30
0.0
 10
14.1872329099
 20
13.2165338238
 30
0.0
 10
14.17938952
 20
13.2147585385
 30
0.0
 10
14.1731159077
 20
13.2133373118
 30
0.0
 10
14.1684076875
 20
13.2122741255
 30
0.0
 10
14.1644937494
 20
13.2113794404
 30
0.0
 10
14.1617351946
 20
13.2107702275
 30
0.0
 10
14.1601882293
 20
13.2103954577
 30
0.0
 10
14.1589453209
 20
13.2101894487
 30
0.0
 10
14.1580184745
 20
13.2096964903
 30
0.0
 10
14.1566724334
 20
13.2091393036
 30
0.0
 10
14.154368227
 20
13.2081175925
 30
0.0
 10
14.1510496491
 20
13.2066823862
 30
0.0
 10
14.1470788501
 20
13.2049497029
 30
0.0
 10
14.1417804367
 20
13.2026431034
 30
0.0
 10
14.1351587947
 20
13.199758606
 30
0.0
 10
14.1245633991
 20
13.1951441078
 30
0.0
 10
14.1113194182
 20
13.1893757456
 30
0.0
 10
14.0954265281
 20
13.1824538136
 30
0.0
 10
14.0795336683
 20
13.1755318541
 30
0.0
 10
14.0583431779
 20
13.1663025844
 30
0.0
 10
14.031855069
 20
13.1547659938
 30
0.0
 10
14.0053669572
 20
13.1432294054
 30
0.0
 10
13.9841764714
 20
13.134000132
 30
0.0
 10
13.9682835979
 20
13.1270781839
 30
0.0
 10
13.952390759
 20
13.1201562092
 30
0.0
 10
13.9391466189
 20
13.1143879799
 30
0.0
 10
13.928551548
 20
13.1097732106
 30
0.0
 10
13.9219290796
 20
13.106889403
 30
0.0
 10
13.9166323623
 20
13.1045813876
 30
0.0
 10
13.9126563817
 20
13.1028530302
 30
0.0
 10
13.909354016
 20
13.1014042891
 30
0.0
 10
13.907020868
 20
13.1004067399
 30
0.0
 10
13.9057211986
 20
13.0998108399
 30
0.0
 10
13.9046519132
 20
13.0994367962
 30
0.0
 10
13.9039439818
 20
13.0987841633
 30
0.0
 10
13.902874029
 20
13.0980111612
 30
0.0
 10
13.9010603379
 20
13.0966131319
 30
0.0
 10
13.8984386479
 20
13.0946396177
 30
0.0
 10
13.8953057616
 20
13.0922612689
 30
0.0
 10
13.8911239897
 20
13.0890936759
 30
0.0
 10
13.8858983465
 20
13.0851329731
 30
0.0
 10
13.877536439
 20
13.0787965258
 30
0.0
 10
13.867084356
 20
13.0708757342
 30
0.0
 10
13.8545417273
 20
13.061370884
 30
0.0
 10
13.8419991331
 20
13.0518660071
 30
0.0
 10
13.825275662
 20
13.0391928472
 30
0.0
 10
13.8043713279
 20
13.023351394
 30
0.0
 10
13.7834669903
 20
13.0075099428
 30
0.0
 10
13.7667435247
 20
12.9948367797
 30
0.0
 10
13.754200914
 20
12.9853319125
 30
0.0
 10
13.7416583473
 20
12.9758270259
 30
0.0
 10
13.7312060712
 20
12.9679063477
 30
0.0
 10
13.7228445575
 20
12.9615696692
 30
0.0
 10
13.7176179122
 20
12.9576095546
 30
0.0
 10
13.7134381973
 20
12.9544407542
 30
0.0
 10
13.7102990268
 20
12.9520660944
 30
0.0
 10
13.7076969985
 20
12.9500810383
 30
0.0
 10
13.7058482078
 20
12.9487036132
 30
0.0
 10
13.7048344935
 20
12.9478975978
 30
0.0
 10
13.7039538152
 20
12.9473463711
 30
0.0
 10
13.7035333385
 20
12.9465914627
 30
0.0
 10
13.7028121794
 20
12.9456559646
 30
0.0
 10
13.7016249418
 20
12.943985741
 30
0.0
 10
13.6998897865
 20
12.9416170134
 30
0.0
 10
13.697824337
 20
12.9387671327
 30
0.0
 10
13.6950645584
 20
12.9349698791
 30
0.0
 10
13.6916168369
 20
12.9302224261
 30
0.0
 10
13.6860993637
 20
12.9226269966
 30
0.0
 10
13.679202906
 20
12.9131325398
 30
0.0
 10
13.6709269923
 20
12.9017392644
 30
0.0
 10
13.6626511226
 20
12.8903459695
 30
0.0
 10
13.6516166142
 20
12.8751549166
 30
0.0
 10
13.6378234845
 20
12.8561660978
 30
0.0
 10
13.624030351
 20
12.8371772807
 30
0.0
 10
13.6129958488
 20
12.8219862252
 30
0.0
 10
13.6047199605
 20
12.8105929379
 30
0.0
 10
13.5964441168
 20
12.7991996341
 30
0.0
 10
13.5895474412
 20
12.7897052657
 30
0.0
 10
13.5840304124
 20
12.7821096558
 30
0.0
 10
13.58058156
 20
12.7773626619
 30
0.0
 10
13.5778241026
 20
12.7735644661
 30
0.0
 10
13.5757515616
 20
12.7707174641
 30
0.0
 10
13.5740385938
 20
12.7683397297
 30
0.0
 10
13.5728117479
 20
12.7666855846
 30
0.0
 10
13.5721540512
 20
12.7657243248
 30
0.0
 10
13.5715386382
 20
12.7650485482
 30
0.0
 10
13.5713901081
 20
12.7642001153
 30
0.0
 10
13.571029214
 20
12.763129096
 30
0.0
 10
13.570473526
 20
12.7612267524
 30
0.0
 10
13.5696400167
 20
12.7585237887
 30
0.0
 10
13.5686567853
 20
12.755273953
 30
0.0
 10
13.5673398795
 20
12.7509430319
 30
0.0
 10
13.5656957778
 20
12.7455286296
 30
0.0
 10
13.5630640802
 20
12.7368660056
 30
0.0
 10
13.5597748476
 20
12.7260375817
 30
0.0
 10
13.5558276016
 20
12.7130435347
 30
0.0
 10
13.5518804003
 20
12.7000494711
 30
0.0
 10
13.5466174495
 20
12.6827240588
 30
0.0
 10
13.5400387668
 20
12.6610672914
 30
0.0
 10
13.5334600803
 20
12.6394105252
 30
0.0
 10
13.5281971358
 20
12.6220851109
 30
0.0
 10
13.5242499153
 20
12.6090910533
 30
0.0
 10
13.5203027411
 20
12.5960969842
 30
0.0
 10
13.5170132853
 20
12.5852686289
 30
0.0
 10
13.514382043
 20
12.576605865
 30
0.0
 10
13.5127367826
 20
12.5711918188
 30
0.0
 10
13.5114222552
 20
12.5668601668
 30
0.0
 10
13.5104317572
 20
12.5636125641
 30
0.0
 10
13.5096209834
 20
12.5609026138
 30
0.0
 10
13.5090247088
 20
12.5590127424
 30
0.0
 10
13.5087288445
 20
12.5579217394
 30
0.0
 10
13.5083805635
 20
12.5571346899
 30
0.0
 10
13.5085153817
 20
12.5562283676
 30
0.0
 10
13.5085266289
 20
12.5550615414
 30
0.0
 10
13.5086248235
 20
12.5530002118
 30
0.0
 10
13.5087240546
 20
12.5500655892
 30
0.0
 10
13.5088607013
 20
12.5465397045
 30
0.0
 10
13.5090367602
 20
12.5418400399
 30
0.0
 10
13.5092589351
 20
12.5359649404
 30
0.0
 10
13.5096132405
 20
12.5265650711
 30
0.0
 10
13.5100565253
 20
12.514815135
 30
0.0
 10
13.5105882943
 20
12.5007152543
 30
0.0
 10
13.5111201096
 20
12.4866153623
 30
0.0
 10
13.5118291803
 20
12.4678155102
 30
0.0
 10
13.5127155248
 20
12.4443156936
 30
0.0
 10
13.5136018653
 20
12.4208158779
 30
0.0
 10
13.5143109426
 20
12.4020160244
 30
0.0
 10
13.5148427381
 20
12.3879161365
 30
0.0
 10
13.515374581
 20
12.3738162401
 30
0.0
 10
13.5158176359
 20
12.3620663531
 30
0.0
 10
13.5161724101
 20
12.3526663836
 30
0.0
 10
13.5163933922
 20
12.3467915391
 30
0.0
 10
13.5165718995
 20
12.3420913511
 30
0.0
 10
13.5167010661
 20
12.3385670655
 30
0.0
 10
13.5168237007
 20
12.3356274396
 30
0.0
 10
13.5168801161
 20
12.3335750418
 30
0.0
 10
13.5169583041
 20
12.3323939045
 30
0.0
 10
13.5168875015
 20
12.3315315415
 30
0.0
 10
13.5173114979
 20
12.3305793881
 30
0.0
 10
13.517704235
 20
12.3293411702
 30
0.0
 10
13.5184719384
 20
12.3271596964
 30
0.0
 10
13.5195266165
 20
12.3240509343
 30
0.0
 10
13.5208102252
 20
12.3203171543
 30
0.0
 10
13.5225154182
 20
12.3153399215
 30
0.0
 10
13.5246490615
 20
12.30911799
 30
0.0
 10
13.528061688
 20
12.2991631178
 30
0.0
 10
13.5323278838
 20
12.2867194528
 30
0.0
 10
13.5374471419
 20
12.2717870868
 30
0.0
 10
13.5425664473
 20
12.2568547122
 30
0.0
 10
13.5493921713
 20
12.2369448824
 30
0.0
 10
13.557924332
 20
12.2120575942
 30
0.0
 10
13.5681629224
 20
12.1821928487
 30
0.0
 10
13.5818143771
 20
12.142373188
 30
0.0
 10
13.5920529679
 20
12.1125084425
 30
0.0
 10
13.5988786952
 20
12.0925986121
 30
0.0
  0
SPLINE
  5
341
100
AcDbEntity
  8
03__ASM_ALL_CURVES
100
AcDbSpline
 62
8
  6
PHANTOM
 70
0
 71
3
 72
375
 73
371
 74
0
 42
0.0000001
 43
0.0000001
 44
0.0000000001
 40
0.0
 40
0.0
 40
0.0
 40
0.0
 40
0.015625
 40
0.0234375
 40
0.03125
 40
0.0390625
 40
0.04296875
 40
0.046875
 40
0.05078125
 40
0.0546875
 40
0.056640625
 40
0.05859375
 40
0.0595703125
 40
0.060546875
 40
0.0615234375
 40
0.0620117188
 40
0.0622558594
 40
0.0625
 40
0.0627441406
 40
0.0629882812
 40
0.0634765625
 40
0.064453125
 40
0.0654296875
 40
0.06640625
 40
0.068359375
 40
0.0703125
 40
0.07421875
 40
0.078125
 40
0.08203125
 40
0.0859375
 40
0.09375
 40
0.1015625
 40
0.10546875
 40
0.109375
 40
0.11328125
 40
0.1171875
 40
0.119140625
 40
0.12109375
 40
0.1220703125
 40
0.123046875
 40
0.1240234375
 40
0.1245117188
 40
0.1247558594
 40
0.125
 40
0.1252441406
 40
0.1254882812
 40
0.1259765625
 40
0.126953125
 40
0.1279296875
 40
0.12890625
 40
0.130859375
 40
0.1328125
 40
0.13671875
 40
0.140625
 40
0.14453125
 40
0.1484375
 40
0.15625
 40
0.1640625
 40
0.16796875
 40
0.171875
 40
0.17578125
 40
0.1796875
 40
0.181640625
 40
0.18359375
 40
0.1845703125
 40
0.185546875
 40
0.1865234375
 40
0.1870117188
 40
0.1875
 40
0.1879882812
 40
0.1884765625
 40
0.189453125
 40
0.1904296875
 40
0.19140625
 40
0.193359375
 40
0.1953125
 40
0.19921875
 40
0.203125
 40
0.20703125
 40
0.2109375
 40
0.21875
 40
0.2265625
 40
0.234375
 40
0.23828125
 40
0.2421875
 40
0.244140625
 40
0.24609375
 40
0.248046875
 40
0.2490234375
 40
0.2495117188
 40
0.25
 40
0.2504882812
 40
0.2509765625
 40
0.251953125
 40
0.25390625
 40
0.255859375
 40
0.2578125
 40
0.26171875
 40
0.265625
 40
0.2734375
 40
0.28125
 40
0.2890625
 40
0.296875
 40
0.30078125
 40
0.3046875
 40
0.306640625
 40
0.30859375
 40
0.310546875
 40
0.3115234375
 40
0.3120117188
 40
0.3125
 40
0.3129882812
 40
0.3134765625
 40
0.314453125
 40
0.31640625
 40
0.318359375
 40
0.3203125
 40
0.32421875
 40
0.328125
 40
0.3359375
 40
0.34375
 40
0.3515625
 40
0.359375
 40
0.36328125
 40
0.3671875
 40
0.369140625
 40
0.37109375
 40
0.373046875
 40
0.3740234375
 40
0.3745117188
 40
0.375
 40
0.3754882812
 40
0.3759765625
 40
0.376953125
 40
0.37890625
 40
0.380859375
 40
0.3828125
 40
0.38671875
 40
0.390625
 40
0.3984375
 40
0.40625
 40
0.4140625
 40
0.421875
 40
0.42578125
 40
0.4296875
 40
0.431640625
 40
0.43359375
 40
0.435546875
 40
0.4365234375
 40
0.4370117188
 40
0.4375
 40
0.4379882812
 40
0.4384765625
 40
0.439453125
 40
0.44140625
 40
0.443359375
 40
0.4453125
 40
0.44921875
 40
0.453125
 40
0.4609375
 40
0.46875
 40
0.4765625
 40
0.48046875
 40
0.484375
 40
0.48828125
 40
0.4921875
 40
0.494140625
 40
0.49609375
 40
0.4970703125
 40
0.498046875
 40
0.4990234375
 40
0.4995117188
 40
0.5
 40
0.5004882812
 40
0.5009765625
 40
0.501953125
 40
0.5029296875
 40
0.50390625
 40
0.505859375
 40
0.5078125
 40
0.51171875
 40
0.515625
 40
0.51953125
 40
0.5234375
 40
0.53125
 40
0.5390625
 40
0.54296875
 40
0.546875
 40
0.55078125
 40
0.5546875
 40
0.556640625
 40
0.55859375
 40
0.5595703125
 40
0.560546875
 40
0.5615234375
 40
0.5620117188
 40
0.5622558594
 40
0.5625
 40
0.5627441406
 40
0.5629882812
 40
0.5634765625
 40
0.564453125
 40
0.5654296875
 40
0.56640625
 40
0.568359375
 40
0.5703125
 40
0.57421875
 40
0.578125
 40
0.58203125
 40
0.5859375
 40
0.59375
 40
0.6015625
 40
0.60546875
 40
0.609375
 40
0.61328125
 40
0.6171875
 40
0.619140625
 40
0.62109375
 40
0.6220703125
 40
0.623046875
 40
0.6240234375
 40
0.6245117188
 40
0.6247558594
 40
0.625
 40
0.6252441406
 40
0.6254882812
 40
0.6259765625
 40
0.626953125
 40
0.6279296875
 40
0.62890625
 40
0.630859375
 40
0.6328125
 40
0.63671875
 40
0.640625
 40
0.64453125
 40
0.6484375
 40
0.65625
 40
0.6640625
 40
0.66796875
 40
0.671875
 40
0.67578125
 40
0.6796875
 40
0.681640625
 40
0.68359375
 40
0.6845703125
 40
0.685546875
 40
0.6865234375
 40
0.6870117188
 40
0.6872558594
 40
0.6875
 40
0.6877441406
 40
0.6879882812
 40
0.6884765625
 40
0.689453125
 40
0.6904296875
 40
0.69140625
 40
0.693359375
 40
0.6953125
 40
0.69921875
 40
0.703125
 40
0.70703125
 40
0.7109375
 40
0.71875
 40
0.7265625
 40
0.73046875
 40
0.734375
 40
0.73828125
 40
0.7421875
 40
0.744140625
 40
0.74609375
 40
0.7470703125
 40
0.748046875
 40
0.7490234375
 40
0.7495117188
 40
0.7497558594
 40
0.75
 40
0.7502441406
 40
0.7504882812
 40
0.7509765625
 40
0.751953125
 40
0.7529296875
 40
0.75390625
 40
0.755859375
 40
0.7578125
 40
0.76171875
 40
0.765625
 40
0.76953125
 40
0.7734375
 40
0.78125
 40
0.7890625
 40
0.79296875
 40
0.796875
 40
0.80078125
 40
0.8046875
 40
0.806640625
 40
0.80859375
 40
0.8095703125
 40
0.810546875
 40
0.8115234375
 40
0.8120117188
 40
0.8122558594
 40
0.8125
 40
0.8127441406
 40
0.8129882812
 40
0.8134765625
 40
0.814453125
 40
0.8154296875
 40
0.81640625
 40
0.818359375
 40
0.8203125
 40
0.82421875
 40
0.828125
 40
0.83203125
 40
0.8359375
 40
0.84375
 40
0.8515625
 40
0.85546875
 40
0.859375
 40
0.86328125
 40
0.8671875
 40
0.869140625
 40
0.87109375
 40
0.8720703125
 40
0.873046875
 40
0.8740234375
 40
0.8745117188
 40
0.8747558594
 40
0.875
 40
0.8752441406
 40
0.8754882812
 40
0.8759765625
 40
0.876953125
 40
0.8779296875
 40
0.87890625
 40
0.880859375
 40
0.8828125
 40
0.88671875
 40
0.890625
 40
0.89453125
 40
0.8984375
 40
0.90625
 40
0.9140625
 40
0.91796875
 40
0.921875
 40
0.92578125
 40
0.9296875
 40
0.931640625
 40
0.93359375
 40
0.9345703125
 40
0.935546875
 40
0.9365234375
 40
0.9370117188
 40
0.9372558594
 40
0.9375
 40
0.9377441406
 40
0.9379882812
 40
0.9384765625
 40
0.939453125
 40
0.9404296875
 40
0.94140625
 40
0.943359375
 40
0.9453125
 40
0.94921875
 40
0.953125
 40
0.95703125
 40
0.9609375
 40
0.96875
 40
0.9765625
 40
0.984375
 40
1.0
 40
1.0
 40
1.0
 40
1.0
 10
13.5988786433
 20
12.0925987178
 30
0.0
 10
13.611322276
 20
12.0730336904
 30
0.0
 10
13.6299877251
 20
12.0436861494
 30
0.0
 10
13.6548749904
 20
12.0045560947
 30
0.0
 10
13.6735404399
 20
11.9752085537
 30
0.0
 10
13.6890949794
 20
11.9507522693
 30
0.0
 10
13.7015386149
 20
11.9311872423
 30
0.0
 10
13.7108713309
 20
11.9165134706
 30
0.0
 10
13.7202040873
 20
11.9018397046
 30
0.0
 10
13.7279812587
 20
11.8896115484
 30
0.0
 10
13.7342032771
 20
11.8798290636
 30
0.0
 10
13.7380913981
 20
11.873714919
 30
0.0
 10
13.7412033617
 20
11.8688238131
 30
0.0
 10
13.7435333184
 20
11.8651549093
 30
0.0
 10
13.7454877245
 20
11.8620993166
 30
0.0
 10
13.7468307371
 20
11.8599568161
 30
0.0
 10
13.7476373203
 20
11.8587381286
 30
0.0
 10
13.7481319789
 20
11.8578083421
 30
0.0
 10
13.7490481788
 20
11.8569388397
 30
0.0
 10
13.7501227403
 20
11.8557584755
 30
0.0
 10
13.7520717309
 20
11.8537026352
 30
0.0
 10
13.7548201865
 20
11.8507605985
 30
0.0
 10
13.7581336638
 20
11.8472323468
 30
0.0
 10
13.762546279
 20
11.8425272455
 30
0.0
 10
13.7680638813
 20
11.8366461311
 30
0.0
 10
13.7768910204
 20
11.8272362014
 30
0.0
 10
13.7879252958
 20
11.8154738396
 30
0.0
 10
13.8011662756
 20
11.8013589839
 30
0.0
 10
13.8144072958
 20
11.7872441339
 30
0.0
 10
13.8320619751
 20
11.768424332
 30
0.0
 10
13.8541303296
 20
11.7448995803
 30
0.0
 10
13.8761986807
 20
11.721374828
 30
0.0
 10
13.8938533654
 20
11.7025550272
 30
0.0
 10
13.9070943696
 20
11.6884401737
 30
0.0
 10
13.920335409
 20
11.6743253314
 30
0.0
 10
13.9313694991
 20
11.6625629277
 30
0.0
 10
13.9401970161
 20
11.6531530836
 30
0.0
 10
13.9457136565
 20
11.6472717514
 30
0.0
 10
13.9501282463
 20
11.6425670971
 30
0.0
 10
13.9534356908
 20
11.6390374796
 30
0.0
 10
13.9562030216
 20
11.6360997162
 30
0.0
 10
13.9581183168
 20
11.6340362474
 30
0.0
 10
13.9592468668
 20
11.6328681059
 30
0.0
 10
13.9599972315
 20
11.6319610589
 30
0.0
 10
13.9611147396
 20
11.6311722839
 30
0.0
 10
13.9624766866
 20
11.6300793293
 30
0.0
 10
13.9649197612
 20
11.62818588
 30
0.0
 10
13.968378673
 20
11.6254709033
 30
0.0
 10
13.9725427196
 20
11.6222172326
 30
0.0
 10
13.9780901179
 20
11.6178775026
 30
0.0
 10
13.9850259627
 20
11.6124533546
 30
0.0
 10
13.9961224219
 20
11.6037744302
 30
0.0
 10
14.0099933021
 20
11.5929258735
 30
0.0
 10
14.0266382271
 20
11.579907563
 30
0.0
 10
14.0432831872
 20
11.5668892639
 30
0.0
 10
14.0654764552
 20
11.5495315278
 30
0.0
 10
14.0932180434
 20
11.5278343586
 30
0.0
 10
14.1209596341
 20
11.5061371907
 30
0.0
 10
14.1431528981
 20
11.4887794526
 30
0.0
 10
14.1597978701
 20
11.4757611597
 30
0.0
 10
14.1764427507
 20
11.4627428259
 30
0.0
 10
14.190313769
 20
11.4518943418
 30
0.0
 10
14.2014099465
 20
11.4432152691
 30
0.0
 10
14.2083465082
 20
11.4377914986
 30
0.0
 10
14.2138924351
 20
11.4334509937
 30
0.0
 10
14.2180609771
 20
11.4301996906
 30
0.0
 10
14.2215058237
 20
11.4274773064
 30
0.0
 10
14.2243266047
 20
11.425328477
 30
0.0
 10
14.2262648424
 20
11.4236374
 30
0.0
 10
14.2288800205
 20
11.4222496039
 30
0.0
 10
14.2321304607
 20
11.4202932691
 30
0.0
 10
14.2362746404
 20
11.4178841981
 30
0.0
 10
14.2412129301
 20
11.414977755
 30
0.0
 10
14.2478094454
 20
11.4111079316
 30
0.0
 10
14.2560509365
 20
11.4062687917
 30
0.0
 10
14.2692396435
 20
11.3985272077
 30
0.0
 10
14.2857247307
 20
11.388849871
 30
0.0
 10
14.3055071768
 20
11.3772372199
 30
0.0
 10
14.3252895313
 20
11.3656245276
 30
0.0
 10
14.3516660371
 20
11.3501409536
 30
0.0
 10
14.3846366505
 20
11.3307864708
 30
0.0
 10
14.4242014271
 20
11.3075611413
 30
0.0
 10
14.4571719643
 20
11.2882065544
 30
0.0
 10
14.4835486378
 20
11.2727232096
 30
0.0
 10
14.5000335042
 20
11.2630453802
 30
0.0
 10
14.5132226674
 20
11.2553048087
 30
0.0
 10
14.5231110625
 20
11.2494947475
 30
0.0
 10
14.5313624533
 20
11.2446677666
 30
0.0
 10
14.5371167189
 20
11.2412599595
 30
0.0
 10
14.5404387659
 20
11.2393577982
 30
0.0
 10
14.5428348177
 20
11.2378039692
 30
0.0
 10
14.5455958557
 20
11.2367363934
 30
0.0
 10
14.5491499284
 20
11.2351433485
 30
0.0
 10
14.5554288724
 20
11.2324345445
 30
0.0
 10
14.564367781
 20
11.2285235095
 30
0.0
 10
14.5751077451
 20
11.2238479517
 30
0.0
 10
14.589423061
 20
11.2176076979
 30
0.0
 10
14.6073187934
 20
11.2098094956
 30
0.0
 10
14.6359510777
 20
11.1973311895
 30
0.0
 10
14.671741739
 20
11.1817337155
 30
0.0
 10
14.7146903953
 20
11.1630165591
 30
0.0
 10
14.7576391114
 20
11.144299499
 30
0.0
 10
14.7934296231
 20
11.1287017845
 30
0.0
 10
14.8220622067
 20
11.1162239593
 30
0.0
 10
14.8399571784
 20
11.1084245346
 30
0.0
 10
14.8542740555
 20
11.1021867898
 30
0.0
 10
14.8650092502
 20
11.0975035669
 30
0.0
 10
14.8739630811
 20
11.093616514
 30
0.0
 10
14.8802153861
 20
11.0908648979
 30
0.0
 10
14.8838121411
 20
11.0893404488
 30
0.0
 10
14.886442073
 20
11.0880621686
 30
0.0
 10
14.8893305378
 20
11.0872997102
 30
0.0
 10
14.8930916451
 20
11.0861031747
 30
0.0
 10
14.899715599
 20
11.0840930675
 30
0.0
 10
14.9091564237
 20
11.0811776585
 30
0.0
 10
14.9204948158
 20
11.0776979272
 30
0.0
 10
14.9356093878
 20
11.0730517331
 30
0.0
 10
14.9545037274
 20
11.0672462341
 30
0.0
 10
14.984734042
 20
11.0579561813
 30
0.0
 10
15.0225221515
 20
11.0463440489
 30
0.0
 10
15.0678677885
 20
11.0324092905
 30
0.0
 10
15.1132134572
 20
11.0184746366
 30
0.0
 10
15.1510014872
 20
11.0068622429
 30
0.0
 10
15.1812319607
 20
10.9975727127
 30
0.0
 10
15.2001258967
 20
10.9917658854
 30
0.0
 10
15.2152412969
 20
10.9871224177
 30
0.0
 10
15.2265771588
 20
10.9836343572
 30
0.0
 10
15.2360258998
 20
10.9807450081
 30
0.0
 10
15.2426357219
 20
10.9786883797
 30
0.0
 10
15.2464194718
 20
10.9775663828
 30
0.0
 10
15.2492383857
 20
10.9765749653
 30
0.0
 10
15.2521295395
 20
10.9761566174
 30
0.0
 10
15.2559592131
 20
10.9753989272
 30
0.0
 10
15.2626728823
 20
10.9741661031
 30
0.0
 10
15.2722577002
 20
10.9723562345
 30
0.0
 10
15.283762109
 20
10.9702052335
 30
0.0
 10
15.2991004031
 20
10.9673299528
 30
0.0
 10
15.3182735849
 20
10.9637383445
 30
0.0
 10
15.3489505001
 20
10.9579903776
 30
0.0
 10
15.3872967043
 20
10.9508059005
 30
0.0
 10
15.4333121243
 20
10.942184307
 30
0.0
 10
15.4793275481
 20
10.9335628269
 30
0.0
 10
15.5176737428
 20
10.9263780663
 30
0.0
 10
15.5483506771
 20
10.9206306664
 30
0.0
 10
15.5675238104
 20
10.9170376169
 30
0.0
 10
15.582862204
 20
10.9141652942
 30
0.0
 10
15.5943663086
 20
10.9120052561
 30
0.0
 10
15.6039520784
 20
10.9102236627
 30
0.0
 10
15.6106640483
 20
10.9089403625
 30
0.0
 10
15.6144964446
 20
10.9082635477
 30
0.0
 10
15.6173792352
 20
10.9075967765
 30
0.0
 10
15.6202295598
 20
10.9075383955
 30
0.0
 10
15.6240413171
 20
10.9072483409
 30
0.0
 10
15.6307066161
 20
10.9068396193
 30
0.0
 10
15.6402312303
 20
10.9062040389
 30
0.0
 10
15.6516595866
 20
10.9054634685
 30
0.0
 10
15.6668978074
 20
10.904468313
 30
0.0
 10
15.6859454422
 20
10.9032270149
 30
0.0
 10
15.7164217369
 20
10.9012394589
 30
0.0
 10
15.754517078
 20
10.8987555217
 30
0.0
 10
15.8002314996
 20
10.8957745779
 30
0.0
 10
15.8383268461
 20
10.8932905115
 30
0.0
 10
15.8688031289
 20
10.8913032398
 30
0.0
 10
15.891660327
 20
10.8898128097
 30
0.0
 10
15.9145175782
 20
10.888322294
 30
0.0
 10
15.9335651224
 20
10.8870804633
 30
0.0
 10
15.9488035275
 20
10.8860864038
 30
0.0
 10
15.9583266888
 20
10.8854664711
 30
0.0
 10
15.9659471459
 20
10.884967423
 30
0.0
 10
15.9716572099
 20
10.88460163
 30
0.0
 10
15.9764323893
 20
10.8842697845
 30
0.0
 10
15.9802148696
 20
10.8840649049
 30
0.0
 10
15.9831546437
 20
10.8837456657
 30
0.0
 10
15.9857015938
 20
10.8840584458
 30
0.0
 10
15.9892347459
 20
10.8842547134
 30
0.0
 10
15.9936041069
 20
10.8845757938
 30
0.0
 10
15.9988674915
 20
10.8849286686
 30
0.0
 10
16.0058782991
 20
10.8854104925
 30
0.0
 10
16.0146442186
 20
10.8860088951
 30
0.0
 10
16.0286683429
 20
10.8869685062
 30
0.0
 10
16.0461989605
 20
10.8881672765
 30
0.0
 10
16.0672355034
 20
10.8896061196
 30
0.0
 10
16.0882720994
 20
10.8910448775
 30
0.0
 10
16.1163208755
 20
10.892963251
 30
0.0
 10
16.1513818517
 20
10.895361208
 30
0.0
 10
16.1864428267
 20
10.8977591675
 30
0.0
 10
16.2144916049
 20
10.8996775371
 30
0.0
 10
16.2355281945
 20
10.9011163068
 30
0.0
 10
16.2565647613
 20
10.9025551056
 30
0.0
 10
16.2740953047
 20
10.9037540138
 30
0.0
 10
16.2881195801
 20
10.9047133436
 30
0.0
 10
16.296885115
 20
10.9053124621
 30
0.0
 10
16.3038967122
 20
10.9057928163
 30
0.0
 10
16.3091576845
 20
10.9061501814
 30
0.0
 10
16.3135345929
 20
10.9064572128
 30
0.0
 10
16.3166126276
 20
10.9066540268
 30
0.0
 10
16.3183493343
 20
10.906794766
 30
0.0
 10
16.3197143184
 20
10.9068206719
 30
0.0
 10
16.3208405716
 20
10.9071510348
 30
0.0
 10
16.3224255145
 20
10.9074853206
 30
0.0
 10
16.3251603666
 20
10.9081198005
 30
0.0
 10
16.3290875822
 20
10.9090003317
 30
0.0
 10
16.3337915588
 20
10.9100680418
 30
0.0
 10
16.34006656
 20
10.9114877878
 30
0.0
 10
16.3479092733
 20
10.9132637945
 30
0.0
 10
16.3604581948
 20
10.9161046651
 30
0.0
 10
16.3761441475
 20
10.9196560073
 30
0.0
 10
16.3949673762
 20
10.9239175091
 30
0.0
 10
16.413790582
 20
10.9281790401
 30
0.0
 10
16.4388881977
 20
10.9338610711
 30
0.0
 10
16.4702602144
 20
10.9409636138
 30
0.0
 10
16.5016322333
 20
10.9480661539
 30
0.0
 10
16.5267298454
 20
10.9537481889
 30
0.0
 10
16.5455530623
 20
10.9580097079
 30
0.0
 10
16.5643762491
 20
10.9622712544
 30
0.0
 10
16.5800623322
 20
10.9658224577
 30
0.0
 10
16.5926109878
 20
10.9686636117
 30
0.0
 10
16.6004543777
 20
10.9704388971
 30
0.0
 10
16.60672799
 20
10.9718601238
 30
0.0
 10
16.6114362102
 20
10.9729233101
 30
0.0
 10
16.6153501483
 20
10.9738179951
 30
0.0
 10
16.6181087031
 20
10.974427208
 30
0.0
 10
16.6196556684
 20
10.9748019779
 30
0.0
 10
16.6208985768
 20
10.9750079869
 30
0.0
 10
16.6218254232
 20
10.9755009453
 30
0.0
 10
16.6231714643
 20
10.976058132
 30
0.0
 10
16.6254756707
 20
10.977079843
 30
0.0
 10
16.6287942486
 20
10.9785150493
 30
0.0
 10
16.6327650476
 20
10.9802477327
 30
0.0
 10
16.638063461
 20
10.9825543321
 30
0.0
 10
16.644685103
 20
10.9854388295
 30
0.0
 10
16.6552804986
 20
10.9900533278
 30
0.0
 10
16.6685244795
 20
10.99582169
 30
0.0
 10
16.6844173696
 20
11.002743622
 30
0.0
 10
16.7003102294
 20
11.0096655815
 30
0.0
 10
16.7215007198
 20
11.0188948511
 30
0.0
 10
16.7479888287
 20
11.0304314418
 30
0.0
 10
16.7744769405
 20
11.0419680301
 30
0.0
 10
16.7956674263
 20
11.0511973036
 30
0.0
 10
16.8115602998
 20
11.0581192517
 30
0.0
 10
16.8274531387
 20
11.0650412264
 30
0.0
 10
16.8406972788
 20
11.0708094557
 30
0.0
 10
16.8512923497
 20
11.075424225
 30
0.0
 10
16.8579148181
 20
11.0783080326
 30
0.0
 10
16.8632115354
 20
11.080616048
 30
0.0
 10
16.867187516
 20
11.0823444054
 30
0.0
 10
16.8704898817
 20
11.0837931464
 30
0.0
 10
16.8728230297
 20
11.0847906957
 30
0.0
 10
16.8741226991
 20
11.0853865957
 30
0.0
 10
16.8751919845
 20
11.0857606394
 30
0.0
 10
16.8758999159
 20
11.0864132722
 30
0.0
 10
16.8769698687
 20
11.0871862743
 30
0.0
 10
16.8787835598
 20
11.0885843037
 30
0.0
 10
16.8814052498
 20
11.0905578179
 30
0.0
 10
16.8845381361
 20
11.0929361667
 30
0.0
 10
16.888719908
 20
11.0961037596
 30
0.0
 10
16.8939455512
 20
11.1000644625
 30
0.0
 10
16.9023074587
 20
11.1064009098
 30
0.0
 10
16.9127595417
 20
11.1143217013
 30
0.0
 10
16.9253021704
 20
11.1238265516
 30
0.0
 10
16.9378447646
 20
11.1333314285
 30
0.0
 10
16.9545682357
 20
11.1460045883
 30
0.0
 10
16.9754725698
 20
11.1618460415
 30
0.0
 10
16.9963769074
 20
11.1776874928
 30
0.0
 10
17.013100373
 20
11.1903606558
 30
0.0
 10
17.0256429837
 20
11.199865523
 30
0.0
 10
17.0381855504
 20
11.2093704097
 30
0.0
 10
17.0486378265
 20
11.2172910879
 30
0.0
 10
17.0569993402
 20
11.2236277664
 30
0.0
 10
17.0622259855
 20
11.227587881
 30
0.0
 10
17.0664057004
 20
11.2307566814
 30
0.0
 10
17.0695448709
 20
11.2331313412
 30
0.0
 10
17.0721468991
 20
11.2351163973
 30
0.0
 10
17.0739956899
 20
11.2364938224
 30
0.0
 10
17.0750094042
 20
11.2372998378
 30
0.0
 10
17.0758900825
 20
11.2378510644
 30
0.0
 10
17.0763105592
 20
11.2386059729
 30
0.0
 10
17.0770317183
 20
11.239541471
 30
0.0
 10
17.0782189559
 20
11.2412116946
 30
0.0
 10
17.0799541112
 20
11.2435804222
 30
0.0
 10
17.0820195607
 20
11.2464303029
 30
0.0
 10
17.0847793393
 20
11.2502275565
 30
0.0
 10
17.0882270608
 20
11.2549750094
 30
0.0
 10
17.093744534
 20
11.262570439
 30
0.0
 10
17.1006409917
 20
11.2720648958
 30
0.0
 10
17.1089169054
 20
11.2834581712
 30
0.0
 10
17.1171927751
 20
11.294851466
 30
0.0
 10
17.1282272835
 20
11.310042519
 30
0.0
 10
17.1420204132
 20
11.3290313377
 30
0.0
 10
17.1558135467
 20
11.3480201549
 30
0.0
 10
17.1668480489
 20
11.3632112104
 30
0.0
 10
17.1751239372
 20
11.3746044976
 30
0.0
 10
17.1833997809
 20
11.3859978014
 30
0.0
 10
17.1902964565
 20
11.3954921698
 30
0.0
 10
17.1958134853
 20
11.4030877797
 30
0.0
 10
17.1992623377
 20
11.4078347736
 30
0.0
 10
17.2020197951
 20
11.4116329695
 30
0.0
 10
17.2040923361
 20
11.4144799715
 30
0.0
 10
17.2058053039
 20
11.4168577058
 30
0.0
 10
17.2070321498
 20
11.4185118509
 30
0.0
 10
17.2076898465
 20
11.4194731108
 30
0.0
 10
17.2083052595
 20
11.4201488874
 30
0.0
 10
17.2084537896
 20
11.4209973202
 30
0.0
 10
17.2088146837
 20
11.4220683396
 30
0.0
 10
17.2093703717
 20
11.4239706831
 30
0.0
 10
17.210203881
 20
11.4266736469
 30
0.0
 10
17.2111871124
 20
11.4299234826
 30
0.0
 10
17.2125040182
 20
11.4342544037
 30
0.0
 10
17.2141481199
 20
11.439668806
 30
0.0
 10
17.2167798175
 20
11.4483314299
 30
0.0
 10
17.2200690501
 20
11.4591598539
 30
0.0
 10
17.2240162961
 20
11.4721539009
 30
0.0
 10
17.2279634974
 20
11.4851479644
 30
0.0
 10
17.2332264482
 20
11.5024733767
 30
0.0
 10
17.2398051309
 20
11.5241301442
 30
0.0
 10
17.2463838174
 20
11.5457869104
 30
0.0
 10
17.2516467619
 20
11.5631123246
 30
0.0
 10
17.2555939824
 20
11.5761063823
 30
0.0
 10
17.2595411566
 20
11.5891004514
 30
0.0
 10
17.2628306124
 20
11.5999288067
 30
0.0
 10
17.2654618547
 20
11.6085915706
 30
0.0
 10
17.2671071151
 20
11.6140056168
 30
0.0
 10
17.2684216425
 20
11.6183372688
 30
0.0
 10
17.2694121405
 20
11.6215848714
 30
0.0
 10
17.2702229143
 20
11.6242948218
 30
0.0
 10
17.2708191889
 20
11.6261846931
 30
0.0
 10
17.2711150532
 20
11.6272756962
 30
0.0
 10
17.2714633342
 20
11.6280627456
 30
0.0
 10
17.271328516
 20
11.628969068
 30
0.0
 10
17.2713172688
 20
11.6301358941
 30
0.0
 10
17.2712190742
 20
11.6321972238
 30
0.0
 10
17.2711198431
 20
11.6351318463
 30
0.0
 10
17.2709831964
 20
11.6386577311
 30
0.0
 10
17.2708071375
 20
11.6433573957
 30
0.0
 10
17.2705849626
 20
11.6492324952
 30
0.0
 10
17.2702306572
 20
11.6586323645
 30
0.0
 10
17.2697873724
 20
11.6703823006
 30
0.0
 10
17.2692556034
 20
11.6844821812
 30
0.0
 10
17.2687237881
 20
11.6985820733
 30
0.0
 10
17.2680147174
 20
11.7173819254
 30
0.0
 10
17.2671283729
 20
11.740881742
 30
0.0
 10
17.2662420324
 20
11.7643815577
 30
0.0
 10
17.2655329551
 20
11.7831814112
 30
0.0
 10
17.2650011596
 20
11.797281299
 30
0.0
 10
17.2644693167
 20
11.8113811955
 30
0.0
 10
17.2640262618
 20
11.8231310824
 30
0.0
 10
17.2636714876
 20
11.8325310519
 30
0.0
 10
17.2634505055
 20
11.8384058964
 30
0.0
 10
17.2632719982
 20
11.8431060845
 30
0.0
 10
17.2631428316
 20
11.8466303701
 30
0.0
 10
17.263020197
 20
11.849569996
 30
0.0
 10
17.2629637816
 20
11.8516223937
 30
0.0
 10
17.2628855936
 20
11.852803531
 30
0.0
 10
17.2629563962
 20
11.8536658941
 30
0.0
 10
17.2625323998
 20
11.8546180474
 30
0.0
 10
17.2621396627
 20
11.8558562653
 30
0.0
 10
17.2613719593
 20
11.8580377392
 30
0.0
 10
17.2603172811
 20
11.8611465013
 30
0.0
 10
17.2590336725
 20
11.8648802813
 30
0.0
 10
17.2573284795
 20
11.8698575141
 30
0.0
 10
17.2551948362
 20
11.8760794456
 30
0.0
 10
17.2517822097
 20
11.8860343177
 30
0.0
 10
17.2475160139
 20
11.8984779828
 30
0.0
 10
17.2423967558
 20
11.9134103488
 30
0.0
 10
17.2372774504
 20
11.9283427234
 30
0.0
 10
17.2304517264
 20
11.9482525531
 30
0.0
 10
17.2219195657
 20
11.9731398414
 30
0.0
 10
17.2116809753
 20
12.0030045868
 30
0.0
 10
17.1980295206
 20
12.0428242476
 30
0.0
 10
17.1877909298
 20
12.0726889931
 30
0.0
 10
17.1809652025
 20
12.0925988235
 30
0.0
  0
ELLIPSE
  5
342
100
AcDbEntity
  8
0
100
AcDbEllipse
 62
7
  6
CONTINUOUS
 10
6.0708720839
 20
11.0321646648
 30
0.0
 11
-0.0
 21
1.6312300026
 31
0.0
 40
0.8237648877
 41
0.039365066
 42
0.2301408146
  0
ELLIPSE
  5
343
100
AcDbEntity
  8
0
100
AcDbEllipse
 62
7
  6
CONTINUOUS
 10
6.0708720839
 20
11.0321646648
 30
0.0
 11
0.0
 21
1.6312300026
 31
0.0
 40
0.8237648877
 41
-0.2301408146
 42
-0.0394466555
  0
ELLIPSE
  5
344
100
AcDbEntity
  8
0
100
AcDbEllipse
 62
7
  6
CONTINUOUS
 10
15.1276411227
 20
11.2438576533
 30
0.0
 11
-0.0228841347
 21
2.1130322462
 31
0.0
 40
0.5856775061
 41
-0.2364836157
 42
0.2237980135
  0
ENDSEC
  0
SECTION
  2
OBJECTS
  0
DICTIONARY
  5
C
100
AcDbDictionary
280
0
281
1
  3
ACAD_GROUP
350
D
  3
ACAD_MLINESTYLE
350
17
  3
ACAD_LAYOUT
350
1A
  3
ACAD_PLOTSETTINGS
350
19
  3
ACAD_PLOTSTYLENAME
350
E
  0
DICTIONARY
  5
D
102
{ACAD_REACTORS
330
C
102
}
100
AcDbDictionary
280
0
281
1
  0
ACDBDICTIONARYWDFLT
  5
E
102
{ACAD_REACTORS
330
C
102
}
100
AcDbDictionary
281
1
  3
Normal
350
F
100
AcDbDictionaryWithDefault
340
F
  0
DICTIONARY
  5
17
102
{ACAD_REACTORS
330
C
102
}
100
AcDbDictionary
280
0
281
1
  3
Standard
350
18
  0
DICTIONARY
  5
19
102
{ACAD_REACTORS
330
C
102
}
100
AcDbDictionary
281
1
  0
DICTIONARY
  5
1A
102
{ACAD_REACTORS
330
C
102
}
100
AcDbDictionary
281
1
  3
Model
350
345
  3
Layout1
350
346
  0
ACDBPLACEHOLDER
  5
F
102
{ACAD_REACTORS
330
E
102
}
  0
MLINESTYLE
  5
18
102
{ACAD_REACTORS
330
17
102
}
100
AcDbMlineStyle
  2
STANDARD
 70
0
  3

 62
256
 51
90.0
 52
90.0
 71
2
 49
0.5
 62
256
  6
BYLAYER
 49
-0.5
 62
256
  6
BYLAYER
  0
LAYOUT
  5
345
102
{ACAD_REACTORS
330
1A
102
}
100
AcDbPlotSettings
  1

  2
none_device
  4
ANSI_C_(22.00_x_17.00_Inches)
  6

 40
0.0
 41
0.0
 42
0.0
 43
0.0
 44
558.8
 45
431.8
 46
0.0
 47
0.0
 48
0.0
 49
0.0
140
0.0
141
0.0
142
1.0
143
1.0
 70
1024
 72
0
 73
0
 74
0
  7

 75
0
147
1.0
148
0.0
149
0.0
100
AcDbLayout
  1
Model
 70
0
 71
0
 10
0.0
 20
0.0
 11
22.0
 21
17.0
 12
0.0
 22
0.0
 32
0.0
 14
0.0
 24
0.0
 34
0.0
 15
0.0
 25
0.0
 35
0.0
146
0.0
 13
0.0
 23
0.0
 33
0.0
 16
1.0
 26
0.0
 36
0.0
 17
0.0
 27
1.0
 37
0.0
 76
0
330
219
345
0
346
0
  0
LAYOUT
  5
346
102
{ACAD_REACTORS
330
1A
102
}
100
AcDbPlotSettings
  1

  2
none_device
  4
ANSI_C_(22.00_x_17.00_Inches)
  6

 40
0.0
 41
0.0
 42
0.0
 43
0.0
 44
558.8
 45
431.8
 46
0.0
 47
0.0
 48
0.0
 49
0.0
140
0.0
141
0.0
142
1.0
143
1.0
 70
0
 72
0
 73
0
 74
0
  7

 75
0
147
1.0
148
0.0
149
0.0
100
AcDbLayout
  1
Layout1
 70
0
 71
1
 10
0.0
 20
0.0
 11
22.0
 21
17.0
 12
0.0
 22
0.0
 32
0.0
 14
0.0
 24
0.0
 34
0.0
 15
0.0
 25
0.0
 35
0.0
146
0.0
 13
0.0
 23
0.0
 33
0.0
 16
1.0
 26
0.0
 36
0.0
 17
0.0
 27
1.0
 37
0.0
 76
0
330
21A
345
0
346
0
  0
ENDSEC
  0
EOF