999
DXF file: _cgs_temp_output.dxf
999
Pro/ENGINEER 2016360 by Parametric Technology Corporation
  0
SECTION
  2
HEADER
  9
$ACADVER
  1
AC1021
  9
$DWGCODEPAGE
  3
ANSI_1252
  9
$EXTMAX
 10
22.0
 20
17.0
 30
0.0
  9
$EXTMIN
 10
0.0
 20
0.0
 30
0.0
  9
$LIMMIN
 10
0.0
 20
0.0
  9
$LIMMAX
 10
22.0
 20
17.0
  9
$VIEWCTR
 10
11.0
 20
8.5
  9
$VIEWSIZE
 40
17.0
  9
$CLAYER
  8
0
  9
$LTSCALE
 40
1.21
  9
$CELTYPE
  6
BYLAYER
  9
$DIMSCALE
 40
1.0
  9
$DIMASZ
 40
0.1875
  9
$DIMEXO
 40
0.0625
  9
$DIMDLI
 40
0.836
  9
$DIMEXE
 40
0.125
  9
$DIMCEN
 40
0.198
  9
$DIMLFAC
 40
1.0
  9
$DIMBLK
  1
_CLOSED
  9
$DIMALT
 70
0
  9
$DIMALTF
 40
25.4
  9
$DIMTXT
 40
0.15625
  9
$DIMTOL
 70
0
  9
$DIMLIM
 70
0
  9
$DIMTFAC
 40
1.0
  9
$DIMGAP
 40
0.09
  9
$DIMDSEP
 70
46
  9
$AUNITS
 70
0
  9
$PDMODE
 70
3
  9
$PDSIZE
 40
0.3125
  9
$HANDSEED
  5
386
  9
$TILEMODE
 70
1
  9
$MEASUREMENT
 70
0
  9
$INSUNITS
 70
1
  0
ENDSEC
  0
SECTION
  2
CLASSES
  0
CLASS
  1
ACDBDICTIONARYWDFLT
  2
AcDbDictionaryWithDefault
  3
AutoCAD 2000
 90
0
 91
1
280
0
281
0
  0
CLASS
  1
ACDBPLACEHOLDER
  2
AcDbPlaceHolder
  3
AutoCAD 2000
 90
0
 91
1
280
0
281
0
  0
CLASS
  1
LAYOUT
  2
AcDbLayout
  3
AutoCAD 2000
 90
0
 91
0
280
0
281
0
  0
ENDSEC
  0
SECTION
  2
TABLES
  0
TABLE
  2
VPORT
  5
8
100
AcDbSymbolTable
 70
2
  0
VPORT
  5
1F4
100
AcDbSymbolTableRecord
100
AcDbViewportTableRecord
  2
*ACTIVE
 70
0
 10
0.0
 20
0.0
 11
1.0
 21
1.0
 12
11.0
 22
8.5
 13
0.0
 23
0.0
 14
1.0
 24
1.0
 15
0.0
 25
0.0
 16
0.0
 26
0.0
 36
1.0
 17
0.0
 27
0.0
 37
0.0
 40
17.0
 41
1.2941176471
 42
50.0
 43
0.0
 44
0.0
 50
0.0
 51
0.0
 71
0
 72
100
 73
1
 74
1
 75
0
 76
0
 77
0
 78
0
  0
ENDTAB
  0
TABLE
  2
LTYPE
  5
5
100
AcDbSymbolTable
 70
6
  0
LTYPE
  5
14
100
AcDbSymbolTableRecord
100
AcDbLinetypeTableRecord
  2
BYBLOCK
 70
0
  3

 72
65
 73
0
 40
0.0
  0
LTYPE
  5
15
100
AcDbSymbolTableRecord
100
AcDbLinetypeTableRecord
  2
BYLAYER
 70
0
  3

 72
65
 73
0
 40
0.0
  0
LTYPE
  5
16
100
AcDbSymbolTableRecord
100
AcDbLinetypeTableRecord
  2
CONTINUOUS
 70
64
  3
Solid line
 72
65
 73
0
 40
0.0
  0
LTYPE
  5
1F5
100
AcDbSymbolTableRecord
100
AcDbLinetypeTableRecord
  2
CENTER
 70
64
  3
____ _ ____ _ ____ _ ____ _ ____ _ ____ _ ____
 72
65
 73
4
 40
0.6
 49
0.375
 74
0
 49
-0.075
 74
0
 49
0.075
 74
0
 49
-0.075
 74
0
  0
LTYPE
  5
1F6
100
AcDbSymbolTableRecord
100
AcDbLinetypeTableRecord
  2
HIDDEN
 70
64
  3
- - - - - - - - - - - - - - - - - - - -
 72
65
 73
2
 40
0.2
 49
0.1
 74
0
 49
-0.1
 74
0
  0
LTYPE
  5
1F7
100
AcDbSymbolTableRecord
100
AcDbLinetypeTableRecord
  2
PHANTOM
 70
64
  3
_____ _ _ _____ _ _ _____ _ _ _____
 72
65
 73
6
 40
0.8
 49
0.45
 74
0
 49
-0.05
 74
0
 49
0.1
 74
0
 49
-0.05
 74
0
 49
0.1
 74
0
 49
-0.05
 74
0
  0
LTYPE
  5
1F8
100
AcDbSymbolTableRecord
100
AcDbLinetypeTableRecord
  2
DOT
 70
64
  3
. . . . . . . . . . . . . . . . . . . .
 72
65
 73
2
 40
0.2
 49
0.1
 74
0
 49
-0.1
 74
0
  0
LTYPE
  5
1F9
100
AcDbSymbolTableRecord
100
AcDbLinetypeTableRecord
  2
DASHED
 70
64
  3
- - - - - - - - - - - - - - - - - - - -
 72
65
 73
2
 40
0.2
 49
0.1
 74
0
 49
-0.1
 74
0
  0
ENDTAB
  0
TABLE
  2
LAYER
  5
2
100
AcDbSymbolTable
 70
36
  0
LAYER
  5
10
100
AcDbSymbolTableRecord
100
AcDbLayerTableRecord
  2
0
 70
0
 62
7
  6
CONTINUOUS
370
-3
390
F
  0
LAYER
  5
1FA
100
AcDbSymbolTableRecord
100
AcDbLayerTableRecord
  2
DEFAULT_1
 70
0
 62
7
  6
CENTER
370
-3
390
F
  0
LAYER
  5
1FB
100
AcDbSymbolTableRecord
100
AcDbLayerTableRecord
  2
DEFAULT_2
 70
0
 62
8
  6
HIDDEN
370
-3
390
F
  0
LAYER
  5
1FC
100
AcDbSymbolTableRecord
100
AcDbLayerTableRecord
  2
DEFAULT_3
 70
0
 62
7
  6
PHANTOM
370
-3
390
F
  0
LAYER
  5
1FD
100
AcDbSymbolTableRecord
100
AcDbLayerTableRecord
  2
01_ALL_DTM_PLN
 70
0
 62
7
  6
CONTINUOUS
370
-3
390
F
  0
LAYER
  5
1FE
100
AcDbSymbolTableRecord
100
AcDbLayerTableRecord
  2
01__ASM_ALL_DTM_PLN
 70
0
 62
7
  6
CONTINUOUS
370
-3
390
F
  0
LAYER
  5
1FF
100
AcDbSymbolTableRecord
100
AcDbLayerTableRecord
  2
01__ASM_DEF_DTM_PLN
 70
0
 62
7
  6
CONTINUOUS
370
-3
390
F
  0
LAYER
  5
200
100
AcDbSymbolTableRecord
100
AcDbLayerTableRecord
  2
01___PRT_ALL_DTM_PLN
 70
0
 62
7
  6
CONTINUOUS
370
-3
390
F
  0
LAYER
  5
201
100
AcDbSymbolTableRecord
100
AcDbLayerTableRecord
  2
01___PRT_DEF_DTM_PLN
 70
0
 62
7
  6
CONTINUOUS
370
-3
390
F
  0
LAYER
  5
202
100
AcDbSymbolTableRecord
100
AcDbLayerTableRecord
  2
02_ALL_AXES
 70
0
 62
7
  6
CONTINUOUS
370
-3
390
F
  0
LAYER
  5
203
100
AcDbSymbolTableRecord
100
AcDbLayerTableRecord
  2
02__ASM_ALL_AXES
 70
0
 62
7
  6
CONTINUOUS
370
-3
390
F
  0
LAYER
  5
204
100
AcDbSymbolTableRecord
100
AcDbLayerTableRecord
  2
02___PRT_ALL_AXES
 70
0
 62
7
  6
CONTINUOUS
370
-3
390
F
  0
LAYER
  5
205
100
AcDbSymbolTableRecord
100
AcDbLayerTableRecord
  2
03_ALL_CURVES
 70
0
 62
7
  6
CONTINUOUS
370
-3
390
F
  0
LAYER
  5
206
100
AcDbSymbolTableRecord
100
AcDbLayerTableRecord
  2
03__ASM_ALL_CURVES
 70
0
 62
7
  6
CONTINUOUS
370
-3
390
F
  0
LAYER
  5
207
100
AcDbSymbolTableRecord
100
AcDbLayerTableRecord
  2
03___PRT_ALL_CURVES
 70
0
 62
7
  6
CONTINUOUS
370
-3
390
F
  0
LAYER
  5
208
100
AcDbSymbolTableRecord
100
AcDbLayerTableRecord
  2
04_ALL_DTM_PNT
 70
0
 62
7
  6
CONTINUOUS
370
-3
390
F
  0
LAYER
  5
209
100
AcDbSymbolTableRecord
100
AcDbLayerTableRecord
  2
04__ASM_ALL_DTM_PNT
 70
0
 62
7
  6
CONTINUOUS
370
-3
390
F
  0
LAYER
  5
20A
100
AcDbSymbolTableRecord
100
AcDbLayerTableRecord
  2
04___PRT_ALL_DTM_PNT
 70
0
 62
7
  6
CONTINUOUS
370
-3
390
F
  0
LAYER
  5
20B
100
AcDbSymbolTableRecord
100
AcDbLayerTableRecord
  2
05_ALL_DTM_CSYS
 70
0
 62
7
  6
CONTINUOUS
370
-3
390
F
  0
LAYER
  5
20C
100
AcDbSymbolTableRecord
100
AcDbLayerTableRecord
  2
05__ASM_ALL_DTM_CSYS
 70
0
 62
7
  6
CONTINUOUS
370
-3
390
F
  0
LAYER
  5
20D
100
AcDbSymbolTableRecord
100
AcDbLayerTableRecord
  2
05__ASM_DEF_DTM_CSYS
 70
0
 62
7
  6
CONTINUOUS
370
-3
390
F
  0
LAYER
  5
20E
100
AcDbSymbolTableRecord
100
AcDbLayerTableRecord
  2
05___PRT_ALL_DTM_CSYS
 70
0
 62
7
  6
CONTINUOUS
370
-3
390
F
  0
LAYER
  5
20F
100
AcDbSymbolTableRecord
100
AcDbLayerTableRecord
  2
05___PRT_DEF_DTM_CSYS
 70
0
 62
7
  6
CONTINUOUS
370
-3
390
F
  0
LAYER
  5
210
100
AcDbSymbolTableRecord
100
AcDbLayerTableRecord
  2
06_ALL_SURFS
 70
0
 62
7
  6
CONTINUOUS
370
-3
390
F
  0
LAYER
  5
211
100
AcDbSymbolTableRecord
100
AcDbLayerTableRecord
  2
06__ASM_ALL_SURFS
 70
0
 62
7
  6
CONTINUOUS
370
-3
390
F
  0
LAYER
  5
212
100
AcDbSymbolTableRecord
100
AcDbLayerTableRecord
  2
06___PRT_ALL_SURFS
 70
0
 62
7
  6
CONTINUOUS
370
-3
390
F
  0
LAYER
  5
213
100
AcDbSymbolTableRecord
100
AcDbLayerTableRecord
  2
07__ASM_ALL_SKELETONS
 70
0
 62
7
  6
CONTINUOUS
370
-3
390
F
  0
LAYER
  5
214
100
AcDbSymbolTableRecord
100
AcDbLayerTableRecord
  2
INTFCLR_2826
 70
0
 62
7
  6
CONTINUOUS
370
-3
390
F
  0
LAYER
  5
215
100
AcDbSymbolTableRecord
100
AcDbLayerTableRecord
  2
INTFCLR_3213
 70
0
 62
7
  6
CONTINUOUS
370
-3
390
F
  0
LAYER
  5
216
100
AcDbSymbolTableRecord
100
AcDbLayerTableRecord
  2
INTFCLR_4684
 70
0
 62
7
  6
CONTINUOUS
370
-3
390
F
  0
LAYER
  5
217
100
AcDbSymbolTableRecord
100
AcDbLayerTableRecord
  2
INTFCLR_7429
 70
0
 62
7
  6
CONTINUOUS
370
-3
390
F
  0
LAYER
  5
218
100
AcDbSymbolTableRecord
100
AcDbLayerTableRecord
  2
INTFCLR_7469
 70
0
 62
7
  6
CONTINUOUS
370
-3
390
F
  0
LAYER
  5
219
100
AcDbSymbolTableRecord
100
AcDbLayerTableRecord
  2
INTFCLR_8882
 70
0
 62
7
  6
CONTINUOUS
370
-3
390
F
  0
LAYER
  5
21A
100
AcDbSymbolTableRecord
100
AcDbLayerTableRecord
  2
NONE
 70
0
 62
7
  6
CONTINUOUS
370
-3
390
F
  0
LAYER
  5
21B
100
AcDbSymbolTableRecord
100
AcDbLayerTableRecord
  2
_4165
 70
0
 62
7
  6
CONTINUOUS
370
-3
390
F
  0
LAYER
  5
21C
100
AcDbSymbolTableRecord
100
AcDbLayerTableRecord
  2
_4275
 70
0
 62
7
  6
CONTINUOUS
370
-3
390
F
  0
LAYER
  5
21D
100
AcDbSymbolTableRecord
100
AcDbLayerTableRecord
  2
_4447
 70
0
 62
7
  6
CONTINUOUS
370
-3
390
F
  0
LAYER
  5
21E
100
AcDbSymbolTableRecord
100
AcDbLayerTableRecord
  2
_5372
 70
0
 62
7
  6
CONTINUOUS
370
-3
390
F
  0
LAYER
  5
21F
100
AcDbSymbolTableRecord
100
AcDbLayerTableRecord
  2
_5454
 70
0
 62
7
  6
CONTINUOUS
370
-3
390
F
  0
LAYER
  5
220
100
AcDbSymbolTableRecord
100
AcDbLayerTableRecord
  2
_6191
 70
0
 62
7
  6
CONTINUOUS
370
-3
390
F
  0
LAYER
  5
221
100
AcDbSymbolTableRecord
100
AcDbLayerTableRecord
  2
_7555
 70
0
 62
7
  6
CONTINUOUS
370
-3
390
F
  0
LAYER
  5
222
100
AcDbSymbolTableRecord
100
AcDbLayerTableRecord
  2
_8210
 70
0
 62
7
  6
CONTINUOUS
370
-3
390
F
  0
ENDTAB
  0
TABLE
  2
STYLE
  5
3
100
AcDbSymbolTable
 70
1
  0
STYLE
  5
11
100
AcDbSymbolTableRecord
100
AcDbTextStyleTableRecord
  2
STANDARD
 70
0
 40
0.0
 41
0.8
 50
0.0
 71
0
 42
0.2
  3
txt
  4

  0
STYLE
  5
223
100
AcDbSymbolTableRecord
100
AcDbTextStyleTableRecord
  2
TEXTSTYLE_1
 70
0
 40
0.0
 41
0.8
 50
0.0
 71
0
 42
0.2
  3
gdt
  4

  0
ENDTAB
  0
TABLE
  2
VIEW
  5
6
100
AcDbSymbolTable
 70
0
  0
ENDTAB
  0
TABLE
  2
UCS
  5
7
100
AcDbSymbolTable
 70
0
  0
ENDTAB
  0
TABLE
  2
APPID
  5
9
100
AcDbSymbolTable
 70
1
  0
APPID
  5
224
100
AcDbSymbolTableRecord
100
AcDbRegAppTableRecord
  2
ACAD
 70
0
  0
ENDTAB
  0
TABLE
  2
BLOCK_RECORD
  5
1
100
AcDbSymbolTable
 70
0
  0
BLOCK_RECORD
  5
225
100
AcDbSymbolTableRecord
100
AcDbBlockTableRecord
  2
*Model_Space
  0
BLOCK_RECORD
  5
226
100
AcDbSymbolTableRecord
100
AcDbBlockTableRecord
  2
*Paper_Space
  0
ENDTAB
  0
TABLE
  2
DIMSTYLE
  5
A
100
AcDbSymbolTable
 70
1
100
AcDbDimStyleTable
 71
0
  0
DIMSTYLE
105
227
100
AcDbSymbolTableRecord
100
AcDbDimStyleTableRecord
  2
STANDARD
 70
0
  3

  4

 40
1.0
 41
0.1875
 42
0.0625
 43
0.38
 44
0.125
 45
0.0
 46
0.0
 47
0.0001
 48
0.0001
140
0.15625
141
0.09
142
0.0
143
25.4
144
1.0
145
0.0
146
1.0
147
0.09
 71
0.0
 72
0.0
 73
1
 74
1
 75
0
 76
0
 77
0
 78
4
 79
1
170
0
171
3
172
0
173
0
174
0
175
0
176
0
177
0
178
0
270
2
179
4
271
4
272
4
273
2
274
2
275
0
280
0
281
0
282
0
283
1
284
4
285
0
286
0
287
3
288
0
340
11
278
46
  0
ENDTAB
  0
ENDSEC
  0
SECTION
  2
BLOCKS
  0
BLOCK
  5
20
100
AcDbEntity
  8
0
100
AcDbBlockBegin
  2
*Model_Space
 70
0
 10
0.0
 20
0.0
 30
0.0
  3
*Model_Space
  1

  0
ENDBLK
  5
21
100
AcDbEntity
  8
0
100
AcDbBlockEnd
  0
BLOCK
  5
1C
100
AcDbEntity
  8
0
100
AcDbBlockBegin
  2
*Paper_Space
 70
0
 10
0.0
 20
0.0
 30
0.0
  3
*Paper_Space
  1

  0
ENDBLK
  5
1D
100
AcDbEntity
  8
0
100
AcDbBlockEnd
  0
ENDSEC
  0
SECTION
  2
ENTITIES
  0
MTEXT
  5
228
100
AcDbEntity
  8
0
100
AcDbMText
 62
7
  6
CONTINUOUS
  7
STANDARD
 71
1
 72
1
 10
15.9560215477
 20
0.9479130325
 30
0.0
 11
1.0
 21
0.0
 31
0.0
 44
0.9
  1
SCALE: 1:1.000
 40
0.3
 41
3.36
  0
LINE
  5
229
100
AcDbEntity
  8
0
100
AcDbLine
 62
7
  6
CONTINUOUS
 10
0.0
 20
0.0
 11
0.0
 21
17.0
  0
LINE
  5
22A
100
AcDbEntity
  8
0
100
AcDbLine
 62
7
  6
CONTINUOUS
 10
0.0
 20
0.0
 11
22.0
 21
0.0
  0
LINE
  5
22B
100
AcDbEntity
  8
0
100
AcDbLine
 62
7
  6
CONTINUOUS
 10
0.0
 20
17.0
 11
22.0
 21
17.0
  0
LINE
  5
22C
100
AcDbEntity
  8
0
100
AcDbLine
 62
7
  6
CONTINUOUS
 10
22.0
 20
0.0
 11
22.0
 21
17.0
  0
LINE
  5
22D
100
AcDbEntity
  8
0
100
AcDbLine
 62
7
  6
CONTINUOUS
 10
4.6303672762
 20
6.5763383303
 11
4.6303672762
 21
4.4639014632
  0
LINE
  5
22E
100
AcDbEntity
  8
0
100
AcDbLine
 62
7
  6
CONTINUOUS
 10
5.0741488426
 20
4.0201198968
 11
7.1865857097
 21
4.0201198968
  0
LINE
  5
22F
100
AcDbEntity
  8
0
100
AcDbLine
 62
7
  6
CONTINUOUS
 10
5.6782019218
 20
5.482398054
 11
5.6782019218
 21
5.552558054
  0
LINE
  5
230
100
AcDbEntity
  8
0
100
AcDbLine
 62
7
  6
CONTINUOUS
 10
5.6882019218
 20
5.472398054
 11
5.6882019218
 21
5.562558054
  0
LINE
  5
231
100
AcDbEntity
  8
0
100
AcDbLine
 62
7
  6
CONTINUOUS
 10
6.8727847547
 20
6.8901392853
 11
6.4924109625
 21
6.5097654931
  0
LINE
  5
232
100
AcDbEntity
  8
0
100
AcDbLine
 62
7
  6
CONTINUOUS
 10
5.1407216798
 20
5.1580762104
 11
4.7603478876
 21
4.7777024182
  0
LINE
  5
233
100
AcDbEntity
  8
0
100
AcDbLine
 62
7
  6
CONTINUOUS
 10
6.0826454335
 20
5.9622852511
 11
6.0926454335
 21
5.9722852511
  0
LINE
  5
234
100
AcDbEntity
  8
0
100
AcDbLine
 62
7
  6
CONTINUOUS
 10
5.6882019218
 20
5.562558054
 11
5.6782019218
 21
5.552558054
  0
LINE
  5
235
100
AcDbEntity
  8
0
100
AcDbLine
 62
7
  6
CONTINUOUS
 10
4.7603478876
 20
6.2625373753
 11
5.1407216798
 21
5.8821635831
  0
LINE
  5
236
100
AcDbEntity
  8
0
100
AcDbLine
 62
7
  6
CONTINUOUS
 10
6.4924109625
 20
4.5304743004
 11
6.8727847547
 21
4.1501005082
  0
LINE
  5
237
100
AcDbEntity
  8
0
100
AcDbLine
 62
7
  6
CONTINUOUS
 10
5.6882019218
 20
5.472398054
 11
5.6782019218
 21
5.482398054
  0
LINE
  5
238
100
AcDbEntity
  8
0
100
AcDbLine
 62
7
  6
CONTINUOUS
 10
5.9679872474
 20
6.5513698968
 11
5.9679872474
 21
6.6313698968
  0
LINE
  5
239
100
AcDbEntity
  8
0
100
AcDbLine
 62
7
  6
CONTINUOUS
 10
6.0053670462
 20
6.5513698968
 11
6.0053670462
 21
6.5437660783
  0
LINE
  5
23A
100
AcDbEntity
  8
0
100
AcDbLine
 62
7
  6
CONTINUOUS
 10
6.0491772618
 20
6.5513698968
 11
6.0491772618
 21
6.6313698968
  0
LINE
  5
23B
100
AcDbEntity
  8
0
100
AcDbLine
 62
7
  6
CONTINUOUS
 10
6.0826454335
 20
5.944611199
 11
6.0826454335
 21
5.9622852511
  0
LINE
  5
23C
100
AcDbEntity
  8
0
100
AcDbLine
 62
7
  6
CONTINUOUS
 10
5.7058759739
 20
5.472398054
 11
5.6882019218
 21
5.472398054
  0
LINE
  5
23D
100
AcDbEntity
  8
0
100
AcDbLine
 62
7
  6
CONTINUOUS
 10
6.1728054335
 20
5.9451719439
 11
6.1728054335
 21
5.9622852511
  0
LINE
  5
23E
100
AcDbEntity
  8
0
100
AcDbLine
 62
7
  6
CONTINUOUS
 10
6.2115572906
 20
6.5513698968
 11
6.2115572906
 21
6.6313698968
  0
LINE
  5
23F
100
AcDbEntity
  8
0
100
AcDbLine
 62
7
  6
CONTINUOUS
 10
6.2553675062
 20
6.5513698968
 11
6.2553675062
 21
6.5437660783
  0
LINE
  5
240
100
AcDbEntity
  8
0
100
AcDbLine
 62
7
  6
CONTINUOUS
 10
6.292747305
 20
6.5513698968
 11
6.292747305
 21
6.6313698968
  0
LINE
  5
241
100
AcDbEntity
  8
0
100
AcDbLine
 62
7
  6
CONTINUOUS
 10
5.7053152291
 20
5.562558054
 11
5.6882019218
 21
5.562558054
  0
LINE
  5
242
100
AcDbEntity
  8
0
100
AcDbLine
 62
7
  6
CONTINUOUS
 10
6.1728054335
 20
5.9622852511
 11
6.1628054335
 21
5.9722852511
  0
LINE
  5
243
100
AcDbEntity
  8
0
100
AcDbLine
 62
7
  6
CONTINUOUS
 10
5.3879497976
 20
4.1501005082
 11
5.7683235898
 21
4.5304743004
  0
LINE
  5
244
100
AcDbEntity
  8
0
100
AcDbLine
 62
7
  6
CONTINUOUS
 10
7.1200128725
 20
5.8821635831
 11
7.5003866647
 21
6.2625373753
  0
LINE
  5
245
100
AcDbEntity
  8
0
100
AcDbLine
 62
7
  6
CONTINUOUS
 10
6.0826454335
 20
5.9622852511
 11
6.1728054335
 21
5.9622852511
  0
LINE
  5
246
100
AcDbEntity
  8
0
100
AcDbLine
 62
7
  6
CONTINUOUS
 10
6.0926454335
 20
5.9722852511
 11
6.1628054335
 21
5.9722852511
  0
LINE
  5
247
100
AcDbEntity
  8
0
100
AcDbLine
 62
7
  6
CONTINUOUS
 10
7.5003866647
 20
4.7777024182
 11
7.1200128725
 21
5.1580762104
  0
LINE
  5
248
100
AcDbEntity
  8
0
100
AcDbLine
 62
7
  6
CONTINUOUS
 10
5.7683235898
 20
6.5097654931
 11
5.3879497976
 21
6.8901392853
  0
LINE
  5
249
100
AcDbEntity
  8
0
100
AcDbLine
 62
7
  6
CONTINUOUS
 10
5.9679872474
 20
6.5513698968
 11
6.292747305
 21
6.5513698968
  0
LINE
  5
24A
100
AcDbEntity
  8
0
100
AcDbLine
 62
7
  6
CONTINUOUS
 10
5.9679872474
 20
6.6313698968
 11
6.292747305
 21
6.6313698968
  0
LINE
  5
24B
100
AcDbEntity
  8
0
100
AcDbLine
 62
7
  6
CONTINUOUS
 10
6.1053672762
 20
6.8951200064
 11
6.1553672762
 21
6.8951200064
  0
LINE
  5
24C
100
AcDbEntity
  8
0
100
AcDbLine
 62
7
  6
CONTINUOUS
 10
7.6303672762
 20
4.4639014632
 11
7.6303672762
 21
6.5763383303
  0
LINE
  5
24D
100
AcDbEntity
  8
0
100
AcDbLine
 62
7
  6
CONTINUOUS
 10
7.1865857097
 20
7.0201198968
 11
5.0741488426
 21
7.0201198968
  0
LINE
  5
24E
100
AcDbEntity
  8
0
100
AcDbLine
 62
7
  6
CONTINUOUS
 10
4.5708720839
 20
13.1625477814
 11
4.5708720839
 21
12.8275477814
  0
LINE
  5
24F
100
AcDbEntity
  8
0
100
AcDbLine
 62
7
  6
CONTINUOUS
 10
5.0396220839
 20
12.7875477814
 11
5.0396220839
 21
12.3900477814
  0
LINE
  5
250
100
AcDbEntity
  8
0
100
AcDbLine
 62
7
  6
CONTINUOUS
 10
6.4730374382
 20
12.0375477814
 11
5.6687067295
 21
12.0375477814
  0
LINE
  5
251
100
AcDbEntity
  8
0
100
AcDbLine
 62
7
  6
CONTINUOUS
 10
5.6187067295
 20
12.1587249859
 11
5.6287067295
 21
12.1487249859
  0
LINE
  5
252
100
AcDbEntity
  8
0
100
AcDbLine
 62
7
  6
CONTINUOUS
 10
5.6187067295
 20
12.158738251
 11
5.6187067295
 21
12.2288717208
  0
LINE
  5
253
100
AcDbEntity
  8
0
100
AcDbLine
 62
7
  6
CONTINUOUS
 10
5.6287067295
 20
12.1487249859
 11
5.6287067295
 21
12.2388849859
  0
LINE
  5
254
100
AcDbEntity
  8
0
100
AcDbLine
 62
7
  6
CONTINUOUS
 10
5.6437067295
 20
12.3500477814
 11
5.6437067295
 21
12.2388075097
  0
LINE
  5
255
100
AcDbEntity
  8
0
100
AcDbLine
 62
7
  6
CONTINUOUS
 10
5.6437067295
 20
12.148802462
 11
5.6437067295
 21
12.0625477814
  0
LINE
  5
256
100
AcDbEntity
  8
0
100
AcDbLine
 62
7
  6
CONTINUOUS
 10
5.6287067295
 20
12.1487249859
 11
5.643714899
 21
12.1487249859
  0
LINE
  5
257
100
AcDbEntity
  8
0
100
AcDbLine
 62
7
  6
CONTINUOUS
 10
6.0783569649
 20
12.1762649859
 11
6.0581035174
 21
12.1762649859
  0
LINE
  5
258
100
AcDbEntity
  8
0
100
AcDbLine
 62
7
  6
CONTINUOUS
 10
6.0581035174
 20
12.2113449859
 11
6.0783569649
 21
12.2113449859
  0
LINE
  5
259
100
AcDbEntity
  8
0
100
AcDbLine
 62
7
  6
CONTINUOUS
 10
5.6287067295
 20
12.2388849859
 11
5.643714899
 21
12.2388849859
  0
LINE
  5
25A
100
AcDbEntity
  8
0
100
AcDbLine
 62
7
  6
CONTINUOUS
 10
5.9896820695
 20
12.8094230114
 11
5.9084920551
 21
12.6687977814
  0
LINE
  5
25B
100
AcDbEntity
  8
0
100
AcDbLine
 62
7
  6
CONTINUOUS
 10
7.0621220839
 20
12.3500477814
 11
5.0796220839
 21
12.3500477814
  0
LINE
  5
25C
100
AcDbEntity
  8
0
100
AcDbLine
 62
7
  6
CONTINUOUS
 10
6.0581035174
 20
12.1762649859
 11
6.0479767937
 21
12.1938049859
  0
LINE
  5
25D
100
AcDbEntity
  8
0
100
AcDbLine
 62
7
  6
CONTINUOUS
 10
6.0783569649
 20
12.2113449859
 11
6.0884836886
 21
12.1938049859
  0
LINE
  5
25E
100
AcDbEntity
  8
0
100
AcDbLine
 62
7
  6
CONTINUOUS
 10
5.6187067295
 20
12.2288849859
 11
5.6287067295
 21
12.2388849859
  0
LINE
  5
25F
100
AcDbEntity
  8
0
100
AcDbLine
 62
7
  6
CONTINUOUS
 10
5.9896820695
 20
12.5281725514
 11
6.1520620983
 21
12.5281725514
  0
LINE
  5
260
100
AcDbEntity
  8
0
100
AcDbLine
 62
7
  6
CONTINUOUS
 10
5.9084920551
 20
12.6687977814
 11
5.9896820695
 21
12.5281725514
  0
LINE
  5
261
100
AcDbEntity
  8
0
100
AcDbLine
 62
7
  6
CONTINUOUS
 10
6.1520620983
 20
12.5281725514
 11
6.2332521126
 21
12.6687977814
  0
LWPOLYLINE
  5
262
100
AcDbEntity
  8
0
100
AcDbPolyline
 62
7
  6
CONTINUOUS
 90
5
 70
0
 10
5.0839445379
 20
12.7875470922
 10
5.0872149972
 20
12.787309727
 10
5.095330852
 20
12.7847815206
 10
5.1000100789
 20
12.7814747822
 10
5.1008838523
 20
12.7805029498
  0
LINE
  5
263
100
AcDbEntity
  8
0
100
AcDbLine
 62
7
  6
CONTINUOUS
 10
6.0479767937
 20
12.1938049859
 11
6.0581035174
 21
12.2113449859
  0
LINE
  5
264
100
AcDbEntity
  8
0
100
AcDbLine
 62
7
  6
CONTINUOUS
 10
6.0884836886
 20
12.1938049859
 11
6.0783569649
 21
12.1762649859
  0
LINE
  5
265
100
AcDbEntity
  8
0
100
AcDbLine
 62
7
  6
CONTINUOUS
 10
7.5308720839
 20
12.7875477814
 11
6.4869738894
 21
12.7875477814
  0
LINE
  5
266
100
AcDbEntity
  8
03__ASM_ALL_CURVES
100
AcDbLine
 62
8
  6
PHANTOM
 10
6.8087134394
 20
12.7875477814
 11
5.333030721
 21
12.7875477814
  0
LINE
  5
267
100
AcDbEntity
  8
0
100
AcDbLine
 62
7
  6
CONTINUOUS
 10
5.6547702783
 20
12.7875477814
 11
4.6108720839
 21
12.7875477814
  0
LINE
  5
268
100
AcDbEntity
  8
03__ASM_ALL_CURVES
100
AcDbLine
 62
8
  6
PHANTOM
 10
4.5682701738
 20
12.7875477814
 11
4.6154771758
 21
12.7875477814
  0
LINE
  5
269
100
AcDbEntity
  8
03__ASM_ALL_CURVES
100
AcDbLine
 62
8
  6
PHANTOM
 10
7.5262669918
 20
12.7875477814
 11
7.5734739939
 21
12.7875477814
  0
LINE
  5
26A
100
AcDbEntity
  8
0
100
AcDbLine
 62
7
  6
CONTINUOUS
 10
6.1520620983
 20
12.8094230114
 11
5.9896820695
 21
12.8094230114
  0
LINE
  5
26B
100
AcDbEntity
  8
0
100
AcDbLine
 62
7
  6
CONTINUOUS
 10
6.2332521126
 20
12.6687977814
 11
6.1520620983
 21
12.8094230114
  0
LINE
  5
26C
100
AcDbEntity
  8
0
100
AcDbLine
 62
7
  6
CONTINUOUS
 10
5.1987800344
 20
12.9875477814
 11
6.9429641333
 21
12.9875477814
  0
LINE
  5
26D
100
AcDbEntity
  8
0
100
AcDbLine
 62
7
  6
CONTINUOUS
 10
6.4980374382
 20
12.3500477814
 11
6.4980374382
 21
12.0625477814
  0
LINE
  5
26E
100
AcDbEntity
  8
03__ASM_ALL_CURVES
100
AcDbLine
 62
8
  6
PHANTOM
 10
8.0083720839
 20
13.1625477814
 11
4.1333720839
 21
13.1625477814
  0
LINE
  5
26F
100
AcDbEntity
  8
0
100
AcDbLine
 62
7
  6
CONTINUOUS
 10
4.5708720839
 20
13.1625477814
 11
7.5708720839
 21
13.1625477814
  0
LWPOLYLINE
  5
270
100
AcDbEntity
  8
0
100
AcDbPolyline
 62
7
  6
CONTINUOUS
 90
6
 70
0
 10
7.0416523785
 20
12.7819847533
 10
7.0409688811
 20
12.780684809
 10
7.0415866936
 20
12.7813268215
 10
7.0459965954
 20
12.7845684035
 10
7.0540497919
 20
12.7872415528
 10
7.0578041693
 20
12.7875471217
  0
LINE
  5
271
100
AcDbEntity
  8
0
100
AcDbLine
 62
7
  6
CONTINUOUS
 10
7.1021220839
 20
12.7875477814
 11
7.1021220839
 21
12.3900477814
  0
LINE
  5
272
100
AcDbEntity
  8
0
100
AcDbLine
 62
7
  6
CONTINUOUS
 10
7.5708720839
 20
12.8275477814
 11
7.5708720839
 21
13.1625477814
  0
LINE
  5
273
100
AcDbEntity
  8
0
100
AcDbLine
 62
7
  6
CONTINUOUS
 10
15.7878552569
 20
3.9606247044
 11
16.1228552569
 21
3.9606247044
  0
LINE
  5
274
100
AcDbEntity
  8
0
100
AcDbLine
 62
7
  6
CONTINUOUS
 10
15.3503552569
 20
4.4293747044
 11
15.7478552569
 21
4.4293747044
  0
LWPOLYLINE
  5
275
100
AcDbEntity
  8
0
100
AcDbPolyline
 62
7
  6
CONTINUOUS
 90
6
 70
0
 10
15.7422922288
 20
4.4898444098
 10
15.7409922846
 20
4.4905279072
 10
15.7416342971
 20
4.4899100947
 10
15.744875879
 20
4.4855001929
 10
15.7475490284
 20
4.4774469964
 10
15.7478545973
 20
4.473692619
  0
LINE
  5
276
100
AcDbEntity
  8
0
100
AcDbLine
 62
7
  6
CONTINUOUS
 10
14.9978552569
 20
5.8627900588
 11
14.9978552569
 21
5.0584593501
  0
LINE
  5
277
100
AcDbEntity
  8
0
100
AcDbLine
 62
7
  6
CONTINUOUS
 10
15.1190324615
 20
5.9127900588
 11
15.1090324615
 21
5.9027900588
  0
LINE
  5
278
100
AcDbEntity
  8
0
100
AcDbLine
 62
7
  6
CONTINUOUS
 10
15.1090324615
 20
5.9027900588
 11
15.1090324615
 21
5.8877818893
  0
LINE
  5
279
100
AcDbEntity
  8
0
100
AcDbLine
 62
7
  6
CONTINUOUS
 10
15.0228552569
 20
5.0334593501
 11
15.3103552569
 21
5.0334593501
  0
LINE
  5
27A
100
AcDbEntity
  8
0
100
AcDbLine
 62
7
  6
CONTINUOUS
 10
15.1991924615
 20
5.9027900588
 11
15.1991924615
 21
5.8877818893
  0
LINE
  5
27B
100
AcDbEntity
  8
0
100
AcDbLine
 62
7
  6
CONTINUOUS
 10
15.3103552569
 20
6.4518747044
 11
15.3103552569
 21
4.4693747044
  0
LINE
  5
27C
100
AcDbEntity
  8
0
100
AcDbLine
 62
7
  6
CONTINUOUS
 10
15.4884800269
 20
6.4918747044
 11
15.4884800269
 21
6.5718747044
  0
LINE
  5
27D
100
AcDbEntity
  8
0
100
AcDbLine
 62
7
  6
CONTINUOUS
 10
15.6291052569
 20
6.4918747044
 11
15.6291052569
 21
6.5718747044
  0
LWPOLYLINE
  5
27E
100
AcDbEntity
  8
0
100
AcDbPolyline
 62
7
  6
CONTINUOUS
 90
5
 70
0
 10
15.7478545678
 20
6.4475522504
 10
15.7476172026
 20
6.4442817911
 10
15.7450889961
 20
6.4361659363
 10
15.7417822578
 20
6.4314867094
 10
15.7408104254
 20
6.430612936
  0
LINE
  5
27F
100
AcDbEntity
  8
0
100
AcDbLine
 62
7
  6
CONTINUOUS
 10
15.1891924615
 20
5.9127900588
 11
15.1991924615
 21
5.9027900588
  0
LINE
  5
280
100
AcDbEntity
  8
03__ASM_ALL_CURVES
100
AcDbLine
 62
8
  6
PHANTOM
 10
15.7478552569
 20
4.0004397544
 11
15.7478552569
 21
3.9580319488
  0
LINE
  5
281
100
AcDbEntity
  8
0
100
AcDbLine
 62
7
  6
CONTINUOUS
 10
15.7478552569
 20
4.0006333717
 11
15.7478552569
 21
5.0445228989
  0
LINE
  5
282
100
AcDbEntity
  8
03__ASM_ALL_CURVES
100
AcDbLine
 62
8
  6
PHANTOM
 10
15.7478552569
 20
4.7227815664
 11
15.7478552569
 21
6.1984678387
  0
LINE
  5
283
100
AcDbEntity
  8
0
100
AcDbLine
 62
7
  6
CONTINUOUS
 10
15.7478552569
 20
5.87672651
 11
15.7478552569
 21
6.9206161915
  0
LINE
  5
284
100
AcDbEntity
  8
03__ASM_ALL_CURVES
100
AcDbLine
 62
8
  6
PHANTOM
 10
15.7478552569
 20
6.9208177306
 11
15.7478552569
 21
6.9632174601
  0
LINE
  5
285
100
AcDbEntity
  8
0
100
AcDbLine
 62
7
  6
CONTINUOUS
 10
15.9478552569
 20
6.3327167539
 11
15.9478552569
 21
4.588532655
  0
LINE
  5
286
100
AcDbEntity
  8
0
100
AcDbLine
 62
7
  6
CONTINUOUS
 10
15.0228552569
 20
5.8877900588
 11
15.1091099386
 21
5.8877900588
  0
LINE
  5
287
100
AcDbEntity
  8
0
100
AcDbLine
 62
7
  6
CONTINUOUS
 10
15.1991149844
 20
5.8877900588
 11
15.3103552569
 21
5.8877900588
  0
LINE
  5
288
100
AcDbEntity
  8
0
100
AcDbLine
 62
7
  6
CONTINUOUS
 10
15.1090324615
 20
5.9027900588
 11
15.1991924615
 21
5.9027900588
  0
LINE
  5
289
100
AcDbEntity
  8
0
100
AcDbLine
 62
7
  6
CONTINUOUS
 10
15.1190457265
 20
5.9127900588
 11
15.1891791964
 21
5.9127900588
  0
LINE
  5
28A
100
AcDbEntity
  8
0
100
AcDbLine
 62
7
  6
CONTINUOUS
 10
16.1228552569
 20
6.9606247044
 11
16.1228552569
 21
3.9606247044
  0
LINE
  5
28B
100
AcDbEntity
  8
03__ASM_ALL_CURVES
100
AcDbLine
 62
8
  6
PHANTOM
 10
16.1228552569
 20
3.5231257845
 11
16.1228552569
 21
7.3981236244
  0
LINE
  5
28C
100
AcDbEntity
  8
0
100
AcDbLine
 62
7
  6
CONTINUOUS
 10
15.3503552569
 20
6.4918747044
 11
15.7478552569
 21
6.4918747044
  0
LINE
  5
28D
100
AcDbEntity
  8
0
100
AcDbLine
 62
7
  6
CONTINUOUS
 10
15.4884800269
 20
6.5718747044
 11
15.7478552569
 21
6.5718747044
  0
LINE
  5
28E
100
AcDbEntity
  8
0
100
AcDbLine
 62
7
  6
CONTINUOUS
 10
15.6541052569
 20
6.8356248141
 11
15.6041052569
 21
6.8356248141
  0
LINE
  5
28F
100
AcDbEntity
  8
0
100
AcDbLine
 62
7
  6
CONTINUOUS
 10
15.7878552569
 20
6.9606247044
 11
16.1228552569
 21
6.9606247044
  0
LINE
  5
290
100
AcDbEntity
  8
0
100
AcDbLine
 62
7
  6
CONTINUOUS
 10
13.6709896484
 20
13.0644325288
 11
13.7520818668
 21
13.3268470435
  0
LINE
  5
291
100
AcDbEntity
  8
0
100
AcDbLine
 62
7
  6
CONTINUOUS
 10
14.3418510731
 20
11.8370091836
 11
13.9108709879
 21
12.7152542588
  0
LINE
  5
292
100
AcDbEntity
  8
0
100
AcDbLine
 62
7
  6
CONTINUOUS
 10
14.298838488
 20
12.2386196097
 11
14.3853771986
 21
12.5186589799
  0
LINE
  5
293
100
AcDbEntity
  8
0
100
AcDbLine
 62
7
  6
CONTINUOUS
 10
14.8129493806
 20
11.6650516803
 11
14.8115693554
 21
11.665996845
  0
LINE
  5
294
100
AcDbEntity
  8
0
100
AcDbLine
 62
7
  6
CONTINUOUS
 10
14.8116319108
 20
11.6643728544
 11
14.8102861122
 21
11.6653402443
  0
LINE
  5
295
100
AcDbEntity
  8
0
100
AcDbLine
 62
7
  6
CONTINUOUS
 10
14.3699544478
 20
12.4748363989
 11
14.3710319181
 21
12.4722376352
  0
LINE
  5
296
100
AcDbEntity
  8
0
100
AcDbLine
 62
7
  6
CONTINUOUS
 10
14.3153713335
 20
11.7513207148
 11
14.3541019452
 21
11.8766530204
  0
LINE
  5
297
100
AcDbEntity
  8
0
100
AcDbLine
 62
7
  6
CONTINUOUS
 10
16.3355967709
 20
11.485966109
 11
16.184997563
 21
11.485966109
  0
LINE
  5
298
100
AcDbEntity
  8
0
100
AcDbLine
 62
7
  6
CONTINUOUS
 10
14.7303239825
 20
12.1138618176
 11
14.7424272987
 21
12.153028163
  0
LINE
  5
299
100
AcDbEntity
  8
0
100
AcDbLine
 62
7
  6
CONTINUOUS
 10
14.8762826261
 20
12.8566544759
 11
14.8630525363
 21
12.8432622111
  0
LWPOLYLINE
  5
29A
100
AcDbEntity
  8
0
100
AcDbPolyline
 62
7
  6
CONTINUOUS
 90
4
 70
0
 10
14.3536013633
 20
12.4907991282
 10
14.3578124756
 20
12.4883081482
 10
14.3650425459
 20
12.481932281
 10
14.3699544478
 20
12.4748363989
  0
LINE
  5
29B
100
AcDbEntity
  8
0
100
AcDbLine
 62
7
  6
CONTINUOUS
 10
15.0588304754
 20
12.0354182219
 11
15.0639762666
 21
12.0249322018
  0
LINE
  5
29C
100
AcDbEntity
  8
0
100
AcDbLine
 62
7
  6
CONTINUOUS
 10
14.8209605183
 20
12.0515277672
 11
14.8306431712
 21
12.0828608435
  0
LINE
  5
29D
100
AcDbEntity
  8
0
100
AcDbLine
 62
7
  6
CONTINUOUS
 10
14.7967168293
 20
11.803725643
 11
14.8687315605
 21
12.0367653986
  0
LINE
  5
29E
100
AcDbEntity
  8
0
100
AcDbLine
 62
7
  6
CONTINUOUS
 10
15.05335477
 20
12.7331066843
 11
15.1621763577
 21
12.8432622111
  0
LINE
  5
29F
100
AcDbEntity
  8
0
100
AcDbLine
 62
7
  6
CONTINUOUS
 10
15.1013312866
 20
12.0477544329
 11
15.0826766261
 21
12.0477544329
  0
LINE
  5
2A0
100
AcDbEntity
  8
0
100
AcDbLine
 62
7
  6
CONTINUOUS
 10
15.0911683128
 20
12.0752335409
 11
15.1098229732
 21
12.0752335409
  0
LINE
  5
2A1
100
AcDbEntity
  8
0
100
AcDbLine
 62
7
  6
CONTINUOUS
 10
16.4910814603
 20
11.4071384381
 11
16.2271983081
 21
11.5409219918
  0
LINE
  5
2A2
100
AcDbEntity
  8
0
100
AcDbLine
 62
7
  6
CONTINUOUS
 10
14.3535958673
 20
12.4908015503
 11
13.9010165746
 21
12.720250252
  0
LINE
  5
2A3
100
AcDbEntity
  8
0
100
AcDbLine
 62
7
  6
CONTINUOUS
 10
15.0775951392
 20
12.0614939869
 11
15.084337533
 21
12.0477544329
  0
LINE
  5
2A4
100
AcDbEntity
  8
0
100
AcDbLine
 62
7
  6
CONTINUOUS
 10
15.0911683128
 20
12.0752335409
 11
15.1035506465
 21
12.0500009977
  0
LINE
  5
2A5
100
AcDbEntity
  8
0
100
AcDbLine
 62
7
  6
CONTINUOUS
 10
15.1397699613
 20
12.0751375525
 11
15.1447745679
 21
12.0649392365
  0
LINE
  5
2A6
100
AcDbEntity
  8
0
100
AcDbLine
 62
7
  6
CONTINUOUS
 10
15.0826766261
 20
12.0477544329
 11
15.0775951392
 21
12.0614939869
  0
LINE
  5
2A7
100
AcDbEntity
  8
0
100
AcDbLine
 62
7
  6
CONTINUOUS
 10
15.1098229732
 20
12.0752335409
 11
15.1149044601
 21
12.0614939869
  0
LINE
  5
2A8
100
AcDbEntity
  8
0
100
AcDbLine
 62
7
  6
CONTINUOUS
 10
14.8630525363
 20
12.8432622111
 11
14.9037928592
 21
12.7331066843
  0
LINE
  5
2A9
100
AcDbEntity
  8
0
100
AcDbLine
 62
7
  6
CONTINUOUS
 10
15.1865797071
 20
12.7935334137
 11
15.0777581193
 21
12.6833778868
  0
LINE
  5
2AA
100
AcDbEntity
  8
0
100
AcDbLine
 62
7
  6
CONTINUOUS
 10
15.4687022515
 20
13.0258035339
 11
15.694649371
 21
13.253801295
  0
LINE
  5
2AB
100
AcDbEntity
  8
0
100
AcDbLine
 62
7
  6
CONTINUOUS
 10
14.9281962086
 20
12.6833778868
 11
14.9037928592
 21
12.7331066843
  0
LINE
  5
2AC
100
AcDbEntity
  8
0
100
AcDbLine
 62
7
  6
CONTINUOUS
 10
15.0277528139
 20
11.7715090808
 11
15.0171219236
 21
11.7371075072
  0
LINE
  5
2AD
100
AcDbEntity
  8
0
100
AcDbLine
 62
7
  6
CONTINUOUS
 10
15.0777581193
 20
12.6833778868
 11
15.05335477
 21
12.7331066843
  0
LINE
  5
2AE
100
AcDbEntity
  8
0
100
AcDbLine
 62
7
  6
CONTINUOUS
 10
15.1865797071
 20
12.7935334137
 11
15.1621763577
 21
12.8432622111
  0
LINE
  5
2AF
100
AcDbEntity
  8
0
100
AcDbLine
 62
7
  6
CONTINUOUS
 10
15.1621763577
 20
12.8432622111
 11
15.1214360348
 21
12.953417738
  0
LINE
  5
2B0
100
AcDbEntity
  8
0
100
AcDbLine
 62
7
  6
CONTINUOUS
 10
15.1458393841
 20
12.9036889405
 11
15.1865797071
 21
12.7935334137
  0
LINE
  5
2B1
100
AcDbEntity
  8
0
100
AcDbLine
 62
7
  6
CONTINUOUS
 10
15.1458393841
 20
12.9036889405
 11
15.1214360348
 21
12.953417738
  0
LINE
  5
2B2
100
AcDbEntity
  8
0
100
AcDbLine
 62
7
  6
CONTINUOUS
 10
15.0129287775
 20
11.7469908851
 11
15.0053646019
 21
11.7379286232
  0
LINE
  5
2B3
100
AcDbEntity
  8
0
100
AcDbLine
 62
7
  6
CONTINUOUS
 10
15.0775951392
 20
12.0614939869
 11
15.0911683128
 21
12.0752335409
  0
LINE
  5
2B4
100
AcDbEntity
  8
0
100
AcDbLine
 62
7
  6
CONTINUOUS
 10
15.1149044601
 20
12.0614939869
 11
15.1013312866
 21
12.0477544329
  0
LINE
  5
2B5
100
AcDbEntity
  8
0
100
AcDbLine
 62
7
  6
CONTINUOUS
 10
14.3270258095
 20
13.253801295
 11
14.7767430298
 21
13.0258035339
  0
LINE
  5
2B6
100
AcDbEntity
  8
0
100
AcDbLine
 62
7
  6
CONTINUOUS
 10
16.4673734749
 20
12.1686872421
 11
16.9170906952
 21
11.9406894811
  0
LINE
  5
2B7
100
AcDbEntity
  8
0
100
AcDbLine
 62
7
  6
CONTINUOUS
 10
14.9281962086
 20
12.6833778868
 11
15.0777581193
 21
12.6833778868
  0
LINE
  5
2B8
100
AcDbEntity
  8
0
100
AcDbLine
 62
7
  6
CONTINUOUS
 10
14.9037928592
 20
12.7331066843
 11
15.05335477
 21
12.7331066843
  0
LINE
  5
2B9
100
AcDbEntity
  8
0
100
AcDbLine
 62
7
  6
CONTINUOUS
 10
15.6129621962
 20
11.5514867469
 11
15.6849769274
 21
11.7845265025
  0
LINE
  5
2BA
100
AcDbEntity
  8
0
100
AcDbLine
 62
7
  6
CONTINUOUS
 10
15.7327479696
 20
11.7697641339
 11
15.7424306226
 21
11.8010972103
  0
LINE
  5
2BB
100
AcDbEntity
  8
0
100
AcDbLine
 62
7
  6
CONTINUOUS
 10
15.1214360348
 20
12.953417738
 11
15.0863843988
 21
12.953417738
  0
LINE
  5
2BC
100
AcDbEntity
  8
0
100
AcDbLine
 62
7
  6
CONTINUOUS
 10
15.8427498112
 20
11.7700962363
 11
15.8548531274
 21
11.8092625818
  0
LINE
  5
2BD
100
AcDbEntity
  8
0
100
AcDbLine
 62
7
  6
CONTINUOUS
 10
16.4191555827
 20
12.7277709579
 11
16.1861520739
 21
12.4926527654
  0
LINE
  5
2BE
100
AcDbEntity
  8
0
100
AcDbLine
 62
7
  6
CONTINUOUS
 10
16.5074753265
 20
12.9442846975
 11
16.5033981322
 21
12.9277146609
  0
LINE
  5
2BF
100
AcDbEntity
  8
0
100
AcDbLine
 62
7
  6
CONTINUOUS
 10
16.4646691668
 20
12.8023818467
 11
16.5033997785
 21
12.9277141523
  0
LINE
  5
2C0
100
AcDbEntity
  8
0
100
AcDbLine
 62
7
  6
CONTINUOUS
 10
16.2693939793
 20
11.629671906
 11
16.3559326899
 21
11.9097112762
  0
LINE
  5
2C1
100
AcDbEntity
  8
0
100
AcDbLine
 62
7
  6
CONTINUOUS
 10
14.0407080682
 20
13.4716807479
 11
15.9863912688
 21
13.4716807479
  0
LINE
  5
2C2
100
AcDbEntity
  8
0
100
AcDbLine
 62
7
  6
CONTINUOUS
 10
16.5305131169
 20
13.1958217025
 11
17.174894802
 21
11.8827098886
  0
LINE
  5
2C3
100
AcDbEntity
  8
0
100
AcDbLine
 62
7
  6
CONTINUOUS
 10
17.1090508518
 20
11.4892700328
 11
17.1901430702
 21
11.7516845475
  0
ARC
  5
2C4
100
AcDbEntity
  8
0
100
AcDbCircle
 62
7
  6
CONTINUOUS
 10
5.0741488426
 20
4.4639014632
 40
0.4437815665
100
AcDbArc
 50
135.0
 51
315.0
  0
CIRCLE
  5
2C5
100
AcDbEntity
  8
0
100
AcDbCircle
 62
7
  6
CONTINUOUS
 10
5.0678672762
 20
4.4576198968
 40
0.1875
  0
ARC
  5
2C6
100
AcDbEntity
  8
0
100
AcDbCircle
 62
7
  6
CONTINUOUS
 10
5.7966078611
 20
4.5021900292
 40
0.04
100
AcDbArc
 50
71.8466884298
 51
135.0
  0
ARC
  5
2C7
100
AcDbEntity
  8
0
100
AcDbCircle
 62
7
  6
CONTINUOUS
 10
5.1124374086
 20
5.1863604817
 40
0.04
100
AcDbArc
 50
315.0
 51
18.1533115702
  0
ARC
  5
2C8
100
AcDbEntity
  8
0
100
AcDbCircle
 62
7
  6
CONTINUOUS
 10
5.0741488426
 20
6.5763383303
 40
0.4437815665
100
AcDbArc
 50
45.0
 51
225.0
  0
CIRCLE
  5
2C9
100
AcDbEntity
  8
0
100
AcDbCircle
 62
7
  6
CONTINUOUS
 10
5.0678672762
 20
6.5826198968
 40
0.1875
  0
ARC
  5
2CA
100
AcDbEntity
  8
0
100
AcDbCircle
 62
7
  6
CONTINUOUS
 10
6.1053672762
 20
6.7951200064
 40
0.1
100
AcDbArc
 50
90.0
 51
205.8528705372
  0
ARC
  5
2CB
100
AcDbEntity
  8
0
100
AcDbCircle
 62
7
  6
CONTINUOUS
 10
5.9253839217
 20
6.7079076671
 40
0.1
100
AcDbArc
 50
310.0593852015
 51
25.8528705372
  0
ARC
  5
2CC
100
AcDbEntity
  8
0
100
AcDbCircle
 62
7
  6
CONTINUOUS
 10
5.7966078611
 20
6.5380497643
 40
0.04
100
AcDbArc
 50
225.0
 51
288.1533115702
  0
ARC
  5
2CD
100
AcDbEntity
  8
0
100
AcDbCircle
 62
7
  6
CONTINUOUS
 10
5.1124374086
 20
5.8538793118
 40
0.04
100
AcDbArc
 50
341.8466884298
 51
45.0
  0
ARC
  5
2CE
100
AcDbEntity
  8
0
100
AcDbCircle
 62
7
  6
CONTINUOUS
 10
6.4641266912
 20
4.5021900292
 40
0.04
100
AcDbArc
 50
45.0
 51
108.1533115702
  0
CIRCLE
  5
2CF
100
AcDbEntity
  8
03__ASM_ALL_CURVES
100
AcDbCircle
 62
8
  6
PHANTOM
 10
6.1303672762
 20
5.5201198968
 40
1.9375
  0
CIRCLE
  5
2D0
100
AcDbEntity
  8
03__ASM_ALL_CURVES
100
AcDbCircle
 62
8
  6
PHANTOM
 10
6.1303672762
 20
5.5201198968
 40
1.50260191
  0
CIRCLE
  5
2D1
100
AcDbEntity
  8
0
100
AcDbCircle
 62
7
  6
CONTINUOUS
 10
6.1303672762
 20
5.5201198968
 40
1.03125
  0
CIRCLE
  5
2D2
100
AcDbEntity
  8
0
100
AcDbCircle
 62
7
  6
CONTINUOUS
 10
6.1303672762
 20
5.5201198968
 40
0.7371653543
  0
CIRCLE
  5
2D3
100
AcDbEntity
  8
0
100
AcDbCircle
 62
7
  6
CONTINUOUS
 10
6.1303672762
 20
5.5201198968
 40
0.5821653543
  0
CIRCLE
  5
2D4
100
AcDbEntity
  8
0
100
AcDbCircle
 62
7
  6
CONTINUOUS
 10
6.1303672762
 20
5.5201198968
 40
0.4771653543
  0
CIRCLE
  5
2D5
100
AcDbEntity
  8
0
100
AcDbCircle
 62
7
  6
CONTINUOUS
 10
6.1303672762
 20
5.5201198968
 40
0.4271653543
  0
CIRCLE
  5
2D6
100
AcDbEntity
  8
0
100
AcDbCircle
 62
7
  6
CONTINUOUS
 10
6.1303672762
 20
5.5201198968
 40
0.25
  0
ARC
  5
2D7
100
AcDbEntity
  8
0
100
AcDbCircle
 62
7
  6
CONTINUOUS
 10
7.1865857097
 20
4.4639014632
 40
0.4437815665
100
AcDbArc
 50
225.0
 51
45.0
  0
CIRCLE
  5
2D8
100
AcDbEntity
  8
0
100
AcDbCircle
 62
7
  6
CONTINUOUS
 10
7.1928672762
 20
4.4576198968
 40
0.1875
  0
ARC
  5
2D9
100
AcDbEntity
  8
0
100
AcDbCircle
 62
7
  6
CONTINUOUS
 10
7.1482971438
 20
5.1863604817
 40
0.04
100
AcDbArc
 50
161.8466884298
 51
225.0
  0
ARC
  5
2DA
100
AcDbEntity
  8
0
100
AcDbCircle
 62
7
  6
CONTINUOUS
 10
7.1865857097
 20
6.5763383303
 40
0.4437815665
100
AcDbArc
 50
315.0
 51
135.0
  0
CIRCLE
  5
2DB
100
AcDbEntity
  8
0
100
AcDbCircle
 62
7
  6
CONTINUOUS
 10
7.1928672762
 20
6.5826198968
 40
0.1875
  0
ARC
  5
2DC
100
AcDbEntity
  8
0
100
AcDbCircle
 62
7
  6
CONTINUOUS
 10
6.1553672762
 20
6.7951200064
 40
0.1
100
AcDbArc
 50
334.1471294628
 51
90.0
  0
ARC
  5
2DD
100
AcDbEntity
  8
0
100
AcDbCircle
 62
7
  6
CONTINUOUS
 10
6.3353506306
 20
6.7079076671
 40
0.1
100
AcDbArc
 50
154.1471294628
 51
229.9406147985
  0
ARC
  5
2DE
100
AcDbEntity
  8
0
100
AcDbCircle
 62
7
  6
CONTINUOUS
 10
7.1482971438
 20
5.8538793118
 40
0.04
100
AcDbArc
 50
135.0
 51
198.1533115702
  0
ARC
  5
2DF
100
AcDbEntity
  8
0
100
AcDbCircle
 62
7
  6
CONTINUOUS
 10
6.4641266912
 20
6.5380497643
 40
0.04
100
AcDbArc
 50
251.8466884298
 51
315.0
  0
CIRCLE
  5
2E0
100
AcDbEntity
  8
0
100
AcDbCircle
 62
7
  6
CONTINUOUS
 10
6.0708720839
 20
12.6687977814
 40
0.14062523
  0
CIRCLE
  5
2E1
100
AcDbEntity
  8
0
100
AcDbCircle
 62
7
  6
CONTINUOUS
 10
6.0708720839
 20
12.6687977814
 40
0.125
  0
CIRCLE
  5
2E2
100
AcDbEntity
  8
0
100
AcDbCircle
 62
7
  6
CONTINUOUS
 10
6.0682302412
 20
12.1938049859
 40
0.04508
  0
ARC
  5
2E3
100
AcDbEntity
  8
0
100
AcDbCircle
 62
7
  6
CONTINUOUS
 10
5.0796220839
 20
12.3900477814
 40
0.04
100
AcDbArc
 50
180.0
 51
270.0
  0
ARC
  5
2E4
100
AcDbEntity
  8
0
100
AcDbCircle
 62
7
  6
CONTINUOUS
 10
7.0621220839
 20
12.3900477814
 40
0.04
100
AcDbArc
 50
270.0
 51
360.0
  0
ARC
  5
2E5
100
AcDbEntity
  8
0
100
AcDbCircle
 62
7
  6
CONTINUOUS
 10
4.6108720839
 20
12.8275477814
 40
0.04
100
AcDbArc
 50
180.0
 51
270.0
  0
ARC
  5
2E6
100
AcDbEntity
  8
0
100
AcDbCircle
 62
7
  6
CONTINUOUS
 10
7.5308720839
 20
12.8275477814
 40
0.04
100
AcDbArc
 50
270.0
 51
360.0
  0
CIRCLE
  5
2E7
100
AcDbEntity
  8
0
100
AcDbCircle
 62
7
  6
CONTINUOUS
 10
6.0682302412
 20
12.1938049859
 40
0.03508
  0
ARC
  5
2E8
100
AcDbEntity
  8
0
100
AcDbCircle
 62
7
  6
CONTINUOUS
 10
6.4730374382
 20
12.0625477814
 40
0.025
100
AcDbArc
 50
270.0
 51
360.0
  0
ARC
  5
2E9
100
AcDbEntity
  8
0
100
AcDbCircle
 62
7
  6
CONTINUOUS
 10
5.6687067295
 20
12.0625477814
 40
0.025
100
AcDbArc
 50
180.0
 51
270.0
  0
ARC
  5
2EA
100
AcDbEntity
  8
0
100
AcDbCircle
 62
7
  6
CONTINUOUS
 10
15.6291059921
 20
7.515443741
 40
1.0311668348
100
AcDbArc
 50
263.0373643184
 51
276.6490245646
  0
ARC
  5
2EB
100
AcDbEntity
  8
0
100
AcDbCircle
 62
7
  6
CONTINUOUS
 10
15.6746345406
 20
4.8891689873
 40
0.3420106622
100
AcDbArc
 50
44.0269590228
 51
47.0068702363
  0
ARC
  5
2EC
100
AcDbEntity
  8
0
100
AcDbCircle
 62
7
  6
CONTINUOUS
 10
15.6746388308
 20
6.0320760534
 40
0.3420045416
100
AcDbArc
 50
312.9931030932
 51
315.9730676477
  0
ARC
  5
2ED
100
AcDbEntity
  8
0
100
AcDbCircle
 62
7
  6
CONTINUOUS
 10
15.6041052569
 20
6.7356248141
 40
0.1
100
AcDbArc
 50
90.0
 51
205.8528705372
  0
ARC
  5
2EE
100
AcDbEntity
  8
0
100
AcDbCircle
 62
7
  6
CONTINUOUS
 10
15.6541052569
 20
6.7356248141
 40
0.1
100
AcDbArc
 50
19.7441154913
 51
90.0
  0
ARC
  5
2EF
100
AcDbEntity
  8
0
100
AcDbCircle
 62
7
  6
CONTINUOUS
 10
15.6541052569
 20
6.7356248141
 40
0.1
100
AcDbArc
 50
334.1471294628
 51
340.9121073366
  0
ARC
  5
2F0
100
AcDbEntity
  8
0
100
AcDbCircle
 62
7
  6
CONTINUOUS
 10
15.4241219025
 20
6.6484124748
 40
0.1
100
AcDbArc
 50
310.0593941042
 51
25.8528705372
  0
ARC
  5
2F1
100
AcDbEntity
  8
0
100
AcDbCircle
 62
7
  6
CONTINUOUS
 10
15.8340886114
 20
6.6484124748
 40
0.1
100
AcDbArc
 50
154.1471294628
 51
209.6275919969
  0
ARC
  5
2F2
100
AcDbEntity
  8
0
100
AcDbCircle
 62
7
  6
CONTINUOUS
 10
15.7878552569
 20
4.0006247044
 40
0.04
100
AcDbArc
 50
180.0
 51
270.0
  0
ARC
  5
2F3
100
AcDbEntity
  8
0
100
AcDbCircle
 62
7
  6
CONTINUOUS
 10
15.7878552569
 20
6.9206247044
 40
0.04
100
AcDbArc
 50
90.0
 51
180.0
  0
ARC
  5
2F4
100
AcDbEntity
  8
0
100
AcDbCircle
 62
7
  6
CONTINUOUS
 10
15.3503552569
 20
4.4693747044
 40
0.04
100
AcDbArc
 50
180.0
 51
270.0
  0
ARC
  5
2F5
100
AcDbEntity
  8
0
100
AcDbCircle
 62
7
  6
CONTINUOUS
 10
15.3503552569
 20
6.4518747044
 40
0.04
100
AcDbArc
 50
90.0
 51
180.0
  0
ARC
  5
2F6
100
AcDbEntity
  8
0
100
AcDbCircle
 62
7
  6
CONTINUOUS
 10
15.0228552569
 20
5.0584593501
 40
0.025
100
AcDbArc
 50
180.0
 51
270.0
  0
ARC
  5
2F7
100
AcDbEntity
  8
0
100
AcDbCircle
 62
7
  6
CONTINUOUS
 10
15.0228552569
 20
5.8627900588
 40
0.025
100
AcDbArc
 50
90.0
 51
180.0
  0
ARC
  5
2F8
100
AcDbEntity
  8
0
100
AcDbCircle
 62
7
  6
CONTINUOUS
 10
16.801658104
 20
12.0197447694
 40
0.6868364935
100
AcDbArc
 50
243.1160903344
 51
243.6056151073
  0
ARC
  5
2F9
100
AcDbEntity
  8
0
100
AcDbCircle
 62
7
  6
CONTINUOUS
 10
15.0542525885
 20
11.7856703345
 40
0.2699569727
100
AcDbArc
 50
206.174012426
 51
209.4569911969
  0
ARC
  5
2FA
100
AcDbEntity
  8
0
100
AcDbCircle
 62
7
  6
CONTINUOUS
 10
15.7589983359
 20
11.8412167318
 40
0.256201604
100
AcDbArc
 50
324.9769773696
 51
333.1461393505
  0
ARC
  5
2FB
100
AcDbEntity
  8
0
100
AcDbCircle
 62
7
  6
CONTINUOUS
 10
15.650663309
 20
11.8279365236
 40
0.2007192519
100
AcDbArc
 50
354.8654431347
 51
357.0510996132
  0
ARC
  5
2FC
100
AcDbEntity
  8
0
100
AcDbCircle
 62
7
  6
CONTINUOUS
 10
15.6577301868
 20
11.8271247294
 40
0.1936081601
100
AcDbArc
 50
342.8691611833
 51
354.9175535621
  0
ARC
  5
2FD
100
AcDbEntity
  8
0
100
AcDbCircle
 62
7
  6
CONTINUOUS
 10
14.9148476159
 20
12.0567363783
 40
0.1931628773
100
AcDbArc
 50
150.8950158604
 51
162.7983458723
  0
ARC
  5
2FE
100
AcDbEntity
  8
0
100
AcDbCircle
 62
7
  6
CONTINUOUS
 10
14.9876522877
 20
12.8109350042
 40
0.1094454816
100
AcDbArc
 50
159.7279767843
 51
162.8201128239
  0
ARC
  5
2FF
100
AcDbEntity
  8
0
100
AcDbCircle
 62
7
  6
CONTINUOUS
 10
15.073137936
 20
12.872943273
 40
0.0732142228
100
AcDbArc
 50
20.2967270265
 51
22.4573548947
  0
ARC
  5
300
100
AcDbEntity
  8
0
100
AcDbCircle
 62
7
  6
CONTINUOUS
 10
14.6059361941
 20
11.6220779918
 40
0.0620318169
100
AcDbArc
 50
152.6364325538
 51
162.8049720756
  0
ARC
  5
301
100
AcDbEntity
  8
0
100
AcDbCircle
 62
7
  6
CONTINUOUS
 10
14.7499204191
 20
12.9730763637
 40
0.0591574757
100
AcDbArc
 50
44.05940925
 51
63.0373012415
  0
ARC
  5
302
100
AcDbEntity
  8
0
100
AcDbCircle
 62
7
  6
CONTINUOUS
 10
15.0999307037
 20
12.040796911
 40
0.0446676215
100
AcDbArc
 50
145.3549969146
 51
150.4896181376
  0
SPLINE
  5
303
100
AcDbEntity
  8
0
100
AcDbSpline
 62
7
  6
CONTINUOUS
 70
0
 71
3
 72
16
 73
12
 74
0
 42
0.0000001
 43
0.0000001
 44
0.0000000001
 40
0.0
 40
0.0
 40
0.0
 40
0.0
 40
0.1185410399
 40
0.1789068938
 40
0.2398681195
 40
0.3633341636
 40
0.425769214
 40
0.4885981445
 40
0.6152609511
 40
0.7429722122
 40
1.0
 40
1.0
 40
1.0
 40
1.0
 10
6.9429641333
 20
12.9875477814
 30
0.0
 10
6.9504325053
 20
12.9875477814
 30
0.0
 10
6.9617086209
 20
12.9881831214
 30
0.0
 10
6.9767211454
 20
12.9899217348
 30
0.0
 10
6.9919791531
 20
12.9921866903
 30
0.0
 10
7.0072642702
 20
12.9950959754
 30
0.0
 10
7.022565305
 20
12.998480771
 30
0.0
 10
7.0380056255
 20
13.0021602148
 30
0.0
 10
7.0573469481
 20
13.0071978573
 30
0.0
 10
7.0883650269
 20
13.0159186471
 30
0.0
 10
7.1115810366
 20
13.0228914635
 30
0.0
 10
7.1270905174
 20
13.0275477814
 30
0.0
  0
SPLINE
  5
304
100
AcDbEntity
  8
0
100
AcDbSpline
 62
7
  6
CONTINUOUS
 70
0
 71
3
 72
16
 73
12
 74
0
 42
0.0000001
 43
0.0000001
 44
0.0000000001
 40
0.0
 40
0.0
 40
0.0
 40
0.0
 40
0.2570277914
 40
0.3847390476
 40
0.511401847
 40
0.5742307772
 40
0.6366658309
 40
0.7601318856
 40
0.8210931135
 40
0.8814589657
 40
1.0
 40
1.0
 40
1.0
 40
1.0
 10
5.0146536503
 20
13.0275477814
 30
0.0
 10
5.0301631313
 20
13.0228914634
 30
0.0
 10
5.0533791442
 20
13.0159186577
 30
0.0
 10
5.0843972204
 20
13.0071978613
 30
0.0
 10
5.1037385399
 20
13.00216021
 30
0.0
 10
5.1191788596
 20
12.9984807638
 30
0.0
 10
5.1344798958
 20
12.99509597
 30
0.0
 10
5.1497650149
 20
12.9921866902
 30
0.0
 10
5.1650230236
 20
12.9899217369
 30
0.0
 10
5.1800355477
 20
12.9881831228
 30
0.0
 10
5.1913116628
 20
12.9875477814
 30
0.0
 10
5.1987800344
 20
12.9875477814
 30
0.0
  0
SPLINE
  5
305
100
AcDbEntity
  8
0
100
AcDbSpline
 62
7
  6
CONTINUOUS
 70
0
 71
3
 72
11
 73
7
 74
0
 42
0.0000001
 43
0.0000001
 44
0.0000000001
 40
0.0
 40
0.0
 40
0.0
 40
0.0
 40
0.2438799784
 40
0.4903141752
 40
0.7416524193
 40
1.0
 40
1.0
 40
1.0
 40
1.0
 10
5.6952404882
 20
12.9875477814
 30
0.0
 10
5.6964064373
 20
12.9875477814
 30
0.0
 10
5.6987539571
 20
12.9873768439
 30
0.0
 10
5.7022282032
 20
12.9866129047
 30
0.0
 10
5.7056255228
 20
12.9853453254
 30
0.0
 10
5.7077797489
 20
12.9841886769
 30
0.0
 10
5.7088283975
 20
12.9835361066
 30
0.0
  0
SPLINE
  5
306
100
AcDbEntity
  8
0
100
AcDbSpline
 62
7
  6
CONTINUOUS
 70
0
 71
3
 72
11
 73
7
 74
0
 42
0.0000001
 43
0.0000001
 44
0.0000000001
 40
0.0
 40
0.0
 40
0.0
 40
0.0
 40
0.2583475432
 40
0.5096858165
 40
0.7561200352
 40
1.0
 40
1.0
 40
1.0
 40
1.0
 10
6.4329157702
 20
12.9835361066
 30
0.0
 10
6.4339644186
 20
12.9841886768
 30
0.0
 10
6.4361186456
 20
12.9853453234
 30
0.0
 10
6.439515965
 20
12.9866129027
 30
0.0
 10
6.4429902107
 20
12.9873768442
 30
0.0
 10
6.4453377306
 20
12.9875477814
 30
0.0
 10
6.4465036795
 20
12.9875477814
 30
0.0
  0
SPLINE
  5
307
100
AcDbEntity
  8
0
100
AcDbSpline
 62
7
  6
CONTINUOUS
 70
0
 71
3
 72
14
 73
10
 74
0
 42
0.0000001
 43
0.0000001
 44
0.0000000001
 40
0.0
 40
0.0
 40
0.0
 40
0.0
 40
0.2597895476
 40
0.3910763804
 40
0.5216708493
 40
0.6502330056
 40
0.7748269237
 40
0.8928836479
 40
1.0
 40
1.0
 40
1.0
 40
1.0
 10
6.3921690704
 20
12.9475477814
 30
0.0
 10
6.3953866456
 20
12.9509989416
 30
0.0
 10
6.4003371657
 20
12.9560961156
 30
0.0
 10
6.4071499364
 20
12.9626815558
 30
0.0
 10
6.4123633632
 20
12.9674897939
 30
0.0
 10
6.4176118417
 20
12.9720772323
 30
0.0
 10
6.4228250373
 20
12.9763548453
 30
0.0
 10
6.4278844363
 20
12.9801986964
 30
0.0
 10
6.4312639947
 20
12.9825082126
 30
0.0
 10
6.4329157702
 20
12.9835361066
 30
0.0
  0
SPLINE
  5
308
100
AcDbEntity
  8
0
100
AcDbSpline
 62
7
  6
CONTINUOUS
 70
0
 71
3
 72
20
 73
16
 74
0
 42
0.0000001
 43
0.0000001
 44
0.0000000001
 40
0.0
 40
0.0
 40
0.0
 40
0.0
 40
0.1879083815
 40
0.3694476697
 40
0.5376474316
 40
0.6867583979
 40
0.7525125217
 40
0.811562759
 40
0.8633704199
 40
0.9075025145
 40
0.9435319142
 40
0.9710978947
 40
0.9899846767
 40
0.996112741
 40
1.0
 40
1.0
 40
1.0
 40
1.0
 10
5.6458200368
 20
12.1938049859
 30
0.0
 10
5.6458200368
 20
12.1966277663
 30
0.0
 10
5.6457670595
 20
12.2021777804
 30
0.0
 10
5.6455439273
 20
12.2102517045
 30
0.0
 10
5.6452073974
 20
12.2177382641
 30
0.0
 10
5.6448623975
 20
12.2234825468
 30
0.0
 10
5.6445763696
 20
12.2275873965
 30
0.0
 10
5.6443784292
 20
12.2302330973
 30
0.0
 10
5.6441951259
 20
12.2325541537
 30
0.0
 10
5.6440333105
 20
12.2345299899
 30
0.0
 10
5.643899225
 20
12.2361427339
 30
0.0
 10
5.643799469
 20
12.2373777339
 30
0.0
 10
5.6437391425
 20
12.2381653765
 30
0.0
 10
5.6437131916
 20
12.2385987282
 30
0.0
 10
5.6437067295
 20
12.2387491149
 30
0.0
 10
5.6437067295
 20
12.2388075097
 30
0.0
  0
SPLINE
  5
309
100
AcDbEntity
  8
0
100
AcDbSpline
 62
7
  6
CONTINUOUS
 70
0
 71
3
 72
20
 73
16
 74
0
 42
0.0000001
 43
0.0000001
 44
0.0000000001
 40
0.0
 40
0.0
 40
0.0
 40
0.0
 40
0.0038873367
 40
0.0100112053
 40
0.0288893266
 40
0.0564660103
 40
0.092492692
 40
0.1366057253
 40
0.1884239498
 40
0.247469523
 40
0.3132019862
 40
0.4623641792
 40
0.630561607
 40
0.8119992195
 40
1.0
 40
1.0
 40
1.0
 40
1.0
 10
5.6437067295
 20
12.148802462
 30
0.0
 10
5.6437067295
 20
12.148860858
 30
0.0
 10
5.6437131301
 20
12.1490111843
 30
0.0
 10
5.6437389382
 20
12.1494443536
 30
0.0
 10
5.6437991349
 20
12.1502319741
 30
0.0
 10
5.6438992493
 20
12.1514669356
 30
0.0
 10
5.6440333615
 20
12.1530795105
 30
0.0
 10
5.6441948462
 20
12.1550552054
 30
0.0
 10
5.6443782803
 20
12.1573760531
 30
0.0
 10
5.644576463
 20
12.1600214994
 30
0.0
 10
5.6448624063
 20
12.1641267312
 30
0.0
 10
5.6452074441
 20
12.1698714241
 30
0.0
 10
5.6455436367
 20
12.1773572025
 30
0.0
 10
5.6457676844
 20
12.1854309312
 30
0.0
 10
5.6458200368
 20
12.1909808168
 30
0.0
 10
5.6458200368
 20
12.1938049859
 30
0.0
  0
SPLINE
  5
30A
100
AcDbEntity
  8
0
100
AcDbSpline
 62
7
  6
CONTINUOUS
 70
0
 71
3
 72
14
 73
10
 74
0
 42
0.0000001
 43
0.0000001
 44
0.0000000001
 40
0.0
 40
0.0
 40
0.0
 40
0.0
 40
0.2598014556
 40
0.3910791378
 40
0.5216756998
 40
0.6502810763
 40
0.7749048736
 40
0.8929147387
 40
1.0
 40
1.0
 40
1.0
 40
1.0
 10
5.7495750973
 20
12.9475477814
 30
0.0
 10
5.7463572392
 20
12.9509992451
 30
0.0
 10
5.741407722
 20
12.9560979269
 30
0.0
 10
5.7345918785
 20
12.9626809363
 30
0.0
 10
5.7293771443
 20
12.9674890559
 30
0.0
 10
5.7241374289
 20
12.972088745
 30
0.0
 10
5.7189364858
 20
12.9763827176
 30
0.0
 10
5.7138681106
 20
12.9802147898
 30
0.0
 10
5.7104797631
 20
12.9825084676
 30
0.0
 10
5.7088283975
 20
12.9835361066
 30
0.0
  0
SPLINE
  5
30B
100
AcDbEntity
  8
0
100
AcDbSpline
 62
7
  6
CONTINUOUS
 70
0
 71
3
 72
12
 73
8
 74
0
 42
0.0000001
 43
0.0000001
 44
0.0000000001
 40
0.0
 40
0.0
 40
0.0
 40
0.0
 40
0.2667730002
 40
0.5284584124
 40
0.7770502508
 40
0.8929276775
 40
1.0
 40
1.0
 40
1.0
 40
1.0
 10
15.9205446075
 20
5.7943841195
 30
0.0
 10
15.9228115801
 20
5.7967319022
 30
0.0
 10
15.9272315741
 20
5.8014518462
 30
0.0
 10
15.9334869348
 20
5.8086124127
 30
0.0
 10
15.9382700805
 20
5.8146013987
 30
0.0
 10
15.9416451776
 20
5.8192809629
 30
0.0
 10
15.9431515041
 20
5.8215562551
 30
0.0
 10
15.9438435822
 20
5.8226683908
 30
0.0
  0
SPLINE
  5
30C
100
AcDbEntity
  8
0
100
AcDbSpline
 62
7
  6
CONTINUOUS
 70
0
 71
3
 72
20
 73
16
 74
0
 42
0.0000001
 43
0.0000001
 44
0.0000000001
 40
0.0
 40
0.0
 40
0.0
 40
0.0
 40
0.0039011424
 40
0.010028021
 40
0.0288935854
 40
0.0564568399
 40
0.0924882566
 40
0.1366056579
 40
0.1884114049
 40
0.2474758973
 40
0.3132257071
 40
0.4623294747
 40
0.630541479
 40
0.8121145913
 40
1.0
 40
1.0
 40
1.0
 40
1.0
 10
15.1091103816
 20
5.8877898864
 30
0.0
 10
15.1091689843
 20
5.8877897808
 30
0.0
 10
15.1093195552
 20
5.8877833366
 30
0.0
 10
15.1097527876
 20
5.8877575258
 30
0.0
 10
15.110540067
 20
5.8876975547
 30
0.0
 10
15.1117747076
 20
5.8875975638
 30
0.0
 10
15.1133871863
 20
5.8874632919
 30
0.0
 10
15.1153628003
 20
5.8873016876
 30
0.0
 10
15.117683807
 20
5.8871185101
 30
0.0
 10
15.1203295939
 20
5.8869204693
 30
0.0
 10
15.1244344357
 20
5.8866343281
 30
0.0
 10
15.1301786859
 20
5.886289595
 30
0.0
 10
15.1376657375
 20
5.8859526971
 30
0.0
 10
15.1457399383
 20
5.8857299587
 30
0.0
 10
15.1512900549
 20
5.8856767515
 30
0.0
 10
15.1541124615
 20
5.8856767515
 30
0.0
  0
SPLINE
  5
30D
100
AcDbEntity
  8
0
100
AcDbSpline
 62
7
  6
CONTINUOUS
 70
0
 71
3
 72
16
 73
12
 74
0
 42
0.0000001
 43
0.0000001
 44
0.0000000001
 40
0.0
 40
0.0
 40
0.0
 40
0.0
 40
0.1185410399
 40
0.1789068938
 40
0.2398681195
 40
0.3633341636
 40
0.425769214
 40
0.4885981445
 40
0.6152609511
 40
0.7429722122
 40
1.0
 40
1.0
 40
1.0
 40
1.0
 10
15.9478552569
 20
4.588532655
 30
0.0
 10
15.9478552569
 20
4.581064283
 30
0.0
 10
15.948490597
 20
4.5697881674
 30
0.0
 10
15.9502292104
 20
4.5547756429
 30
0.0
 10
15.9524941658
 20
4.5395176352
 30
0.0
 10
15.9554034509
 20
4.5242325182
 30
0.0
 10
15.9587882466
 20
4.5089314833
 30
0.0
 10
15.9624676903
 20
4.4934911628
 30
0.0
 10
15.9675053329
 20
4.4741498402
 30
0.0
 10
15.9762261226
 20
4.4431317614
 30
0.0
 10
15.983198939
 20
4.4199157517
 30
0.0
 10
15.9878552569
 20
4.4044062709
 30
0.0
  0
SPLINE
  5
30E
100
AcDbEntity
  8
0
100
AcDbSpline
 62
7
  6
CONTINUOUS
 70
0
 71
3
 72
16
 73
12
 74
0
 42
0.0000001
 43
0.0000001
 44
0.0000000001
 40
0.0
 40
0.0
 40
0.0
 40
0.0
 40
0.2570277914
 40
0.3847390476
 40
0.511401847
 40
0.5742307772
 40
0.6366658309
 40
0.7601318856
 40
0.8210931135
 40
0.8814589657
 40
1.0
 40
1.0
 40
1.0
 40
1.0
 10
15.9878552569
 20
6.516843138
 30
0.0
 10
15.983198939
 20
6.501333657
 30
0.0
 10
15.9762261333
 20
6.4781176441
 30
0.0
 10
15.9675053368
 20
6.4470995679
 30
0.0
 10
15.9624676855
 20
6.4277582484
 30
0.0
 10
15.9587882394
 20
6.4123179287
 30
0.0
 10
15.9554034456
 20
6.3970168925
 30
0.0
 10
15.9524941657
 20
6.3817317734
 30
0.0
 10
15.9502292124
 20
6.3664737647
 30
0.0
 10
15.9484905984
 20
6.3514612406
 30
0.0
 10
15.9478552569
 20
6.3401851255
 30
0.0
 10
15.9478552569
 20
6.3327167539
 30
0.0
  0
SPLINE
  5
30F
100
AcDbEntity
  8
0
100
AcDbSpline
 62
7
  6
CONTINUOUS
 70
0
 71
3
 72
11
 73
7
 74
0
 42
0.0000001
 43
0.0000001
 44
0.0000000001
 40
0.0
 40
0.0
 40
0.0
 40
0.0
 40
0.2583475432
 40
0.5096858165
 40
0.7561200352
 40
1.0
 40
1.0
 40
1.0
 40
1.0
 10
15.9438435822
 20
5.0985810181
 30
0.0
 10
15.9444961524
 20
5.0975323697
 30
0.0
 10
15.9456527989
 20
5.0953781427
 30
0.0
 10
15.9469203783
 20
5.0919808233
 30
0.0
 10
15.9476843197
 20
5.0885065776
 30
0.0
 10
15.9478552569
 20
5.0861590577
 30
0.0
 10
15.9478552569
 20
5.0849931088
 30
0.0
  0
SPLINE
  5
310
100
AcDbEntity
  8
0
100
AcDbSpline
 62
7
  6
CONTINUOUS
 70
0
 71
3
 72
12
 73
8
 74
0
 42
0.0000001
 43
0.0000001
 44
0.0000000001
 40
0.0
 40
0.0
 40
0.0
 40
0.0
 40
0.2667742653
 40
0.5284441878
 40
0.7770349414
 40
0.8929235471
 40
1.0
 40
1.0
 40
1.0
 40
1.0
 10
15.9205446075
 20
5.1268652894
 30
0.0
 10
15.9228115674
 20
5.1245175198
 30
0.0
 10
15.9272324217
 20
5.1197986995
 30
0.0
 10
15.9334846359
 20
5.112635627
 30
0.0
 10
15.9382649287
 20
5.1066447468
 30
0.0
 10
15.9416437357
 20
5.1019677748
 30
0.0
 10
15.9431514845
 20
5.0996931852
 30
0.0
 10
15.9438435822
 20
5.0985810181
 30
0.0
  0
SPLINE
  5
311
100
AcDbEntity
  8
0
100
AcDbSpline
 62
7
  6
CONTINUOUS
 70
0
 71
3
 72
11
 73
7
 74
0
 42
0.0000001
 43
0.0000001
 44
0.0000000001
 40
0.0
 40
0.0
 40
0.0
 40
0.0
 40
0.2438799784
 40
0.4903141752
 40
0.7416524193
 40
1.0
 40
1.0
 40
1.0
 40
1.0
 10
15.9478552569
 20
5.8362563001
 30
0.0
 10
15.9478552569
 20
5.835090351
 30
0.0
 10
15.9476843194
 20
5.8327428312
 30
0.0
 10
15.9469203803
 20
5.8292685851
 30
0.0
 10
15.945652801
 20
5.8258712655
 30
0.0
 10
15.9444961525
 20
5.8237170394
 30
0.0
 10
15.9438435822
 20
5.8226683908
 30
0.0
  0
SPLINE
  5
312
100
AcDbEntity
  8
0
100
AcDbSpline
 62
7
  6
CONTINUOUS
 70
0
 71
3
 72
20
 73
16
 74
0
 42
0.0000001
 43
0.0000001
 44
0.0000000001
 40
0.0
 40
0.0
 40
0.0
 40
0.0
 40
0.1878842507
 40
0.369456229
 40
0.5376672972
 40
0.6867690643
 40
0.7525178539
 40
0.811581748
 40
0.8633883793
 40
0.9075081706
 40
0.9435424519
 40
0.9711075744
 40
0.9899729476
 40
0.9960993528
 40
1.0
 40
1.0
 40
1.0
 40
1.0
 10
15.1541124615
 20
5.8856767515
 30
0.0
 10
15.1569348518
 20
5.8856767515
 30
0.0
 10
15.1624849361
 20
5.8857299567
 30
0.0
 10
15.1705590915
 20
5.885952695
 30
0.0
 10
15.1780460851
 20
5.8862895852
 30
0.0
 10
15.1837902782
 20
5.8866343166
 30
0.0
 10
15.1878950675
 20
5.8869204527
 30
0.0
 10
15.1905408448
 20
5.8871184878
 30
0.0
 10
15.192861893
 20
5.8873016626
 30
0.0
 10
15.1948375998
 20
5.8874632727
 30
0.0
 10
15.1964501854
 20
5.8875975571
 30
0.0
 10
15.1976848936
 20
5.8876975648
 30
0.0
 10
15.1984721917
 20
5.8877575338
 30
0.0
 10
15.1989054071
 20
5.8877833389
 30
0.0
 10
15.1990559636
 20
5.8877897805
 30
0.0
 10
15.1991145589
 20
5.8877898855
 30
0.0
  0
SPLINE
  5
313
100
AcDbEntity
  8
0
100
AcDbSpline
 62
7
  6
CONTINUOUS
 70
0
 71
3
 72
15
 73
11
 74
0
 42
0.0000001
 43
0.0000001
 44
0.0000000001
 40
0.0
 40
0.0
 40
0.0
 40
0.0
 40
0.1164349213
 40
0.2337701732
 40
0.3528729727
 40
0.47456212
 40
0.5995773587
 40
0.7285559732
 40
0.8619336317
 40
1.0
 40
1.0
 40
1.0
 40
1.0
 10
14.7303249479
 20
12.1138615233
 30
0.0
 10
14.728294474
 20
12.1072885828
 30
0.0
 10
14.72493089
 20
12.0938596991
 30
0.0
 10
14.7220561982
 20
12.0731719797
 30
0.0
 10
14.7213584798
 20
12.0519857073
 30
0.0
 10
14.7228365924
 20
12.0303879394
 30
0.0
 10
14.7264789801
 20
12.0084591068
 30
0.0
 10
14.7322760528
 20
11.9862872002
 30
0.0
 10
14.7401888937
 20
11.9639642832
 30
0.0
 10
14.7467333767
 20
11.9493022589
 30
0.0
 10
14.7503270969
 20
11.9419790269
 30
0.0
  0
SPLINE
  5
314
100
AcDbEntity
  8
0
100
AcDbSpline
 62
7
  6
CONTINUOUS
 70
0
 71
3
 72
15
 73
11
 74
0
 42
0.0000001
 43
0.0000001
 44
0.0000000001
 40
0.0
 40
0.0
 40
0.0
 40
0.0
 40
0.1380672806
 40
0.2714450039
 40
0.4004227186
 40
0.5254370709
 40
0.6471257761
 40
0.766228577
 40
0.8835642053
 40
1.0
 40
1.0
 40
1.0
 40
1.0
 10
17.174894802
 20
11.8827098886
 30
0.0
 10
17.1776342929
 20
11.8771273931
 30
0.0
 10
17.1826231394
 20
11.8659505775
 30
0.0
 10
17.1886550662
 20
11.8489339422
 30
0.0
 10
17.1930740443
 20
11.8320324758
 30
0.0
 10
17.1958505643
 20
11.8153163467
 30
0.0
 10
17.1969773385
 20
11.7988525482
 30
0.0
 10
17.1964453833
 20
11.782702379
 30
0.0
 10
17.1942541051
 20
11.7669321835
 30
0.0
 10
17.1916900815
 20
11.7566953532
 30
0.0
 10
17.1901422285
 20
11.7516848069
 30
0.0
  0
SPLINE
  5
315
100
AcDbEntity
  8
0
100
AcDbSpline
 62
7
  6
CONTINUOUS
 70
0
 71
3
 72
23
 73
19
 74
0
 42
0.0000001
 43
0.0000001
 44
0.0000000001
 40
0.0
 40
0.0
 40
0.0
 40
0.0
 40
0.063959292
 40
0.129657095
 40
0.1966380675
 40
0.2645043291
 40
0.3328367929
 40
0.4011872538
 40
0.469113479
 40
0.5361828692
 40
0.601979858
 40
0.6661122912
 40
0.7282272553
 40
0.7880140784
 40
0.8452163319
 40
0.8996632619
 40
0.951271516
 40
1.0
 40
1.0
 40
1.0
 40
1.0
 10
15.9863912688
 20
13.4716807479
 30
0.0
 10
15.9999663751
 20
13.4716807479
 30
0.0
 10
16.0274924678
 20
13.470754377
 30
0.0
 10
16.0690610222
 20
13.4667625471
 30
0.0
 10
16.1111377172
 20
13.4601724178
 30
0.0
 10
16.1533104356
 20
13.451054068
 30
0.0
 10
16.1951818935
 20
13.4394950972
 30
0.0
 10
16.236351495
 20
13.4256029859
 30
0.0
 10
16.2764250337
 20
13.4095140149
 30
0.0
 10
16.3150174584
 20
13.3913776573
 30
0.0
 10
16.351762742
 20
13.3713730877
 30
0.0
 10
16.3863071707
 20
13.3496851869
 30
0.0
 10
16.4183235545
 20
13.3265246225
 30
0.0
 10
16.4475044588
 20
13.3021086006
 30
0.0
 10
16.4735744562
 20
13.2766697656
 30
0.0
 10
16.4962881248
 20
13.2504405637
 30
0.0
 10
16.5154146917
 20
13.2236699197
 30
0.0
 10
16.5259568359
 20
13.2051064271
 30
0.0
 10
16.5305131169
 20
13.1958217025
 30
0.0
  0
SPLINE
  5
316
100
AcDbEntity
  8
0
100
AcDbSpline
 62
7
  6
CONTINUOUS
 70
0
 71
3
 72
14
 73
10
 74
0
 42
0.0000001
 43
0.0000001
 44
0.0000000001
 40
0.0
 40
0.0
 40
0.0
 40
0.0
 40
0.1175531214
 40
0.2358759647
 40
0.3557198791
 40
0.4778015252
 40
0.602776987
 40
0.7312318894
 40
1.0
 40
1.0
 40
1.0
 40
1.0
 10
14.8209623649
 20
12.0515271991
 30
0.0
 10
14.8194289638
 20
12.0465634849
 30
0.0
 10
14.8168471242
 20
12.0364429788
 30
0.0
 10
14.8144821766
 20
12.0208767517
 30
0.0
 10
14.8136312536
 20
12.0049537264
 30
0.0
 10
14.8142931503
 20
11.988729736
 30
0.0
 10
14.8164630242
 20
11.9722539351
 30
0.0
 10
14.8214342695
 20
11.9496961021
 30
0.0
 10
14.8273181668
 20
11.9330604605
 30
0.0
 10
14.8320378964
 20
11.9221604158
 30
0.0
  0
SPLINE
  5
317
100
AcDbEntity
  8
0
100
AcDbSpline
 62
7
  6
CONTINUOUS
 70
0
 71
3
 72
39
 73
35
 74
0
 42
0.0000001
 43
0.0000001
 44
0.0000000001
 40
0.0
 40
0.0
 40
0.0
 40
0.0
 40
0.0107135691
 40
0.0214644201
 40
0.0322893733
 40
0.0432239046
 40
0.0543019294
 40
0.0655553128
 40
0.0886885663
 40
0.1128311702
 40
0.138130339
 40
0.1646833629
 40
0.1925445972
 40
0.221725225
 40
0.2522042335
 40
0.2839267187
 40
0.3168151403
 40
0.3507665687
 40
0.3856625216
 40
0.4577087542
 40
0.5317647716
 40
0.6064997153
 40
0.643704456
 40
0.6805672362
 40
0.7169239696
 40
0.7526164497
 40
0.7874976745
 40
0.8214337055
 40
0.8543045493
 40
0.8860074137
 40
0.9164633094
 40
0.9456283153
 40
0.9734780628
 40
1.0
 40
1.0
 40
1.0
 40
1.0
 10
14.7424281709
 20
12.1530278966
 30
0.0
 10
14.7437848008
 20
12.157419485
 30
0.0
 10
14.7468225618
 20
12.166122793
 30
0.0
 10
14.7523242218
 20
12.1788486306
 30
0.0
 10
14.7587619711
 20
12.1912349657
 30
0.0
 10
14.7661235712
 20
12.2032596463
 30
0.0
 10
14.774397527
 20
12.2149021452
 30
0.0
 10
14.7867384262
 20
12.2300227789
 30
0.0
 10
14.8044803425
 20
12.2478925307
 30
0.0
 10
14.8289352984
 20
12.2672692813
 30
0.0
 10
14.856580769
 20
12.2846627256
 30
0.0
 10
14.8872202274
 20
12.2999661358
 30
0.0
 10
14.9206476613
 20
12.3130787701
 30
0.0
 10
14.9566344636
 20
12.3239256111
 30
0.0
 10
14.9949400869
 20
12.3324282136
 30
0.0
 10
15.0353047046
 20
12.3385416917
 30
0.0
 10
15.0774563843
 20
12.342215758
 30
0.0
 10
15.1211108267
 20
12.3434371421
 30
0.0
 10
15.1815595303
 20
12.3417527887
 30
0.0
 10
15.2589090062
 20
12.3333808433
 30
0.0
 10
15.3517888602
 20
12.3140028167
 30
0.0
 10
15.4281442762
 20
12.2903769438
 30
0.0
 10
15.487654756
 20
12.2672141102
 30
0.0
 10
15.5309420709
 20
12.2479163841
 30
0.0
 10
15.5726476357
 20
12.2268041171
 30
0.0
 10
15.6124892713
 20
12.2040203122
 30
0.0
 10
15.650195189
 20
12.1797182276
 30
0.0
 10
15.6855112505
 20
12.1540641215
 30
0.0
 10
15.7181949444
 20
12.1272286432
 30
0.0
 10
15.7480290566
 20
12.0993988393
 30
0.0
 10
15.7748074159
 20
12.0707534988
 30
0.0
 10
15.7983543835
 20
12.0414839626
 30
0.0
 10
15.8184939973
 20
12.0117900932
 30
0.0
 10
15.8298373005
 20
11.9913602064
 30
0.0
 10
15.834850013
 20
11.9811453724
 30
0.0
  0
SPLINE
  5
318
100
AcDbEntity
  8
0
100
AcDbSpline
 62
7
  6
CONTINUOUS
 70
0
 71
3
 72
18
 73
14
 74
0
 42
0.0000001
 43
0.0000001
 44
0.0000000001
 40
0.0
 40
0.0
 40
0.0
 40
0.0
 40
0.0519717839
 40
0.1044292173
 40
0.1577998975
 40
0.2124676025
 40
0.268745827
 40
0.3268451026
 40
0.4488155442
 40
0.57860358
 40
0.7151233299
 40
0.8564100983
 40
1.0
 40
1.0
 40
1.0
 40
1.0
 10
15.1397700637
 20
12.0751376028
 30
0.0
 10
15.1392916388
 20
12.0761124979
 30
0.0
 10
15.1381912685
 20
12.0780064572
 30
0.0
 10
15.136152914
 20
12.0806103759
 30
0.0
 10
15.1337460215
 20
12.0829596946
 30
0.0
 10
15.1309931323
 20
12.0850266278
 30
0.0
 10
15.1279237107
 20
12.0867913828
 30
0.0
 10
15.1233823731
 20
12.0887549138
 30
0.0
 10
15.1170530925
 20
12.0903336637
 30
0.0
 10
15.1089139323
 20
12.0908060485
 30
0.0
 10
15.1004108587
 20
12.0898767869
 30
0.0
 10
15.091875575
 20
12.0875922974
 30
0.0
 10
15.0863859755
 20
12.0852280804
 30
0.0
 10
15.0837228108
 20
12.0838462004
 30
0.0
  0
SPLINE
  5
319
100
AcDbEntity
  8
0
100
AcDbSpline
 62
7
  6
CONTINUOUS
 70
0
 71
3
 72
11
 73
7
 74
0
 42
0.0000001
 43
0.0000001
 44
0.0000000001
 40
0.0
 40
0.0
 40
0.0
 40
0.0
 40
0.2580682857
 40
0.5125124381
 40
0.7605292449
 40
1.0
 40
1.0
 40
1.0
 40
1.0
 10
15.0837228108
 20
12.0838462004
 30
0.0
 10
15.0816357747
 20
12.0827632656
 30
0.0
 10
15.0776094814
 20
12.0803751098
 30
0.0
 10
15.0720779608
 20
12.0761765123
 30
0.0
 10
15.067209042
 20
12.0714641908
 30
0.0
 10
15.0644229848
 20
12.0679852937
 30
0.0
 10
15.0631830937
 20
12.0661900118
 30
0.0
  0
SPLINE
  5
31A
100
AcDbEntity
  8
0
100
AcDbSpline
 62
7
  6
CONTINUOUS
 70
0
 71
3
 72
9
 73
5
 74
0
 42
0.0000001
 43
0.0000001
 44
0.0000000001
 40
0.0
 40
0.0
 40
0.0
 40
0.0
 40
0.2571800634
 40
1.0
 40
1.0
 40
1.0
 40
1.0
 10
15.0610579711
 20
12.0627993442
 30
0.0
 10
15.0607116335
 20
12.0621862611
 30
0.0
 10
15.0594242117
 20
12.0597698135
 30
0.0
 10
15.0583792633
 20
12.0572210235
 30
0.0
 10
15.0577787887
 20
12.0552778872
 30
0.0
  0
SPLINE
  5
31B
100
AcDbEntity
  8
0
100
AcDbSpline
 62
7
  6
CONTINUOUS
 70
0
 71
3
 72
13
 73
9
 74
0
 42
0.0000001
 43
0.0000001
 44
0.0000000001
 40
0.0
 40
0.0
 40
0.0
 40
0.0
 40
0.271250176
 40
0.5252143101
 40
0.646990839
 40
0.766151688
 40
0.8835250665
 40
1.0
 40
1.0
 40
1.0
 40
1.0
 10
14.2503022441
 20
12.9059787957
 30
0.0
 10
14.2525751057
 20
12.9013471908
 30
0.0
 10
14.2563439643
 20
12.8920459263
 30
0.0
 10
14.2589903093
 20
12.8799526617
 30
0.0
 10
14.2596321523
 20
12.870547308
 30
0.0
 10
14.259407287
 20
12.8637234148
 30
0.0
 10
14.2584827624
 20
12.8570609122
 30
0.0
 10
14.2573981887
 20
12.8527367219
 30
0.0
 10
14.2567436322
 20
12.8506202518
 30
0.0
  0
SPLINE
  5
31C
100
AcDbEntity
  8
0
100
AcDbSpline
 62
7
  6
CONTINUOUS
 70
0
 71
3
 72
11
 73
7
 74
0
 42
0.0000001
 43
0.0000001
 44
0.0000000001
 40
0.0
 40
0.0
 40
0.0
 40
0.0
 40
0.2125150424
 40
0.4510518146
 40
0.7143215478
 40
1.0
 40
1.0
 40
1.0
 40
1.0
 10
15.0129287778
 20
11.7469909872
 30
0.0
 10
15.0134371747
 20
11.7475997784
 30
0.0
 10
15.0144157173
 20
11.7489769053
 30
0.0
 10
15.0156989435
 20
11.7513185334
 30
0.0
 10
15.0168701781
 20
11.7540178911
 30
0.0
 10
15.0175391567
 20
11.7559565358
 30
0.0
 10
15.0178539545
 20
11.7569752219
 30
0.0
  0
SPLINE
  5
31D
100
AcDbEntity
  8
0
100
AcDbSpline
 62
7
  6
CONTINUOUS
 70
0
 71
3
 72
15
 73
11
 74
0
 42
0.0000001
 43
0.0000001
 44
0.0000000001
 40
0.0
 40
0.0
 40
0.0
 40
0.0
 40
0.1380797625
 40
0.2714577582
 40
0.4004239406
 40
0.5254309818
 40
0.6471192033
 40
0.7662258876
 40
0.8835648556
 40
1.0
 40
1.0
 40
1.0
 40
1.0
 10
15.9534078347
 20
11.9028126814
 30
0.0
 10
15.9579588195
 20
11.8935387496
 30
0.0
 10
15.9662464727
 20
11.8749721985
 30
0.0
 10
15.9762668389
 20
11.846705942
 30
0.0
 10
15.9836053586
 20
11.8186318191
 30
0.0
 10
15.9882172368
 20
11.7908661392
 30
0.0
 10
15.9900897857
 20
11.7635183785
 30
0.0
 10
15.9892046509
 20
11.7366908766
 30
0.0
 10
15.9855668703
 20
11.7104942757
 30
0.0
 10
15.9813082302
 20
11.6934894128
 30
0.0
 10
15.9787365181
 20
11.6851666123
 30
0.0
  0
SPLINE
  5
31E
100
AcDbEntity
  8
0
100
AcDbSpline
 62
7
  6
CONTINUOUS
 70
0
 71
3
 72
9
 73
5
 74
0
 42
0.0000001
 43
0.0000001
 44
0.0000000001
 40
0.0
 40
0.0
 40
0.0
 40
0.0
 40
0.4961993965
 40
1.0
 40
1.0
 40
1.0
 40
1.0
 10
15.0088915027
 20
11.7337073494
 30
0.0
 10
15.0082735206
 20
11.7337063427
 30
0.0
 10
15.0070253008
 20
11.733816725
 30
0.0
 10
15.0058176007
 20
11.73414978
 30
0.0
 10
15.0052292115
 20
11.7343677049
 30
0.0
  0
SPLINE
  5
31F
100
AcDbEntity
  8
0
100
AcDbSpline
 62
7
  6
CONTINUOUS
 70
0
 71
3
 72
9
 73
5
 74
0
 42
0.0000001
 43
0.0000001
 44
0.0000000001
 40
0.0
 40
0.0
 40
0.0
 40
0.0
 40
0.4766652515
 40
1.0
 40
1.0
 40
1.0
 40
1.0
 10
15.0052292115
 20
11.7343677049
 30
0.0
 10
15.0042295842
 20
11.7347379421
 30
0.0
 10
15.0022411089
 20
11.7358247169
 30
0.0
 10
15.0005772861
 20
11.7373472021
 30
0.0
 10
14.9997910771
 20
11.738214157
 30
0.0
  0
SPLINE
  5
320
100
AcDbEntity
  8
0
100
AcDbSpline
 62
7
  6
CONTINUOUS
 70
0
 71
3
 72
9
 73
5
 74
0
 42
0.0000001
 43
0.0000001
 44
0.0000000001
 40
0.0
 40
0.0
 40
0.0
 40
0.0
 40
0.473784448
 40
1.0
 40
1.0
 40
1.0
 40
1.0
 10
14.9997910771
 20
11.738214157
 30
0.0
 10
14.9989184085
 20
11.7391764512
 30
0.0
 10
14.9972861243
 20
11.7414007517
 30
0.0
 10
14.9960298631
 20
11.7438490554
 30
0.0
 10
14.9954536179
 20
11.7451718081
 30
0.0
  0
SPLINE
  5
321
100
AcDbEntity
  8
0
100
AcDbSpline
 62
7
  6
CONTINUOUS
 70
0
 71
3
 72
36
 73
32
 74
0
 42
0.0000001
 43
0.0000001
 44
0.0000000001
 40
0.0
 40
0.0
 40
0.0
 40
0.0
 40
0.0233796722
 40
0.0468977358
 40
0.0707809653
 40
0.0952167172
 40
0.1203439412
 40
0.1462952339
 40
0.1731896262
 40
0.2011059629
 40
0.2300904382
 40
0.2601587209
 40
0.291292359
 40
0.3234491853
 40
0.3565615963
 40
0.3905391035
 40
0.4252771718
 40
0.4606523221
 40
0.4965326462
 40
0.5327755419
 40
0.60573113
 40
0.678323371
 40
0.7493596597
 40
0.7839616106
 40
0.8177833123
 40
0.8507203562
 40
0.882685423
 40
0.9136123997
 40
0.9434766234
 40
0.9722755822
 40
1.0
 40
1.0
 40
1.0
 40
1.0
 10
15.6129621962
 20
11.5514867469
 30
0.0
 10
15.6108148494
 20
11.5445379302
 30
0.0
 10
15.6055240087
 20
11.5308825062
 30
0.0
 10
15.5947994838
 20
11.5115784705
 30
0.0
 10
15.5814112362
 20
11.4936064874
 30
0.0
 10
15.5655465601
 20
11.4770879791
 30
0.0
 10
15.5473792924
 20
11.4621179229
 30
0.0
 10
15.5270787187
 20
11.4487647894
 30
0.0
 10
15.5048092878
 20
11.4370555725
 30
0.0
 10
15.4807196409
 20
11.4270139714
 30
0.0
 10
15.4549588592
 20
11.4186583895
 30
0.0
 10
15.427677655
 20
11.4120108103
 30
0.0
 10
15.3990351795
 20
11.4070818265
 30
0.0
 10
15.3691975401
 20
11.403885895
 30
0.0
 10
15.3383408386
 20
11.4024276724
 30
0.0
 10
15.3066492733
 20
11.4027044441
 30
0.0
 10
15.274315987
 20
11.404712718
 30
0.0
 10
15.2415394138
 20
11.4084281701
 30
0.0
 10
15.2085237672
 20
11.4138310285
 30
0.0
 10
15.1643713257
 20
11.4232485043
 30
0.0
 10
15.1099483896
 20
11.4389523491
 30
0.0
 10
15.0471457404
 20
11.4636084899
 30
0.0
 10
14.9976211354
 20
11.4887603723
 30
0.0
 10
14.9605610687
 20
11.5113475798
 30
0.0
 10
14.9345423113
 20
11.5291889667
 30
0.0
 10
14.9102247497
 20
11.5479747072
 30
0.0
 10
14.8877555993
 20
11.5675955605
 30
0.0
 10
14.8672761618
 20
11.587953379
 30
0.0
 10
14.8489111195
 20
11.6089501566
 30
0.0
 10
14.8327889102
 20
11.6304835176
 30
0.0
 10
14.8234340977
 20
11.6454030375
 30
0.0
 10
14.8191942801
 20
11.6529135689
 30
0.0
  0
SPLINE
  5
322
100
AcDbEntity
  8
0
100
AcDbSpline
 62
7
  6
CONTINUOUS
 70
0
 71
3
 72
14
 73
10
 74
0
 42
0.0000001
 43
0.0000001
 44
0.0000000001
 40
0.0
 40
0.0
 40
0.0
 40
0.0
 40
0.2645184422
 40
0.3920802959
 40
0.5169879926
 40
0.6396593358
 40
0.760611405
 40
0.8804844551
 40
1.0
 40
1.0
 40
1.0
 40
1.0
 10
14.8119774004
 20
11.6665926272
 30
0.0
 10
14.806488453
 20
11.677777926
 30
0.0
 10
14.7995309091
 20
11.6949989256
 30
0.0
 10
14.7934024495
 20
11.7185924278
 30
0.0
 10
14.7905319785
 20
11.7360553164
 30
0.0
 10
14.78936823
 20
11.7534027562
 30
0.0
 10
14.7899534541
 20
11.7705453071
 30
0.0
 10
14.7923062152
 20
11.787384838
 30
0.0
 10
14.7950547355
 20
11.7983471055
 30
0.0
 10
14.7967168293
 20
11.803725643
 30
0.0
  0
SPLINE
  5
323
100
AcDbEntity
  8
0
100
AcDbSpline
 62
7
  6
CONTINUOUS
 70
0
 71
3
 72
13
 73
9
 74
0
 42
0.0000001
 43
0.0000001
 44
0.0000000001
 40
0.0
 40
0.0
 40
0.0
 40
0.0
 40
0.271250176
 40
0.5252143101
 40
0.646990839
 40
0.766151688
 40
0.8835250665
 40
1.0
 40
1.0
 40
1.0
 40
1.0
 10
16.855770823
 20
11.5850576131
 30
0.0
 10
16.8580436846
 20
11.5804260082
 30
0.0
 10
16.8618125432
 20
11.5711247438
 30
0.0
 10
16.8644588882
 20
11.5590314792
 30
0.0
 10
16.8651007311
 20
11.5496261254
 30
0.0
 10
16.8648758659
 20
11.5428022322
 30
0.0
 10
16.8639513413
 20
11.5361397296
 30
0.0
 10
16.8628667675
 20
11.5318155393
 30
0.0
 10
16.862212211
 20
11.5296990692
 30
0.0
  0
SPLINE
  5
324
100
AcDbEntity
  8
0
100
AcDbSpline
 62
7
  6
CONTINUOUS
 70
0
 71
3
 72
35
 73
31
 74
0
 42
0.0000001
 43
0.0000001
 44
0.0000000001
 40
0.0
 40
0.0
 40
0.0
 40
0.0
 40
0.0214529083
 40
0.0432013495
 40
0.0655223175
 40
0.0886559055
 40
0.1128006746
 40
0.1381015247
 40
0.1646565509
 40
0.1925206722
 40
0.2521437279
 40
0.2838695545
 40
0.3167597842
 40
0.3507151765
 40
0.3856133478
 40
0.4213208754
 40
0.4576897164
 40
0.5317522143
 40
0.6064939926
 40
0.643702229
 40
0.6805679656
 40
0.716926481
 40
0.7526227595
 40
0.7875083634
 40
0.8214487498
 40
0.8859918615
 40
0.9164548024
 40
0.9456301994
 40
0.9734843118
 40
1.0
 40
1.0
 40
1.0
 40
1.0
 10
14.9599344024
 20
11.731834316
 30
0.0
 10
14.9611016177
 20
11.7356100391
 30
0.0
 10
14.9640076728
 20
11.7430539972
 30
0.0
 10
14.9699772448
 20
11.7535886932
 30
0.0
 10
14.9775233464
 20
11.7634498848
 30
0.0
 10
14.9865790146
 20
11.7725725679
 30
0.0
 10
14.9970826082
 20
11.7808922165
 30
0.0
 10
15.0089531114
 20
11.7883622081
 30
0.0
 10
15.0221110363
 20
11.7949345075
 30
0.0
 10
15.0416901384
 20
11.8026129888
 30
0.0
 10
15.0630634825
 20
11.8080709447
 30
0.0
 10
15.0857011846
 20
11.8114986349
 30
0.0
 10
15.1038040264
 20
11.813078823
 30
0.0
 10
15.1225496481
 20
11.8136004959
 30
0.0
 10
15.1418138273
 20
11.8130667325
 30
0.0
 10
15.1614652799
 20
11.8114750251
 30
0.0
 10
15.1881635134
 20
11.8079408364
 30
0.0
 10
15.2216118738
 20
11.8009614145
 30
0.0
 10
15.2543993914
 20
11.7908172732
 30
0.0
 10
15.2799548878
 20
11.780869473
 30
0.0
 10
15.2985441256
 20
11.772584177
 30
0.0
 10
15.3164530087
 20
11.7635167054
 30
0.0
 10
15.333562578
 20
11.7537339035
 30
0.0
 10
15.34975587
 20
11.7432963126
 30
0.0
 10
15.3696390249
 20
11.728850783
 30
0.0
 10
15.3876337051
 20
11.713226194
 30
0.0
 10
15.403269499
 20
11.6965045263
 30
0.0
 10
15.4133810872
 20
11.6839311531
 30
0.0
 10
15.422029775
 20
11.6711798498
 30
0.0
 10
15.4269011933
 20
11.6624081535
 30
0.0
 10
15.4290531031
 20
11.6580230222
 30
0.0
  0
SPLINE
  5
325
100
AcDbEntity
  8
0
100
AcDbSpline
 62
7
  6
CONTINUOUS
 70
0
 71
3
 72
20
 73
16
 74
0
 42
0.0000001
 43
0.0000001
 44
0.0000000001
 40
0.0
 40
0.0
 40
0.0
 40
0.0
 40
0.1248910622
 40
0.1874119329
 40
0.2499280089
 40
0.3124422064
 40
0.3749639876
 40
0.4998978546
 40
0.5624319841
 40
0.6249657285
 40
0.6874924613
 40
0.7500181379
 40
0.8125487278
 40
0.8750834822
 40
1.0
 40
1.0
 40
1.0
 40
1.0
 10
14.9053122825
 20
12.8366120034
 30
0.0
 10
14.8990849629
 20
12.8394932435
 30
0.0
 10
14.8900934723
 20
12.8446539512
 30
0.0
 10
14.8791906144
 20
12.8530218561
 30
0.0
 10
14.8716031645
 20
12.860015561
 30
0.0
 10
14.8646758522
 20
12.8676636215
 30
0.0
 10
14.8564114647
 20
12.878649978
 30
0.0
 10
14.8496786012
 20
12.8907257214
 30
0.0
 10
14.8446914674
 20
12.903538993
 30
0.0
 10
14.8418332628
 20
12.9134569181
 30
0.0
 10
14.8398889454
 20
12.9235922637
 30
0.0
 10
14.8388701222
 20
12.933861414
 30
0.0
 10
14.8387744045
 20
12.944182241
 30
0.0
 10
14.8398786777
 20
12.9578844465
 30
0.0
 10
14.8420689271
 20
12.9680186318
 30
0.0
 10
14.8440951986
 20
12.9745756487
 30
0.0
  0
SPLINE
  5
326
100
AcDbEntity
  8
0
100
AcDbSpline
 62
7
  6
CONTINUOUS
 70
0
 71
3
 72
33
 73
29
 74
0
 42
0.0000001
 43
0.0000001
 44
0.0000000001
 40
0.0
 40
0.0
 40
0.0
 40
0.0
 40
0.0623654367
 40
0.09361474
 40
0.1248895066
 40
0.1561983663
 40
0.1875403207
 40
0.2502502054
 40
0.3130036796
 40
0.3443915674
 40
0.3757511683
 40
0.4070749763
 40
0.4383631209
 40
0.469618964
 40
0.5008547268
 40
0.5632055358
 40
0.6255146498
 40
0.6567178111
 40
0.6879257032
 40
0.7191328158
 40
0.7503406194
 40
0.7815508696
 40
0.8127667895
 40
0.8439852478
 40
0.8752058935
 40
0.9064307062
 40
0.937656522
 40
1.0
 40
1.0
 40
1.0
 40
1.0
 10
14.8440951986
 20
12.9745756487
 30
0.0
 10
14.8463849337
 20
12.9819852343
 30
0.0
 10
14.8509305581
 20
12.9928053538
 30
0.0
 10
14.8589196579
 20
13.0061405209
 30
0.0
 10
14.8658323683
 20
13.015563135
 30
0.0
 10
14.8735818631
 20
13.024323567
 30
0.0
 10
14.8849335577
 20
13.0350337254
 30
0.0
 10
14.9008508904
 20
13.046481048
 30
0.0
 10
14.9185169224
 20
13.0549931241
 30
0.0
 10
14.9333549205
 20
13.0598834621
 30
0.0
 10
14.9447591377
 20
13.0625588805
 30
0.0
 10
14.9563430364
 20
13.0642111626
 30
0.0
 10
14.9680163251
 20
13.0648100845
 30
0.0
 10
14.9796860761
 20
13.0643395687
 30
0.0
 10
14.9950904215
 20
13.0622655346
 30
0.0
 10
15.0138658444
 20
13.0569494587
 30
0.0
 10
15.0312470412
 20
13.0480661356
 30
0.0
 10
15.0438573504
 20
13.0389994266
 30
0.0
 10
15.0525936074
 20
13.0312733609
 30
0.0
 10
15.0604941859
 20
13.0226946308
 30
0.0
 10
15.067475896
 20
13.013352135
 30
0.0
 10
15.073461278
 20
13.0033405243
 30
0.0
 10
15.0783833501
 20
12.9927643047
 30
0.0
 10
15.0821963569
 20
12.9817379367
 30
0.0
 10
15.0848507625
 20
12.9703764378
 30
0.0
 10
15.0863349711
 20
12.9588011117
 30
0.0
 10
15.0867315324
 20
12.9432691834
 30
0.0
 10
15.0852568092
 20
12.9316240938
 30
0.0
 10
15.0835268285
 20
12.9240670001
 30
0.0
  0
SPLINE
  5
327
100
AcDbEntity
  8
0
100
AcDbSpline
 62
7
  6
CONTINUOUS
 70
0
 71
3
 72
34
 73
30
 74
0
 42
0.0000001
 43
0.0000001
 44
0.0000000001
 40
0.0
 40
0.0
 40
0.0
 40
0.0
 40
0.0214528316
 40
0.0432017136
 40
0.0655230697
 40
0.088657523
 40
0.1128007278
 40
0.1381026575
 40
0.1646578718
 40
0.1925210173
 40
0.2217060995
 40
0.2521868842
 40
0.2839135169
 40
0.3168055856
 40
0.3856331802
 40
0.4576868769
 40
0.494560516
 40
0.531773091
 40
0.6065163585
 40
0.6805685507
 40
0.7169285072
 40
0.7526259095
 40
0.7875126152
 40
0.8214540516
 40
0.8543255954
 40
0.8860290611
 40
0.9456334694
 40
0.9734882694
 40
1.0
 40
1.0
 40
1.0
 40
1.0
 10
13.8984629834
 20
12.9613373396
 30
0.0
 10
13.8993387139
 20
12.9641689628
 30
0.0
 10
13.9015197108
 20
12.9697512134
 30
0.0
 10
13.9059950244
 20
12.9776530923
 30
0.0
 10
13.9116547607
 20
12.9850491657
 30
0.0
 10
13.9184475156
 20
12.991889678
 30
0.0
 10
13.9263231625
 20
12.9981317626
 30
0.0
 10
13.9352275013
 20
13.0037318795
 30
0.0
 10
13.9450949062
 20
13.0086614986
 30
0.0
 10
13.9558606277
 20
13.0128855977
 30
0.0
 10
13.9674513769
 20
13.016377031
 30
0.0
 10
13.9797879817
 20
13.019118099
 30
0.0
 10
13.9927887304
 20
13.0210853619
 30
0.0
 10
14.0111663449
 20
13.0226879678
 30
0.0
 10
14.0352295267
 20
13.022624527
 30
0.0
 10
14.0596889299
 20
13.0199792532
 30
0.0
 10
14.0795568807
 20
13.0163452944
 30
0.0
 10
14.0995897226
 20
13.0116775933
 30
0.0
 10
14.1241783064
 20
13.0040672174
 30
0.0
 10
14.147834327
 20
12.9942200813
 30
0.0
 10
14.1658513724
 20
12.9850997453
 30
0.0
 10
14.1786841202
 20
12.9777622241
 30
0.0
 10
14.1908278078
 20
12.9699333989
 30
0.0
 10
14.2022023994
 20
12.9616718446
 30
0.0
 10
14.212730588
 20
12.9530296504
 30
0.0
 10
14.2252798103
 20
12.9413211074
 30
0.0
 10
14.2361868104
 20
12.9288894342
 30
0.0
 10
14.2450348807
 20
12.9158454773
 30
0.0
 10
14.2486885835
 20
12.9092670903
 30
0.0
 10
14.2503022441
 20
12.9059787957
 30
0.0
  0
SPLINE
  5
328
100
AcDbEntity
  8
0
100
AcDbSpline
 62
7
  6
CONTINUOUS
 70
0
 71
3
 72
41
 73
37
 74
0
 42
0.0000001
 43
0.0000001
 44
0.0000000001
 40
0.0
 40
0.0
 40
0.0
 40
0.0
 40
0.0107128541
 40
0.0214630377
 40
0.0322873145
 40
0.0432213123
 40
0.0655396465
 40
0.0886713857
 40
0.1128131279
 40
0.1381103409
 40
0.1646626411
 40
0.192521654
 40
0.2217015437
 40
0.2521781871
 40
0.2838998248
 40
0.3167858813
 40
0.3507362379
 40
0.3856299213
 40
0.4213326763
 40
0.4576960901
 40
0.4945634804
 40
0.531769964
 40
0.5691466753
 40
0.6065220442
 40
0.6437245127
 40
0.6805854224
 40
0.7169399709
 40
0.7526311281
 40
0.7875102174
 40
0.8214441329
 40
0.8543128134
 40
0.886014629
 40
0.9164686563
 40
0.9456302784
 40
0.9734776436
 40
1.0
 40
1.0
 40
1.0
 40
1.0
 10
14.5701306433
 20
12.1204587505
 30
0.0
 10
14.571848859
 20
12.1260193908
 30
0.0
 10
14.5756967416
 20
12.1370393468
 30
0.0
 10
14.5826622923
 20
12.1531534158
 30
0.0
 10
14.5908133593
 20
12.1688384322
 30
0.0
 10
14.6033240865
 20
12.1892755343
 30
0.0
 10
14.6219979305
 20
12.2136836149
 30
0.0
 10
14.6487018091
 20
12.2405800047
 30
0.0
 10
14.6796726095
 20
12.2651152524
 30
0.0
 10
14.7146754902
 20
12.2871432723
 30
0.0
 10
14.7534750881
 20
12.3065162146
 30
0.0
 10
14.7958006114
 20
12.3231257399
 30
0.0
 10
14.8413703679
 20
12.3368544631
 30
0.0
 10
14.889873885
 20
12.3476270733
 30
0.0
 10
14.9409861744
 20
12.3553619763
 30
0.0
 10
14.9943608543
 20
12.3600204482
 30
0.0
 10
15.0496373118
 20
12.3615608623
 30
0.0
 10
15.1064411902
 20
12.3599842804
 30
0.0
 10
15.1643863531
 20
12.3552912336
 30
0.0
 10
15.2230804106
 20
12.3475239879
 30
0.0
 10
15.282122769
 20
12.3367254653
 30
0.0
 10
15.3411138515
 20
12.3229788554
 30
0.0
 10
15.3996499231
 20
12.3063681195
 30
0.0
 10
15.4573353569
 20
12.2870157612
 30
0.0
 10
15.5137745797
 20
12.2650441213
 30
0.0
 10
15.5685870823
 20
12.240611824
 30
0.0
 10
15.6213959297
 20
12.2138757557
 30
0.0
 10
15.6718461874
 20
12.185027425
 30
0.0
 10
15.7195903394
 20
12.1542535046
 30
0.0
 10
15.7643096939
 20
12.1217706176
 30
0.0
 10
15.8056947057
 20
12.0877894453
 30
0.0
 10
15.8434718698
 20
12.0525498014
 30
0.0
 10
15.877379287
 20
12.0162781667
 30
0.0
 10
15.9071949854
 20
11.979217288
 30
0.0
 10
15.9326970513
 20
11.9416182275
 30
0.0
 10
15.9470600576
 20
11.9157480912
 30
0.0
 10
15.9534078347
 20
11.9028126814
 30
0.0
  0
SPLINE
  5
329
100
AcDbEntity
  8
0
100
AcDbSpline
 62
7
  6
CONTINUOUS
 70
0
 71
3
 72
34
 73
30
 74
0
 42
0.0000001
 43
0.0000001
 44
0.0000000001
 40
0.0
 40
0.0
 40
0.0
 40
0.0
 40
0.0214528316
 40
0.0432017136
 40
0.0655230697
 40
0.088657523
 40
0.1128007278
 40
0.1381026575
 40
0.1646578718
 40
0.1925210173
 40
0.2217060995
 40
0.2521868842
 40
0.2839135169
 40
0.3168055856
 40
0.3856331802
 40
0.4576868769
 40
0.494560516
 40
0.531773091
 40
0.6065163585
 40
0.6805685507
 40
0.7169285072
 40
0.7526259095
 40
0.7875126152
 40
0.8214540516
 40
0.8543255954
 40
0.8860290611
 40
0.9456334694
 40
0.9734882694
 40
1.0
 40
1.0
 40
1.0
 40
1.0
 10
15.8557175956
 20
12.9613373396
 30
0.0
 10
15.8565933262
 20
12.9641689628
 30
0.0
 10
15.8587743231
 20
12.9697512134
 30
0.0
 10
15.8632496367
 20
12.9776530923
 30
0.0
 10
15.8689093729
 20
12.9850491657
 30
0.0
 10
15.8757021279
 20
12.991889678
 30
0.0
 10
15.8835777747
 20
12.9981317626
 30
0.0
 10
15.8924821136
 20
13.0037318795
 30
0.0
 10
15.9023495185
 20
13.0086614986
 30
0.0
 10
15.9131152399
 20
13.0128855977
 30
0.0
 10
15.9247059891
 20
13.016377031
 30
0.0
 10
15.937042594
 20
13.019118099
 30
0.0
 10
15.9500433427
 20
13.0210853619
 30
0.0
 10
15.9684209572
 20
13.0226879678
 30
0.0
 10
15.9924841389
 20
13.022624527
 30
0.0
 10
16.0169435421
 20
13.0199792532
 30
0.0
 10
16.036811493
 20
13.0163452944
 30
0.0
 10
16.0568443349
 20
13.0116775933
 30
0.0
 10
16.0814329186
 20
13.0040672174
 30
0.0
 10
16.1050889392
 20
12.9942200813
 30
0.0
 10
16.1231059846
 20
12.9850997453
 30
0.0
 10
16.1359387324
 20
12.9777622241
 30
0.0
 10
16.1480824201
 20
12.9699333989
 30
0.0
 10
16.1594570116
 20
12.9616718446
 30
0.0
 10
16.1699852003
 20
12.9530296504
 30
0.0
 10
16.1825344226
 20
12.9413211074
 30
0.0
 10
16.1934414226
 20
12.9288894342
 30
0.0
 10
16.202289493
 20
12.9158454773
 30
0.0
 10
16.2059431958
 20
12.9092670903
 30
0.0
 10
16.2075568564
 20
12.9059787957
 30
0.0
  0
SPLINE
  5
32A
100
AcDbEntity
  8
0
100
AcDbSpline
 62
7
  6
CONTINUOUS
 70
0
 71
3
 72
13
 73
9
 74
0
 42
0.0000001
 43
0.0000001
 44
0.0000000001
 40
0.0
 40
0.0
 40
0.0
 40
0.0
 40
0.271250176
 40
0.5252143101
 40
0.646990839
 40
0.766151688
 40
0.8835250665
 40
1.0
 40
1.0
 40
1.0
 40
1.0
 10
16.2075568564
 20
12.9059787957
 30
0.0
 10
16.209829718
 20
12.9013471908
 30
0.0
 10
16.2135985766
 20
12.8920459263
 30
0.0
 10
16.2162449216
 20
12.8799526617
 30
0.0
 10
16.2168867646
 20
12.870547308
 30
0.0
 10
16.2166618993
 20
12.8637234148
 30
0.0
 10
16.2157373747
 20
12.8570609122
 30
0.0
 10
16.2146528009
 20
12.8527367219
 30
0.0
 10
16.2139982444
 20
12.8506202518
 30
0.0
  0
SPLINE
  5
32B
100
AcDbEntity
  8
0
100
AcDbSpline
 62
7
  6
CONTINUOUS
 70
0
 71
3
 72
12
 73
8
 74
0
 42
0.0000001
 43
0.0000001
 44
0.0000000001
 40
0.0
 40
0.0
 40
0.0
 40
0.0
 40
0.1054683003
 40
0.217901427
 40
0.4610457657
 40
0.7240201317
 40
1.0
 40
1.0
 40
1.0
 40
1.0
 10
14.9954536179
 20
11.7451718081
 30
0.0
 10
14.9950178834
 20
11.7461720229
 30
0.0
 10
14.994215878
 20
11.7482821327
 30
0.0
 10
14.9928752582
 20
11.7528629274
 30
0.0
 10
14.9917346373
 20
11.7591779504
 30
0.0
 10
14.991155051
 20
11.7672583135
 30
0.0
 10
14.9912371258
 20
11.7728397402
 30
0.0
 10
14.9913797229
 20
11.775691022
 30
0.0
  0
SPLINE
  5
32C
100
AcDbEntity
  8
0
100
AcDbSpline
 62
7
  6
CONTINUOUS
 70
0
 71
3
 72
35
 73
31
 74
0
 42
0.0000001
 43
0.0000001
 44
0.0000000001
 40
0.0
 40
0.0
 40
0.0
 40
0.0
 40
0.0243736974
 40
0.0488124924
 40
0.0735399831
 40
0.0987188802
 40
0.1244566955
 40
0.15088234
 40
0.1781216991
 40
0.2062617131
 40
0.2353626834
 40
0.2654531198
 40
0.2965279087
 40
0.3285583373
 40
0.3614878245
 40
0.3952356099
 40
0.4297059127
 40
0.4647820965
 40
0.5003385743
 40
0.5362381291
 40
0.6084671975
 40
0.6803114659
 40
0.7506222465
 40
0.7848866736
 40
0.8183983963
 40
0.8510638607
 40
0.8828128204
 40
0.9135930773
 40
0.9433839435
 40
1.0
 40
1.0
 40
1.0
 40
1.0
 10
14.3153713335
 20
11.7513207148
 30
0.0
 10
14.3130314821
 20
11.743748953
 30
0.0
 10
14.3093917124
 20
11.7282397529
 30
0.0
 10
14.3071381964
 20
11.7043656726
 30
0.0
 10
14.3080639375
 20
11.6801426673
 30
0.0
 10
14.3120469888
 20
11.6558122397
 30
0.0
 10
14.3189737498
 20
11.6315824969
 30
0.0
 10
14.3287118516
 20
11.6076228354
 30
0.0
 10
14.3411079682
 20
11.5840455208
 30
0.0
 10
14.3560297471
 20
11.5609435286
 30
0.0
 10
14.3733520776
 20
11.5384069743
 30
0.0
 10
14.3929503027
 20
11.5165252478
 30
0.0
 10
14.414693922
 20
11.4953875408
 30
0.0
 10
14.4384490072
 20
11.4750903775
 30
0.0
 10
14.4640691093
 20
11.4557298379
 30
0.0
 10
14.4913980733
 20
11.4374040715
 30
0.0
 10
14.5202705943
 20
11.4202160709
 30
0.0
 10
14.5505053908
 20
11.4042567876
 30
0.0
 10
14.5819179675
 20
11.3896247306
 30
0.0
 10
14.6251858351
 20
11.3719635494
 30
0.0
 10
14.6808954725
 20
11.3537419112
 30
0.0
 10
14.7489881032
 20
11.3383742834
 30
0.0
 10
14.8060087919
 20
11.3312070431
 30
0.0
 10
14.8508768761
 20
11.3291154585
 30
0.0
 10
14.8835517425
 20
11.3293709208
 30
0.0
 10
14.9153429776
 20
11.3314510615
 30
0.0
 10
14.9460677777
 20
11.3353552316
 30
0.0
 10
14.9755603206
 20
11.3410902092
 30
0.0
 10
15.0123698132
 20
11.3509932718
 30
0.0
 10
15.0386641875
 20
11.3613737489
 30
0.0
 10
15.0550713938
 20
11.3697211814
 30
0.0
  0
SPLINE
  5
32D
100
AcDbEntity
  8
0
100
AcDbSpline
 62
7
  6
CONTINUOUS
 70
0
 71
3
 72
34
 73
30
 74
0
 42
0.0000001
 43
0.0000001
 44
0.0000000001
 40
0.0
 40
0.0
 40
0.0
 40
0.0
 40
0.0214528316
 40
0.0432017136
 40
0.0655230697
 40
0.088657523
 40
0.1128007278
 40
0.1381026575
 40
0.1646578718
 40
0.1925210173
 40
0.2217060995
 40
0.2521868842
 40
0.2839135169
 40
0.3168055856
 40
0.3856331802
 40
0.4576868769
 40
0.494560516
 40
0.531773091
 40
0.6065163585
 40
0.6805685507
 40
0.7169285072
 40
0.7526259095
 40
0.7875126152
 40
0.8214540516
 40
0.8543255954
 40
0.8860290611
 40
0.9456334694
 40
0.9734882694
 40
1.0
 40
1.0
 40
1.0
 40
1.0
 10
16.5039315622
 20
11.640416157
 30
0.0
 10
16.5048072928
 20
11.6432477802
 30
0.0
 10
16.5069882897
 20
11.6488300309
 30
0.0
 10
16.5114636032
 20
11.6567319098
 30
0.0
 10
16.5171233395
 20
11.6641279831
 30
0.0
 10
16.5239160945
 20
11.6709684955
 30
0.0
 10
16.5317917413
 20
11.67721058
 30
0.0
 10
16.5406960802
 20
11.6828106969
 30
0.0
 10
16.5505634851
 20
11.687740316
 30
0.0
 10
16.5613292065
 20
11.6919644152
 30
0.0
 10
16.5729199557
 20
11.6954558485
 30
0.0
 10
16.5852565606
 20
11.6981969165
 30
0.0
 10
16.5982573093
 20
11.7001641793
 30
0.0
 10
16.6166349238
 20
11.7017667852
 30
0.0
 10
16.6406981055
 20
11.7017033445
 30
0.0
 10
16.6651575087
 20
11.6990580706
 30
0.0
 10
16.6850254596
 20
11.6954241118
 30
0.0
 10
16.7050583014
 20
11.6907564107
 30
0.0
 10
16.7296468852
 20
11.6831460348
 30
0.0
 10
16.7533029058
 20
11.6732988988
 30
0.0
 10
16.7713199512
 20
11.6641785628
 30
0.0
 10
16.784152699
 20
11.6568410415
 30
0.0
 10
16.7962963867
 20
11.6490122164
 30
0.0
 10
16.8076709782
 20
11.6407506621
 30
0.0
 10
16.8181991669
 20
11.6321084678
 30
0.0
 10
16.8307483892
 20
11.6203999248
 30
0.0
 10
16.8416553892
 20
11.6079682516
 30
0.0
 10
16.8505034596
 20
11.5949242947
 30
0.0
 10
16.8541571624
 20
11.5883459077
 30
0.0
 10
16.855770823
 20
11.5850576131
 30
0.0
  0
SPLINE
  5
32E
100
AcDbEntity
  8
0
100
AcDbSpline
 62
7
  6
CONTINUOUS
 70
0
 71
3
 72
25
 73
21
 74
0
 42
0.0000001
 43
0.0000001
 44
0.0000000001
 40
0.0
 40
0.0
 40
0.0
 40
0.0
 40
0.0716921503
 40
0.1442228652
 40
0.2169374821
 40
0.2892695594
 40
0.3606381069
 40
0.4304886684
 40
0.4983396985
 40
0.5637991617
 40
0.6265823827
 40
0.6865554612
 40
0.7437377876
 40
0.7983335779
 40
0.8507131452
 40
0.9014013025
 40
0.9262804257
 40
0.9509338587
 40
0.9754672956
 40
1.0
 40
1.0
 40
1.0
 40
1.0
 10
16.4963267297
 20
11.4045073187
 30
0.0
 10
16.5110457759
 20
11.3972023305
 30
0.0
 10
16.5411874386
 20
11.3835542604
 30
0.0
 10
16.5878037585
 20
11.366152809
 30
0.0
 10
16.6356241006
 20
11.3518713311
 30
0.0
 10
16.6840352887
 20
11.3408912357
 30
0.0
 10
16.7324373154
 20
11.3333478849
 30
0.0
 10
16.780233112
 20
11.3293555636
 30
0.0
 10
16.8268438195
 20
11.3289795071
 30
0.0
 10
16.8717230927
 20
11.3322576466
 30
0.0
 10
16.9143625197
 20
11.3392067822
 30
0.0
 10
16.9542912735
 20
11.349827762
 30
0.0
 10
16.9910660438
 20
11.3641257967
 30
0.0
 10
17.0242481122
 20
11.3821032206
 30
0.0
 10
17.0533487226
 20
11.4037565245
 30
0.0
 10
17.0738447416
 20
11.4249501913
 30
0.0
 10
17.0874787579
 20
11.4434716317
 30
0.0
 10
17.0962412978
 20
11.4580423757
 30
0.0
 10
17.1035401631
 20
11.4733086814
 30
0.0
 10
17.1073906827
 20
11.4838977235
 30
0.0
 10
17.1090508518
 20
11.4892700328
 30
0.0
  0
SPLINE
  5
32F
100
AcDbEntity
  8
0
100
AcDbSpline
 62
7
  6
CONTINUOUS
 70
0
 71
3
 72
14
 73
10
 74
0
 42
0.0000001
 43
0.0000001
 44
0.0000000001
 40
0.0
 40
0.0
 40
0.0
 40
0.0
 40
0.2712185191
 40
0.4002572478
 40
0.5253428378
 40
0.6470740861
 40
0.76620033
 40
0.8835470708
 40
1.0
 40
1.0
 40
1.0
 40
1.0
 10
15.4290531031
 20
11.6580230222
 30
0.0
 10
15.4320840301
 20
11.6518466423
 30
0.0
 10
15.4359170043
 20
11.6423828419
 30
0.0
 10
15.4392925417
 20
11.6294771758
 30
0.0
 10
15.4408592577
 20
11.6200575364
 30
0.0
 10
15.4414928406
 20
11.6107813888
 30
0.0
 10
15.4411935621
 20
11.6016833876
 30
0.0
 10
15.43996015
 20
11.5927997959
 30
0.0
 10
15.4385137761
 20
11.5870340034
 30
0.0
 10
15.4376413068
 20
11.5842117283
 30
0.0
  0
SPLINE
  5
330
100
AcDbEntity
  8
0
100
AcDbSpline
 62
7
  6
CONTINUOUS
 70
0
 71
3
 72
11
 73
7
 74
0
 42
0.0000001
 43
0.0000001
 44
0.0000000001
 40
0.0
 40
0.0
 40
0.0
 40
0.0
 40
0.2541849679
 40
0.5047432443
 40
0.7529096472
 40
1.0
 40
1.0
 40
1.0
 40
1.0
 10
16.4191555827
 20
12.7277709579
 30
0.0
 10
16.4244160081
 20
12.7330791256
 30
0.0
 10
16.4343014019
 20
12.7441964325
 30
0.0
 10
16.4470161754
 20
12.7623788754
 30
0.0
 10
16.4573377179
 20
12.7817862093
 30
0.0
 10
16.4625243086
 20
12.7954410832
 30
0.0
 10
16.4646691668
 20
12.8023818467
 30
0.0
  0
SPLINE
  5
331
100
AcDbEntity
  8
0
100
AcDbSpline
 62
7
  6
CONTINUOUS
 70
0
 71
3
 72
43
 73
39
 74
0
 42
0.0000001
 43
0.0000001
 44
0.0000000001
 40
0.0
 40
0.0
 40
0.0
 40
0.0
 40
0.0113897749
 40
0.0227993424
 40
0.0342612209
 40
0.0458065555
 40
0.0574638869
 40
0.0692583329
 40
0.0812121413
 40
0.0933465004
 40
0.1182336652
 40
0.1440774592
 40
0.1709867984
 40
0.1990323512
 40
0.228247651
 40
0.2586324346
 40
0.2901537643
 40
0.3227516987
 40
0.3563419391
 40
0.3908193798
 40
0.426062387
 40
0.4619344042
 40
0.4982889257
 40
0.5349703974
 40
0.5718186605
 40
0.608670228
 40
0.6453621073
 40
0.6817333145
 40
0.7176288808
 40
0.7529008424
 40
0.7874131451
 40
0.821042546
 40
0.8536845394
 40
0.8852528292
 40
0.9156835094
 40
0.9449485511
 40
0.9730531043
 40
1.0
 40
1.0
 40
1.0
 40
1.0
 10
16.2693939793
 20
11.629671906
 30
0.0
 10
16.2668303391
 20
11.6213759634
 30
0.0
 10
16.2611020394
 20
11.6049473795
 30
0.0
 10
16.2507630975
 20
11.5809390991
 30
0.0
 10
16.2387072752
 20
11.5576107027
 30
0.0
 10
16.2249640755
 20
11.5350145561
 30
0.0
 10
16.2095754882
 20
11.5131952131
 30
0.0
 10
16.1925911627
 20
11.4921931657
 30
0.0
 10
16.1740568038
 20
11.4720487079
 30
0.0
 10
16.1471171527
 20
11.4461692494
 30
0.0
 10
16.1096402749
 20
11.4161148693
 30
0.0
 10
16.0596453722
 20
11.3842417792
 30
0.0
 10
16.0046198842
 20
11.3563549611
 30
0.0
 10
15.9449445041
 20
11.3325584012
 30
0.0
 10
15.8810058805
 20
11.3129270332
 30
0.0
 10
15.8132055688
 20
11.2975336529
 30
0.0
 10
15.7419675848
 20
11.2864326276
 30
0.0
 10
15.6677394032
 20
11.2796652636
 30
0.0
 10
15.5909919843
 20
11.2772551902
 30
0.0
 10
15.5122175882
 20
11.279198637
 30
0.0
 10
15.4319275137
 20
11.2854777785
 30
0.0
 10
15.3506462331
 20
11.296036709
 30
0.0
 10
15.2689106798
 20
11.3108074487
 30
0.0
 10
15.1872611324
 20
11.3296821199
 30
0.0
 10
15.1062419456
 20
11.3525377411
 30
0.0
 10
15.026392509
 20
11.3792188152
 30
0.0
 10
14.948245604
 20
11.4095478765
 30
0.0
 10
14.8723231271
 20
11.4433273475
 30
0.0
 10
14.7991284879
 20
11.4803317322
 30
0.0
 10
14.7291501175
 20
11.5203275807
 30
0.0
 10
14.6628470789
 20
11.5630527862
 30
0.0
 10
14.6006584572
 20
11.6082453278
 30
0.0
 10
14.5429898345
 20
11.6556237605
 30
0.0
 10
14.4902223244
 20
11.704905764
 30
0.0
 10
14.4426989007
 20
11.7558014859
 30
0.0
 10
14.400735933
 20
11.8080374734
 30
0.0
 10
14.3646452628
 20
11.8613153294
 30
0.0
 10
14.3442553419
 20
11.8980819158
 30
0.0
 10
14.3352052572
 20
11.9165240495
 30
0.0
  0
SPLINE
  5
332
100
AcDbEntity
  8
0
100
AcDbSpline
 62
7
  6
CONTINUOUS
 70
0
 71
3
 72
16
 73
12
 74
0
 42
0.0000001
 43
0.0000001
 44
0.0000000001
 40
0.0
 40
0.0
 40
0.0
 40
0.0
 40
0.1353141898
 40
0.2667791675
 40
0.3947170388
 40
0.4575200791
 40
0.5196259555
 40
0.641999557
 40
0.7624212982
 40
0.8815087517
 40
1.0
 40
1.0
 40
1.0
 40
1.0
 10
14.3352052572
 20
11.9165240495
 30
0.0
 10
14.3286073886
 20
11.9299690921
 30
0.0
 10
14.3165633501
 20
11.9569660606
 30
0.0
 10
14.3019752309
 20
11.9981948078
 30
0.0
 10
14.2929776719
 20
12.0327561328
 30
0.0
 10
14.2877991292
 20
12.0602672681
 30
0.0
 10
14.2839992262
 20
12.0873802152
 30
0.0
 10
14.2817277758
 20
12.1211092306
 30
0.0
 10
14.2830751964
 20
12.1612106612
 30
0.0
 10
14.28855679
 20
12.2005253897
 30
0.0
 10
14.2949664054
 20
12.2260895456
 30
0.0
 10
14.298838488
 20
12.2386196097
 30
0.0
  0
SPLINE
  5
333
100
AcDbEntity
  8
0
100
AcDbSpline
 62
7
  6
CONTINUOUS
 70
0
 71
3
 72
23
 73
19
 74
0
 42
0.0000001
 43
0.0000001
 44
0.0000000001
 40
0.0
 40
0.0
 40
0.0
 40
0.0
 40
0.0525516844
 40
0.1052475003
 40
0.1585555017
 40
0.2128123624
 40
0.2682459561
 40
0.325139506
 40
0.383754678
 40
0.4442789097
 40
0.5068478222
 40
0.5715264662
 40
0.6383058052
 40
0.7071278001
 40
0.7778896715
 40
0.8504541442
 40
0.924601511
 40
1.0
 40
1.0
 40
1.0
 40
1.0
 10
13.6709896484
 20
13.0644325288
 30
0.0
 10
13.6686743231
 20
13.0569401334
 30
0.0
 10
13.6650616668
 20
13.0415967631
 30
0.0
 10
13.6627820371
 20
13.017979419
 30
0.0
 10
13.6636167549
 20
12.9940136305
 30
0.0
 10
13.6674482537
 20
12.9699359893
 30
0.0
 10
13.6741713246
 20
12.9459505817
 30
0.0
 10
13.6836530763
 20
12.9222218638
 30
0.0
 10
13.6957458763
 20
12.898859797
 30
0.0
 10
13.7103223566
 20
12.8759568487
 30
0.0
 10
13.7272611614
 20
12.8536006471
 30
0.0
 10
13.746440691
 20
12.8318775966
 30
0.0
 10
13.7677335068
 20
12.8108743354
 30
0.0
 10
13.7910106596
 20
12.790683331
 30
0.0
 10
13.8161360236
 20
12.7713948639
 30
0.0
 10
13.8429644804
 20
12.7531066495
 30
0.0
 10
13.8713220957
 20
12.7359212625
 30
0.0
 10
13.8909812985
 20
12.7253379391
 30
0.0
 10
13.9010165746
 20
12.720250252
 30
0.0
  0
SPLINE
  5
334
100
AcDbEntity
  8
0
100
AcDbSpline
 62
7
  6
CONTINUOUS
 70
0
 71
3
 72
21
 73
17
 74
0
 42
0.0000001
 43
0.0000001
 44
0.0000000001
 40
0.0
 40
0.0
 40
0.0
 40
0.0
 40
0.0496592731
 40
0.0997735852
 40
0.1507776556
 40
0.2030715014
 40
0.2569996081
 40
0.3128503785
 40
0.3708525176
 40
0.4311694205
 40
0.4939138873
 40
0.5591357442
 40
0.696919345
 40
0.8442184805
 40
0.9211632914
 40
1.0
 40
1.0
 40
1.0
 40
1.0
 10
13.7520827084
 20
13.3268467841
 30
0.0
 10
13.7537652641
 20
13.3322933758
 30
0.0
 10
13.7577967001
 20
13.3430471344
 30
0.0
 10
13.7657375102
 20
13.3584673506
 30
0.0
 10
13.7755407038
 20
13.373141728
 30
0.0
 10
13.7871613216
 20
13.3869953969
 30
0.0
 10
13.8005360711
 20
13.3999721392
 30
0.0
 10
13.8156035158
 20
13.4120132915
 30
0.0
 10
13.8322937965
 20
13.4230657544
 30
0.0
 10
13.8505278086
 20
13.4330874294
 30
0.0
 10
13.8702265156
 20
13.4420298437
 30
0.0
 10
13.898842892
 20
13.4526616613
 30
0.0
 10
13.937847059
 20
13.4628865515
 30
0.0
 10
13.979055227
 20
13.4688487018
 30
0.0
 10
14.0137718645
 20
13.471278417
 30
0.0
 10
14.0316581334
 20
13.4716807479
 30
0.0
 10
14.0407080682
 20
13.4716807479
 30
0.0
  0
SPLINE
  5
335
100
AcDbEntity
  8
0
100
AcDbSpline
 62
7
  6
CONTINUOUS
 70
0
 71
3
 72
12
 73
8
 74
0
 42
0.0000001
 43
0.0000001
 44
0.0000000001
 40
0.0
 40
0.0
 40
0.0
 40
0.0
 40
0.1117142723
 40
0.2313509479
 40
0.4859124681
 40
0.7475559756
 40
1.0
 40
1.0
 40
1.0
 40
1.0
 10
15.0178539545
 20
11.7569752219
 30
0.0
 10
15.0182576258
 20
11.7582815028
 30
0.0
 10
15.01898139
 20
11.7610220854
 30
0.0
 10
15.0201122752
 20
11.7668637234
 30
0.0
 10
15.0208845899
 20
11.7746263221
 30
0.0
 10
15.0208251513
 20
11.7840479314
 30
0.0
 10
15.0201198474
 20
11.7903168713
 30
0.0
 10
15.0195782364
 20
11.7933585998
 30
0.0
  0
SPLINE
  5
336
100
AcDbEntity
  8
0
100
AcDbSpline
 62
7
  6
CONTINUOUS
 70
0
 71
3
 72
11
 73
7
 74
0
 42
0.0000001
 43
0.0000001
 44
0.0000000001
 40
0.0
 40
0.0
 40
0.0
 40
0.0
 40
0.264032958
 40
0.5170354114
 40
0.7609789184
 40
1.0
 40
1.0
 40
1.0
 40
1.0
 10
15.0577787887
 20
12.0552778872
 30
0.0
 10
15.0572500935
 20
12.0535670289
 30
0.0
 10
15.0564783602
 20
12.050126947
 30
0.0
 10
15.0562393875
 20
12.0449428137
 30
0.0
 10
15.0569777898
 20
12.0399740187
 30
0.0
 10
15.0581162105
 20
12.0368734334
 30
0.0
 10
15.058830373
 20
12.0354181716
 30
0.0
  0
SPLINE
  5
337
100
AcDbEntity
  8
0
100
AcDbSpline
 62
7
  6
CONTINUOUS
 70
0
 71
3
 72
10
 73
6
 74
0
 42
0.0000001
 43
0.0000001
 44
0.0000000001
 40
0.0
 40
0.0
 40
0.0
 40
0.0
 40
0.236698025
 40
0.4823295516
 40
1.0
 40
1.0
 40
1.0
 40
1.0
 10
14.7503270969
 20
11.9419790269
 30
0.0
 10
14.7540615003
 20
11.934369113
 30
0.0
 10
14.7622604265
 20
11.9191444674
 30
0.0
 10
14.7813714057
 20
11.8888347365
 30
0.0
 10
14.7981842295
 20
11.8671684522
 30
0.0
 10
14.8103202404
 20
11.8531534356
 30
0.0
  0
SPLINE
  5
338
100
AcDbEntity
  8
0
100
AcDbSpline
 62
7
  6
CONTINUOUS
 70
0
 71
3
 72
18
 73
14
 74
0
 42
0.0000001
 43
0.0000001
 44
0.0000000001
 40
0.0
 40
0.0
 40
0.0
 40
0.0
 40
0.1476744923
 40
0.2878087027
 40
0.4205208496
 40
0.5462469233
 40
0.6657450621
 40
0.7235349871
 40
0.7802175273
 40
0.8359863003
 40
0.8910544031
 40
0.9456471227
 40
1.0
 40
1.0
 40
1.0
 40
1.0
 10
15.6285032084
 20
11.5996804687
 30
0.0
 10
15.6421165423
 20
11.6032356907
 30
0.0
 10
15.668382762
 20
11.6112529784
 30
0.0
 10
15.7055194721
 20
11.6264518555
 30
0.0
 10
15.7390650546
 20
11.6444114105
 30
0.0
 10
15.76872678
 20
11.6649761642
 30
0.0
 10
15.7902256434
 20
11.6843897959
 30
0.0
 10
15.8050972319
 20
11.7010185604
 30
0.0
 10
15.8150032549
 20
11.7138819461
 30
0.0
 10
15.8237586539
 20
11.7272456421
 30
0.0
 10
15.8313469612
 20
11.7410793447
 30
0.0
 10
15.8377502215
 20
11.755351533
 30
0.0
 10
15.8412203851
 20
11.7651486799
 30
0.0
 10
15.8427488459
 20
11.7700965305
 30
0.0
  0
SPLINE
  5
339
100
AcDbEntity
  8
0
100
AcDbSpline
 62
7
  6
CONTINUOUS
 70
0
 71
3
 72
14
 73
10
 74
0
 42
0.0000001
 43
0.0000001
 44
0.0000000001
 40
0.0
 40
0.0
 40
0.0
 40
0.0
 40
0.2688280969
 40
0.3972614163
 40
0.5222407434
 40
0.6443270478
 40
0.7641691117
 40
0.8824742989
 40
1.0
 40
1.0
 40
1.0
 40
1.0
 10
15.6502426547
 20
11.6689646975
 30
0.0
 10
15.6603368058
 20
11.6753049768
 30
0.0
 10
15.67464513
 20
11.6857355635
 30
0.0
 10
15.6915541886
 20
11.7015877337
 30
0.0
 10
15.7026948987
 20
11.7139922273
 30
0.0
 10
15.7124387497
 20
11.7270493306
 30
0.0
 10
15.7207573754
 20
11.7407146209
 30
0.0
 10
15.7276190846
 20
11.7549417757
 30
0.0
 10
15.7312079768
 20
11.7647856273
 30
0.0
 10
15.732746123
 20
11.769764702
 30
0.0
  0
SPLINE
  5
33A
100
AcDbEntity
  8
0
100
AcDbSpline
 62
7
  6
CONTINUOUS
 70
0
 71
3
 72
15
 73
11
 74
0
 42
0.0000001
 43
0.0000001
 44
0.0000000001
 40
0.0
 40
0.0
 40
0.0
 40
0.0
 40
0.1380668637
 40
0.2714437769
 40
0.4004206394
 40
0.5254349051
 40
0.6471241725
 40
0.7662277493
 40
0.8835640388
 40
1.0
 40
1.0
 40
1.0
 40
1.0
 10
15.834850013
 20
11.9811453724
 30
0.0
 10
15.8384437467
 20
11.9738221131
 30
0.0
 10
15.8449882575
 20
11.9591601177
 30
0.0
 10
15.8529011451
 20
11.9368373356
 30
0.0
 10
15.8586980675
 20
11.9146655962
 30
0.0
 10
15.8623404365
 20
11.8927369211
 30
0.0
 10
15.8638186881
 20
11.8711391606
 30
0.0
 10
15.8631208973
 20
11.8499527721
 30
0.0
 10
15.8602463043
 20
11.8292648723
 30
0.0
 10
15.8568827563
 20
11.8158358456
 30
0.0
 10
15.8548522552
 20
11.8092628482
 30
0.0
  0
SPLINE
  5
33B
100
AcDbEntity
  8
0
100
AcDbSpline
 62
7
  6
CONTINUOUS
 70
0
 71
3
 72
13
 73
9
 74
0
 42
0.0000001
 43
0.0000001
 44
0.0000000001
 40
0.0
 40
0.0
 40
0.0
 40
0.0
 40
0.271250176
 40
0.5252143101
 40
0.646990839
 40
0.766151688
 40
0.8835250665
 40
1.0
 40
1.0
 40
1.0
 40
1.0
 10
13.9049043714
 20
12.9059787957
 30
0.0
 10
13.9026315098
 20
12.9106104006
 30
0.0
 10
13.8988626512
 20
12.919911665
 30
0.0
 10
13.8962163062
 20
12.9320049296
 30
0.0
 10
13.8955744632
 20
12.9414102834
 30
0.0
 10
13.8957993285
 20
12.9482341766
 30
0.0
 10
13.8967238531
 20
12.9548966792
 30
0.0
 10
13.8978084269
 20
12.9592208695
 30
0.0
 10
13.8984629834
 20
12.9613373396
 30
0.0
  0
SPLINE
  5
33C
100
AcDbEntity
  8
0
100
AcDbSpline
 62
7
  6
CONTINUOUS
 70
0
 71
3
 72
13
 73
9
 74
0
 42
0.0000001
 43
0.0000001
 44
0.0000000001
 40
0.0
 40
0.0
 40
0.0
 40
0.0
 40
0.271250176
 40
0.5252143101
 40
0.646990839
 40
0.766151688
 40
0.8835250665
 40
1.0
 40
1.0
 40
1.0
 40
1.0
 10
16.5103729502
 20
11.5850576131
 30
0.0
 10
16.5081000887
 20
11.5896892181
 30
0.0
 10
16.5043312301
 20
11.5989904825
 30
0.0
 10
16.5016848851
 20
11.6110837471
 30
0.0
 10
16.5010430421
 20
11.6204891008
 30
0.0
 10
16.5012679073
 20
11.627312994
 30
0.0
 10
16.502192432
 20
11.6339754966
 30
0.0
 10
16.5032770057
 20
11.6382996869
 30
0.0
 10
16.5039315622
 20
11.640416157
 30
0.0
  0
SPLINE
  5
33D
100
AcDbEntity
  8
0
100
AcDbSpline
 62
7
  6
CONTINUOUS
 70
0
 71
3
 72
11
 73
7
 74
0
 42
0.0000001
 43
0.0000001
 44
0.0000000001
 40
0.0
 40
0.0
 40
0.0
 40
0.0
 40
0.2518292436
 40
0.5033511836
 40
0.7531900245
 40
1.0
 40
1.0
 40
1.0
 40
1.0
 10
14.1801397667
 20
13.30973414
 30
0.0
 10
14.1929071507
 20
13.3063205028
 30
0.0
 10
14.2182557322
 20
13.298840534
 30
0.0
 10
14.2555623257
 20
13.2857285878
 30
0.0
 10
14.2919003535
 20
13.2708119156
 30
0.0
 10
14.3154732184
 20
13.2596582308
 30
0.0
 10
14.3270258095
 20
13.253801295
 30
0.0
  0
SPLINE
  5
33E
100
AcDbEntity
  8
0
100
AcDbSpline
 62
7
  6
CONTINUOUS
 70
0
 71
3
 72
11
 73
7
 74
0
 42
0.0000001
 43
0.0000001
 44
0.0000000001
 40
0.0
 40
0.0
 40
0.0
 40
0.0
 40
0.2313442037
 40
0.4743558691
 40
0.7303385616
 40
1.0
 40
1.0
 40
1.0
 40
1.0
 10
15.694649371
 20
13.253801295
 30
0.0
 10
15.7005378236
 20
13.2597431897
 30
0.0
 10
15.7134576413
 20
13.2711102297
 30
0.0
 10
15.7353026826
 20
13.2860488684
 30
0.0
 10
15.759871302
 20
13.299151344
 30
0.0
 10
15.7774724691
 20
13.3064110567
 30
0.0
 10
15.7866397065
 20
13.30973414
 30
0.0
  0
SPLINE
  5
33F
100
AcDbEntity
  8
0
100
AcDbSpline
 62
7
  6
CONTINUOUS
 70
0
 71
3
 72
37
 73
33
 74
0
 42
0.0000001
 43
0.0000001
 44
0.0000000001
 40
0.0
 40
0.0
 40
0.0
 40
0.0
 40
0.0214515128
 40
0.0431989397
 40
0.0655183175
 40
0.0886522309
 40
0.1127949569
 40
0.1380947207
 40
0.1512144353
 40
0.1646557474
 40
0.1925172677
 40
0.2216992491
 40
0.2521783642
 40
0.2839027575
 40
0.3167914455
 40
0.3507449725
 40
0.3856416826
 40
0.4213477123
 40
0.4577145944
 40
0.494585253
 40
0.5317954228
 40
0.6065333273
 40
0.6805815911
 40
0.7526094657
 40
0.7874929287
 40
0.8214302893
 40
0.8543021086
 40
0.8860044483
 40
0.9164613971
 40
0.9456287748
 40
0.9734796711
 40
1.0
 40
1.0
 40
1.0
 40
1.0
 10
14.8687329134
 20
12.0367649822
 30
0.0
 10
14.8707259814
 20
12.0432167838
 30
0.0
 10
14.8756919906
 20
12.0559362299
 30
0.0
 10
14.8858959347
 20
12.0739337381
 30
0.0
 10
14.8987848334
 20
12.0907876815
 30
0.0
 10
14.9142636014
 20
12.1063703645
 30
0.0
 10
14.9322058835
 20
12.1205909766
 30
0.0
 10
14.948907242
 20
12.1310974853
 30
0.0
 10
14.9633260449
 20
12.1387631
 30
0.0
 10
14.9788179586
 20
12.1460899413
 30
0.0
 10
14.999500776
 20
12.1542037366
 30
0.0
 10
15.0259053783
 20
12.1621604659
 30
0.0
 10
15.0540120395
 20
12.1684022925
 30
0.0
 10
15.0836298385
 20
12.1728845643
 30
0.0
 10
15.1145588952
 20
12.1755845777
 30
0.0
 10
15.1465899864
 20
12.1764765831
 30
0.0
 10
15.1795062939
 20
12.1755637515
 30
0.0
 10
15.2130839978
 20
12.1728438744
 30
0.0
 10
15.2470954584
 20
12.1683429773
 30
0.0
 10
15.281309822
 20
12.1620860592
 30
0.0
 10
15.3269471421
 20
12.1514491049
 30
0.0
 10
15.3829710365
 20
12.1341122992
 30
0.0
 10
15.4472328903
 20
12.1073579498
 30
0.0
 10
15.4975254327
 20
12.0803766786
 30
0.0
 10
15.5348102399
 20
12.0563495496
 30
0.0
 10
15.5607229329
 20
12.0375233712
 30
0.0
 10
15.5847052192
 20
12.0178343702
 30
0.0
 10
15.6065951606
 20
11.9974138235
 30
0.0
 10
15.6262441626
 20
11.9763955563
 30
0.0
 10
15.6435214958
 20
11.9549179524
 30
0.0
 10
15.658298624
 20
11.9331300883
 30
0.0
 10
15.6666218398
 20
11.918140417
 30
0.0
 10
15.6702995898
 20
11.9106459505
 30
0.0
  0
SPLINE
  5
340
100
AcDbEntity
  8
0
100
AcDbSpline
 62
7
  6
CONTINUOUS
 70
0
 71
3
 72
15
 73
11
 74
0
 42
0.0000001
 43
0.0000001
 44
0.0000000001
 40
0.0
 40
0.0
 40
0.0
 40
0.0
 40
0.1089932449
 40
0.1664749402
 40
0.2254830861
 40
0.3472219292
 40
0.4096562247
 40
0.4729457319
 40
0.7328167791
 40
1.0
 40
1.0
 40
1.0
 40
1.0
 10
15.7866397065
 20
13.30973414
 30
0.0
 10
15.7926653447
 20
13.3119184074
 30
0.0
 10
15.8018139814
 20
13.3154049052
 30
0.0
 10
15.8141733813
 20
13.3202063751
 30
0.0
 10
15.8272329158
 20
13.3252759502
 30
0.0
 10
15.8405891902
 20
13.3303860416
 30
0.0
 10
15.8542321917
 20
13.3354490437
 30
0.0
 10
15.87555767
 20
13.3431543515
 30
0.0
 10
15.9085017117
 20
13.3541395177
 30
0.0
 10
15.9384229975
 20
13.3623133042
 30
0.0
 10
15.9537123151
 20
13.3659316151
 30
0.0
  0
SPLINE
  5
341
100
AcDbEntity
  8
0
100
AcDbSpline
 62
7
  6
CONTINUOUS
 70
0
 71
3
 72
35
 73
31
 74
0
 42
0.0000001
 43
0.0000001
 44
0.0000000001
 40
0.0
 40
0.0
 40
0.0
 40
0.0
 40
0.0214529083
 40
0.0432013495
 40
0.0655223175
 40
0.0886559055
 40
0.1128006746
 40
0.1381015247
 40
0.1646565509
 40
0.1925206722
 40
0.2521437279
 40
0.2838695545
 40
0.3167597842
 40
0.3507151765
 40
0.3856133478
 40
0.4213208754
 40
0.4576897164
 40
0.5317522143
 40
0.6064939926
 40
0.643702229
 40
0.6805679656
 40
0.716926481
 40
0.7526227595
 40
0.7875083634
 40
0.8214487498
 40
0.8859918615
 40
0.9164548024
 40
0.9456301994
 40
0.9734843118
 40
1.0
 40
1.0
 40
1.0
 40
1.0
 10
15.4376413068
 20
11.5842117283
 30
0.0
 10
15.4364740916
 20
11.5804360052
 30
0.0
 10
15.4335680365
 20
11.5729920471
 30
0.0
 10
15.4275984645
 20
11.5624573512
 30
0.0
 10
15.4200523629
 20
11.5525961595
 30
0.0
 10
15.4109966946
 20
11.5434734764
 30
0.0
 10
15.400493101
 20
11.5351538279
 30
0.0
 10
15.3886225979
 20
11.5276838363
 30
0.0
 10
15.375464673
 20
11.5211115368
 30
0.0
 10
15.3558855709
 20
11.5134330555
 30
0.0
 10
15.3345122267
 20
11.5079750997
 30
0.0
 10
15.3118745246
 20
11.5045474095
 30
0.0
 10
15.2937716829
 20
11.5029672214
 30
0.0
 10
15.2750260612
 20
11.5024455484
 30
0.0
 10
15.2557618819
 20
11.5029793119
 30
0.0
 10
15.2361104294
 20
11.5045710193
 30
0.0
 10
15.2094121959
 20
11.5081052079
 30
0.0
 10
15.1759638355
 20
11.5150846299
 30
0.0
 10
15.1431763179
 20
11.5252287712
 30
0.0
 10
15.1176208214
 20
11.5351765714
 30
0.0
 10
15.0990315837
 20
11.5434618673
 30
0.0
 10
15.0811227006
 20
11.5525293389
 30
0.0
 10
15.0640131313
 20
11.5623121408
 30
0.0
 10
15.0478198393
 20
11.5727497317
 30
0.0
 10
15.0279366843
 20
11.5871952614
 30
0.0
 10
15.0099420042
 20
11.6028198504
 30
0.0
 10
14.9943062103
 20
11.619541518
 30
0.0
 10
14.9841946221
 20
11.6321148912
 30
0.0
 10
14.9755459343
 20
11.6448661945
 30
0.0
 10
14.970674516
 20
11.6536378909
 30
0.0
 10
14.9685226061
 20
11.6580230222
 30
0.0
  0
SPLINE
  5
342
100
AcDbEntity
  8
0
100
AcDbSpline
 62
7
  6
CONTINUOUS
 70
0
 71
3
 72
18
 73
14
 74
0
 42
0.0000001
 43
0.0000001
 44
0.0000000001
 40
0.0
 40
0.0
 40
0.0
 40
0.0
 40
0.114823786
 40
0.2328115519
 40
0.3538821016
 40
0.4779318918
 40
0.5410372883
 40
0.6048382193
 40
0.669307058
 40
0.7344164557
 40
0.8001403556
 40
0.8664031232
 40
1.0
 40
1.0
 40
1.0
 40
1.0
 10
14.0080291146
 20
13.3659316151
 30
0.0
 10
14.014708415
 20
13.3640801078
 30
0.0
 10
14.0281927419
 20
13.360114189
 30
0.0
 10
14.0485401835
 20
13.3536063238
 30
0.0
 10
14.0693010227
 20
13.3465751014
 30
0.0
 10
14.0868638156
 20
13.3404334573
 30
0.0
 10
14.1011525135
 20
13.3354022505
 30
0.0
 10
14.11205006
 20
13.3315689523
 30
0.0
 10
14.1230731394
 20
13.3277280099
 30
0.0
 10
14.1342268487
 20
13.3239096871
 30
0.0
 10
14.1455124045
 20
13.3201425696
 30
0.0
 10
14.1607738239
 20
13.3152337079
 30
0.0
 10
14.1723490487
 20
13.3118171575
 30
0.0
 10
14.1801397667
 20
13.30973414
 30
0.0
  0
SPLINE
  5
343
100
AcDbEntity
  8
0
100
AcDbSpline
 62
7
  6
CONTINUOUS
 70
0
 71
3
 72
34
 73
30
 74
0
 42
0.0000001
 43
0.0000001
 44
0.0000000001
 40
0.0
 40
0.0
 40
0.0
 40
0.0
 40
0.0214528316
 40
0.0432017136
 40
0.0655230697
 40
0.088657523
 40
0.1128007278
 40
0.1381026575
 40
0.1646578718
 40
0.1925210173
 40
0.2217060995
 40
0.2521868842
 40
0.2839135169
 40
0.3168055856
 40
0.3856331802
 40
0.4576868769
 40
0.494560516
 40
0.531773091
 40
0.6065163585
 40
0.6805685507
 40
0.7169285072
 40
0.7526259095
 40
0.7875126152
 40
0.8214540516
 40
0.8543255954
 40
0.8860290611
 40
0.9456334694
 40
0.9734882694
 40
1.0
 40
1.0
 40
1.0
 40
1.0
 10
14.2567436322
 20
12.8506202518
 30
0.0
 10
14.2558679016
 20
12.8477886286
 30
0.0
 10
14.2536869047
 20
12.8422063779
 30
0.0
 10
14.2492115911
 20
12.834304499
 30
0.0
 10
14.2435518549
 20
12.8269084257
 30
0.0
 10
14.2367590999
 20
12.8200679133
 30
0.0
 10
14.2288834531
 20
12.8138258288
 30
0.0
 10
14.2199791142
 20
12.8082257119
 30
0.0
 10
14.2101117093
 20
12.8032960928
 30
0.0
 10
14.1993459879
 20
12.7990719937
 30
0.0
 10
14.1877552387
 20
12.7955805603
 30
0.0
 10
14.1754186338
 20
12.7928394923
 30
0.0
 10
14.1624178851
 20
12.7908722295
 30
0.0
 10
14.1440402706
 20
12.7892696236
 30
0.0
 10
14.1199770889
 20
12.7893330643
 30
0.0
 10
14.0955176857
 20
12.7919783382
 30
0.0
 10
14.0756497348
 20
12.795612297
 30
0.0
 10
14.0556168929
 20
12.8002799981
 30
0.0
 10
14.0310283092
 20
12.807890374
 30
0.0
 10
14.0073722886
 20
12.81773751
 30
0.0
 10
13.9893552432
 20
12.826857846
 30
0.0
 10
13.9765224954
 20
12.8341953673
 30
0.0
 10
13.9643788077
 20
12.8420241925
 30
0.0
 10
13.9530042162
 20
12.8502857467
 30
0.0
 10
13.9424760275
 20
12.858927941
 30
0.0
 10
13.9299268052
 20
12.870636484
 30
0.0
 10
13.9190198052
 20
12.8830681572
 30
0.0
 10
13.9101717348
 20
12.8961121141
 30
0.0
 10
13.906518032
 20
12.9026905011
 30
0.0
 10
13.9049043714
 20
12.9059787957
 30
0.0
  0
SPLINE
  5
344
100
AcDbEntity
  8
0
100
AcDbSpline
 62
7
  6
CONTINUOUS
 70
0
 71
3
 72
14
 73
10
 74
0
 42
0.0000001
 43
0.0000001
 44
0.0000000001
 40
0.0
 40
0.0
 40
0.0
 40
0.0
 40
0.1161857652
 40
0.2340204001
 40
0.354007732
 40
0.4766093634
 40
0.6022410298
 40
0.7312347004
 40
1.0
 40
1.0
 40
1.0
 40
1.0
 10
14.5855225879
 20
12.1582662078
 30
0.0
 10
14.5846070557
 20
12.1512406064
 30
0.0
 10
14.5833667741
 20
12.1370040089
 30
0.0
 10
14.5832868991
 20
12.1153938994
 30
0.0
 10
14.5849738763
 20
12.0934568765
 30
0.0
 10
14.5884200831
 20
12.0712475999
 30
0.0
 10
14.5936204751
 20
12.0488182397
 30
0.0
 10
14.6029980861
 20
12.0182908081
 30
0.0
 10
14.6124457735
 20
11.9958585636
 30
0.0
 10
14.619665959
 20
11.9811453724
 30
0.0
  0
SPLINE
  5
345
100
AcDbEntity
  8
0
100
AcDbSpline
 62
7
  6
CONTINUOUS
 70
0
 71
3
 72
10
 73
6
 74
0
 42
0.0000001
 43
0.0000001
 44
0.0000000001
 40
0.0
 40
0.0
 40
0.0
 40
0.0
 40
0.5422528939
 40
0.7826806837
 40
1.0
 40
1.0
 40
1.0
 40
1.0
 10
15.4593607481
 20
13.0142147013
 30
0.0
 10
15.4608922385
 20
13.0164302087
 30
0.0
 10
15.4631993528
 20
13.0195651843
 30
0.0
 10
15.4663946272
 20
13.0233694849
 30
0.0
 10
15.4679424545
 20
13.0250368412
 30
0.0
 10
15.4687022515
 20
13.0258035339
 30
0.0
  0
SPLINE
  5
346
100
AcDbEntity
  8
0
100
AcDbSpline
 62
7
  6
CONTINUOUS
 70
0
 71
3
 72
34
 73
30
 74
0
 42
0.0000001
 43
0.0000001
 44
0.0000000001
 40
0.0
 40
0.0
 40
0.0
 40
0.0
 40
0.0214528316
 40
0.0432017136
 40
0.0655230697
 40
0.088657523
 40
0.1128007278
 40
0.1381026575
 40
0.1646578718
 40
0.1925210173
 40
0.2217060995
 40
0.2521868842
 40
0.2839135169
 40
0.3168055856
 40
0.3856331802
 40
0.4576868769
 40
0.494560516
 40
0.531773091
 40
0.6065163585
 40
0.6805685507
 40
0.7169285072
 40
0.7526259095
 40
0.7875126152
 40
0.8214540516
 40
0.8543255954
 40
0.8860290611
 40
0.9456334694
 40
0.9734882694
 40
1.0
 40
1.0
 40
1.0
 40
1.0
 10
16.2139982444
 20
12.8506202518
 30
0.0
 10
16.2131225139
 20
12.8477886286
 30
0.0
 10
16.210941517
 20
12.8422063779
 30
0.0
 10
16.2064662034
 20
12.834304499
 30
0.0
 10
16.2008064671
 20
12.8269084257
 30
0.0
 10
16.1940137122
 20
12.8200679133
 30
0.0
 10
16.1861380653
 20
12.8138258288
 30
0.0
 10
16.1772337265
 20
12.8082257119
 30
0.0
 10
16.1673663216
 20
12.8032960928
 30
0.0
 10
16.1566006001
 20
12.7990719937
 30
0.0
 10
16.1450098509
 20
12.7955805603
 30
0.0
 10
16.1326732461
 20
12.7928394923
 30
0.0
 10
16.1196724974
 20
12.7908722295
 30
0.0
 10
16.1012948829
 20
12.7892696236
 30
0.0
 10
16.0772317011
 20
12.7893330643
 30
0.0
 10
16.0527722979
 20
12.7919783382
 30
0.0
 10
16.0329043471
 20
12.795612297
 30
0.0
 10
16.0128715052
 20
12.8002799981
 30
0.0
 10
15.9882829214
 20
12.807890374
 30
0.0
 10
15.9646269008
 20
12.81773751
 30
0.0
 10
15.9466098554
 20
12.826857846
 30
0.0
 10
15.9337771076
 20
12.8341953673
 30
0.0
 10
15.92163342
 20
12.8420241925
 30
0.0
 10
15.9102588284
 20
12.8502857467
 30
0.0
 10
15.8997306398
 20
12.858927941
 30
0.0
 10
15.8871814175
 20
12.870636484
 30
0.0
 10
15.8762744174
 20
12.8830681572
 30
0.0
 10
15.8674263471
 20
12.8961121141
 30
0.0
 10
15.8637726443
 20
12.9026905011
 30
0.0
 10
15.8621589837
 20
12.9059787957
 30
0.0
  0
SPLINE
  5
347
100
AcDbEntity
  8
0
100
AcDbSpline
 62
7
  6
CONTINUOUS
 70
0
 71
3
 72
13
 73
9
 74
0
 42
0.0000001
 43
0.0000001
 44
0.0000000001
 40
0.0
 40
0.0
 40
0.0
 40
0.0
 40
0.2494397472
 40
0.5053213636
 40
0.6334921942
 40
0.7601138879
 40
0.8834162315
 40
1.0
 40
1.0
 40
1.0
 40
1.0
 10
15.4160854553
 20
12.9799790583
 30
0.0
 10
15.4202303938
 20
12.98203865
 30
0.0
 10
15.428425797
 20
12.9866259412
 30
0.0
 10
15.4381265479
 20
12.9932986342
 30
0.0
 10
15.4454974412
 20
12.9992601094
 30
0.0
 10
15.4506828647
 20
13.0039937264
 30
0.0
 10
15.4553641665
 20
13.0089350926
 30
0.0
 10
15.4581306656
 20
13.012435221
 30
0.0
 10
15.4593607481
 20
13.0142147013
 30
0.0
  0
SPLINE
  5
348
100
AcDbEntity
  8
0
100
AcDbSpline
 62
7
  6
CONTINUOUS
 70
0
 71
3
 72
23
 73
19
 74
0
 42
0.0000001
 43
0.0000001
 44
0.0000000001
 40
0.0
 40
0.0
 40
0.0
 40
0.0
 40
0.0593420532
 40
0.1214124422
 40
0.1858218374
 40
0.252100975
 40
0.3197370616
 40
0.3881756273
 40
0.4568454891
 40
0.5251673473
 40
0.5925702339
 40
0.6585128177
 40
0.7224859031
 40
0.7840353917
 40
0.8427749745
 40
0.8984486084
 40
0.9508896739
 40
1.0
 40
1.0
 40
1.0
 40
1.0
 10
14.8196463283
 20
11.4713684618
 30
0.0
 10
14.8136781164
 20
11.4703855349
 30
0.0
 10
14.801369357
 20
11.4689389996
 30
0.0
 10
14.7824229988
 20
11.4682635874
 30
0.0
 10
14.7627733893
 20
11.4690454447
 30
0.0
 10
14.7426650532
 20
11.4712658794
 30
0.0
 10
14.7223480752
 20
11.4749058614
 30
0.0
 10
14.7020733169
 20
11.4799117231
 30
0.0
 10
14.6820951094
 20
11.4862295209
 30
0.0
 10
14.6626594176
 20
11.4937722949
 30
0.0
 10
14.6440107366
 20
11.5024542578
 30
0.0
 10
14.6263771289
 20
11.5121603742
 30
0.0
 10
14.6099818073
 20
11.5227782866
 30
0.0
 10
14.5950227817
 20
11.5341675358
 30
0.0
 10
14.5816893215
 20
11.5461969904
 30
0.0
 10
14.5701398218
 20
11.5587185198
 30
0.0
 10
14.5605312908
 20
11.5715809275
 30
0.0
 10
14.5553235682
 20
11.5805638263
 30
0.0
 10
14.553118338
 20
11.5850576131
 30
0.0
  0
SPLINE
  5
349
100
AcDbEntity
  8
0
100
AcDbSpline
 62
7
  6
CONTINUOUS
 70
0
 71
3
 72
13
 73
9
 74
0
 42
0.0000001
 43
0.0000001
 44
0.0000000001
 40
0.0
 40
0.0
 40
0.0
 40
0.0
 40
0.271250176
 40
0.5252143101
 40
0.646990839
 40
0.766151688
 40
0.8835250665
 40
1.0
 40
1.0
 40
1.0
 40
1.0
 10
14.553118338
 20
11.5850576131
 30
0.0
 10
14.5508454764
 20
11.5896892181
 30
0.0
 10
14.5470766178
 20
11.5989904825
 30
0.0
 10
14.5444302728
 20
11.6110837471
 30
0.0
 10
14.5437884298
 20
11.6204891008
 30
0.0
 10
14.5440132951
 20
11.627312994
 30
0.0
 10
14.5449378197
 20
11.6339754966
 30
0.0
 10
14.5460223934
 20
11.6382996869
 30
0.0
 10
14.54667695
 20
11.640416157
 30
0.0
  0
SPLINE
  5
34A
100
AcDbEntity
  8
0
100
AcDbSpline
 62
7
  6
CONTINUOUS
 70
0
 71
3
 72
13
 73
9
 74
0
 42
0.0000001
 43
0.0000001
 44
0.0000000001
 40
0.0
 40
0.0
 40
0.0
 40
0.0
 40
0.271250176
 40
0.5252143101
 40
0.646990839
 40
0.766151688
 40
0.8835250665
 40
1.0
 40
1.0
 40
1.0
 40
1.0
 10
15.8621589837
 20
12.9059787957
 30
0.0
 10
15.8598861221
 20
12.9106104006
 30
0.0
 10
15.8561172635
 20
12.919911665
 30
0.0
 10
15.8534709185
 20
12.9320049296
 30
0.0
 10
15.8528290755
 20
12.9414102834
 30
0.0
 10
15.8530539408
 20
12.9482341766
 30
0.0
 10
15.8539784654
 20
12.9548966792
 30
0.0
 10
15.8550630391
 20
12.9592208695
 30
0.0
 10
15.8557175956
 20
12.9613373396
 30
0.0
  0
SPLINE
  5
34B
100
AcDbEntity
  8
0
100
AcDbSpline
 62
7
  6
CONTINUOUS
 70
0
 71
3
 72
12
 73
8
 74
0
 42
0.0000001
 43
0.0000001
 44
0.0000000001
 40
0.0
 40
0.0
 40
0.0
 40
0.0
 40
0.1942589285
 40
0.4289322474
 40
0.5602933836
 40
0.7002700262
 40
1.0
 40
1.0
 40
1.0
 40
1.0
 10
14.8242172118
 20
12.9799790583
 30
0.0
 10
14.8222158567
 20
12.9822476953
 30
0.0
 10
14.8177635511
 20
12.9872277088
 30
0.0
 10
14.811869512
 20
12.9936619319
 30
0.0
 10
14.8065142145
 20
12.999442868
 30
0.0
 10
14.8004354214
 20
13.0059346175
 30
0.0
 10
14.7956815727
 20
13.0108637038
 30
0.0
 10
14.7924321129
 20
13.0142147013
 30
0.0
  0
LINE
  5
34C
100
AcDbEntity
  8
0
100
AcDbLine
 62
7
  6
CONTINUOUS
 10
15.0053645939
 20
11.7379286669
 11
15.0031680555
 21
11.7357447008
  0
SPLINE
  5
34D
100
AcDbEntity
  8
0
100
AcDbSpline
 62
7
  6
CONTINUOUS
 70
0
 71
3
 72
38
 73
34
 74
0
 42
0.0000001
 43
0.0000001
 44
0.0000000001
 40
0.0
 40
0.0
 40
0.0
 40
0.0
 40
0.0107138576
 40
0.0214649378
 40
0.0432116507
 40
0.0655304812
 40
0.0886642561
 40
0.1128070088
 40
0.1381067698
 40
0.1512264517
 40
0.1646677128
 40
0.1925290944
 40
0.2217109146
 40
0.2521897538
 40
0.2839137987
 40
0.3168020286
 40
0.3507550053
 40
0.3856510934
 40
0.4213564091
 40
0.4577225353
 40
0.4945924001
 40
0.5318017564
 40
0.6065380672
 40
0.6805853436
 40
0.7526115297
 40
0.7874938007
 40
0.8214304267
 40
0.8543020051
 40
0.8860042118
 40
0.9164612697
 40
0.9456288847
 40
0.9734798724
 40
1.0
 40
1.0
 40
1.0
 40
1.0
 10
14.8306449171
 20
12.0828603073
 30
0.0
 10
14.8317568822
 20
12.0864598501
 30
0.0
 10
14.8342463284
 20
12.0935939192
 30
0.0
 10
14.8402781681
 20
12.1075516099
 30
0.0
 10
14.8498170724
 20
12.1243816603
 30
0.0
 10
14.8642138486
 20
12.1432050191
 30
0.0
 10
14.8815047297
 20
12.1606125736
 30
0.0
 10
14.9015472469
 20
12.1764977668
 30
0.0
 10
14.9202037939
 20
12.1882342629
 30
0.0
 10
14.936310531
 20
12.1967971962
 30
0.0
 10
14.9536159629
 20
12.2049816836
 30
0.0
 10
14.976719923
 20
12.2140452464
 30
0.0
 10
15.0062154383
 20
12.2229332405
 30
0.0
 10
15.037612146
 20
12.229905723
 30
0.0
 10
15.0706968139
 20
12.2349125124
 30
0.0
 10
15.1052461207
 20
12.2379285284
 30
0.0
 10
15.1410263771
 20
12.2389248718
 30
0.0
 10
15.1777953811
 20
12.2379051232
 30
0.0
 10
15.2153031424
 20
12.2348669105
 30
0.0
 10
15.2532953737
 20
12.2298391592
 30
0.0
 10
15.2915142434
 20
12.2228499403
 30
0.0
 10
15.3424930198
 20
12.2109680171
 30
0.0
 10
15.4050742794
 20
12.1916021566
 30
0.0
 10
15.4768575646
 20
12.1617163189
 30
0.0
 10
15.533036562
 20
12.1315773873
 30
0.0
 10
15.5746851517
 20
12.1047383238
 30
0.0
 10
15.6036306733
 20
12.0837086568
 30
0.0
 10
15.6304203936
 20
12.0617152914
 30
0.0
 10
15.6548728728
 20
12.0389043172
 30
0.0
 10
15.6768223085
 20
12.0154256333
 30
0.0
 10
15.6961223196
 20
11.9914336202
 30
0.0
 10
15.712629417
 20
11.9670951523
 30
0.0
 10
15.7219270361
 20
11.9503507731
 30
0.0
 10
15.7260352924
 20
11.9419790269
 30
0.0
  0
SPLINE
  5
34E
100
AcDbEntity
  8
0
100
AcDbSpline
 62
7
  6
CONTINUOUS
 70
0
 71
3
 72
14
 73
10
 74
0
 42
0.0000001
 43
0.0000001
 44
0.0000000001
 40
0.0
 40
0.0
 40
0.0
 40
0.0
 40
0.1115284027
 40
0.2269764756
 40
0.4694922479
 40
0.5965856371
 40
0.7274549085
 40
0.8619846339
 40
1.0
 40
1.0
 40
1.0
 40
1.0
 10
14.619665959
 20
11.9811453724
 30
0.0
 10
14.6240694172
 20
11.9721720681
 30
0.0
 10
14.6336766607
 20
11.9542201746
 30
0.0
 10
14.6558841658
 20
11.9184551169
 30
0.0
 10
14.6821650932
 20
11.8836853532
 30
0.0
 10
14.7119263887
 20
11.8501112927
 30
0.0
 10
14.7365538085
 20
11.8249722446
 30
0.0
 10
14.763052815
 20
11.8003582818
 30
0.0
 10
14.7816796273
 20
11.7845425641
 30
0.0
 10
14.7912747092
 20
11.7767364201
 30
0.0
  0
SPLINE
  5
34F
100
AcDbEntity
  8
0
100
AcDbSpline
 62
7
  6
CONTINUOUS
 70
0
 71
3
 72
18
 73
14
 74
0
 42
0.0000001
 43
0.0000001
 44
0.0000000001
 40
0.0
 40
0.0
 40
0.0
 40
0.0
 40
0.1484160159
 40
0.2902868546
 40
0.4252252248
 40
0.5530531241
 40
0.6738627059
 40
0.7317694629
 40
0.7880973001
 40
0.8429474394
 40
0.8964440951
 40
0.9487381424
 40
1.0
 40
1.0
 40
1.0
 40
1.0
 10
15.6018866285
 20
11.5261038457
 30
0.0
 10
15.6224005215
 20
11.5278130086
 30
0.0
 10
15.6624260365
 20
11.5325555144
 30
0.0
 10
15.7203415633
 20
11.5440210998
 30
0.0
 10
15.774343559
 20
11.5595813215
 30
0.0
 10
15.8239218792
 20
11.5791091377
 30
0.0
 10
15.8617054602
 20
11.5988218635
 30
0.0
 10
15.8891444152
 20
11.6164584444
 30
0.0
 10
15.9080517337
 20
11.6303608664
 30
0.0
 10
15.9255287678
 20
11.6450924755
 30
0.0
 10
15.9415314363
 20
11.6606231806
 30
0.0
 10
15.9560228781
 20
11.6769120937
 30
0.0
 10
15.964731771
 20
11.6883553631
 30
0.0
 10
15.9688073386
 20
11.6941812113
 30
0.0
  0
SPLINE
  5
350
100
AcDbEntity
  8
0
100
AcDbSpline
 62
7
  6
CONTINUOUS
 70
0
 71
3
 72
11
 73
7
 74
0
 42
0.0000001
 43
0.0000001
 44
0.0000000001
 40
0.0
 40
0.0
 40
0.0
 40
0.0
 40
0.2389677579
 40
0.4835438887
 40
0.7365605668
 40
1.0
 40
1.0
 40
1.0
 40
1.0
 10
14.8834226978
 20
12.7881844477
 30
0.0
 10
14.8818748069
 20
12.792369705
 30
0.0
 10
14.8795129318
 20
12.8011435997
 30
0.0
 10
14.8783060344
 20
12.8149089911
 30
0.0
 10
14.8794205496
 20
12.8291353322
 30
0.0
 10
14.8816376246
 20
12.8385622162
 30
0.0
 10
14.8830900329
 20
12.8432622111
 30
0.0
  0
SPLINE
  5
351
100
AcDbEntity
  8
0
100
AcDbSpline
 62
7
  6
CONTINUOUS
 70
0
 71
3
 72
10
 73
6
 74
0
 42
0.0000001
 43
0.0000001
 44
0.0000000001
 40
0.0
 40
0.0
 40
0.0
 40
0.0
 40
0.4802727836
 40
0.7358074563
 40
1.0
 40
1.0
 40
1.0
 40
1.0
 10
15.1421388611
 20
12.8432622111
 30
0.0
 10
15.1390458694
 20
12.8332532863
 30
0.0
 10
15.1320387347
 20
12.8185547657
 30
0.0
 10
15.119378984
 20
12.8007684216
 30
0.0
 10
15.1118155036
 20
12.7922840318
 30
0.0
 10
15.1077655638
 20
12.7881844477
 30
0.0
  0
SPLINE
  5
352
100
AcDbEntity
  8
0
100
AcDbSpline
 62
7
  6
CONTINUOUS
 70
0
 71
3
 72
11
 73
7
 74
0
 42
0.0000001
 43
0.0000001
 44
0.0000000001
 40
0.0
 40
0.0
 40
0.0
 40
0.0
 40
0.2389677579
 40
0.4835438887
 40
0.7365605668
 40
1.0
 40
1.0
 40
1.0
 40
1.0
 10
15.1418061962
 20
12.8983399745
 30
0.0
 10
15.1433540871
 20
12.8941547172
 30
0.0
 10
15.1457159622
 20
12.8853808226
 30
0.0
 10
15.1469228596
 20
12.8716154311
 30
0.0
 10
15.1458083444
 20
12.8573890901
 30
0.0
 10
15.1435912694
 20
12.8479622061
 30
0.0
 10
15.1421388611
 20
12.8432622111
 30
0.0
  0
SPLINE
  5
353
100
AcDbEntity
  8
0
100
AcDbSpline
 62
7
  6
CONTINUOUS
 70
0
 71
3
 72
15
 73
11
 74
0
 42
0.0000001
 43
0.0000001
 44
0.0000000001
 40
0.0
 40
0.0
 40
0.0
 40
0.0
 40
0.1233800204
 40
0.2493037552
 40
0.3766432705
 40
0.5044467167
 40
0.6316623157
 40
0.7572623295
 40
0.8803713859
 40
1.0
 40
1.0
 40
1.0
 40
1.0
 10
15.1077655638
 20
12.7881844477
 30
0.0
 10
15.1036057347
 20
12.7839736272
 30
0.0
 10
15.094746724
 20
12.7759025009
 30
0.0
 10
15.0802366853
 20
12.7650895866
 30
0.0
 10
15.0645754152
 20
12.7556050313
 30
0.0
 10
15.0480352964
 20
12.747611764
 30
0.0
 10
15.0308949596
 20
12.7412375622
 30
0.0
 10
15.0134378727
 20
12.7365949427
 30
0.0
 10
14.9959661108
 20
12.7337667162
 30
0.0
 10
14.984312897
 20
12.7331066843
 30
0.0
 10
14.9785738146
 20
12.7331066843
 30
0.0
  0
SPLINE
  5
354
100
AcDbEntity
  8
0
100
AcDbSpline
 62
7
  6
CONTINUOUS
 70
0
 71
3
 72
16
 73
12
 74
0
 42
0.0000001
 43
0.0000001
 44
0.0000000001
 40
0.0
 40
0.0
 40
0.0
 40
0.0
 40
0.1421187369
 40
0.2788546563
 40
0.4097983034
 40
0.5352159744
 40
0.6557180175
 40
0.7723297423
 40
0.8296910774
 40
0.8866569072
 40
1.0
 40
1.0
 40
1.0
 40
1.0
 10
14.9785738146
 20
12.7331066843
 30
0.0
 10
14.9730286925
 20
12.7331066843
 30
0.0
 10
14.962136683
 20
12.7337029288
 30
0.0
 10
14.9463493535
 20
12.7364756082
 30
0.0
 10
14.9316694367
 20
12.7410808173
 30
0.0
 10
14.9183552691
 20
12.7474478354
 30
0.0
 10
14.9066336722
 20
12.7554710187
 30
0.0
 10
14.8983203395
 20
12.763491607
 30
0.0
 10
14.8927158653
 20
12.7705615086
 30
0.0
 10
14.8878386324
 20
12.7779961064
 30
0.0
 10
14.8849567282
 20
12.7840366669
 30
0.0
 10
14.8834226978
 20
12.7881844477
 30
0.0
  0
SPLINE
  5
355
100
AcDbEntity
  8
0
100
AcDbSpline
 62
7
  6
CONTINUOUS
 70
0
 71
3
 72
15
 73
11
 74
0
 42
0.0000001
 43
0.0000001
 44
0.0000000001
 40
0.0
 40
0.0
 40
0.0
 40
0.0
 40
0.135268819
 40
0.2667412591
 40
0.3946953296
 40
0.5195115134
 40
0.6417413947
 40
0.7620817046
 40
0.8812786009
 40
1.0
 40
1.0
 40
1.0
 40
1.0
 10
15.0862261871
 20
12.9476527033
 30
0.0
 10
15.0894183298
 20
12.946649227
 30
0.0
 10
15.095629716
 20
12.9443898665
 30
0.0
 10
15.1044577044
 20
12.9401840829
 30
0.0
 10
15.1125990624
 20
12.9352454864
 30
0.0
 10
15.119988749
 20
12.9296075238
 30
0.0
 10
15.1265687366
 20
12.9233105282
 30
0.0
 10
15.1322894168
 20
12.9164014237
 30
0.0
 10
15.1370992386
 20
12.9089338618
 30
0.0
 10
15.139678038
 20
12.9036248913
 30
0.0
 10
15.1407998928
 20
12.9009107902
 30
0.0
  0
SPLINE
  5
356
100
AcDbEntity
  8
0
100
AcDbSpline
 62
7
  6
CONTINUOUS
 70
0
 71
3
 72
15
 73
11
 74
0
 42
0.0000001
 43
0.0000001
 44
0.0000000001
 40
0.0
 40
0.0
 40
0.0
 40
0.0
 40
0.1380797625
 40
0.2714577582
 40
0.4004239406
 40
0.5254309818
 40
0.6471192033
 40
0.7662258876
 40
0.8835648556
 40
1.0
 40
1.0
 40
1.0
 40
1.0
 10
14.5954593267
 20
11.9028126814
 30
0.0
 10
14.5909083419
 20
11.9120866133
 30
0.0
 10
14.5826206887
 20
11.9306531643
 30
0.0
 10
14.5726003225
 20
11.9589194209
 30
0.0
 10
14.5652618028
 20
11.9869935438
 30
0.0
 10
14.5606499246
 20
12.0147592237
 30
0.0
 10
14.5587773757
 20
12.0421069844
 30
0.0
 10
14.5596625105
 20
12.0689344863
 30
0.0
 10
14.5633002911
 20
12.0951310872
 30
0.0
 10
14.5675589312
 20
12.1121359501
 30
0.0
 10
14.5701306433
 20
12.1204587505
 30
0.0
  0
SPLINE
  5
357
100
AcDbEntity
  8
0
100
AcDbSpline
 62
7
  6
CONTINUOUS
 70
0
 71
3
 72
9
 73
5
 74
0
 42
0.0000001
 43
0.0000001
 44
0.0000000001
 40
0.0
 40
0.0
 40
0.0
 40
0.0
 40
0.5211777412
 40
1.0
 40
1.0
 40
1.0
 40
1.0
 10
15.0171219236
 20
11.7371075072
 30
0.0
 10
15.0162419697
 20
11.7363387413
 30
0.0
 10
15.01439636
 20
11.735028519
 30
0.0
 10
15.012275908
 20
11.7342108687
 30
0.0
 10
15.0112289179
 20
11.7339737335
 30
0.0
  0
LINE
  5
358
100
AcDbEntity
  8
0
100
AcDbLine
 62
7
  6
CONTINUOUS
 10
15.0112289179
 20
11.7339737335
 11
15.0088915027
 21
11.7337073494
  0
SPLINE
  5
359
100
AcDbEntity
  8
0
100
AcDbSpline
 62
7
  6
CONTINUOUS
 70
0
 71
3
 72
10
 73
6
 74
0
 42
0.0000001
 43
0.0000001
 44
0.0000000001
 40
0.0
 40
0.0
 40
0.0
 40
0.0
 40
0.4963583731
 40
0.7493975519
 40
1.0
 40
1.0
 40
1.0
 40
1.0
 10
15.0247034748
 20
11.7951292499
 30
0.0
 10
15.025621221
 20
11.7912903209
 30
0.0
 10
15.0267108933
 20
11.7854170899
 30
0.0
 10
15.0275383782
 20
11.7775055766
 30
0.0
 10
15.0277252274
 20
11.7735017122
 30
0.0
 10
15.0277528139
 20
11.7715090808
 30
0.0
  0
SPLINE
  5
35A
100
AcDbEntity
  8
0
100
AcDbSpline
 62
7
  6
CONTINUOUS
 70
0
 71
3
 72
22
 73
18
 74
0
 42
0.0000001
 43
0.0000001
 44
0.0000000001
 40
0.0
 40
0.0
 40
0.0
 40
0.0
 40
0.0486025064
 40
0.0984120947
 40
0.1507554827
 40
0.2064993828
 40
0.2660338762
 40
0.3292417185
 40
0.3956631571
 40
0.4645429158
 40
0.5349770169
 40
0.6059984058
 40
0.6766549772
 40
0.7460811117
 40
0.8135498199
 40
0.8785941493
 40
1.0
 40
1.0
 40
1.0
 40
1.0
 10
15.0639761774
 20
12.0249321993
 30
0.0
 10
15.0646962756
 20
12.0234647805
 30
0.0
 10
15.0665128741
 20
12.0206559292
 30
0.0
 10
15.0701890932
 20
12.0171071714
 30
0.0
 10
15.0747290548
 20
12.0142849546
 30
0.0
 10
15.0800063975
 20
12.0122257029
 30
0.0
 10
15.0858975261
 20
12.0109621313
 30
0.0
 10
15.0922609745
 20
12.010501327
 30
0.0
 10
15.0989436094
 20
12.0108551739
 30
0.0
 10
15.1057806324
 20
12.0120078625
 30
0.0
 10
15.112598743
 20
12.0139440427
 30
0.0
 10
15.1192261676
 20
12.0166209448
 30
0.0
 10
15.125489445
 20
12.0199961795
 30
0.0
 10
15.131229917
 20
12.0239947008
 30
0.0
 10
15.1362956192
 20
12.0285515902
 30
0.0
 10
15.1418357185
 20
12.0350661693
 30
0.0
 10
15.1448364049
 20
12.0407390265
 30
0.0
 10
15.1460419231
 20
12.0446400848
 30
0.0
  0
SPLINE
  5
35B
100
AcDbEntity
  8
0
100
AcDbSpline
 62
7
  6
CONTINUOUS
 70
0
 71
3
 72
23
 73
19
 74
0
 42
0.0000001
 43
0.0000001
 44
0.0000000001
 40
0.0
 40
0.0
 40
0.0
 40
0.0
 40
0.050680239
 40
0.1025050275
 40
0.1564229519
 40
0.2130853609
 40
0.2728108863
 40
0.3355732631
 40
0.4010799142
 40
0.4688004939
 40
0.5380515882
 40
0.6080413707
 40
0.6779299061
 40
0.7468765336
 40
0.8140959674
 40
0.8789925582
 40
0.9411018074
 40
1.0
 40
1.0
 40
1.0
 40
1.0
 10
15.058830373
 20
12.0354181716
 30
0.0
 10
15.0595911961
 20
12.0338678286
 30
0.0
 10
15.061488645
 20
12.0308956665
 30
0.0
 10
15.0652794242
 20
12.0270952377
 30
0.0
 10
15.0699302423
 20
12.0240310786
 30
0.0
 10
15.0753054049
 20
12.0217664806
 30
0.0
 10
15.0812710933
 20
12.0203570365
 30
0.0
 10
15.0876762856
 20
12.019820967
 30
0.0
 10
15.0943643144
 20
12.0201773614
 30
0.0
 10
15.1011712521
 20
12.0214048737
 30
0.0
 10
15.1079278049
 20
12.023481372
 30
0.0
 10
15.1144699376
 20
12.0263460121
 30
0.0
 10
15.1206314259
 20
12.0299368558
 30
0.0
 10
15.12626475
 20
12.0341552949
 30
0.0
 10
15.1312257581
 20
12.038905885
 30
0.0
 10
15.1353969993
 20
12.0440702908
 30
0.0
 10
15.1386613185
 20
12.0495234888
 30
0.0
 10
15.1402290865
 20
12.0533603576
 30
0.0
 10
15.1408216479
 20
12.0552778872
 30
0.0
  0
SPLINE
  5
35C
100
AcDbEntity
  8
0
100
AcDbSpline
 62
7
  6
CONTINUOUS
 70
0
 71
3
 72
9
 73
5
 74
0
 42
0.0000001
 43
0.0000001
 44
0.0000000001
 40
0.0
 40
0.0
 40
0.0
 40
0.0
 40
0.4895863249
 40
1.0
 40
1.0
 40
1.0
 40
1.0
 10
16.4497422091
 20
12.1739911691
 30
0.0
 10
16.4527455844
 20
12.1736985227
 30
0.0
 10
16.458826631
 20
12.1724452253
 30
0.0
 10
16.4645675119
 20
12.17010981
 30
0.0
 10
16.4673734749
 20
12.1686872421
 30
0.0
  0
SPLINE
  5
35D
100
AcDbEntity
  8
0
100
AcDbSpline
 62
7
  6
CONTINUOUS
 70
0
 71
3
 72
34
 73
30
 74
0
 42
0.0000001
 43
0.0000001
 44
0.0000000001
 40
0.0
 40
0.0
 40
0.0
 40
0.0
 40
0.0214528316
 40
0.0432017136
 40
0.0655230697
 40
0.088657523
 40
0.1128007278
 40
0.1381026575
 40
0.1646578718
 40
0.1925210173
 40
0.2217060995
 40
0.2521868842
 40
0.2839135169
 40
0.3168055856
 40
0.3856331802
 40
0.4576868769
 40
0.494560516
 40
0.531773091
 40
0.6065163585
 40
0.6805685507
 40
0.7169285072
 40
0.7526259095
 40
0.7875126152
 40
0.8214540516
 40
0.8543255954
 40
0.8860290611
 40
0.9456334694
 40
0.9734882694
 40
1.0
 40
1.0
 40
1.0
 40
1.0
 10
16.862212211
 20
11.5296990692
 30
0.0
 10
16.8613364805
 20
11.526867446
 30
0.0
 10
16.8591554835
 20
11.5212851954
 30
0.0
 10
16.85468017
 20
11.5133833165
 30
0.0
 10
16.8490204337
 20
11.5059872431
 30
0.0
 10
16.8422276788
 20
11.4991467308
 30
0.0
 10
16.8343520319
 20
11.4929046462
 30
0.0
 10
16.8254476931
 20
11.4873045293
 30
0.0
 10
16.8155802882
 20
11.4823749102
 30
0.0
 10
16.8048145667
 20
11.4781508111
 30
0.0
 10
16.7932238175
 20
11.4746593778
 30
0.0
 10
16.7808872126
 20
11.4719183098
 30
0.0
 10
16.767886464
 20
11.4699510469
 30
0.0
 10
16.7495088495
 20
11.468348441
 30
0.0
 10
16.7254456677
 20
11.4684118818
 30
0.0
 10
16.7009862645
 20
11.4710571556
 30
0.0
 10
16.6811183137
 20
11.4746911144
 30
0.0
 10
16.6610854718
 20
11.4793588155
 30
0.0
 10
16.636496888
 20
11.4869691914
 30
0.0
 10
16.6128408674
 20
11.4968163275
 30
0.0
 10
16.594823822
 20
11.5059366635
 30
0.0
 10
16.5819910742
 20
11.5132741847
 30
0.0
 10
16.5698473866
 20
11.5211030099
 30
0.0
 10
16.558472795
 20
11.5293645642
 30
0.0
 10
16.5479446064
 20
11.5380067584
 30
0.0
 10
16.535395384
 20
11.5497153014
 30
0.0
 10
16.524488384
 20
11.5621469746
 30
0.0
 10
16.5156403137
 20
11.5751909315
 30
0.0
 10
16.5119866109
 20
11.5817693185
 30
0.0
 10
16.5103729502
 20
11.5850576131
 30
0.0
  0
SPLINE
  5
35E
100
AcDbEntity
  8
0
100
AcDbSpline
 62
7
  6
CONTINUOUS
 70
0
 71
3
 72
11
 73
7
 74
0
 42
0.0000001
 43
0.0000001
 44
0.0000000001
 40
0.0
 40
0.0
 40
0.0
 40
0.0
 40
0.2595796178
 40
0.5112340885
 40
0.7569165943
 40
1.0
 40
1.0
 40
1.0
 40
1.0
 10
15.1460419231
 20
12.0446400848
 30
0.0
 10
15.1465735051
 20
12.0463602847
 30
0.0
 10
15.147337112
 20
12.0498446248
 30
0.0
 10
15.1475252804
 20
12.0551213226
 30
0.0
 10
15.1467106719
 20
12.0602244593
 30
0.0
 10
15.1455174028
 20
12.0634256969
 30
0.0
 10
15.1447746285
 20
12.0649393121
 30
0.0
  0
SPLINE
  5
35F
100
AcDbEntity
  8
0
100
AcDbSpline
 62
7
  6
CONTINUOUS
 70
0
 71
3
 72
13
 73
9
 74
0
 42
0.0000001
 43
0.0000001
 44
0.0000000001
 40
0.0
 40
0.0
 40
0.0
 40
0.0
 40
0.0831910643
 40
0.1774790101
 40
0.2832963907
 40
0.4010846353
 40
0.674849133
 40
1.0
 40
1.0
 40
1.0
 40
1.0
 10
16.4246835243
 20
12.1733222403
 30
0.0
 10
16.425360588
 20
12.1734915828
 30
0.0
 10
16.4268190127
 20
12.1737977742
 30
0.0
 10
16.4291707452
 20
12.1741482761
 30
0.0
 10
16.4318258408
 20
12.1744094812
 30
0.0
 10
16.4359933052
 20
12.1746379368
 30
0.0
 10
16.4420113519
 20
12.1746026769
 30
0.0
 10
16.447027259
 20
12.1742557117
 30
0.0
 10
16.4497422091
 20
12.1739911691
 30
0.0
  0
SPLINE
  5
360
100
AcDbEntity
  8
0
100
AcDbSpline
 62
7
  6
CONTINUOUS
 70
0
 71
3
 72
11
 73
7
 74
0
 42
0.0000001
 43
0.0000001
 44
0.0000000001
 40
0.0
 40
0.0
 40
0.0
 40
0.0
 40
0.198692438
 40
0.4296343624
 40
0.6959681533
 40
1.0
 40
1.0
 40
1.0
 40
1.0
 10
16.4196440838
 20
12.1711291004
 30
0.0
 10
16.4199258923
 20
12.1713635985
 30
0.0
 10
16.420585449
 20
12.1718107576
 30
0.0
 10
16.421738417
 20
12.1723818458
 30
0.0
 10
16.4231257327
 20
12.1728990926
 30
0.0
 10
16.4241393099
 20
12.1731861252
 30
0.0
 10
16.4246835243
 20
12.1733222403
 30
0.0
  0
SPLINE
  5
361
100
AcDbEntity
  8
0
100
AcDbSpline
 62
7
  6
CONTINUOUS
 70
0
 71
3
 72
14
 73
10
 74
0
 42
0.0000001
 43
0.0000001
 44
0.0000000001
 40
0.0
 40
0.0
 40
0.0
 40
0.0
 40
0.2712185191
 40
0.4002572478
 40
0.5253428378
 40
0.6470740861
 40
0.76620033
 40
0.8835470708
 40
1.0
 40
1.0
 40
1.0
 40
1.0
 10
14.9685226061
 20
11.6580230222
 30
0.0
 10
14.9654916791
 20
11.664199402
 30
0.0
 10
14.961658705
 20
11.6736632025
 30
0.0
 10
14.9582831676
 20
11.6865688685
 30
0.0
 10
14.9567164516
 20
11.6959885079
 30
0.0
 10
14.9560828687
 20
11.7052646555
 30
0.0
 10
14.9563821471
 20
11.7143626567
 30
0.0
 10
14.9576155593
 20
11.7232462485
 30
0.0
 10
14.9590619331
 20
11.729012041
 30
0.0
 10
14.9599344024
 20
11.731834316
 30
0.0
  0
SPLINE
  5
362
100
AcDbEntity
  8
0
100
AcDbSpline
 62
7
  6
CONTINUOUS
 70
0
 71
3
 72
15
 73
11
 74
0
 42
0.0000001
 43
0.0000001
 44
0.0000000001
 40
0.0
 40
0.0
 40
0.0
 40
0.0
 40
0.1380519799
 40
0.2714271616
 40
0.400415915
 40
0.5254404899
 40
0.6471320659
 40
0.7662327653
 40
0.883564607
 40
1.0
 40
1.0
 40
1.0
 40
1.0
 10
15.6702995898
 20
11.9106459505
 30
0.0
 10
15.6729362158
 20
11.9052730716
 30
0.0
 10
15.6777377935
 20
11.8945153637
 30
0.0
 10
15.683543383
 20
11.8781360342
 30
0.0
 10
15.6877979736
 20
11.8618668611
 30
0.0
 10
15.6904711837
 20
11.8457756166
 30
0.0
 10
15.6915551503
 20
11.829927765
 30
0.0
 10
15.6910441642
 20
11.8143823998
 30
0.0
 10
15.6889342537
 20
11.7992029692
 30
0.0
 10
15.6864654562
 20
11.7893498459
 30
0.0
 10
15.6849755745
 20
11.7845269189
 30
0.0
  0
SPLINE
  5
363
100
AcDbEntity
  8
0
100
AcDbSpline
 62
7
  6
CONTINUOUS
 70
0
 71
3
 72
11
 73
7
 74
0
 42
0.0000001
 43
0.0000001
 44
0.0000000001
 40
0.0
 40
0.0
 40
0.0
 40
0.0
 40
0.2347425311
 40
0.4781752972
 40
0.7327633557
 40
1.0
 40
1.0
 40
1.0
 40
1.0
 10
15.8511167712
 20
11.8176104612
 30
0.0
 10
15.851636265
 20
11.8276801437
 30
0.0
 10
15.8511569994
 20
11.8482974344
 30
0.0
 10
15.846069225
 20
11.8794482504
 30
0.0
 10
15.8366577432
 20
11.9110257806
 30
0.0
 10
15.8278036065
 20
11.9316741285
 30
0.0
 10
15.8227466968
 20
11.9419790269
 30
0.0
  0
SPLINE
  5
364
100
AcDbEntity
  8
0
100
AcDbSpline
 62
7
  6
CONTINUOUS
 70
0
 71
3
 72
11
 73
7
 74
0
 42
0.0000001
 43
0.0000001
 44
0.0000000001
 40
0.0
 40
0.0
 40
0.0
 40
0.0
 40
0.259919247
 40
0.514012095
 40
0.7610629278
 40
1.0
 40
1.0
 40
1.0
 40
1.0
 10
16.9170906952
 20
11.9406894811
 30
0.0
 10
16.9284434039
 20
11.9349338816
 30
0.0
 10
16.9505943795
 20
11.9229471113
 30
0.0
 10
16.9823416236
 20
11.9033860926
 30
0.0
 10
17.0120349896
 20
11.8825694665
 30
0.0
 10
17.0306413932
 20
11.8676982615
 30
0.0
 10
17.0395244998
 20
11.8600824751
 30
0.0
  0
SPLINE
  5
365
100
AcDbEntity
  8
0
100
AcDbSpline
 62
7
  6
CONTINUOUS
 70
0
 71
3
 72
17
 73
13
 74
0
 42
0.0000001
 43
0.0000001
 44
0.0000000001
 40
0.0
 40
0.0
 40
0.0
 40
0.0
 40
0.1550157145
 40
0.2289703261
 40
0.3005820508
 40
0.369899022
 40
0.4369961238
 40
0.5648238286
 40
0.684579037
 40
0.7967099002
 40
0.9016849716
 40
1.0
 40
1.0
 40
1.0
 40
1.0
 10
17.0395244998
 20
11.8600824751
 30
0.0
 10
17.0447105845
 20
11.8556362701
 30
0.0
 10
17.0525201771
 20
11.8492421451
 30
0.0
 10
17.0629536901
 20
11.8410817251
 30
0.0
 10
17.0704657656
 20
11.8353163598
 30
0.0
 10
17.0777690102
 20
11.8297756786
 30
0.0
 10
17.0870678398
 20
11.8227668162
 30
0.0
 10
17.0981404335
 20
11.8144184109
 30
0.0
 10
17.1106832066
 20
11.8047244273
 30
0.0
 10
17.1222226149
 20
11.7953827959
 30
0.0
 10
17.1327143481
 20
11.7862602314
 30
0.0
 10
17.1391874832
 20
11.7800590379
 30
0.0
 10
17.1422158484
 20
11.7769607558
 30
0.0
  0
SPLINE
  5
366
100
AcDbEntity
  8
0
100
AcDbSpline
 62
7
  6
CONTINUOUS
 70
0
 71
3
 72
22
 73
18
 74
0
 42
0.0000001
 43
0.0000001
 44
0.0000000001
 40
0.0
 40
0.0
 40
0.0
 40
0.0
 40
0.0500526897
 40
0.1005380336
 40
0.1518722929
 40
0.2044375448
 40
0.2585661911
 40
0.3145420359
 40
0.3725876667
 40
0.4328720281
 40
0.4955112452
 40
0.5605659564
 40
0.6280579868
 40
0.6979620317
 40
0.7702182036
 40
0.8447365407
 40
1.0
 40
1.0
 40
1.0
 40
1.0
 10
15.9787365181
 20
11.6851666123
 30
0.0
 10
15.9760218659
 20
11.6763812168
 30
0.0
 10
15.9695501174
 20
11.6590316205
 30
0.0
 10
15.9568797588
 20
11.634111499
 30
0.0
 10
15.9412829108
 20
11.610355118
 30
0.0
 10
15.9228357562
 20
11.5878713787
 30
0.0
 10
15.901629052
 20
11.5667485513
 30
0.0
 10
15.8777515462
 20
11.5470822811
 30
0.0
 10
15.8513152786
 20
11.5289448814
 30
0.0
 10
15.8224321076
 20
11.5124120942
 30
0.0
 10
15.791225138
 20
11.4975529994
 30
0.0
 10
15.7578296913
 20
11.4844203775
 30
0.0
 10
15.7223839649
 20
11.4730761725
 30
0.0
 10
15.6850404307
 20
11.4635602897
 30
0.0
 10
15.645954357
 20
11.4559130089
 30
0.0
 10
15.5909936026
 20
11.4481505577
 30
0.0
 10
15.5487847629
 20
11.4454085552
 30
0.0
 10
15.5202674942
 20
11.4448052517
 30
0.0
  0
SPLINE
  5
367
100
AcDbEntity
  8
0
100
AcDbSpline
 62
7
  6
CONTINUOUS
 70
0
 71
3
 72
14
 73
10
 74
0
 42
0.0000001
 43
0.0000001
 44
0.0000000001
 40
0.0
 40
0.0
 40
0.0
 40
0.0
 40
0.2751674527
 40
0.4069207274
 40
0.5344318852
 40
0.6575583294
 40
0.7762220002
 40
0.8903753451
 40
1.0
 40
1.0
 40
1.0
 40
1.0
 10
14.8102861122
 20
11.6653402443
 30
0.0
 10
14.7862243224
 20
11.6826675716
 30
0.0
 10
14.7517731711
 20
11.7099496267
 30
0.0
 10
14.7095883554
 20
11.7491849726
 30
0.0
 10
14.6810134328
 20
11.7789063749
 30
0.0
 10
14.6551760485
 20
11.8092058163
 30
0.0
 10
14.6321972086
 20
11.8399525986
 30
0.0
 10
14.6121906427
 20
11.8709943953
 30
0.0
 10
14.6006634133
 20
11.8922078679
 30
0.0
 10
14.5954593267
 20
11.9028126814
 30
0.0
  0
SPLINE
  5
368
100
AcDbEntity
  8
0
100
AcDbSpline
 62
7
  6
CONTINUOUS
 70
0
 71
3
 72
15
 73
11
 74
0
 42
0.0000001
 43
0.0000001
 44
0.0000000001
 40
0.0
 40
0.0
 40
0.0
 40
0.0
 40
0.2763703128
 40
0.4103964815
 40
0.5406778945
 40
0.666351211
 40
0.7861511761
 40
0.8983822754
 40
0.9507604366
 40
1.0
 40
1.0
 40
1.0
 40
1.0
 10
16.4978341633
 20
13.0900725697
 30
0.0
 10
16.501383498
 20
13.0769855071
 30
0.0
 10
16.5056592228
 20
13.0572606448
 30
0.0
 10
16.5092741202
 20
13.0309726937
 30
0.0
 10
16.510912251
 20
13.0118997088
 30
0.0
 10
16.5115288253
 20
12.9934654428
 30
0.0
 10
16.511165723
 20
12.97590997
 30
0.0
 10
16.5100624124
 20
12.9619895393
 30
0.0
 10
16.5087224723
 20
12.9515815996
 30
0.0
 10
16.5079146928
 20
12.9466602982
 30
0.0
 10
16.5074753265
 20
12.9442846975
 30
0.0
  0
SPLINE
  5
369
100
AcDbEntity
  8
0
100
AcDbSpline
 62
7
  6
CONTINUOUS
 70
0
 71
3
 72
11
 73
7
 74
0
 42
0.0000001
 43
0.0000001
 44
0.0000000001
 40
0.0
 40
0.0
 40
0.0
 40
0.0
 40
0.2682212189
 40
0.5282263145
 40
0.773915319
 40
1.0
 40
1.0
 40
1.0
 40
1.0
 10
14.993509204
 20
11.7770467618
 30
0.0
 10
14.9935470142
 20
11.7750996546
 30
0.0
 10
14.9937458977
 20
11.7712663114
 30
0.0
 10
14.9944117873
 20
11.7656821335
 30
0.0
 10
14.995430213
 20
11.7604624619
 30
0.0
 10
14.9963653613
 20
11.7571609578
 30
0.0
 10
14.9968974975
 20
11.7556080691
 30
0.0
  0
SPLINE
  5
36A
100
AcDbEntity
  8
0
100
AcDbSpline
 62
7
  6
CONTINUOUS
 70
0
 71
3
 72
13
 73
9
 74
0
 42
0.0000001
 43
0.0000001
 44
0.0000000001
 40
0.0
 40
0.0
 40
0.0
 40
0.0
 40
0.3141593253
 40
0.4552224198
 40
0.585097836
 40
0.703786322
 40
0.811836553
 40
1.0
 40
1.0
 40
1.0
 40
1.0
 10
14.9968974975
 20
11.7556080691
 30
0.0
 10
14.997389299
 20
11.754172886
 30
0.0
 10
14.9982066143
 20
11.7521240787
 30
0.0
 10
14.9995277163
 20
11.7496237952
 30
0.0
 10
15.000540053
 20
11.7480351864
 30
0.0
 10
15.0016059463
 20
11.7466769387
 30
0.0
 10
15.0030168383
 20
11.745253905
 30
0.0
 10
15.0042366119
 20
11.744440165
 30
0.0
 10
15.0050821056
 20
11.7441072898
 30
0.0
  0
SPLINE
  5
36B
100
AcDbEntity
  8
0
100
AcDbSpline
 62
7
  6
CONTINUOUS
 70
0
 71
3
 72
13
 73
9
 74
0
 42
0.0000001
 43
0.0000001
 44
0.0000000001
 40
0.0
 40
0.0
 40
0.0
 40
0.0
 40
0.116127671
 40
0.2287404005
 40
0.3411311812
 40
0.4565850948
 40
0.7075485483
 40
1.0
 40
1.0
 40
1.0
 40
1.0
 10
15.0050821056
 20
11.7441072898
 30
0.0
 10
15.0054051426
 20
11.7439801085
 30
0.0
 10
15.0060640196
 20
11.7437818929
 30
0.0
 10
15.007083755
 20
11.7436718037
 30
0.0
 10
15.0081041893
 20
11.7437563986
 30
0.0
 10
15.0094919594
 20
11.7441368016
 30
0.0
 10
15.0112175548
 20
11.7451544154
 30
0.0
 10
15.0123683661
 20
11.7463199097
 30
0.0
 10
15.0129287778
 20
11.7469909872
 30
0.0
  0
SPLINE
  5
36C
100
AcDbEntity
  8
0
100
AcDbSpline
 62
7
  6
CONTINUOUS
 70
0
 71
3
 72
20
 73
16
 74
0
 42
0.0000001
 43
0.0000001
 44
0.0000000001
 40
0.0
 40
0.0
 40
0.0
 40
0.0
 40
0.0603743363
 40
0.1185712276
 40
0.1748493647
 40
0.2297715671
 40
0.2841663234
 40
0.3389053444
 40
0.3948051883
 40
0.4525246075
 40
0.5125819502
 40
0.5752653541
 40
0.7084764798
 40
0.8511697425
 40
1.0
 40
1.0
 40
1.0
 40
1.0
 10
15.1285606193
 20
12.0614939869
 30
0.0
 10
15.128919911
 20
12.0626566552
 30
0.0
 10
15.129467769
 20
12.0649931366
 30
0.0
 10
15.129750167
 20
12.068519923
 30
0.0
 10
15.1294640687
 20
12.0719391656
 30
0.0
 10
15.1286019448
 20
12.0751820068
 30
0.0
 10
15.1271877902
 20
12.0781911155
 30
0.0
 10
15.125241362
 20
12.0809107682
 30
0.0
 10
15.1228030468
 20
12.083294417
 30
0.0
 10
15.1199191847
 20
12.0853052905
 30
0.0
 10
15.1166365113
 20
12.0869033711
 30
0.0
 10
15.1117134932
 20
12.0884931163
 30
0.0
 10
15.1048598247
 20
12.0892781958
 30
0.0
 10
15.0962916343
 20
12.0883740437
 30
0.0
 10
15.0906392674
 20
12.0866184196
 30
0.0
 10
15.0878687486
 20
12.0854680524
 30
0.0
  0
SPLINE
  5
36D
100
AcDbEntity
  8
0
100
AcDbSpline
 62
7
  6
CONTINUOUS
 70
0
 71
3
 72
12
 73
8
 74
0
 42
0.0000001
 43
0.0000001
 44
0.0000000001
 40
0.0
 40
0.0
 40
0.0
 40
0.0
 40
0.2657181611
 40
0.5254730548
 40
0.7718951545
 40
0.8885810938
 40
1.0
 40
1.0
 40
1.0
 40
1.0
 10
15.0878687486
 20
12.0854680524
 30
0.0
 10
15.0850163268
 20
12.0842836777
 30
0.0
 10
15.0795851891
 20
12.0813941222
 30
0.0
 10
15.0725667911
 20
12.0757208987
 30
0.0
 10
15.0679504486
 20
12.0700553479
 30
0.0
 10
15.0652921183
 20
12.0652092447
 30
0.0
 10
15.0643213434
 20
12.0627313153
 30
0.0
 10
15.06393898
 20
12.0614939869
 30
0.0
  0
SPLINE
  5
36E
100
AcDbEntity
  8
0
100
AcDbSpline
 62
7
  6
CONTINUOUS
 70
0
 71
3
 72
11
 73
7
 74
0
 42
0.0000001
 43
0.0000001
 44
0.0000000001
 40
0.0
 40
0.0
 40
0.0
 40
0.0
 40
0.2647107955
 40
0.5169406386
 40
0.7599523122
 40
1.0
 40
1.0
 40
1.0
 40
1.0
 10
15.06393898
 20
12.0614939869
 30
0.0
 10
15.0634595422
 20
12.0599425257
 30
0.0
 10
15.0628016769
 20
12.0568160047
 30
0.0
 10
15.0628013425
 20
12.0521168869
 30
0.0
 10
15.0638532313
 20
12.047687639
 30
0.0
 10
15.065228423
 20
12.0450239452
 30
0.0
 10
15.0660567801
 20
12.043806469
 30
0.0
  0
SPLINE
  5
36F
100
AcDbEntity
  8
0
100
AcDbSpline
 62
7
  6
CONTINUOUS
 70
0
 71
3
 72
21
 73
17
 74
0
 42
0.0000001
 43
0.0000001
 44
0.0000000001
 40
0.0
 40
0.0
 40
0.0
 40
0.0
 40
0.0508807566
 40
0.1034256343
 40
0.1583595003
 40
0.2161110729
 40
0.3400069833
 40
0.4735189169
 40
0.5425638626
 40
0.6120905373
 40
0.6813259919
 40
0.7494945386
 40
0.8159441055
 40
0.8801402169
 40
0.9416306259
 40
1.0
 40
1.0
 40
1.0
 40
1.0
 10
15.0660567801
 20
12.043806469
 30
0.0
 10
15.066790768
 20
12.0427276918
 30
0.0
 10
15.0685225355
 20
12.0406896272
 30
0.0
 10
15.0717318968
 20
12.0381625536
 30
0.0
 10
15.0755092942
 20
12.0361929675
 30
0.0
 10
15.0813030907
 20
12.0343147937
 30
0.0
 10
15.0894710539
 20
12.0336380967
 30
0.0
 10
15.0978024777
 20
12.0350423967
 30
0.0
 10
15.1044091575
 20
12.0373218072
 30
0.0
 10
15.1092334502
 20
12.0396122413
 30
0.0
 10
15.1137601339
 20
12.0424016973
 30
0.0
 10
15.1178847438
 20
12.0456321887
 30
0.0
 10
15.1215142091
 20
12.0492300536
 30
0.0
 10
15.1245651542
 20
12.0531170632
 30
0.0
 10
15.1269596706
 20
12.0572011122
 30
0.0
 10
15.1281186818
 20
12.0600638766
 30
0.0
 10
15.1285606193
 20
12.0614939869
 30
0.0
  0
SPLINE
  5
370
100
AcDbEntity
  8
0
100
AcDbSpline
 62
7
  6
CONTINUOUS
 70
0
 71
3
 72
15
 73
11
 74
0
 42
0.0000001
 43
0.0000001
 44
0.0000000001
 40
0.0
 40
0.0
 40
0.0
 40
0.0
 40
0.1164343122
 40
0.2337654591
 40
0.352865983
 40
0.4745580036
 40
0.5995838417
 40
0.728573837
 40
0.8619490711
 40
1.0
 40
1.0
 40
1.0
 40
1.0
 10
15.732746123
 20
11.769764702
 30
0.0
 10
15.7344104075
 20
11.7751520942
 30
0.0
 10
15.7371682947
 20
11.7861584058
 30
0.0
 10
15.7395252495
 20
11.8031144893
 30
0.0
 10
15.740096045
 20
11.8204794167
 30
0.0
 10
15.7388853196
 20
11.8381823422
 30
0.0
 10
15.735899159
 20
11.8561572085
 30
0.0
 10
15.7311464957
 20
11.8743307947
 30
0.0
 10
15.7246614207
 20
11.8926273567
 30
0.0
 10
15.7192978602
 20
11.9046442218
 30
0.0
 10
15.7163526395
 20
11.9106459505
 30
0.0
  0
SPLINE
  5
371
100
AcDbEntity
  8
0
100
AcDbSpline
 62
7
  6
CONTINUOUS
 70
0
 71
3
 72
11
 73
7
 74
0
 42
0.0000001
 43
0.0000001
 44
0.0000000001
 40
0.0
 40
0.0
 40
0.0
 40
0.0
 40
0.264032958
 40
0.5170354114
 40
0.7609789184
 40
1.0
 40
1.0
 40
1.0
 40
1.0
 10
15.1408216479
 20
12.0552778872
 30
0.0
 10
15.1413503431
 20
12.0569887455
 30
0.0
 10
15.1421220765
 20
12.0604288274
 30
0.0
 10
15.1423610492
 20
12.0656129607
 30
0.0
 10
15.1416226469
 20
12.0705817556
 30
0.0
 10
15.1404842262
 20
12.0736823409
 30
0.0
 10
15.1397700637
 20
12.0751376028
 30
0.0
  0
SPLINE
  5
372
100
AcDbEntity
  8
0
100
AcDbSpline
 62
7
  6
CONTINUOUS
 70
0
 71
3
 72
15
 73
11
 74
0
 42
0.0000001
 43
0.0000001
 44
0.0000000001
 40
0.0
 40
0.0
 40
0.0
 40
0.0
 40
0.138051796
 40
0.2714266272
 40
0.4004150432
 40
0.5254395993
 40
0.647131465
 40
0.7662325473
 40
0.8835646886
 40
1.0
 40
1.0
 40
1.0
 40
1.0
 10
15.7260352924
 20
11.9419790269
 30
0.0
 10
15.7289805322
 20
11.9359772594
 30
0.0
 10
15.7343441299
 20
11.9239603856
 30
0.0
 10
15.7408292571
 20
11.9056638936
 30
0.0
 10
15.7455818193
 20
11.8874904376
 30
0.0
 10
15.7485679054
 20
11.8695157093
 30
0.0
 10
15.7497787456
 20
11.8518128314
 30
0.0
 10
15.7492079242
 20
11.83444783
 30
0.0
 10
15.7468509699
 20
11.8174916241
 30
0.0
 10
15.7440931576
 20
11.8064851915
 30
0.0
 10
15.7424288766
 20
11.8010977466
 30
0.0
  0
SPLINE
  5
373
100
AcDbEntity
  8
0
100
AcDbSpline
 62
7
  6
CONTINUOUS
 70
0
 71
3
 72
36
 73
32
 74
0
 42
0.0000001
 43
0.0000001
 44
0.0000000001
 40
0.0
 40
0.0
 40
0.0
 40
0.0
 40
0.0261069234
 40
0.0534629143
 40
0.0820579158
 40
0.1118716141
 40
0.1428684489
 40
0.1749839629
 40
0.2081294367
 40
0.2422020615
 40
0.3126293537
 40
0.3852298997
 40
0.4588254887
 40
0.49562304
 40
0.5322087175
 40
0.5684319921
 40
0.6041463272
 40
0.6392118953
 40
0.673498279
 40
0.7068844987
 40
0.7392653162
 40
0.7705485836
 40
0.8006643562
 40
0.8295617534
 40
0.8572184084
 40
0.8836397537
 40
0.9088661284
 40
0.9329757469
 40
0.9560868559
 40
0.9783613506
 40
1.0
 40
1.0
 40
1.0
 40
1.0
 10
15.8227466968
 20
11.9419790269
 30
0.0
 10
15.8179662067
 20
11.9517206415
 30
0.0
 10
15.8072071487
 20
11.9712052333
 30
0.0
 10
15.7882113649
 20
11.9995759545
 30
0.0
 10
15.766096272
 20
12.0275786777
 30
0.0
 10
15.7410121408
 20
12.0550364416
 30
0.0
 10
15.7131106462
 20
12.0817835985
 30
0.0
 10
15.6825655117
 20
12.1076607791
 30
0.0
 10
15.6495642211
 20
12.1325092877
 30
0.0
 10
15.6020403982
 20
12.1644057823
 30
0.0
 10
15.5377987515
 20
12.2006185193
 30
0.0
 10
15.4554202186
 20
12.2372600906
 30
0.0
 10
15.3832996134
 20
12.2617815676
 30
0.0
 10
15.3242478926
 20
12.2775032108
 30
0.0
 10
15.2797193897
 20
12.287212746
 30
0.0
 10
15.2352342572
 20
12.2947788455
 30
0.0
 10
15.1910673835
 20
12.3001574716
 30
0.0
 10
15.1474923463
 20
12.3033101064
 30
0.0
 10
15.1047795528
 20
12.3042243452
 30
0.0
 10
15.0631928924
 20
12.3028854527
 30
0.0
 10
15.0229894815
 20
12.2993110943
 30
0.0
 10
14.984417759
 20
12.2935127349
 30
0.0
 10
14.9477146889
 20
12.2855340935
 30
0.0
 10
14.9131070923
 20
12.275414869
 30
0.0
 10
14.8808070632
 20
12.2632196878
 30
0.0
 10
14.8510139494
 20
12.2490169475
 30
0.0
 10
14.8239135165
 20
12.2328873346
 30
0.0
 10
14.7996739274
 20
12.2149269346
 30
0.0
 10
14.7784563315
 20
12.1952307263
 30
0.0
 10
14.7603984431
 20
12.173928509
 30
0.0
 10
14.7504423418
 20
12.1585558483
 30
0.0
 10
14.7460754317
 20
12.1506930016
 30
0.0
  0
SPLINE
  5
374
100
AcDbEntity
  8
0
100
AcDbSpline
 62
7
  6
CONTINUOUS
 70
0
 71
3
 72
38
 73
34
 74
0
 42
0.0000001
 43
0.0000001
 44
0.0000000001
 40
0.0
 40
0.0
 40
0.0
 40
0.0
 40
0.0265199696
 40
0.054370473
 40
0.0835375179
 40
0.1139942091
 40
0.1456963191
 40
0.1785677909
 40
0.2125044224
 40
0.2473868178
 40
0.3194137726
 40
0.3934622644
 40
0.4681999253
 40
0.5054098762
 40
0.5422802269
 40
0.5786466718
 40
0.6143521947
 40
0.6492483161
 40
0.683201211
 40
0.7160892456
 40
0.7478129605
 40
0.7782914255
 40
0.8074727745
 40
0.8353336971
 40
0.8487747394
 40
0.861894208
 40
0.8871935696
 40
0.9113360394
 40
0.9344695874
 40
0.9567883017
 40
0.9785349993
 40
0.9892861009
 40
1.0
 40
1.0
 40
1.0
 40
1.0
 10
15.7163526395
 20
11.9106459505
 30
0.0
 10
15.7122444077
 20
11.9190176468
 30
0.0
 10
15.7029469675
 20
11.9357618642
 30
0.0
 10
15.6864401481
 20
11.9601000109
 30
0.0
 10
15.6671404179
 20
11.9840916028
 30
0.0
 10
15.6451913812
 20
12.0075701615
 30
0.0
 10
15.62073905
 20
12.0303809992
 30
0.0
 10
15.5939495666
 20
12.0523745432
 30
0.0
 10
15.5650040096
 20
12.0734041798
 30
0.0
 10
15.5233552832
 20
12.1002436083
 30
0.0
 10
15.4671756343
 20
12.1303829188
 30
0.0
 10
15.3953912757
 20
12.1602692218
 30
0.0
 10
15.3328089351
 20
12.1796353834
 30
0.0
 10
15.2818292798
 20
12.1915172951
 30
0.0
 10
15.2436099194
 20
12.1985065736
 30
0.0
 10
15.205617302
 20
12.2035341251
 30
0.0
 10
15.1681093386
 20
12.2065722626
 30
0.0
 10
15.13134027
 20
12.207591798
 30
0.0
 10
15.0955601087
 20
12.2065952314
 30
0.0
 10
15.0610110219
 20
12.2035791214
 30
0.0
 10
15.0279267143
 20
12.1985720762
 30
0.0
 10
14.9965304266
 20
12.1915996139
 30
0.0
 10
14.9670354196
 20
12.1827115171
 30
0.0
 10
14.9439318805
 20
12.1736479969
 30
0.0
 10
14.9266267614
 20
12.165463582
 30
0.0
 10
14.9105203093
 20
12.156900733
 30
0.0
 10
14.8918641208
 20
12.1451642651
 30
0.0
 10
14.8718218362
 20
12.1292793015
 30
0.0
 10
14.8545311498
 20
12.1118718542
 30
0.0
 10
14.8401345134
 20
12.0930485637
 30
0.0
 10
14.8305954936
 20
12.0762186137
 30
0.0
 10
14.8245638069
 20
12.0622608365
 30
0.0
 10
14.8220743464
 20
12.0551267521
 30
0.0
 10
14.8209623649
 20
12.0515271991
 30
0.0
  0
SPLINE
  5
375
100
AcDbEntity
  8
03__ASM_ALL_CURVES
100
AcDbSpline
 62
8
  6
PHANTOM
 70
0
 71
3
 72
233
 73
229
 74
0
 42
0.0000001
 43
0.0000001
 44
0.0000000001
 40
0.0
 40
0.0
 40
0.0
 40
0.0
 40
0.015625
 40
0.03125
 40
0.046875
 40
0.0546875
 40
0.0625
 40
0.0703125
 40
0.07421875
 40
0.078125
 40
0.080078125
 40
0.08203125
 40
0.0830078125
 40
0.0834960938
 40
0.083984375
 40
0.0849609375
 40
0.0859375
 40
0.087890625
 40
0.08984375
 40
0.09375
 40
0.09765625
 40
0.1015625
 40
0.109375
 40
0.125
 40
0.140625
 40
0.1484375
 40
0.15234375
 40
0.15625
 40
0.16015625
 40
0.162109375
 40
0.1640625
 40
0.1650390625
 40
0.166015625
 40
0.1665039062
 40
0.1669921875
 40
0.16796875
 40
0.169921875
 40
0.171875
 40
0.17578125
 40
0.1796875
 40
0.1875
 40
0.1953125
 40
0.203125
 40
0.2109375
 40
0.21875
 40
0.2265625
 40
0.234375
 40
0.23828125
 40
0.2421875
 40
0.244140625
 40
0.24609375
 40
0.248046875
 40
0.2490234375
 40
0.2495117188
 40
0.25
 40
0.2504882812
 40
0.2509765625
 40
0.251953125
 40
0.25390625
 40
0.255859375
 40
0.2578125
 40
0.26171875
 40
0.265625
 40
0.2734375
 40
0.28125
 40
0.2890625
 40
0.296875
 40
0.3046875
 40
0.3125
 40
0.3203125
 40
0.32421875
 40
0.328125
 40
0.330078125
 40
0.33203125
 40
0.3330078125
 40
0.3334960938
 40
0.333984375
 40
0.3349609375
 40
0.3359375
 40
0.33984375
 40
0.34375
 40
0.34765625
 40
0.3515625
 40
0.359375
 40
0.375
 40
0.390625
 40
0.3984375
 40
0.40234375
 40
0.40625
 40
0.41015625
 40
0.4140625
 40
0.4150390625
 40
0.416015625
 40
0.4165039062
 40
0.4169921875
 40
0.41796875
 40
0.419921875
 40
0.421875
 40
0.42578125
 40
0.4296875
 40
0.4375
 40
0.4453125
 40
0.453125
 40
0.4609375
 40
0.46875
 40
0.4765625
 40
0.484375
 40
0.48828125
 40
0.4921875
 40
0.494140625
 40
0.49609375
 40
0.498046875
 40
0.4990234375
 40
0.5
 40
0.5009765625
 40
0.501953125
 40
0.50390625
 40
0.505859375
 40
0.5078125
 40
0.51171875
 40
0.515625
 40
0.5234375
 40
0.53125
 40
0.5390625
 40
0.546875
 40
0.5546875
 40
0.5625
 40
0.5703125
 40
0.57421875
 40
0.578125
 40
0.580078125
 40
0.58203125
 40
0.5830078125
 40
0.5834960938
 40
0.583984375
 40
0.5849609375
 40
0.5859375
 40
0.58984375
 40
0.59375
 40
0.59765625
 40
0.6015625
 40
0.609375
 40
0.625
 40
0.640625
 40
0.6484375
 40
0.65234375
 40
0.65625
 40
0.66015625
 40
0.662109375
 40
0.6640625
 40
0.6650390625
 40
0.666015625
 40
0.6665039062
 40
0.6669921875
 40
0.66796875
 40
0.669921875
 40
0.671875
 40
0.67578125
 40
0.6796875
 40
0.6875
 40
0.6953125
 40
0.703125
 40
0.7109375
 40
0.71875
 40
0.7265625
 40
0.734375
 40
0.73828125
 40
0.7421875
 40
0.744140625
 40
0.74609375
 40
0.748046875
 40
0.7490234375
 40
0.7495117188
 40
0.75
 40
0.7504882812
 40
0.7509765625
 40
0.751953125
 40
0.75390625
 40
0.755859375
 40
0.7578125
 40
0.76171875
 40
0.765625
 40
0.7734375
 40
0.78125
 40
0.7890625
 40
0.796875
 40
0.8046875
 40
0.8125
 40
0.8203125
 40
0.82421875
 40
0.828125
 40
0.830078125
 40
0.83203125
 40
0.8330078125
 40
0.8334960938
 40
0.833984375
 40
0.8349609375
 40
0.8359375
 40
0.837890625
 40
0.83984375
 40
0.84375
 40
0.84765625
 40
0.8515625
 40
0.859375
 40
0.875
 40
0.890625
 40
0.8984375
 40
0.90234375
 40
0.90625
 40
0.91015625
 40
0.912109375
 40
0.9140625
 40
0.9150390625
 40
0.916015625
 40
0.9165039062
 40
0.9169921875
 40
0.91796875
 40
0.919921875
 40
0.921875
 40
0.92578125
 40
0.9296875
 40
0.9375
 40
0.9453125
 40
0.953125
 40
0.9609375
 40
0.96875
 40
0.984375
 40
1.0
 40
1.0
 40
1.0
 40
1.0
 10
17.2556681444
 20
12.5392657955
 30
0.0
 10
17.2461664972
 20
12.5541440727
 30
0.0
 10
17.2271632078
 20
12.5839006275
 30
0.0
 10
17.1986582435
 20
12.6285354574
 30
0.0
 10
17.1749041948
 20
12.6657311559
 30
0.0
 10
17.1559007594
 20
12.695487699
 30
0.0
 10
17.1416487192
 20
12.7178051494
 30
0.0
 10
17.129770313
 20
12.7364028877
 30
0.0
 10
17.1202714143
 20
12.7512813857
 30
0.0
 10
17.11432589
 20
12.7605797472
 30
0.0
 10
17.1095894242
 20
12.7680200388
 30
0.0
 10
17.1065836055
 20
12.7726665649
 30
0.0
 10
17.1045707754
 20
12.7759264606
 30
0.0
 10
17.1032778285
 20
12.7777777937
 30
0.0
 10
17.1014470902
 20
12.7795859386
 30
0.0
 10
17.099342806
 20
12.7818609073
 30
0.0
 10
17.0958730461
 20
12.7854925933
 30
0.0
 10
17.0915710811
 20
12.7900350303
 30
0.0
 10
17.0846682443
 20
12.797301348
 30
0.0
 10
17.0760464548
 20
12.8063847878
 30
0.0
 10
17.0656974156
 20
12.8172846833
 30
0.0
 10
17.0518997056
 20
12.8318179583
 30
0.0
 10
17.0277532405
 20
12.8572511511
 30
0.0
 10
16.9932585569
 20
12.8935843102
 30
0.0
 10
16.9587637076
 20
12.9299174368
 30
0.0
 10
16.9346174745
 20
12.955350675
 30
0.0
 10
16.9208194
 20
12.9698838787
 30
0.0
 10
16.9104714791
 20
12.9807839931
 30
0.0
 10
16.9018461899
 20
12.9898667478
 30
0.0
 10
16.8949504932
 20
12.9971344632
 30
0.0
 10
16.8906303569
 20
13.0016733433
 30
0.0
 10
16.8871978963
 20
13.0053123302
 30
0.0
 10
16.8849986504
 20
13.0075687111
 30
0.0
 10
16.8833628407
 20
13.0094150113
 30
0.0
 10
16.8812758492
 20
13.0111109184
 30
0.0
 10
16.8774140207
 20
13.014008892
 30
0.0
 10
16.8720064781
 20
13.0181853057
 30
0.0
 10
16.8632932971
 20
13.0248471968
 30
0.0
 10
16.852422746
 20
13.0331815357
 30
0.0
 10
16.8350181691
 20
13.0465125796
 30
0.0
 10
16.8132664611
 20
13.0631777222
 30
0.0
 10
16.7871626909
 20
13.0831753197
 30
0.0
 10
16.7610593825
 20
13.1031730714
 30
0.0
 10
16.7349559473
 20
13.1231707799
 30
0.0
 10
16.7088525573
 20
13.1431685068
 30
0.0
 10
16.6827491135
 20
13.1631662036
 30
0.0
 10
16.6609963853
 20
13.1798310358
 30
0.0
 10
16.6435938898
 20
13.1931627129
 30
0.0
 10
16.6327180415
 20
13.2014954403
 30
0.0
 10
16.6240157339
 20
13.2081606393
 30
0.0
 10
16.6174934631
 20
13.2131622298
 30
0.0
 10
16.6120440499
 20
13.2173216606
 30
0.0
 10
16.6082573033
 20
13.2202500634
 30
0.0
 10
16.6060499741
 20
13.2218972026
 30
0.0
 10
16.604516944
 20
13.2232064583
 30
0.0
 10
16.6025157837
 20
13.2242332258
 30
0.0
 10
16.600010859
 20
13.2257007842
 30
0.0
 10
16.5955511614
 20
13.2282231021
 30
0.0
 10
16.58921994
 20
13.2318504152
 30
0.0
 10
16.5816054493
 20
13.2361929175
 30
0.0
 10
16.5714587415
 20
13.2419865088
 30
0.0
 10
16.5587733206
 20
13.2492272692
 30
0.0
 10
16.5384777853
 20
13.2608131727
 30
0.0
 10
16.5131079754
 20
13.2752953161
 30
0.0
 10
16.482664372
 20
13.2926739908
 30
0.0
 10
16.4522207197
 20
13.3100526326
 30
0.0
 10
16.4217770947
 20
13.3274313033
 30
0.0
 10
16.3913334093
 20
13.3448098912
 30
0.0
 10
16.360889938
 20
13.3621887815
 30
0.0
 10
16.3355197154
 20
13.3766702512
 30
0.0
 10
16.3152250219
 20
13.388257529
 30
0.0
 10
16.3025374587
 20
13.3954947918
 30
0.0
 10
16.2923951484
 20
13.4012955625
 30
0.0
 10
16.2860385437
 20
13.4048960361
 30
0.0
 10
16.2816243148
 20
13.4074664871
 30
0.0
 10
16.2790465204
 20
13.4088568995
 30
0.0
 10
16.2762601458
 20
13.4099519558
 30
0.0
 10
16.2728484712
 20
13.4114217302
 30
0.0
 10
16.2646017742
 20
13.414866099
 30
0.0
 10
16.2522563741
 20
13.4200675508
 30
0.0
 10
16.2357817544
 20
13.4269828734
 30
0.0
 10
16.2193109027
 20
13.4339035316
 30
0.0
 10
16.1973484525
 20
13.4431292143
 30
0.0
 10
16.1589147805
 20
13.4592750317
 30
0.0
 10
16.1040091852
 20
13.4823399855
 30
0.0
 10
16.0491038155
 20
13.5054052755
 30
0.0
 10
16.0106698276
 20
13.5215506222
 30
0.0
 10
15.9887078739
 20
13.5307770446
 30
0.0
 10
15.972235499
 20
13.5376954331
 30
0.0
 10
15.9557665999
 20
13.54461928
 30
0.0
 10
15.9434051802
 20
13.5497968611
 30
0.0
 10
15.9351793899
 20
13.5532723829
 30
0.0
 10
15.931729424
 20
13.5546850998
 30
0.0
 10
15.9290220635
 20
13.5558978943
 30
0.0
 10
15.9261222968
 20
13.5568085384
 30
0.0
 10
15.9209583086
 20
13.5582617793
 30
0.0
 10
15.9136278252
 20
13.5604110841
 30
0.0
 10
15.9018729857
 20
13.5638090383
 30
0.0
 10
15.8871883614
 20
13.5680704968
 30
0.0
 10
15.8636879742
 20
13.574880997
 30
0.0
 10
15.8343142019
 20
13.58339681
 30
0.0
 10
15.7990649414
 20
13.593614634
 30
0.0
 10
15.7638158773
 20
13.6038327643
 30
0.0
 10
15.7285667612
 20
13.6140508208
 30
0.0
 10
15.6933176568
 20
13.6242688659
 30
0.0
 10
15.6580685577
 20
13.6344870308
 30
0.0
 10
15.6286942811
 20
13.6430017784
 30
0.0
 10
15.6051949227
 20
13.649814452
 30
0.0
 10
15.59050768
 20
13.6540703793
 30
0.0
 10
15.5787582152
 20
13.657479687
 30
0.0
 10
15.5699452148
 20
13.6600241663
 30
0.0
 10
15.5626039164
 20
13.6621843351
 30
0.0
 10
15.556724444
 20
13.6638232743
 30
0.0
 10
15.5523324195
 20
13.6652962047
 30
0.0
 10
15.5478732926
 20
13.6658388287
 30
0.0
 10
15.5419512297
 20
13.6668872956
 30
0.0
 10
15.5345406091
 20
13.6680863842
 30
0.0
 10
15.5256513066
 20
13.6695730139
 30
0.0
 10
15.513797701
 20
13.6715385181
 30
0.0
 10
15.4989811057
 20
13.6740011057
 30
0.0
 10
15.4752743231
 20
13.677938056
 30
0.0
 10
15.4456409238
 20
13.6828603381
 30
0.0
 10
15.4100808104
 20
13.6887666094
 30
0.0
 10
15.3745207079
 20
13.6946729989
 30
0.0
 10
15.338960596
 20
13.7005793826
 30
0.0
 10
15.3034005108
 20
13.7064856713
 30
0.0
 10
15.2678403281
 20
13.7123923459
 30
0.0
 10
15.2382071453
 20
13.7173133677
 30
0.0
 10
15.2144999211
 20
13.721252889
 30
0.0
 10
15.1996844496
 20
13.7237089338
 30
0.0
 10
15.1878285373
 20
13.725687868
 30
0.0
 10
15.1804266579
 20
13.7268925339
 30
0.0
 10
15.1752291774
 20
13.7278002689
 30
0.0
 10
15.1722844801
 20
13.7282181069
 30
0.0
 10
15.1694350433
 20
13.7282560277
 30
0.0
 10
15.1658406869
 20
13.728433286
 30
0.0
 10
15.1572410302
 20
13.7287518274
 30
0.0
 10
15.1443302893
 20
13.7292745298
 30
0.0
 10
15.1271224015
 20
13.729945809
 30
0.0
 10
15.1099127928
 20
13.7306239513
 30
0.0
 10
15.0869672481
 20
13.7315257473
 30
0.0
 10
15.0468122664
 20
13.7331050039
 30
0.0
 10
14.989448142
 20
13.7353605168
 30
0.0
 10
14.9320840069
 20
13.7376161805
 30
0.0
 10
14.8919290403
 20
13.739195226
 30
0.0
 10
14.8689834719
 20
13.7400973536
 30
0.0
 10
14.8517739356
 20
13.7407744787
 30
0.0
 10
14.8374338025
 20
13.7413370619
 30
0.0
 10
14.8259591228
 20
13.7417909141
 30
0.0
 10
14.8187933076
 20
13.7420659514
 30
0.0
 10
14.8130472357
 20
13.7423057237
 30
0.0
 10
14.8094865601
 20
13.7424105354
 30
0.0
 10
14.8065678883
 20
13.7425975596
 30
0.0
 10
14.8039052462
 20
13.7424079211
 30
0.0
 10
14.7993645591
 20
13.7419010778
 30
0.0
 10
14.7928158081
 20
13.7412683096
 30
0.0
 10
14.7823724857
 20
13.7402048614
 30
0.0
 10
14.7693064586
 20
13.7388930202
 30
0.0
 10
14.7484074518
 20
13.7367843107
 30
0.0
 10
14.7222814159
 20
13.7341517742
 30
0.0
 10
14.6909311493
 20
13.7309912938
 30
0.0
 10
14.6595806204
 20
13.7278311992
 30
0.0
 10
14.6282301641
 20
13.7246709981
 30
0.0
 10
14.59687968
 20
13.7215108371
 30
0.0
 10
14.5655292345
 20
13.7183506223
 30
0.0
 10
14.5394037576
 20
13.7157172561
 30
0.0
 10
14.5185036104
 20
13.7136102392
 30
0.0
 10
14.5054404854
 20
13.7122940903
 30
0.0
 10
14.494991206
 20
13.7112394842
 30
0.0
 10
14.4871509044
 20
13.7104531485
 30
0.0
 10
14.4806279515
 20
13.7097831754
 30
0.0
 10
14.4760410198
 20
13.7093430296
 30
0.0
 10
14.4734524945
 20
13.7090464937
 30
0.0
 10
14.4714193264
 20
13.7089509251
 30
0.0
 10
14.4697369653
 20
13.7083705353
 30
0.0
 10
14.4673714518
 20
13.7077657933
 30
0.0
 10
14.4632888155
 20
13.7066287028
 30
0.0
 10
14.4574266712
 20
13.7050454812
 30
0.0
 10
14.4504048563
 20
13.7031279832
 30
0.0
 10
14.4410379803
 20
13.7005774777
 30
0.0
 10
14.429330911
 20
13.6973872371
 30
0.0
 10
14.4105987473
 20
13.6922840308
 30
0.0
 10
14.3871838358
 20
13.6859046181
 30
0.0
 10
14.3590858143
 20
13.6782494981
 30
0.0
 10
14.3309878347
 20
13.6705943248
 30
0.0
 10
14.3028898155
 20
13.6629391895
 30
0.0
 10
14.2747919125
 20
13.6552839556
 30
0.0
 10
14.2466935844
 20
13.647629078
 30
0.0
 10
14.2232796309
 20
13.6412489081
 30
0.0
 10
14.2045455131
 20
13.6361472464
 30
0.0
 10
14.1928434169
 20
13.6329530749
 30
0.0
 10
14.1834663328
 20
13.6304106382
 30
0.0
 10
14.1776408093
 20
13.6287921806
 30
0.0
 10
14.1734924897
 20
13.627718251
 30
0.0
 10
14.171232252
 20
13.6270122804
 30
0.0
 10
14.1693872694
 20
13.6259586145
 30
0.0
 10
14.1669388586
 20
13.6247605824
 30
0.0
 10
14.1631008596
 20
13.6227772002
 30
0.0
 10
14.1582761542
 20
13.6203207526
 30
0.0
 10
14.1505718314
 20
13.6163777047
 30
0.0
 10
14.1409362109
 20
13.611453263
 30
0.0
 10
14.1293756991
 20
13.6055420633
 30
0.0
 10
14.1139609043
 20
13.5976611161
 30
0.0
 10
14.086985379
 20
13.5838691529
 30
0.0
 10
14.0484487022
 20
13.5641665213
 30
0.0
 10
14.0099121775
 20
13.5444637798
 30
0.0
 10
13.9829364392
 20
13.5306719704
 30
0.0
 10
13.9675219792
 20
13.5227907814
 30
0.0
 10
13.9559604401
 20
13.5168803235
 30
0.0
 10
13.9463280349
 20
13.5119535605
 30
0.0
 10
13.938617152
 20
13.5080152485
 30
0.0
 10
13.9338091415
 20
13.5055467483
 30
0.0
 10
13.9299368738
 20
13.5035881059
 30
0.0
 10
13.9275757091
 20
13.5023270877
 30
0.0
 10
13.9255516358
 20
13.5014027138
 30
0.0
 10
13.9240209268
 20
13.5001700706
 30
0.0
 10
13.9215713748
 20
13.497869741
 30
0.0
 10
13.9179524358
 20
13.4946582725
 30
0.0
 10
13.9122289596
 20
13.4894781678
 30
0.0
 10
13.905051733
 20
13.4830173339
 30
0.0
 10
13.893580959
 20
13.472672009
 30
0.0
 10
13.879238103
 20
13.4597430949
 30
0.0
 10
13.8620285573
 20
13.4442272224
 30
0.0
 10
13.8448185075
 20
13.4287116648
 30
0.0
 10
13.8276085926
 20
13.413196023
 30
0.0
 10
13.8046619922
 20
13.39250853
 30
0.0
 10
13.775978758
 20
13.3666491536
 30
0.0
 10
13.7530321657
 20
13.3459616556
 30
0.0
 10
13.7415588701
 20
13.3356179062
 30
0.0
  0
SPLINE
  5
376
100
AcDbEntity
  8
03__ASM_ALL_CURVES
100
AcDbSpline
 62
8
  6
PHANTOM
 70
0
 71
3
 72
88
 73
84
 74
0
 42
0.0000001
 43
0.0000001
 44
0.0000000001
 40
0.0
 40
0.0
 40
0.0
 40
0.0
 40
0.0625
 40
0.09375
 40
0.109375
 40
0.125
 40
0.140625
 40
0.15625
 40
0.16015625
 40
0.1640625
 40
0.166015625
 40
0.16796875
 40
0.171875
 40
0.1796875
 40
0.1875
 40
0.203125
 40
0.21875
 40
0.25
 40
0.28125
 40
0.296875
 40
0.3125
 40
0.3203125
 40
0.328125
 40
0.33203125
 40
0.333984375
 40
0.3359375
 40
0.33984375
 40
0.34375
 40
0.359375
 40
0.375
 40
0.390625
 40
0.40625
 40
0.421875
 40
0.4375
 40
0.453125
 40
0.46875
 40
0.4765625
 40
0.484375
 40
0.4921875
 40
0.49609375
 40
0.498046875
 40
0.5
 40
0.501953125
 40
0.50390625
 40
0.5078125
 40
0.515625
 40
0.5234375
 40
0.53125
 40
0.546875
 40
0.5625
 40
0.578125
 40
0.59375
 40
0.609375
 40
0.625
 40
0.640625
 40
0.6484375
 40
0.65625
 40
0.66015625
 40
0.6640625
 40
0.666015625
 40
0.66796875
 40
0.671875
 40
0.6796875
 40
0.6875
 40
0.703125
 40
0.71875
 40
0.75
 40
0.78125
 40
0.796875
 40
0.8125
 40
0.8203125
 40
0.828125
 40
0.83203125
 40
0.833984375
 40
0.8359375
 40
0.83984375
 40
0.84375
 40
0.859375
 40
0.875
 40
0.890625
 40
0.90625
 40
0.9375
 40
1.0
 40
1.0
 40
1.0
 40
1.0
 10
13.7415588962
 20
13.3356179382
 30
0.0
 10
13.7321775983
 20
13.3215453136
 30
0.0
 10
13.7181055174
 20
13.3004364276
 30
0.0
 10
13.7016885592
 20
13.275809216
 30
0.0
 10
13.6923067695
 20
13.2617367778
 30
0.0
 10
13.6852723051
 20
13.2511817376
 30
0.0
 10
13.6782306647
 20
13.2406294165
 30
0.0
 10
13.6729695541
 20
13.2327075522
 30
0.0
 10
13.6694308567
 20
13.2274381653
 30
0.0
 10
13.6680029613
 20
13.225224945
 30
0.0
 10
13.6667520255
 20
13.2234955251
 30
0.0
 10
13.6658983179
 20
13.2216155939
 30
0.0
 10
13.6645888913
 20
13.2182557833
 30
0.0
 10
13.6626219866
 20
13.2134925404
 30
0.0
 10
13.6595287545
 20
13.2058509609
 30
0.0
 10
13.65564378
 20
13.196305972
 30
0.0
 10
13.6494381705
 20
13.1810300642
 30
0.0
 10
13.6416772724
 20
13.1619366794
 30
0.0
 10
13.6339189822
 20
13.1428422018
 30
0.0
 10
13.6277092002
 20
13.1275680425
 30
0.0
 10
13.6238346571
 20
13.1180186823
 30
0.0
 10
13.6207200404
 20
13.1103860641
 30
0.0
 10
13.6188075754
 20
13.105600008
 30
0.0
 10
13.6174003692
 20
13.1022811724
 30
0.0
 10
13.6167033957
 20
13.1003355609
 30
0.0
 10
13.6164099804
 20
13.0982048866
 30
0.0
 10
13.6159052734
 20
13.0956047989
 30
0.0
 10
13.6148075058
 20
13.0893125266
 30
0.0
 10
13.6131131703
 20
13.0798959849
 30
0.0
 10
13.6108813133
 20
13.0673280965
 30
0.0
 10
13.6086421541
 20
13.0547635571
 30
0.0
 10
13.6064049466
 20
13.0421981208
 30
0.0
 10
13.6041672347
 20
13.0296329233
 30
0.0
 10
13.6019295887
 20
13.0170676676
 30
0.0
 10
13.5996921834
 20
13.0045024059
 30
0.0
 10
13.5978268217
 20
12.9940314228
 30
0.0
 10
13.5963364695
 20
12.9856544754
 30
0.0
 10
13.5952134082
 20
12.9793722066
 30
0.0
 10
13.5942943737
 20
12.9741355774
 30
0.0
 10
13.5936179823
 20
12.9704726945
 30
0.0
 10
13.5932831047
 20
12.9683753129
 30
0.0
 10
13.5928864987
 20
12.9668144059
 30
0.0
 10
13.5930458683
 20
12.9652071348
 30
0.0
 10
13.5930644305
 20
12.9630802789
 30
0.0
 10
13.5931872703
 20
12.9593507463
 30
0.0
 10
13.5933155166
 20
12.9540267818
 30
0.0
 10
13.5934896321
 20
12.9476363383
 30
0.0
 10
13.5937147229
 20
12.939116336
 30
0.0
 10
13.5939985109
 20
12.9284661307
 30
0.0
 10
13.594338014
 20
12.915685972
 30
0.0
 10
13.5946778076
 20
12.9029057866
 30
0.0
 10
13.5950174817
 20
12.8901256207
 30
0.0
 10
13.5953573432
 20
12.8773454032
 30
0.0
 10
13.5956965748
 20
12.8645653728
 30
0.0
 10
13.5959812113
 20
12.8539147666
 30
0.0
 10
13.596204571
 20
12.8453955823
 30
0.0
 10
13.5963540727
 20
12.8400681309
 30
0.0
 10
13.596450997
 20
12.8358129515
 30
0.0
 10
13.5965633164
 20
12.8331379907
 30
0.0
 10
13.5965346611
 20
12.8310334633
 30
0.0
 10
13.5969386556
 20
12.8287995499
 30
0.0
 10
13.5978466301
 20
12.8248300962
 30
0.0
 10
13.599038873
 20
12.8191908079
 30
0.0
 10
13.6010050655
 20
12.8101504211
 30
0.0
 10
13.6034427315
 20
12.7988559391
 30
0.0
 10
13.6073542667
 20
12.7807814097
 30
0.0
 10
13.6122394627
 20
12.7581894286
 30
0.0
 10
13.6171274637
 20
12.7355969224
 30
0.0
 10
13.6210345107
 20
12.7175232331
 30
0.0
 10
13.6234833973
 20
12.7062266508
 30
0.0
 10
13.6254265877
 20
12.6971905697
 30
0.0
 10
13.6266773876
 20
12.6915403202
 30
0.0
 10
13.6274801874
 20
12.687590554
 30
0.0
 10
13.6280527701
 20
12.6853250827
 30
0.0
 10
13.6290541296
 20
12.6830277388
 30
0.0
 10
13.6301592712
 20
12.6801669531
 30
0.0
 10
13.6329322349
 20
12.673292101
 30
0.0
 10
13.6370410172
 20
12.6629835888
 30
0.0
 10
13.6425483504
 20
12.6492367535
 30
0.0
 10
13.6480479377
 20
12.635490494
 30
0.0
 10
13.6553834233
 20
12.617161947
 30
0.0
 10
13.6682192564
 20
12.585087084
 30
0.0
 10
13.6792218334
 20
12.5575943121
 30
0.0
 10
13.6865567881
 20
12.5392658046
 30
0.0
  0
SPLINE
  5
377
100
AcDbEntity
  8
03__ASM_ALL_CURVES
100
AcDbSpline
 62
8
  6
PHANTOM
 70
0
 71
3
 72
72
 73
68
 74
0
 42
0.0000001
 43
0.0000001
 44
0.0000000001
 40
0.0
 40
0.0
 40
0.0
 40
0.0
 40
0.0625
 40
0.09375
 40
0.109375
 40
0.125
 40
0.140625
 40
0.15625
 40
0.16015625
 40
0.1640625
 40
0.16796875
 40
0.171875
 40
0.1796875
 40
0.1875
 40
0.203125
 40
0.21875
 40
0.25
 40
0.28125
 40
0.296875
 40
0.3125
 40
0.3203125
 40
0.328125
 40
0.33203125
 40
0.3359375
 40
0.34375
 40
0.359375
 40
0.375
 40
0.40625
 40
0.4375
 40
0.453125
 40
0.46875
 40
0.484375
 40
0.4921875
 40
0.49609375
 40
0.5
 40
0.50390625
 40
0.5078125
 40
0.515625
 40
0.53125
 40
0.546875
 40
0.5625
 40
0.59375
 40
0.625
 40
0.640625
 40
0.65625
 40
0.6640625
 40
0.66796875
 40
0.671875
 40
0.6796875
 40
0.6875
 40
0.71875
 40
0.75
 40
0.78125
 40
0.796875
 40
0.8125
 40
0.8203125
 40
0.828125
 40
0.83203125
 40
0.8359375
 40
0.83984375
 40
0.84375
 40
0.859375
 40
0.875
 40
0.890625
 40
0.90625
 40
0.9375
 40
1.0
 40
1.0
 40
1.0
 40
1.0
 10
13.6865567926
 20
12.5392657955
 30
0.0
 10
13.6948305777
 20
12.5245750643
 30
0.0
 10
13.7072413331
 20
12.5025389555
 30
0.0
 10
13.7217202756
 20
12.4768302035
 30
0.0
 10
13.7299943459
 20
12.4621394287
 30
0.0
 10
13.7361988098
 20
12.4511215139
 30
0.0
 10
13.7424074344
 20
12.4401029636
 30
0.0
 10
13.7470522375
 20
12.4318408327
 30
0.0
 10
13.7501669148
 20
12.4263299743
 30
0.0
 10
13.7516918582
 20
12.4235794933
 30
0.0
 10
13.7533427544
 20
12.420809774
 30
0.0
 10
13.7561432564
 20
12.4170252756
 30
0.0
 10
13.759438682
 20
12.4123259954
 30
0.0
 10
13.764826041
 20
12.4047896321
 30
0.0
 10
13.7715209623
 20
12.3953751696
 30
0.0
 10
13.7822548557
 20
12.3803087128
 30
0.0
 10
13.7956641876
 20
12.3614765512
 30
0.0
 10
13.8090781347
 20
12.3426448978
 30
0.0
 10
13.8198046437
 20
12.3275776279
 30
0.0
 10
13.826518026
 20
12.3181651982
 30
0.0
 10
13.8318675399
 20
12.3106246677
 30
0.0
 10
13.8352593088
 20
12.3059359959
 30
0.0
 10
13.8378620475
 20
12.3021297216
 30
0.0
 10
13.840868834
 20
12.2985254671
 30
0.0
 10
13.8463184071
 20
12.2923118686
 30
0.0
 10
13.8540055862
 20
12.2833863335
 30
0.0
 10
13.8663597669
 20
12.2691328485
 30
0.0
 10
13.8817839879
 20
12.2513065712
 30
0.0
 10
13.8972138607
 20
12.2334837645
 30
0.0
 10
13.9095589985
 20
12.2192247264
 30
0.0
 10
13.9188107422
 20
12.2085307438
 30
0.0
 10
13.9265437108
 20
12.1996184354
 30
0.0
 10
13.9319112166
 20
12.1933810681
 30
0.0
 10
13.935049532
 20
12.1898149147
 30
0.0
 10
13.9372027816
 20
12.1871457734
 30
0.0
 10
13.9401223944
 20
12.184455709
 30
0.0
 10
13.9437478954
 20
12.1808762547
 30
0.0
 10
13.9502170688
 20
12.1746088084
 30
0.0
 10
13.9593936388
 20
12.1656570992
 30
0.0
 10
13.9704333546
 20
12.1549142524
 30
0.0
 10
13.9851434325
 20
12.1405908915
 30
0.0
 10
14.0035330247
 20
12.1226854181
 30
0.0
 10
14.0219265665
 20
12.1047844902
 30
0.0
 10
14.0366303252
 20
12.0904538567
 30
0.0
 10
14.0458458863
 20
12.0815196659
 30
0.0
 10
14.0522452066
 20
12.0752207402
 30
0.0
 10
14.0559826575
 20
12.071691747
 30
0.0
 10
14.0600240526
 20
12.0684278876
 30
0.0
 10
14.0649719083
 20
12.0642574395
 30
0.0
 10
14.0769322553
 20
12.0543229521
 30
0.0
 10
14.0948370338
 20
12.0393898881
 30
0.0
 10
14.1187297094
 20
12.0194970682
 30
0.0
 10
14.1386383549
 20
12.0029156475
 30
0.0
 10
14.1545600545
 20
11.9896513147
 30
0.0
 10
14.1645251177
 20
11.9813611326
 30
0.0
 10
14.17246487
 20
11.9747287239
 30
0.0
 10
14.1775009605
 20
11.9705841131
 30
0.0
 10
14.1813609187
 20
11.9672669431
 30
0.0
 10
14.1847183827
 20
11.9647831227
 30
0.0
 10
14.1882054467
 20
11.9623004393
 30
0.0
 10
14.195112908
 20
11.9573344875
 30
0.0
 10
14.2055021006
 20
11.9498858055
 30
0.0
 10
14.2193383536
 20
11.9399540891
 30
0.0
 10
14.2331788875
 20
11.9300224103
 30
0.0
 10
14.2516314391
 20
11.9167801587
 30
0.0
 10
14.2839241046
 20
11.8936062247
 30
0.0
 10
14.3116032921
 20
11.8737428505
 30
0.0
 10
14.3300561371
 20
11.8605006015
 30
0.0
  0
SPLINE
  5
378
100
AcDbEntity
  8
03__ASM_ALL_CURVES
100
AcDbSpline
 62
8
  6
PHANTOM
 70
0
 71
3
 72
48
 73
44
 74
0
 42
0.0000001
 43
0.0000001
 44
0.0000000001
 40
0.0
 40
0.0
 40
0.0
 40
0.0
 40
0.0625
 40
0.125
 40
0.140625
 40
0.15625
 40
0.1640625
 40
0.171875
 40
0.1875
 40
0.21875
 40
0.25
 40
0.28125
 40
0.3125
 40
0.328125
 40
0.34375
 40
0.375
 40
0.40625
 40
0.4375
 40
0.46875
 40
0.484375
 40
0.4921875
 40
0.5
 40
0.5078125
 40
0.515625
 40
0.53125
 40
0.5625
 40
0.59375
 40
0.625
 40
0.640625
 40
0.65625
 40
0.6640625
 40
0.671875
 40
0.6875
 40
0.71875
 40
0.75
 40
0.78125
 40
0.8125
 40
0.828125
 40
0.84375
 40
0.859375
 40
0.875
 40
0.9375
 40
1.0
 40
1.0
 40
1.0
 40
1.0
 10
15.9490843507
 20
11.3372658525
 30
0.0
 10
15.9616773213
 20
11.3369732508
 30
0.0
 10
15.9868599964
 20
11.3363850414
 30
0.0
 10
16.0152052034
 20
11.3357368323
 30
0.0
 10
16.0340805742
 20
11.3352849667
 30
0.0
 10
16.0419769526
 20
11.335125809
 30
0.0
 10
16.0482202613
 20
11.3349305685
 30
0.0
 10
16.0547334336
 20
11.3349836897
 30
0.0
 10
16.0662567973
 20
11.3351922261
 30
0.0
 10
16.0826538947
 20
11.3354285145
 30
0.0
 10
16.102355267
 20
11.3357436705
 30
0.0
 10
16.1220609787
 20
11.3360309802
 30
0.0
 10
16.1384472277
 20
11.3363368843
 30
0.0
 10
16.151638483
 20
11.3364359802
 30
0.0
 10
16.1645288559
 20
11.3370644024
 30
0.0
 10
16.1805389536
 20
11.338031357
 30
0.0
 10
16.1997934965
 20
11.3391146003
 30
0.0
 10
16.2190429264
 20
11.3402159696
 30
0.0
 10
16.2350658065
 20
11.3411376091
 30
0.0
 10
16.2463225135
 20
11.3417667799
 30
0.0
 10
16.2526906551
 20
11.3421525456
 30
0.0
 10
16.2576479225
 20
11.342367716
 30
0.0
 10
16.2619126765
 20
11.342866382
 30
0.0
 10
16.2678405753
 20
11.3434323893
 30
0.0
 10
16.278101813
 20
11.3444689155
 30
0.0
 10
16.2928198906
 20
11.3459260686
 30
0.0
 10
16.3104549216
 20
11.3476827518
 30
0.0
 10
16.3251607656
 20
11.3491511213
 30
0.0
 10
16.3369148084
 20
11.3503110466
 30
0.0
 10
16.3442826737
 20
11.3510706921
 30
0.0
 10
16.3501278115
 20
11.35159884
 30
0.0
 10
16.3561522964
 20
11.3524175081
 30
0.0
 10
16.3667783834
 20
11.3539853232
 30
0.0
 10
16.3819155996
 20
11.3561531891
 30
0.0
 10
16.4000959592
 20
11.3587906991
 30
0.0
 10
16.4182821713
 20
11.361398917
 30
0.0
 10
16.433404756
 20
11.3636400132
 30
0.0
 10
16.4455781184
 20
11.3652853412
 30
0.0
 10
16.4545018116
 20
11.3669214353
 30
0.0
 10
16.4633676818
 20
11.3686701536
 30
0.0
 10
16.4811291734
 20
11.3721096425
 30
0.0
 10
16.5077588145
 20
11.3772934101
 30
0.0
 10
16.5314347251
 20
11.381891234
 30
0.0
 10
16.5432720405
 20
11.3841913921
 30
0.0
  0
SPLINE
  5
379
100
AcDbEntity
  8
03__ASM_ALL_CURVES
100
AcDbSpline
 62
8
  6
PHANTOM
 70
0
 71
3
 72
32
 73
28
 74
0
 42
0.0000001
 43
0.0000001
 44
0.0000000001
 40
0.0
 40
0.0
 40
0.0
 40
0.0
 40
0.125
 40
0.25
 40
0.3125
 40
0.375
 40
0.4375
 40
0.46875
 40
0.484375
 40
0.5
 40
0.515625
 40
0.53125
 40
0.5625
 40
0.59375
 40
0.625
 40
0.65625
 40
0.671875
 40
0.6875
 40
0.71875
 40
0.75
 40
0.78125
 40
0.8125
 40
0.828125
 40
0.84375
 40
0.875
 40
0.9375
 40
1.0
 40
1.0
 40
1.0
 40
1.0
 10
17.1801526936
 20
11.7188154406
 30
0.0
 10
17.1808334048
 20
11.7195861031
 30
0.0
 10
17.182197969
 20
11.7211261657
 30
0.0
 10
17.1838879656
 20
11.7230575558
 30
0.0
 10
17.1852416648
 20
11.7246043521
 30
0.0
 10
17.1862456156
 20
11.7257630788
 30
0.0
 10
17.1870931649
 20
11.7267449535
 30
0.0
 10
17.1876616093
 20
11.7274019557
 30
0.0
 10
17.1880257406
 20
11.7278244649
 30
0.0
 10
17.1881880184
 20
11.728008769
 30
0.0
 10
17.1887739259
 20
11.7286998444
 30
0.0
 10
17.1894072605
 20
11.7294443767
 30
0.0
 10
17.1902489207
 20
11.7304348762
 30
0.0
 10
17.1912407645
 20
11.7316016238
 30
0.0
 10
17.1922252149
 20
11.732760044
 30
0.0
 10
17.1930853585
 20
11.7337713622
 30
0.0
 10
17.1936817263
 20
11.7344742572
 30
0.0
 10
17.1939429773
 20
11.7347893639
 30
0.0
 10
17.1943840115
 20
11.7353156657
 30
0.0
 10
17.1948664695
 20
11.7358933018
 30
0.0
 10
17.1953529073
 20
11.7364747726
 30
0.0
 10
17.195783992
 20
11.7369914877
 30
0.0
 10
17.196065142
 20
11.7373257678
 30
0.0
 10
17.1965805871
 20
11.7379506908
 30
0.0
 10
17.1975916021
 20
11.7391794948
 30
0.0
 10
17.1989785482
 20
11.7408637771
 30
0.0
 10
17.2001055866
 20
11.7422328874
 30
0.0
 10
17.2006669206
 20
11.742914732
 30
0.0
  0
SPLINE
  5
37A
100
AcDbEntity
  8
03__ASM_ALL_CURVES
100
AcDbSpline
 62
8
  6
PHANTOM
 70
0
 71
3
 72
88
 73
84
 74
0
 42
0.0000001
 43
0.0000001
 44
0.0000000001
 40
0.0
 40
0.0
 40
0.0
 40
0.0
 40
0.0625
 40
0.09375
 40
0.109375
 40
0.125
 40
0.140625
 40
0.15625
 40
0.16015625
 40
0.1640625
 40
0.166015625
 40
0.16796875
 40
0.171875
 40
0.1796875
 40
0.1875
 40
0.203125
 40
0.21875
 40
0.25
 40
0.28125
 40
0.296875
 40
0.3125
 40
0.3203125
 40
0.328125
 40
0.33203125
 40
0.333984375
 40
0.3359375
 40
0.33984375
 40
0.34375
 40
0.359375
 40
0.375
 40
0.390625
 40
0.40625
 40
0.421875
 40
0.4375
 40
0.453125
 40
0.46875
 40
0.4765625
 40
0.484375
 40
0.4921875
 40
0.49609375
 40
0.498046875
 40
0.5
 40
0.501953125
 40
0.50390625
 40
0.5078125
 40
0.515625
 40
0.5234375
 40
0.53125
 40
0.546875
 40
0.5625
 40
0.578125
 40
0.59375
 40
0.609375
 40
0.625
 40
0.640625
 40
0.6484375
 40
0.65625
 40
0.66015625
 40
0.6640625
 40
0.666015625
 40
0.66796875
 40
0.671875
 40
0.6796875
 40
0.6875
 40
0.703125
 40
0.71875
 40
0.75
 40
0.78125
 40
0.796875
 40
0.8125
 40
0.8203125
 40
0.828125
 40
0.83203125
 40
0.833984375
 40
0.8359375
 40
0.83984375
 40
0.84375
 40
0.859375
 40
0.875
 40
0.890625
 40
0.90625
 40
0.9375
 40
1.0
 40
1.0
 40
1.0
 40
1.0
 10
17.2006669206
 20
11.742914732
 30
0.0
 10
17.2100481871
 20
11.7569873697
 30
0.0
 10
17.2241202209
 20
11.7780962754
 30
0.0
 10
17.2405371243
 20
11.80272351
 30
0.0
 10
17.2499188826
 20
11.8167959613
 30
0.0
 10
17.2569533235
 20
11.8273510113
 30
0.0
 10
17.2639949404
 20
11.8379033423
 30
0.0
 10
17.2692560334
 20
11.845825214
 30
0.0
 10
17.2727947191
 20
11.8510946058
 30
0.0
 10
17.2742226096
 20
11.8533078281
 30
0.0
 10
17.2754735415
 20
11.8550372497
 30
0.0
 10
17.276327245
 20
11.8569171824
 30
0.0
 10
17.2776366646
 20
11.8602769954
 30
0.0
 10
17.279603559
 20
11.8650402417
 30
0.0
 10
17.2826967749
 20
11.8726818268
 30
0.0
 10
17.2865817292
 20
11.8822268225
 30
0.0
 10
17.2927873062
 20
11.8975027414
 30
0.0
 10
17.3005481637
 20
11.91659614
 30
0.0
 10
17.3083064134
 20
11.9356906314
 30
0.0
 10
17.314516163
 20
11.9509648017
 30
0.0
 10
17.3183906857
 20
11.9605141689
 30
0.0
 10
17.3215052863
 20
11.9681467926
 30
0.0
 10
17.3234177411
 20
11.9729328521
 30
0.0
 10
17.3248249402
 20
11.9762516902
 30
0.0
 10
17.3255219095
 20
11.978197303
 30
0.0
 10
17.3258153205
 20
11.9803279784
 30
0.0
 10
17.3263200223
 20
11.9829280675
 30
0.0
 10
17.3274177771
 20
11.9892203432
 30
0.0
 10
17.3291120935
 20
11.9986368899
 30
0.0
 10
17.3313439249
 20
12.0112047852
 30
0.0
 10
17.3335830585
 20
12.0237693313
 30
0.0
 10
17.3358202405
 20
12.0363347744
 30
0.0
 10
17.3380579268
 20
12.0488999787
 30
0.0
 10
17.3402955473
 20
12.0614652412
 30
0.0
 10
17.342532927
 20
12.0740305096
 30
0.0
 10
17.3443982674
 20
12.0845014984
 30
0.0
 10
17.3458886025
 20
12.0928784502
 30
0.0
 10
17.347011651
 20
12.0991607225
 30
0.0
 10
17.3479306749
 20
12.1043973545
 30
0.0
 10
17.3486070589
 20
12.1080602394
 30
0.0
 10
17.3489419321
 20
12.1101576221
 30
0.0
 10
17.3493385349
 20
12.11171853
 30
0.0
 10
17.3491791623
 20
12.1133258017
 30
0.0
 10
17.3491605958
 20
12.1154526583
 30
0.0
 10
17.3490377488
 20
12.1191821924
 30
0.0
 10
17.3489094921
 20
12.1245061588
 30
0.0
 10
17.3487353641
 20
12.1308966047
 30
0.0
 10
17.3485102566
 20
12.1394166102
 30
0.0
 10
17.3482264479
 20
12.1500668195
 30
0.0
 10
17.3478869198
 20
12.1628469829
 30
0.0
 10
17.3475471013
 20
12.1756271732
 30
0.0
 10
17.3472074022
 20
12.1884073438
 30
0.0
 10
17.3468675157
 20
12.2011875661
 30
0.0
 10
17.3465282592
 20
12.2139676013
 30
0.0
 10
17.3462436019
 20
12.2246182115
 30
0.0
 10
17.3460202255
 20
12.233137399
 30
0.0
 10
17.3458707134
 20
12.2384648524
 30
0.0
 10
17.3457737808
 20
12.2427200334
 30
0.0
 10
17.3456614562
 20
12.2453949951
 30
0.0
 10
17.3456901073
 20
12.2474995234
 30
0.0
 10
17.3452861086
 20
12.2497334373
 30
0.0
 10
17.3443781266
 20
12.2537028919
 30
0.0
 10
17.3431858731
 20
12.2593421815
 30
0.0
 10
17.3412196637
 20
12.2683825702
 30
0.0
 10
17.3387819764
 20
12.2796770548
 30
0.0
 10
17.3348704073
 20
12.2977515882
 30
0.0
 10
17.3299851689
 20
12.3203435743
 30
0.0
 10
17.3250971254
 20
12.3429360854
 30
0.0
 10
17.3211900444
 20
12.3610097788
 30
0.0
 10
17.3187411368
 20
12.3723063634
 30
0.0
 10
17.3167979291
 20
12.381342447
 30
0.0
 10
17.3155471193
 20
12.3869926963
 30
0.0
 10
17.3147443108
 20
12.390942466
 30
0.0
 10
17.314171726
 20
12.3932079334
 30
0.0
 10
17.3131703756
 20
12.3955052506
 30
0.0
 10
17.3120652415
 20
12.3983660106
 30
0.0
 10
17.309292299
 20
12.4052407947
 30
0.0
 10
17.3051835472
 20
12.4155492076
 30
0.0
 10
17.2996762554
 20
12.429295909
 30
0.0
 10
17.2941767093
 20
12.443042035
 30
0.0
 10
17.2868412786
 20
12.4613704038
 30
0.0
 10
17.2740055417
 20
12.4934449551
 30
0.0
 10
17.2630030472
 20
12.5209374599
 30
0.0
 10
17.2556681474
 20
12.5392657892
 30
0.0
  0
SPLINE
  5
37B
100
AcDbEntity
  8
03__ASM_ALL_CURVES
100
AcDbSpline
 62
8
  6
PHANTOM
 70
0
 71
3
 72
87
 73
83
 74
0
 42
0.0000001
 43
0.0000001
 44
0.0000000001
 40
0.0
 40
0.0
 40
0.0
 40
0.0
 40
0.0625
 40
0.09375
 40
0.109375
 40
0.125
 40
0.140625
 40
0.1484375
 40
0.15625
 40
0.16015625
 40
0.1640625
 40
0.166015625
 40
0.16796875
 40
0.171875
 40
0.1796875
 40
0.1875
 40
0.203125
 40
0.21875
 40
0.25
 40
0.28125
 40
0.296875
 40
0.3125
 40
0.3203125
 40
0.328125
 40
0.33203125
 40
0.333984375
 40
0.3359375
 40
0.33984375
 40
0.34375
 40
0.3515625
 40
0.359375
 40
0.375
 40
0.390625
 40
0.40625
 40
0.4375
 40
0.453125
 40
0.46875
 40
0.4765625
 40
0.484375
 40
0.4921875
 40
0.49609375
 40
0.498046875
 40
0.5
 40
0.501953125
 40
0.50390625
 40
0.5078125
 40
0.515625
 40
0.5234375
 40
0.53125
 40
0.546875
 40
0.5625
 40
0.59375
 40
0.609375
 40
0.625
 40
0.640625
 40
0.65625
 40
0.66015625
 40
0.6640625
 40
0.666015625
 40
0.66796875
 40
0.671875
 40
0.6796875
 40
0.6875
 40
0.703125
 40
0.71875
 40
0.75
 40
0.78125
 40
0.796875
 40
0.8125
 40
0.8203125
 40
0.828125
 40
0.83203125
 40
0.833984375
 40
0.8359375
 40
0.83984375
 40
0.84375
 40
0.859375
 40
0.875
 40
0.890625
 40
0.90625
 40
0.9375
 40
1.0
 40
1.0
 40
1.0
 40
1.0
 10
16.764325606
 20
12.2455182044
 30
0.0
 10
16.7538129149
 20
12.26297706
 30
0.0
 10
16.7380438322
 20
12.2891653384
 30
0.0
 10
16.71964673
 20
12.3197183472
 30
0.0
 10
16.7091338702
 20
12.3371771846
 30
0.0
 10
16.701249869
 20
12.3502713819
 30
0.0
 10
16.6946778186
 20
12.3611829927
 30
0.0
 10
16.6894247751
 20
12.3699127753
 30
0.0
 10
16.6861311554
 20
12.3753677647
 30
0.0
 10
16.6835202326
 20
12.3797343321
 30
0.0
 10
16.681833707
 20
12.3824575594
 30
0.0
 10
16.6806097706
 20
12.3846496028
 30
0.0
 10
16.6789284568
 20
12.3867925017
 30
0.0
 10
16.6757736863
 20
12.3905197451
 30
0.0
 10
16.6713777284
 20
12.3958562899
 30
0.0
 10
16.6642822423
 20
12.4043881048
 30
0.0
 10
16.655434107
 20
12.4150551538
 30
0.0
 10
16.6412651744
 20
12.4321211517
 30
0.0
 10
16.6235584899
 20
12.4534541309
 30
0.0
 10
16.6058487759
 20
12.4747867832
 30
0.0
 10
16.5916846906
 20
12.4918533043
 30
0.0
 10
16.5828244372
 20
12.5025190451
 30
0.0
 10
16.5757537931
 20
12.5110535417
 30
0.0
 10
16.5712945939
 20
12.5163832597
 30
0.0
 10
16.5682534116
 20
12.5201227648
 30
0.0
 10
16.5663900235
 20
12.5222460091
 30
0.0
 10
16.5640535963
 20
12.5243179608
 30
0.0
 10
16.5612950301
 20
12.526925463
 30
0.0
 10
16.556790809
 20
12.5310876517
 30
0.0
 10
16.551191525
 20
12.5362937482
 30
0.0
 10
16.5422153491
 20
12.5446216245
 30
0.0
 10
16.5310010715
 20
12.5550321137
 30
0.0
 10
16.5175413979
 20
12.5675244271
 30
0.0
 10
16.4995960387
 20
12.5841809308
 30
0.0
 10
16.4816505272
 20
12.6008374671
 30
0.0
 10
16.4637048182
 20
12.6174938412
 30
0.0
 10
16.4524893707
 20
12.6279044532
 30
0.0
 10
16.4435155727
 20
12.6362320759
 30
0.0
 10
16.4367891717
 20
12.6424801666
 30
0.0
 10
16.4311712793
 20
12.6476793577
 30
0.0
 10
16.4272633999
 20
12.6513336105
 30
0.0
 10
16.4249918443
 20
12.6533986162
 30
0.0
 10
16.4233965811
 20
12.6550125528
 30
0.0
 10
16.4213869447
 20
12.6563773295
 30
0.0
 10
16.4188519676
 20
12.6582839416
 30
0.0
 10
16.4143484146
 20
12.6615800198
 30
0.0
 10
16.4079499752
 20
12.6663098731
 30
0.0
 10
16.4002567777
 20
12.6719766356
 30
0.0
 10
16.3900044457
 20
12.6795354842
 30
0.0
 10
16.3771872211
 20
12.6889829584
 30
0.0
 10
16.3566807139
 20
12.7040995408
 30
0.0
 10
16.3361736843
 20
12.7192158582
 30
0.0
 10
16.3156674327
 20
12.7343325029
 30
0.0
 10
16.3002859326
 20
12.7456692696
 30
0.0
 10
16.2849112893
 20
12.7570087395
 30
0.0
 10
16.2733610947
 20
12.7655057702
 30
0.0
 10
16.2656908425
 20
12.7711822322
 30
0.0
 10
16.2624504448
 20
12.7735299031
 30
0.0
 10
16.2599618412
 20
12.7754489142
 30
0.0
 10
16.2570939469
 20
12.7772184451
 30
0.0
 10
16.2518989046
 20
12.7802456723
 30
0.0
 10
16.2445693622
 20
12.7846065193
 30
0.0
 10
16.2327907096
 20
12.791563623
 30
0.0
 10
16.2180849927
 20
12.8002669416
 30
0.0
 10
16.1945459829
 20
12.8141883447
 30
0.0
 10
16.1651257957
 20
12.8315916431
 30
0.0
 10
16.1357036371
 20
12.8489936464
 30
0.0
 10
16.1121677814
 20
12.8629171218
 30
0.0
 10
16.0974541792
 20
12.8716152597
 30
0.0
 10
16.0856916916
 20
12.8785829838
 30
0.0
 10
16.0783209975
 20
12.882916794
 30
0.0
 10
16.073199868
 20
12.8859925821
 30
0.0
 10
16.0702134963
 20
12.8876842732
 30
0.0
 10
16.06700109
 20
12.8891277449
 30
0.0
 10
16.0630628418
 20
12.8910169269
 30
0.0
 10
16.0535474577
 20
12.8954811344
 30
0.0
 10
16.0393010894
 20
12.9022067748
 30
0.0
 10
16.0202906667
 20
12.9111575321
 30
0.0
 10
16.0012843274
 20
12.9201127736
 30
0.0
 10
15.9759411169
 20
12.932051531
 30
0.0
 10
15.9315911663
 20
12.9529450899
 30
0.0
 10
15.893576694
 20
12.9708536032
 30
0.0
 10
15.8682337633
 20
12.9827926679
 30
0.0
  0
SPLINE
  5
37C
100
AcDbEntity
  8
03__ASM_ALL_CURVES
100
AcDbSpline
 62
8
  6
PHANTOM
 70
0
 71
3
 72
108
 73
104
 74
0
 42
0.0000001
 43
0.0000001
 44
0.0000000001
 40
0.0
 40
0.0
 40
0.0
 40
0.0
 40
0.0625
 40
0.09375
 40
0.109375
 40
0.125
 40
0.140625
 40
0.1484375
 40
0.15625
 40
0.16015625
 40
0.1640625
 40
0.166015625
 40
0.16796875
 40
0.169921875
 40
0.171875
 40
0.1796875
 40
0.1875
 40
0.1953125
 40
0.203125
 40
0.21875
 40
0.25
 40
0.28125
 40
0.296875
 40
0.3046875
 40
0.3125
 40
0.3203125
 40
0.328125
 40
0.330078125
 40
0.33203125
 40
0.3330078125
 40
0.333984375
 40
0.3359375
 40
0.33984375
 40
0.34375
 40
0.3515625
 40
0.359375
 40
0.375
 40
0.390625
 40
0.40625
 40
0.421875
 40
0.4375
 40
0.453125
 40
0.46875
 40
0.4765625
 40
0.484375
 40
0.48828125
 40
0.4921875
 40
0.49609375
 40
0.498046875
 40
0.4990234375
 40
0.5
 40
0.5009765625
 40
0.501953125
 40
0.50390625
 40
0.5078125
 40
0.51171875
 40
0.515625
 40
0.5234375
 40
0.53125
 40
0.546875
 40
0.5625
 40
0.578125
 40
0.59375
 40
0.609375
 40
0.625
 40
0.640625
 40
0.6484375
 40
0.65625
 40
0.66015625
 40
0.6640625
 40
0.666015625
 40
0.6669921875
 40
0.66796875
 40
0.669921875
 40
0.671875
 40
0.6796875
 40
0.6875
 40
0.6953125
 40
0.703125
 40
0.71875
 40
0.75
 40
0.78125
 40
0.796875
 40
0.8046875
 40
0.8125
 40
0.8203125
 40
0.82421875
 40
0.828125
 40
0.830078125
 40
0.83203125
 40
0.8330078125
 40
0.833984375
 40
0.8359375
 40
0.83984375
 40
0.84375
 40
0.8515625
 40
0.859375
 40
0.875
 40
0.890625
 40
0.90625
 40
0.9375
 40
0.96875
 40
1.0
 40
1.0
 40
1.0
 40
1.0
 10
15.8682337488
 20
12.982792674
 30
0.0
 10
15.8293029028
 20
12.9962099083
 30
0.0
 10
15.7709066209
 20
13.0163356973
 30
0.0
 10
15.7027776709
 20
13.0398160029
 30
0.0
 10
15.6638467772
 20
13.0532330085
 30
0.0
 10
15.6346487893
 20
13.0632966358
 30
0.0
 10
15.6103165519
 20
13.0716802114
 30
0.0
 10
15.5908520649
 20
13.0783933085
 30
0.0
 10
15.5786837936
 20
13.0825747929
 30
0.0
 10
15.5689559713
 20
13.0859525043
 30
0.0
 10
15.5628605792
 20
13.087989365
 30
0.0
 10
15.5580197743
 20
13.089788824
 30
0.0
 10
15.5542919461
 20
13.0906730323
 30
0.0
 10
15.5505368737
 20
13.0914268305
 30
0.0
 10
15.5430407435
 20
13.0930015104
 30
0.0
 10
15.5317906618
 20
13.0953353544
 30
0.0
 10
15.5167939172
 20
13.0984632504
 30
0.0
 10
15.5017962727
 20
13.1015868388
 30
0.0
 10
15.4817997274
 20
13.1057531253
 30
0.0
 10
15.4468056257
 20
13.1130434328
 30
0.0
 10
15.3968141367
 20
13.1234584734
 30
0.0
 10
15.3468225893
 20
13.1338735731
 30
0.0
 10
15.3118285695
 20
13.1411637979
 30
0.0
 10
15.2918318955
 20
13.1453302142
 30
0.0
 10
15.2768346457
 20
13.1484534041
 30
0.0
 10
15.261836419
 20
13.1515827968
 30
0.0
 10
15.2505904876
 20
13.1539124498
 30
0.0
 10
15.2430889409
 20
13.1554925993
 30
0.0
 10
15.2399696343
 20
13.1561107467
 30
0.0
 10
15.2374594041
 20
13.1566991556
 30
0.0
 10
15.2350032432
 20
13.1569441991
 30
0.0
 10
15.2307300836
 20
13.1572134896
 30
0.0
 10
15.2246124625
 20
13.157681428
 30
0.0
 10
15.2148315938
 20
13.1583836124
 30
0.0
 10
15.2026029998
 20
13.1592772703
 30
0.0
 10
15.1830386512
 20
13.1606982211
 30
0.0
 10
15.1585827344
 20
13.1624774643
 30
0.0
 10
15.1292358406
 20
13.1646112462
 30
0.0
 10
15.0998888911
 20
13.16674538
 30
0.0
 10
15.0705419579
 20
13.1688794165
 30
0.0
 10
15.041195015
 20
13.17101349
 30
0.0
 10
15.0118480946
 20
13.1731475131
 30
0.0
 10
14.987392261
 20
13.1749260028
 30
0.0
 10
14.9678277426
 20
13.1763484907
 30
0.0
 10
14.9555995807
 20
13.1772382368
 30
0.0
 10
14.9458178249
 20
13.1779484507
 30
0.0
 10
14.9384793898
 20
13.1784854452
 30
0.0
 10
14.9323707659
 20
13.1789191536
 30
0.0
 10
14.9280815045
 20
13.1792498061
 30
0.0
 10
14.9256511472
 20
13.1793965036
 30
0.0
 10
14.9237702102
 20
13.1796255366
 30
0.0
 10
14.9221116245
 20
13.1793996535
 30
0.0
 10
14.9198226182
 20
13.1792571559
 30
0.0
 10
14.9158529932
 20
13.1789338531
 30
0.0
 10
14.9101632081
 20
13.1785106444
 30
0.0
 10
14.9033435524
 20
13.1779862496
 30
0.0
 10
14.8942478537
 20
13.1772928351
 30
0.0
 10
14.8828791975
 20
13.1764240883
 30
0.0
 10
14.8646888069
 20
13.1750351995
 30
0.0
 10
14.8419510046
 20
13.1732987085
 30
0.0
 10
14.8146655607
 20
13.1712150839
 30
0.0
 10
14.7873801437
 20
13.1691314089
 30
0.0
 10
14.7600947003
 20
13.1670477708
 30
0.0
 10
14.7328093355
 20
13.1649640354
 30
0.0
 10
14.7055236825
 20
13.1628806521
 30
0.0
 10
14.6827865337
 20
13.1611434071
 30
0.0
 10
14.6645948099
 20
13.1597560564
 30
0.0
 10
14.6532295468
 20
13.1588833952
 30
0.0
 10
14.6441268832
 20
13.1581980157
 30
0.0
 10
14.6384615691
 20
13.1577405632
 30
0.0
 10
14.6344480495
 20
13.1574786472
 30
0.0
 10
14.632229397
 20
13.1572377639
 30
0.0
 10
14.6302924304
 20
13.1566533127
 30
0.0
 10
14.6277749407
 20
13.1560401816
 30
0.0
 10
14.6218122094
 20
13.1544720143
 30
0.0
 10
14.6128348291
 20
13.1521603585
 30
0.0
 10
14.600884012
 20
13.1490549484
 30
0.0
 10
14.5889281063
 20
13.1459557448
 30
0.0
 10
14.5729886735
 20
13.1418213086
 30
0.0
 10
14.545093841
 20
13.1345870522
 30
0.0
 10
14.5052444976
 20
13.1242518863
 30
0.0
 10
14.4653950563
 20
13.1139168583
 30
0.0
 10
14.4375003609
 20
13.1066824088
 30
0.0
 10
14.4215607125
 20
13.1025482762
 30
0.0
 10
14.4096054685
 20
13.099448141
 30
0.0
 10
14.3996443836
 20
13.0968632148
 30
0.0
 10
14.3916718851
 20
13.0947985941
 30
0.0
 10
14.3866973408
 20
13.0935006457
 30
0.0
 10
14.3826987715
 20
13.0924796021
 30
0.0
 10
14.3802428668
 20
13.0918019421
 30
0.0
 10
14.3781791939
 20
13.0913503039
 30
0.0
 10
14.3764767568
 20
13.0905683131
 30
0.0
 10
14.3736653013
 20
13.0890463665
 30
0.0
 10
14.3695613818
 20
13.0869522261
 30
0.0
 10
14.3630440402
 20
13.0835568552
 30
0.0
 10
14.3548806096
 20
13.0793279627
 30
0.0
 10
14.3418284843
 20
13.0725531718
 30
0.0
 10
14.325510115
 20
13.064087621
 30
0.0
 10
14.3059294469
 20
13.0539277026
 30
0.0
 10
14.2798214092
 20
13.040381584
 30
0.0
 10
14.247186527
 20
13.0234487849
 30
0.0
 10
14.2080245972
 20
13.0031294909
 30
0.0
 10
14.1819166576
 20
12.9895832826
 30
0.0
 10
14.1688626861
 20
12.98281018
 30
0.0
  0
SPLINE
  5
37D
100
AcDbEntity
  8
03__ASM_ALL_CURVES
100
AcDbSpline
 62
8
  6
PHANTOM
 70
0
 71
3
 72
51
 73
47
 74
0
 42
0.0000001
 43
0.0000001
 44
0.0000000001
 40
0.0
 40
0.0
 40
0.0
 40
0.0
 40
0.0625
 40
0.125
 40
0.140625
 40
0.15625
 40
0.1640625
 40
0.171875
 40
0.1875
 40
0.21875
 40
0.25
 40
0.28125
 40
0.3125
 40
0.328125
 40
0.3359375
 40
0.34375
 40
0.359375
 40
0.375
 40
0.40625
 40
0.4375
 40
0.46875
 40
0.484375
 40
0.4921875
 40
0.5
 40
0.5078125
 40
0.515625
 40
0.53125
 40
0.5625
 40
0.625
 40
0.640625
 40
0.65625
 40
0.6640625
 40
0.671875
 40
0.6875
 40
0.71875
 40
0.75
 40
0.78125
 40
0.8125
 40
0.828125
 40
0.8359375
 40
0.84375
 40
0.859375
 40
0.875
 40
0.90625
 40
0.9375
 40
1.0
 40
1.0
 40
1.0
 40
1.0
 10
14.168862677
 20
12.9828101736
 30
0.0
 10
14.1624764756
 20
12.9778571596
 30
0.0
 10
14.149699868
 20
12.9679534551
 30
0.0
 10
14.1353451063
 20
12.9568013318
 30
0.0
 10
14.1257476708
 20
12.9493818308
 30
0.0
 10
14.121789474
 20
12.9462678634
 30
0.0
 10
14.1185279129
 20
12.9438291855
 30
0.0
 10
14.1156137784
 20
12.9411985307
 30
0.0
 10
14.1106755423
 20
12.9365056016
 30
0.0
 10
14.1035360917
 20
12.9298486356
 30
0.0
 10
14.0950067823
 20
12.9218377043
 30
0.0
 10
14.0864610716
 20
12.9138415116
 30
0.0
 10
14.0793626243
 20
12.9071476991
 30
0.0
 10
14.0743526323
 20
12.9025192513
 30
0.0
 10
14.0715533073
 20
12.8997854266
 30
0.0
 10
14.0689930911
 20
12.8967164778
 30
0.0
 10
14.0657109823
 20
12.8929950377
 30
0.0
 10
14.0605051571
 20
12.8869766089
 30
0.0
 10
14.0539836138
 20
12.8794755237
 30
0.0
 10
14.0461578955
 20
12.8704650442
 30
0.0
 10
14.0396550335
 20
12.8629576345
 30
0.0
 10
14.0350639747
 20
12.8577036841
 30
0.0
 10
14.0325018937
 20
12.8546989101
 30
0.0
 10
14.0304073481
 20
12.8524525263
 30
0.0
 10
14.0289740515
 20
12.8501786144
 30
0.0
 10
14.026832334
 20
12.8471563423
 30
0.0
 10
14.0231918381
 20
12.8418628043
 30
0.0
 10
14.0158316708
 20
12.8312800166
 30
0.0
 10
14.0085165177
 20
12.8206897464
 30
0.0
 10
14.0022064813
 20
12.8116253427
 30
0.0
 10
13.9996223727
 20
12.807830453
 30
0.0
 10
13.9974509006
 20
12.8048365757
 30
0.0
 10
13.9956601108
 20
12.8016890047
 30
0.0
 10
13.9927031842
 20
12.7961092611
 30
0.0
 10
13.9883859653
 20
12.788176133
 30
0.0
 10
13.9832474153
 20
12.7786377113
 30
0.0
 10
13.9780892755
 20
12.7691132666
 30
0.0
 10
13.9738210309
 20
12.7611451959
 30
0.0
 10
13.9707783992
 20
12.7556266017
 30
0.0
 10
13.9691247376
 20
12.7523811918
 30
0.0
 10
13.9677909996
 20
12.7487896034
 30
0.0
 10
13.9660142856
 20
12.744418649
 30
0.0
 10
13.9632327615
 20
12.73735888
 30
0.0
 10
13.9597348861
 20
12.7285568598
 30
0.0
 10
13.9541500582
 20
12.7144608886
 30
0.0
 10
13.9499587884
 20
12.7038917764
 30
0.0
 10
13.9471651972
 20
12.6968450647
 30
0.0
  0
SPLINE
  5
37E
100
AcDbEntity
  8
03__ASM_ALL_CURVES
100
AcDbSpline
 62
8
  6
PHANTOM
 70
0
 71
3
 72
56
 73
52
 74
0
 42
0.0000001
 43
0.0000001
 44
0.0000000001
 40
0.0
 40
0.0
 40
0.0
 40
0.0
 40
0.0625
 40
0.09375
 40
0.125
 40
0.140625
 40
0.15625
 40
0.1640625
 40
0.171875
 40
0.1796875
 40
0.1875
 40
0.21875
 40
0.25
 40
0.28125
 40
0.3125
 40
0.3203125
 40
0.328125
 40
0.3359375
 40
0.34375
 40
0.359375
 40
0.375
 40
0.4375
 40
0.46875
 40
0.484375
 40
0.4921875
 40
0.5
 40
0.5078125
 40
0.515625
 40
0.53125
 40
0.5625
 40
0.625
 40
0.640625
 40
0.65625
 40
0.6640625
 40
0.671875
 40
0.6796875
 40
0.6875
 40
0.71875
 40
0.75
 40
0.78125
 40
0.8125
 40
0.8203125
 40
0.828125
 40
0.83203125
 40
0.8359375
 40
0.84375
 40
0.859375
 40
0.875
 40
0.90625
 40
0.9375
 40
1.0
 40
1.0
 40
1.0
 40
1.0
 10
13.9471651958
 20
12.6968450603
 30
0.0
 10
13.9449960165
 20
12.688093723
 30
0.0
 10
13.9417439607
 20
12.6749662665
 30
0.0
 10
13.9374010336
 20
12.6574647927
 30
0.0
 10
13.9347009808
 20
12.6465226185
 30
0.0
 10
13.9325083877
 20
12.6377774362
 30
0.0
 10
13.9312122559
 20
12.6322921812
 30
0.0
 10
13.9300053148
 20
12.6279486765
 30
0.0
 10
13.9295656727
 20
12.6245686598
 30
0.0
 10
13.9292564929
 20
12.6211543472
 30
0.0
 10
13.9285710073
 20
12.6143433674
 30
0.0
 10
13.9275712002
 20
12.604119438
 30
0.0
 10
13.9262207953
 20
12.5904920256
 30
0.0
 10
13.9248790734
 20
12.5768625533
 30
0.0
 10
13.9238597295
 20
12.5666432589
 30
0.0
 10
13.9231992076
 20
12.5598263566
 30
0.0
 10
13.922835216
 20
12.5564250475
 30
0.0
 10
13.922602339
 20
12.552995978
 30
0.0
 10
13.9229156266
 20
12.5482918152
 30
0.0
 10
13.9230938757
 20
12.5424567784
 30
0.0
 10
13.9236985622
 20
12.5284152993
 30
0.0
 10
13.9243316922
 20
12.5120482448
 30
0.0
 10
13.9250270572
 20
12.4956698938
 30
0.0
 10
13.9253247899
 20
12.4874888603
 30
0.0
 10
13.9255716604
 20
12.4828016401
 30
0.0
 10
13.9255408719
 20
12.4793209306
 30
0.0
 10
13.9263354799
 20
12.4757075703
 30
0.0
 10
13.9271070358
 20
12.470936027
 30
0.0
 10
13.9285915451
 20
12.4625642648
 30
0.0
 10
13.9314607142
 20
12.4458365582
 30
0.0
 10
13.9343918346
 20
12.42910019
 30
0.0
 10
13.9368427918
 20
12.4147619937
 30
0.0
 10
13.9379369095
 20
12.4087797662
 30
0.0
 10
13.9386434217
 20
12.4040124076
 30
0.0
 10
13.9396359203
 20
12.4003864061
 30
0.0
 10
13.9407580625
 20
12.3967462579
 30
0.0
 10
13.9429356795
 20
12.3894732345
 30
0.0
 10
13.9462297905
 20
12.3785607067
 30
0.0
 10
13.950607617
 20
12.3640120843
 30
0.0
 10
13.9549836671
 20
12.3494641876
 30
0.0
 10
13.9582817749
 20
12.3385500271
 30
0.0
 10
13.9604542849
 20
12.33127909
 30
0.0
 10
13.9613987476
 20
12.3282418159
 30
0.0
 10
13.9620627402
 20
12.3258300003
 30
0.0
 10
13.9630616429
 20
12.3233523436
 30
0.0
 10
13.9649653298
 20
12.3189858529
 30
0.0
 10
13.9676036945
 20
12.3127639703
 30
0.0
 10
13.9718704505
 20
12.302800038
 30
0.0
 10
13.9771883533
 20
12.2903481783
 30
0.0
 10
13.9857057232
 20
12.2704234872
 30
0.0
 10
13.9920917875
 20
12.2554803549
 30
0.0
 10
13.9963495999
 20
12.2455181809
 30
0.0
  0
SPLINE
  5
37F
100
AcDbEntity
  8
03__ASM_ALL_CURVES
100
AcDbSpline
 62
8
  6
PHANTOM
 70
0
 71
3
 72
52
 73
48
 74
0
 42
0.0000001
 43
0.0000001
 44
0.0000000001
 40
0.0
 40
0.0
 40
0.0
 40
0.0
 40
0.0625
 40
0.09375
 40
0.125
 40
0.140625
 40
0.15625
 40
0.1640625
 40
0.16796875
 40
0.171875
 40
0.1796875
 40
0.1875
 40
0.21875
 40
0.25
 40
0.28125
 40
0.3125
 40
0.328125
 40
0.3359375
 40
0.34375
 40
0.359375
 40
0.375
 40
0.4375
 40
0.46875
 40
0.484375
 40
0.4921875
 40
0.5
 40
0.5078125
 40
0.515625
 40
0.53125
 40
0.5625
 40
0.625
 40
0.640625
 40
0.65625
 40
0.6640625
 40
0.671875
 40
0.6875
 40
0.71875
 40
0.75
 40
0.78125
 40
0.8125
 40
0.828125
 40
0.8359375
 40
0.84375
 40
0.859375
 40
0.875
 40
0.9375
 40
1.0
 40
1.0
 40
1.0
 40
1.0
 10
13.9963495884
 20
12.2455182044
 30
0.0
 10
14.0012550409
 20
12.2365609479
 30
0.0
 10
14.0086138467
 20
12.2231248919
 30
0.0
 10
14.0184230797
 20
12.2052108352
 30
0.0
 10
14.0245590754
 20
12.1940131237
 30
0.0
 10
14.0294559588
 20
12.1850582059
 30
0.0
 10
14.0325436812
 20
12.1794539668
 30
0.0
 10
14.0346506354
 20
12.1755458606
 30
0.0
 10
14.0359398035
 20
12.1732894055
 30
0.0
 10
14.0375498567
 20
12.1709453738
 30
0.0
 10
14.0394527375
 20
12.1680452676
 30
0.0
 10
14.04410998
 20
12.161060382
 30
0.0
 10
14.0510571422
 20
12.1505933131
 30
0.0
 10
14.0603457757
 20
12.1366317649
 30
0.0
 10
14.0696139701
 20
12.1226701552
 30
0.0
 10
14.0773841371
 20
12.1110402325
 30
0.0
 10
14.0827341856
 20
12.1028893343
 30
0.0
 10
14.0859300434
 20
12.0982473136
 30
0.0
 10
14.0896481196
 20
12.0936642061
 30
0.0
 10
14.0941171029
 20
12.0879151658
 30
0.0
 10
14.1049906827
 20
12.0741342272
 30
0.0
 10
14.1176166729
 20
12.0580490751
 30
0.0
 10
14.1302927043
 20
12.0419714308
 30
0.0
 10
14.13659157
 20
12.0339257813
 30
0.0
 10
14.1402508874
 20
12.0293388987
 30
0.0
 10
14.1428266643
 20
12.0258687932
 30
0.0
 10
14.1460473031
 20
12.0225131462
 30
0.0
 10
14.150116543
 20
12.0179990219
 30
0.0
 10
14.1573426213
 20
12.0101179461
 30
0.0
 10
14.1717168369
 20
11.9943417174
 30
0.0
 10
14.186139065
 20
11.9785753848
 30
0.0
 10
14.198453763
 20
11.9650502345
 30
0.0
 10
14.2036407103
 20
11.9594286277
 30
0.0
 10
14.2076610138
 20
11.9548991634
 30
0.0
 10
14.2121536762
 20
11.9504873165
 30
0.0
 10
14.2202354159
 20
11.942821272
 30
0.0
 10
14.2316652602
 20
11.9318409332
 30
0.0
 10
14.245433566
 20
11.9186779905
 30
0.0
 10
14.2591766982
 20
11.905507347
 30
0.0
 10
14.2706694763
 20
11.8945462602
 30
0.0
 10
14.2786410819
 20
11.8868465247
 30
0.0
 10
14.2833099589
 20
11.8824885833
 30
0.0
 10
14.2884067011
 20
11.8782884064
 30
0.0
 10
14.2946313795
 20
11.8729842596
 30
0.0
 10
14.3096910055
 20
11.8602987007
 30
0.0
 10
14.3322294696
 20
11.8412515668
 30
0.0
 10
14.3522843735
 20
11.8243284187
 30
0.0
 10
14.3623092363
 20
11.8158658899
 30
0.0
  0
SPLINE
  5
380
100
AcDbEntity
  8
03__ASM_ALL_CURVES
100
AcDbSpline
 62
8
  6
PHANTOM
 70
0
 71
3
 72
25
 73
21
 74
0
 42
0.0000001
 43
0.0000001
 44
0.0000000001
 40
0.0
 40
0.0
 40
0.0
 40
0.0
 40
0.0625
 40
0.125
 40
0.140625
 40
0.15625
 40
0.171875
 40
0.1875
 40
0.21875
 40
0.25
 40
0.3125
 40
0.375
 40
0.5
 40
0.625
 40
0.75
 40
0.8125
 40
0.84375
 40
0.875
 40
0.9375
 40
1.0
 40
1.0
 40
1.0
 40
1.0
 10
14.3623092426
 20
11.8158658849
 30
0.0
 10
14.3636822835
 20
11.8147832378
 30
0.0
 10
14.3664305405
 20
11.8126163474
 30
0.0
 10
14.3695125417
 20
11.8101857781
 30
0.0
 10
14.3715814831
 20
11.8085549243
 30
0.0
 10
14.3725906685
 20
11.8077580518
 30
0.0
 10
14.3736981404
 20
11.8068890563
 30
0.0
 10
14.3756425435
 20
11.8053872812
 30
0.0
 10
14.3779124813
 20
11.8036273601
 30
0.0
 10
14.3816364566
 20
11.8007470089
 30
0.0
 10
14.3862431293
 20
11.797160959
 30
0.0
 10
14.393738753
 20
11.7914601447
 30
0.0
 10
14.4030897505
 20
11.7843289042
 30
0.0
 10
14.4145026351
 20
11.7758727158
 30
0.0
 10
14.4241135363
 20
11.7688323377
 30
0.0
 10
14.4307931142
 20
11.763967111
 30
0.0
 10
14.4347326732
 20
11.7611115234
 30
0.0
 10
14.4391474386
 20
11.7579776379
 30
0.0
 10
14.4445017615
 20
11.7541564037
 30
0.0
 10
14.4488352416
 20
11.7510701218
 30
0.0
 10
14.4509957289
 20
11.7495306426
 30
0.0
  0
SPLINE
  5
381
100
AcDbEntity
  8
03__ASM_ALL_CURVES
100
AcDbSpline
 62
8
  6
PHANTOM
 70
0
 71
3
 72
50
 73
46
 74
0
 42
0.0000001
 43
0.0000001
 44
0.0000000001
 40
0.0
 40
0.0
 40
0.0
 40
0.0
 40
0.0625
 40
0.125
 40
0.140625
 40
0.15625
 40
0.1640625
 40
0.171875
 40
0.1875
 40
0.21875
 40
0.25
 40
0.28125
 40
0.3125
 40
0.328125
 40
0.3359375
 40
0.34375
 40
0.359375
 40
0.375
 40
0.4375
 40
0.46875
 40
0.484375
 40
0.4921875
 40
0.5
 40
0.5078125
 40
0.515625
 40
0.53125
 40
0.5625
 40
0.625
 40
0.640625
 40
0.65625
 40
0.6640625
 40
0.671875
 40
0.6875
 40
0.71875
 40
0.75
 40
0.78125
 40
0.8125
 40
0.828125
 40
0.8359375
 40
0.84375
 40
0.859375
 40
0.875
 40
0.90625
 40
0.9375
 40
1.0
 40
1.0
 40
1.0
 40
1.0
 10
15.8667369315
 20
11.3116789358
 30
0.0
 10
15.8803190943
 20
11.3122453055
 30
0.0
 10
15.9074863235
 20
11.3133735103
 30
0.0
 10
15.9380363904
 20
11.3146631459
 30
0.0
 10
15.9584221561
 20
11.3154931453
 30
0.0
 10
15.9668880972
 20
11.3158829064
 30
0.0
 10
15.9737264517
 20
11.3160922639
 30
0.0
 10
15.9803249021
 20
11.3166762845
 30
0.0
 10
15.9917606468
 20
11.3178725049
 30
0.0
 10
16.0081561991
 20
11.319489722
 30
0.0
 10
16.0278037024
 20
11.3214722592
 30
0.0
 10
16.0474658049
 20
11.3234339606
 30
0.0
 10
16.0638248591
 20
11.325103267
 30
0.0
 10
16.0753244755
 20
11.3262083312
 30
0.0
 10
16.0818207312
 20
11.3269382018
 30
0.0
 10
16.0880348096
 20
11.3280385068
 30
0.0
 10
16.0958989297
 20
11.3292871881
 30
0.0
 10
16.1146927381
 20
11.3323890391
 30
0.0
 10
16.1366522382
 20
11.3359652126
 30
0.0
 10
16.1585816373
 20
11.3395774552
 30
0.0
 10
16.1695714543
 20
11.3413550645
 30
0.0
 10
16.1758125914
 20
11.3424145663
 30
0.0
 10
16.1806025427
 20
11.3430861636
 30
0.0
 10
16.1849754792
 20
11.3442280146
 30
0.0
 10
16.1909515306
 20
11.3455864448
 30
0.0
 10
16.2013417441
 20
11.3480402068
 30
0.0
 10
16.2221729732
 20
11.352890819
 30
0.0
 10
16.2429708948
 20
11.3577768656
 30
0.0
 10
16.2608327709
 20
11.3619296259
 30
0.0
 10
16.2682326032
 20
11.3637018686
 30
0.0
 10
16.274251239
 20
11.3650225686
 30
0.0
 10
16.2799088876
 20
11.3666981047
 30
0.0
 10
16.2896419773
 20
11.3697952607
 30
0.0
 10
16.3036345438
 20
11.3741328631
 30
0.0
 10
16.320386023
 20
11.3793780665
 30
0.0
 10
16.3371548603
 20
11.3846019975
 30
0.0
 10
16.3511040318
 20
11.388992781
 30
0.0
 10
16.3609130627
 20
11.39199687
 30
0.0
 10
16.3664492054
 20
11.3938213133
 30
0.0
 10
16.3717255565
 20
11.3960517058
 30
0.0
 10
16.3784099477
 20
11.3987006998
 30
0.0
 10
16.389055262
 20
11.4030167696
 30
0.0
 10
16.4023789334
 20
11.4083852479
 30
0.0
 10
16.4236872478
 20
11.4169897516
 30
0.0
 10
16.4396706345
 20
11.4234397682
 30
0.0
 10
16.4503257477
 20
11.4277405262
 30
0.0
  0
SPLINE
  5
382
100
AcDbEntity
  8
03__ASM_ALL_CURVES
100
AcDbSpline
 62
8
  6
PHANTOM
 70
0
 71
3
 72
50
 73
46
 74
0
 42
0.0000001
 43
0.0000001
 44
0.0000000001
 40
0.0
 40
0.0
 40
0.0
 40
0.0
 40
0.0625
 40
0.125
 40
0.140625
 40
0.15625
 40
0.1640625
 40
0.171875
 40
0.1875
 40
0.21875
 40
0.25
 40
0.28125
 40
0.3125
 40
0.328125
 40
0.3359375
 40
0.34375
 40
0.359375
 40
0.375
 40
0.40625
 40
0.4375
 40
0.46875
 40
0.484375
 40
0.4921875
 40
0.5
 40
0.5078125
 40
0.515625
 40
0.53125
 40
0.5625
 40
0.625
 40
0.640625
 40
0.65625
 40
0.6640625
 40
0.671875
 40
0.6875
 40
0.71875
 40
0.75
 40
0.78125
 40
0.8125
 40
0.828125
 40
0.8359375
 40
0.84375
 40
0.859375
 40
0.875
 40
0.9375
 40
1.0
 40
1.0
 40
1.0
 40
1.0
 10
16.4503257519
 20
11.4277405281
 30
0.0
 10
16.4582353508
 20
11.4317037998
 30
0.0
 10
16.474058323
 20
11.4396277253
 30
0.0
 10
16.4918421825
 20
11.448553922
 30
0.0
 10
16.5037228574
 20
11.4544875399
 30
0.0
 10
16.5086365755
 20
11.4569852415
 30
0.0
 10
16.5126528245
 20
11.4589242548
 30
0.0
 10
16.516357226
 20
11.4610795716
 30
0.0
 10
16.5226949792
 20
11.4649519645
 30
0.0
 10
16.5318249643
 20
11.4704308186
 30
0.0
 10
16.5427472096
 20
11.4770305789
 30
0.0
 10
16.5536827195
 20
11.4836148152
 30
0.0
 10
16.5627795429
 20
11.4891324791
 30
0.0
 10
16.5691753292
 20
11.492936955
 30
0.0
 10
16.5727868776
 20
11.4952009391
 30
0.0
 10
16.5762359164
 20
11.4978038038
 30
0.0
 10
16.5806028247
 20
11.500941356
 30
0.0
 10
16.5875589942
 20
11.5060262615
 30
0.0
 10
16.5962633953
 20
11.5123603439
 30
0.0
 10
16.6067108936
 20
11.5199698471
 30
0.0
 10
16.6153975001
 20
11.5263118179
 30
0.0
 10
16.6215184032
 20
11.5307459249
 30
0.0
 10
16.6249529058
 20
11.5332885236
 30
0.0
 10
16.6277067434
 20
11.5351705093
 30
0.0
 10
16.6297803165
 20
11.5371479364
 30
0.0
 10
16.6327823668
 20
11.5397512065
 30
0.0
 10
16.6379253757
 20
11.5443225273
 30
0.0
 10
16.6482925911
 20
11.5534528123
 30
0.0
 10
16.6586149376
 20
11.5625948442
 30
0.0
 10
16.6675008126
 20
11.5704145258
 30
0.0
 10
16.6711610443
 20
11.5736943756
 30
0.0
 10
16.6741867336
 20
11.5762679322
 30
0.0
 10
16.6768561801
 20
11.5790254622
 30
0.0
 10
16.6813621295
 20
11.5839367061
 30
0.0
 10
16.6878861701
 20
11.5909074583
 30
0.0
 10
16.6956760363
 20
11.5992942709
 30
0.0
 10
16.7034826805
 20
11.6076659403
 30
0.0
 10
16.7099647759
 20
11.6146745504
 30
0.0
 10
16.7145441295
 20
11.619519543
 30
0.0
 10
16.7170961294
 20
11.622383075
 30
0.0
 10
16.7194043639
 20
11.6256041502
 30
0.0
 10
16.722372979
 20
11.6295082818
 30
0.0
 10
16.7294290615
 20
11.6389788072
 30
0.0
 10
16.740042227
 20
11.6531419986
 30
0.0
 10
16.7494643508
 20
11.6657488112
 30
0.0
 10
16.7541768878
 20
11.6720500539
 30
0.0
  0
SPLINE
  5
383
100
AcDbEntity
  8
03__ASM_ALL_CURVES
100
AcDbSpline
 62
8
  6
PHANTOM
 70
0
 71
3
 72
73
 73
69
 74
0
 42
0.0000001
 43
0.0000001
 44
0.0000000001
 40
0.0
 40
0.0
 40
0.0
 40
0.0
 40
0.0625
 40
0.09375
 40
0.125
 40
0.140625
 40
0.15625
 40
0.1640625
 40
0.16796875
 40
0.171875
 40
0.1796875
 40
0.1875
 40
0.203125
 40
0.21875
 40
0.25
 40
0.28125
 40
0.296875
 40
0.3125
 40
0.3203125
 40
0.328125
 40
0.33203125
 40
0.3359375
 40
0.34375
 40
0.359375
 40
0.375
 40
0.390625
 40
0.40625
 40
0.4375
 40
0.453125
 40
0.46875
 40
0.484375
 40
0.4921875
 40
0.49609375
 40
0.5
 40
0.50390625
 40
0.5078125
 40
0.515625
 40
0.53125
 40
0.546875
 40
0.5625
 40
0.59375
 40
0.609375
 40
0.625
 40
0.640625
 40
0.65625
 40
0.6640625
 40
0.66796875
 40
0.671875
 40
0.6796875
 40
0.6875
 40
0.703125
 40
0.71875
 40
0.75
 40
0.78125
 40
0.796875
 40
0.8125
 40
0.8203125
 40
0.828125
 40
0.83203125
 40
0.8359375
 40
0.83984375
 40
0.84375
 40
0.859375
 40
0.875
 40
0.890625
 40
0.90625
 40
0.9375
 40
1.0
 40
1.0
 40
1.0
 40
1.0
 10
16.7541768855
 20
11.6720500503
 30
0.0
 10
16.7597594939
 20
11.6824222653
 30
0.0
 10
16.7681324302
 20
11.6979811188
 30
0.0
 10
16.7793002504
 20
11.7187241331
 30
0.0
 10
16.7862720022
 20
11.7316929412
 30
0.0
 10
16.7918679534
 20
11.7420579007
 30
0.0
 10
16.7953231165
 20
11.7485590059
 30
0.0
 10
16.7978265164
 20
11.7530636745
 30
0.0
 10
16.7991243755
 20
11.7557099063
 30
0.0
 10
16.7999225033
 20
11.7586278832
 30
0.0
 10
16.8010912704
 20
11.7621823093
 30
0.0
 10
16.8028656728
 20
11.7679213892
 30
0.0
 10
16.8051164338
 20
11.775077433
 30
0.0
 10
16.8086992503
 20
11.7865370655
 30
0.0
 10
16.8131847471
 20
11.8008581124
 30
0.0
 10
16.8176653404
 20
11.8151806811
 30
0.0
 10
16.8212560026
 20
11.8266378788
 30
0.0
 10
16.8234871494
 20
11.8338000096
 30
0.0
 10
16.8253017608
 20
11.8395266113
 30
0.0
 10
16.8263681667
 20
11.8431128035
 30
0.0
 10
16.8273764108
 20
11.8459655742
 30
0.0
 10
16.8278183585
 20
11.8488774244
 30
0.0
 10
16.8283286572
 20
11.8540006117
 30
0.0
 10
16.8291952341
 20
11.861305097
 30
0.0
 10
16.8301761422
 20
11.8700766355
 30
0.0
 10
16.8311728611
 20
11.8788465154
 30
0.0
 10
16.8324961406
 20
11.8905403259
 30
0.0
 10
16.8338218731
 20
11.9022336305
 30
0.0
 10
16.8351445061
 20
11.9139279748
 30
0.0
 10
16.8361433262
 20
11.9226961196
 30
0.0
 10
16.8369541498
 20
11.930011185
 30
0.0
 10
16.8375639371
 20
11.9351154903
 30
0.0
 10
16.8378464835
 20
11.9380575937
 30
0.0
 10
16.8382440437
 20
11.9401927389
 30
0.0
 10
16.8379319542
 20
11.9426009345
 30
0.0
 10
16.8377633686
 20
11.9457166188
 30
0.0
 10
16.8373530127
 20
11.951213442
 30
0.0
 10
16.836827091
 20
11.9590428464
 30
0.0
 10
16.8361701544
 20
11.9684480625
 30
0.0
 10
16.8353033602
 20
11.98098488
 30
0.0
 10
16.8344334988
 20
11.9935226597
 30
0.0
 10
16.8335659982
 20
12.0060601557
 30
0.0
 10
16.8329113573
 20
12.0154631668
 30
0.0
 10
16.8322715979
 20
12.0248667631
 30
0.0
 10
16.8316922066
 20
12.032701235
 30
0.0
 10
16.8313772646
 20
12.0381890119
 30
0.0
 10
16.8310558063
 20
12.0413191907
 30
0.0
 10
16.8302014114
 20
12.0444279235
 30
0.0
 10
16.8293158947
 20
12.0483211824
 30
0.0
 10
16.8277970892
 20
12.0545462937
 30
0.0
 10
16.8259335161
 20
12.062329083
 30
0.0
 10
16.8229321802
 20
12.0747807912
 30
0.0
 10
16.8191879169
 20
12.0903454852
 30
0.0
 10
16.8154385512
 20
12.1059108875
 30
0.0
 10
16.8124453791
 20
12.1183614626
 30
0.0
 10
16.8105613965
 20
12.1261470848
 30
0.0
 10
16.8090844306
 20
12.1323663884
 30
0.0
 10
16.8080924014
 20
12.1362744323
 30
0.0
 10
16.8074566442
 20
12.139352816
 30
0.0
 10
16.8065475831
 20
12.1417931707
 30
0.0
 10
16.8055173994
 20
12.1442703929
 30
0.0
 10
16.8035193378
 20
12.1492058726
 30
0.0
 10
16.8004960763
 20
12.1566170576
 30
0.0
 10
16.7964800181
 20
12.1664940849
 30
0.0
 10
16.7924599589
 20
12.17637233
 30
0.0
 10
16.7871012759
 20
12.1895428986
 30
0.0
 10
16.7777229263
 20
12.2125915928
 30
0.0
 10
16.7696845653
 20
12.2323475481
 30
0.0
 10
16.7643256081
 20
12.2455182002
 30
0.0
  0
ENDSEC
  0
SECTION
  2
OBJECTS
  0
DICTIONARY
  5
C
100
AcDbDictionary
280
0
281
1
  3
ACAD_GROUP
350
D
  3
ACAD_MLINESTYLE
350
17
  3
ACAD_LAYOUT
350
1A
  3
ACAD_PLOTSETTINGS
350
19
  3
ACAD_PLOTSTYLENAME
350
E
  0
DICTIONARY
  5
D
102
{ACAD_REACTORS
330
C
102
}
100
AcDbDictionary
280
0
281
1
  0
ACDBDICTIONARYWDFLT
  5
E
102
{ACAD_REACTORS
330
C
102
}
100
AcDbDictionary
281
1
  3
Normal
350
F
100
AcDbDictionaryWithDefault
340
F
  0
DICTIONARY
  5
17
102
{ACAD_REACTORS
330
C
102
}
100
AcDbDictionary
280
0
281
1
  3
Standard
350
18
  0
DICTIONARY
  5
19
102
{ACAD_REACTORS
330
C
102
}
100
AcDbDictionary
281
1
  0
DICTIONARY
  5
1A
102
{ACAD_REACTORS
330
C
102
}
100
AcDbDictionary
281
1
  3
Model
350
384
  3
Layout1
350
385
  0
ACDBPLACEHOLDER
  5
F
102
{ACAD_REACTORS
330
E
102
}
  0
MLINESTYLE
  5
18
102
{ACAD_REACTORS
330
17
102
}
100
AcDbMlineStyle
  2
STANDARD
 70
0
  3

 62
256
 51
90.0
 52
90.0
 71
2
 49
0.5
 62
256
  6
BYLAYER
 49
-0.5
 62
256
  6
BYLAYER
  0
LAYOUT
  5
384
102
{ACAD_REACTORS
330
1A
102
}
100
AcDbPlotSettings
  1

  2
none_device
  4
ANSI_C_(22.00_x_17.00_Inches)
  6

 40
0.0
 41
0.0
 42
0.0
 43
0.0
 44
558.8
 45
431.8
 46
0.0
 47
0.0
 48
0.0
 49
0.0
140
0.0
141
0.0
142
1.0
143
1.0
 70
1024
 72
0
 73
0
 74
0
  7

 75
0
147
1.0
148
0.0
149
0.0
100
AcDbLayout
  1
Model
 70
0
 71
0
 10
0.0
 20
0.0
 11
22.0
 21
17.0
 12
0.0
 22
0.0
 32
0.0
 14
0.0
 24
0.0
 34
0.0
 15
0.0
 25
0.0
 35
0.0
146
0.0
 13
0.0
 23
0.0
 33
0.0
 16
1.0
 26
0.0
 36
0.0
 17
0.0
 27
1.0
 37
0.0
 76
0
330
225
345
0
346
0
  0
LAYOUT
  5
385
102
{ACAD_REACTORS
330
1A
102
}
100
AcDbPlotSettings
  1

  2
none_device
  4
ANSI_C_(22.00_x_17.00_Inches)
  6

 40
0.0
 41
0.0
 42
0.0
 43
0.0
 44
558.8
 45
431.8
 46
0.0
 47
0.0
 48
0.0
 49
0.0
140
0.0
141
0.0
142
1.0
143
1.0
 70
0
 72
0
 73
0
 74
0
  7

 75
0
147
1.0
148
0.0
149
0.0
100
AcDbLayout
  1
Layout1
 70
0
 71
1
 10
0.0
 20
0.0
 11
22.0
 21
17.0
 12
0.0
 22
0.0
 32
0.0
 14
0.0
 24
0.0
 34
0.0
 15
0.0
 25
0.0
 35
0.0
146
0.0
 13
0.0
 23
0.0
 33
0.0
 16
1.0
 26
0.0
 36
0.0
 17
0.0
 27
1.0
 37
0.0
 76
0
330
226
345
0
346
0
  0
ENDSEC
  0
EOF