999
DXF file: _cgs_temp_output.dxf
999
Pro/ENGINEER 2016360 by Parametric Technology Corporation
  0
SECTION
  2
HEADER
  9
$ACADVER
  1
AC1021
  9
$DWGCODEPAGE
  3
ANSI_1252
  9
$EXTMAX
 10
22.0
 20
17.0
 30
0.0
  9
$EXTMIN
 10
0.0
 20
0.0
 30
0.0
  9
$LIMMIN
 10
0.0
 20
0.0
  9
$LIMMAX
 10
22.0
 20
17.0
  9
$VIEWCTR
 10
11.0
 20
8.5
  9
$VIEWSIZE
 40
17.0
  9
$CLAYER
  8
0
  9
$LTSCALE
 40
1.21
  9
$CELTYPE
  6
BYLAYER
  9
$DIMSCALE
 40
1.0
  9
$DIMASZ
 40
0.1875
  9
$DIMEXO
 40
0.0625
  9
$DIMDLI
 40
0.836
  9
$DIMEXE
 40
0.125
  9
$DIMCEN
 40
0.198
  9
$DIMLFAC
 40
1.0
  9
$DIMBLK
  1
_CLOSED
  9
$DIMALT
 70
0
  9
$DIMALTF
 40
25.4
  9
$DIMTXT
 40
0.15625
  9
$DIMTOL
 70
0
  9
$DIMLIM
 70
0
  9
$DIMTFAC
 40
1.0
  9
$DIMGAP
 40
0.09
  9
$DIMDSEP
 70
46
  9
$AUNITS
 70
0
  9
$PDMODE
 70
3
  9
$PDSIZE
 40
0.3125
  9
$HANDSEED
  5
308
  9
$TILEMODE
 70
1
  9
$MEASUREMENT
 70
0
  9
$INSUNITS
 70
1
  0
ENDSEC
  0
SECTION
  2
CLASSES
  0
CLASS
  1
ACDBDICTIONARYWDFLT
  2
AcDbDictionaryWithDefault
  3
AutoCAD 2000
 90
0
 91
1
280
0
281
0
  0
CLASS
  1
ACDBPLACEHOLDER
  2
AcDbPlaceHolder
  3
AutoCAD 2000
 90
0
 91
1
280
0
281
0
  0
CLASS
  1
LAYOUT
  2
AcDbLayout
  3
AutoCAD 2000
 90
0
 91
0
280
0
281
0
  0
ENDSEC
  0
SECTION
  2
TABLES
  0
TABLE
  2
VPORT
  5
8
100
AcDbSymbolTable
 70
2
  0
VPORT
  5
1F4
100
AcDbSymbolTableRecord
100
AcDbViewportTableRecord
  2
*ACTIVE
 70
0
 10
0.0
 20
0.0
 11
1.0
 21
1.0
 12
11.0
 22
8.5
 13
0.0
 23
0.0
 14
1.0
 24
1.0
 15
0.0
 25
0.0
 16
0.0
 26
0.0
 36
1.0
 17
0.0
 27
0.0
 37
0.0
 40
17.0
 41
1.2941176471
 42
50.0
 43
0.0
 44
0.0
 50
0.0
 51
0.0
 71
0
 72
100
 73
1
 74
1
 75
0
 76
0
 77
0
 78
0
  0
ENDTAB
  0
TABLE
  2
LTYPE
  5
5
100
AcDbSymbolTable
 70
6
  0
LTYPE
  5
14
100
AcDbSymbolTableRecord
100
AcDbLinetypeTableRecord
  2
BYBLOCK
 70
0
  3

 72
65
 73
0
 40
0.0
  0
LTYPE
  5
15
100
AcDbSymbolTableRecord
100
AcDbLinetypeTableRecord
  2
BYLAYER
 70
0
  3

 72
65
 73
0
 40
0.0
  0
LTYPE
  5
16
100
AcDbSymbolTableRecord
100
AcDbLinetypeTableRecord
  2
CONTINUOUS
 70
64
  3
Solid line
 72
65
 73
0
 40
0.0
  0
LTYPE
  5
1F5
100
AcDbSymbolTableRecord
100
AcDbLinetypeTableRecord
  2
CENTER
 70
64
  3
____ _ ____ _ ____ _ ____ _ ____ _ ____ _ ____
 72
65
 73
4
 40
0.6
 49
0.375
 74
0
 49
-0.075
 74
0
 49
0.075
 74
0
 49
-0.075
 74
0
  0
LTYPE
  5
1F6
100
AcDbSymbolTableRecord
100
AcDbLinetypeTableRecord
  2
HIDDEN
 70
64
  3
- - - - - - - - - - - - - - - - - - - -
 72
65
 73
2
 40
0.2
 49
0.1
 74
0
 49
-0.1
 74
0
  0
LTYPE
  5
1F7
100
AcDbSymbolTableRecord
100
AcDbLinetypeTableRecord
  2
PHANTOM
 70
64
  3
_____ _ _ _____ _ _ _____ _ _ _____
 72
65
 73
6
 40
0.8
 49
0.45
 74
0
 49
-0.05
 74
0
 49
0.1
 74
0
 49
-0.05
 74
0
 49
0.1
 74
0
 49
-0.05
 74
0
  0
LTYPE
  5
1F8
100
AcDbSymbolTableRecord
100
AcDbLinetypeTableRecord
  2
DOT
 70
64
  3
. . . . . . . . . . . . . . . . . . . .
 72
65
 73
2
 40
0.2
 49
0.1
 74
0
 49
-0.1
 74
0
  0
LTYPE
  5
1F9
100
AcDbSymbolTableRecord
100
AcDbLinetypeTableRecord
  2
DASHED
 70
64
  3
- - - - - - - - - - - - - - - - - - - -
 72
65
 73
2
 40
0.2
 49
0.1
 74
0
 49
-0.1
 74
0
  0
ENDTAB
  0
TABLE
  2
LAYER
  5
2
100
AcDbSymbolTable
 70
36
  0
LAYER
  5
10
100
AcDbSymbolTableRecord
100
AcDbLayerTableRecord
  2
0
 70
0
 62
7
  6
CONTINUOUS
370
-3
390
F
  0
LAYER
  5
1FA
100
AcDbSymbolTableRecord
100
AcDbLayerTableRecord
  2
DEFAULT_1
 70
0
 62
7
  6
CENTER
370
-3
390
F
  0
LAYER
  5
1FB
100
AcDbSymbolTableRecord
100
AcDbLayerTableRecord
  2
DEFAULT_2
 70
0
 62
8
  6
HIDDEN
370
-3
390
F
  0
LAYER
  5
1FC
100
AcDbSymbolTableRecord
100
AcDbLayerTableRecord
  2
DEFAULT_3
 70
0
 62
7
  6
PHANTOM
370
-3
390
F
  0
LAYER
  5
1FD
100
AcDbSymbolTableRecord
100
AcDbLayerTableRecord
  2
01_ALL_DTM_PLN
 70
0
 62
7
  6
CONTINUOUS
370
-3
390
F
  0
LAYER
  5
1FE
100
AcDbSymbolTableRecord
100
AcDbLayerTableRecord
  2
01__ASM_ALL_DTM_PLN
 70
0
 62
7
  6
CONTINUOUS
370
-3
390
F
  0
LAYER
  5
1FF
100
AcDbSymbolTableRecord
100
AcDbLayerTableRecord
  2
01__ASM_DEF_DTM_PLN
 70
0
 62
7
  6
CONTINUOUS
370
-3
390
F
  0
LAYER
  5
200
100
AcDbSymbolTableRecord
100
AcDbLayerTableRecord
  2
01___PRT_ALL_DTM_PLN
 70
0
 62
7
  6
CONTINUOUS
370
-3
390
F
  0
LAYER
  5
201
100
AcDbSymbolTableRecord
100
AcDbLayerTableRecord
  2
01___PRT_DEF_DTM_PLN
 70
0
 62
7
  6
CONTINUOUS
370
-3
390
F
  0
LAYER
  5
202
100
AcDbSymbolTableRecord
100
AcDbLayerTableRecord
  2
02_ALL_AXES
 70
0
 62
7
  6
CONTINUOUS
370
-3
390
F
  0
LAYER
  5
203
100
AcDbSymbolTableRecord
100
AcDbLayerTableRecord
  2
02__ASM_ALL_AXES
 70
0
 62
7
  6
CONTINUOUS
370
-3
390
F
  0
LAYER
  5
204
100
AcDbSymbolTableRecord
100
AcDbLayerTableRecord
  2
02___PRT_ALL_AXES
 70
0
 62
7
  6
CONTINUOUS
370
-3
390
F
  0
LAYER
  5
205
100
AcDbSymbolTableRecord
100
AcDbLayerTableRecord
  2
03_ALL_CURVES
 70
0
 62
7
  6
CONTINUOUS
370
-3
390
F
  0
LAYER
  5
206
100
AcDbSymbolTableRecord
100
AcDbLayerTableRecord
  2
03__ASM_ALL_CURVES
 70
0
 62
7
  6
CONTINUOUS
370
-3
390
F
  0
LAYER
  5
207
100
AcDbSymbolTableRecord
100
AcDbLayerTableRecord
  2
03___PRT_ALL_CURVES
 70
0
 62
7
  6
CONTINUOUS
370
-3
390
F
  0
LAYER
  5
208
100
AcDbSymbolTableRecord
100
AcDbLayerTableRecord
  2
04_ALL_DTM_PNT
 70
0
 62
7
  6
CONTINUOUS
370
-3
390
F
  0
LAYER
  5
209
100
AcDbSymbolTableRecord
100
AcDbLayerTableRecord
  2
04__ASM_ALL_DTM_PNT
 70
0
 62
7
  6
CONTINUOUS
370
-3
390
F
  0
LAYER
  5
20A
100
AcDbSymbolTableRecord
100
AcDbLayerTableRecord
  2
04___PRT_ALL_DTM_PNT
 70
0
 62
7
  6
CONTINUOUS
370
-3
390
F
  0
LAYER
  5
20B
100
AcDbSymbolTableRecord
100
AcDbLayerTableRecord
  2
05_ALL_DTM_CSYS
 70
0
 62
7
  6
CONTINUOUS
370
-3
390
F
  0
LAYER
  5
20C
100
AcDbSymbolTableRecord
100
AcDbLayerTableRecord
  2
05__ASM_ALL_DTM_CSYS
 70
0
 62
7
  6
CONTINUOUS
370
-3
390
F
  0
LAYER
  5
20D
100
AcDbSymbolTableRecord
100
AcDbLayerTableRecord
  2
05__ASM_DEF_DTM_CSYS
 70
0
 62
7
  6
CONTINUOUS
370
-3
390
F
  0
LAYER
  5
20E
100
AcDbSymbolTableRecord
100
AcDbLayerTableRecord
  2
05___PRT_ALL_DTM_CSYS
 70
0
 62
7
  6
CONTINUOUS
370
-3
390
F
  0
LAYER
  5
20F
100
AcDbSymbolTableRecord
100
AcDbLayerTableRecord
  2
05___PRT_DEF_DTM_CSYS
 70
0
 62
7
  6
CONTINUOUS
370
-3
390
F
  0
LAYER
  5
210
100
AcDbSymbolTableRecord
100
AcDbLayerTableRecord
  2
06_ALL_SURFS
 70
0
 62
7
  6
CONTINUOUS
370
-3
390
F
  0
LAYER
  5
211
100
AcDbSymbolTableRecord
100
AcDbLayerTableRecord
  2
06__ASM_ALL_SURFS
 70
0
 62
7
  6
CONTINUOUS
370
-3
390
F
  0
LAYER
  5
212
100
AcDbSymbolTableRecord
100
AcDbLayerTableRecord
  2
06___PRT_ALL_SURFS
 70
0
 62
7
  6
CONTINUOUS
370
-3
390
F
  0
LAYER
  5
213
100
AcDbSymbolTableRecord
100
AcDbLayerTableRecord
  2
07__ASM_ALL_SKELETONS
 70
0
 62
7
  6
CONTINUOUS
370
-3
390
F
  0
LAYER
  5
214
100
AcDbSymbolTableRecord
100
AcDbLayerTableRecord
  2
ARI
 70
0
 62
7
  6
CONTINUOUS
370
-3
390
F
  0
LAYER
  5
215
100
AcDbSymbolTableRecord
100
AcDbLayerTableRecord
  2
INTFCLR_1246
 70
0
 62
7
  6
CONTINUOUS
370
-3
390
F
  0
LAYER
  5
216
100
AcDbSymbolTableRecord
100
AcDbLayerTableRecord
  2
INTFCLR_1589
 70
0
 62
7
  6
CONTINUOUS
370
-3
390
F
  0
LAYER
  5
217
100
AcDbSymbolTableRecord
100
AcDbLayerTableRecord
  2
INTFCLR_2444
 70
0
 62
7
  6
CONTINUOUS
370
-3
390
F
  0
LAYER
  5
218
100
AcDbSymbolTableRecord
100
AcDbLayerTableRecord
  2
INTFCLR_247
 70
0
 62
7
  6
CONTINUOUS
370
-3
390
F
  0
LAYER
  5
219
100
AcDbSymbolTableRecord
100
AcDbLayerTableRecord
  2
NONE
 70
0
 62
7
  6
CONTINUOUS
370
-3
390
F
  0
LAYER
  5
21A
100
AcDbSymbolTableRecord
100
AcDbLayerTableRecord
  2
_174
 70
0
 62
7
  6
CONTINUOUS
370
-3
390
F
  0
LAYER
  5
21B
100
AcDbSymbolTableRecord
100
AcDbLayerTableRecord
  2
_2302
 70
0
 62
7
  6
CONTINUOUS
370
-3
390
F
  0
LAYER
  5
21C
100
AcDbSymbolTableRecord
100
AcDbLayerTableRecord
  2
_368
 70
0
 62
7
  6
CONTINUOUS
370
-3
390
F
  0
LAYER
  5
21D
100
AcDbSymbolTableRecord
100
AcDbLayerTableRecord
  2
_4292
 70
0
 62
7
  6
CONTINUOUS
370
-3
390
F
  0
LAYER
  5
21E
100
AcDbSymbolTableRecord
100
AcDbLayerTableRecord
  2
_743
 70
0
 62
7
  6
CONTINUOUS
370
-3
390
F
  0
ENDTAB
  0
TABLE
  2
STYLE
  5
3
100
AcDbSymbolTable
 70
1
  0
STYLE
  5
11
100
AcDbSymbolTableRecord
100
AcDbTextStyleTableRecord
  2
STANDARD
 70
0
 40
0.0
 41
0.8
 50
0.0
 71
0
 42
0.2
  3
txt
  4

  0
STYLE
  5
21F
100
AcDbSymbolTableRecord
100
AcDbTextStyleTableRecord
  2
TEXTSTYLE_1
 70
0
 40
0.0
 41
0.8
 50
0.0
 71
0
 42
0.2
  3
gdt
  4

  0
ENDTAB
  0
TABLE
  2
VIEW
  5
6
100
AcDbSymbolTable
 70
0
  0
ENDTAB
  0
TABLE
  2
UCS
  5
7
100
AcDbSymbolTable
 70
0
  0
ENDTAB
  0
TABLE
  2
APPID
  5
9
100
AcDbSymbolTable
 70
1
  0
APPID
  5
220
100
AcDbSymbolTableRecord
100
AcDbRegAppTableRecord
  2
ACAD
 70
0
  0
ENDTAB
  0
TABLE
  2
BLOCK_RECORD
  5
1
100
AcDbSymbolTable
 70
0
  0
BLOCK_RECORD
  5
221
100
AcDbSymbolTableRecord
100
AcDbBlockTableRecord
  2
*Model_Space
  0
BLOCK_RECORD
  5
222
100
AcDbSymbolTableRecord
100
AcDbBlockTableRecord
  2
*Paper_Space
  0
BLOCK_RECORD
  5
223
100
AcDbSymbolTableRecord
100
AcDbBlockTableRecord
  2
_CLOSED
  0
ENDTAB
  0
TABLE
  2
DIMSTYLE
  5
A
100
AcDbSymbolTable
 70
1
100
AcDbDimStyleTable
 71
0
  0
DIMSTYLE
105
224
100
AcDbSymbolTableRecord
100
AcDbDimStyleTableRecord
  2
STANDARD
 70
0
  3

  4

 40
1.0
 41
0.1875
 42
0.0625
 43
0.38
 44
0.125
 45
0.0
 46
0.0
 47
0.0001
 48
0.0001
140
0.15625
141
0.09
142
0.0
143
25.4
144
1.0
145
0.0
146
1.0
147
0.09
 71
0.0
 72
0.0
 73
1
 74
1
 75
0
 76
0
 77
0
 78
4
 79
1
170
0
171
3
172
0
173
0
174
0
175
0
176
0
177
0
178
0
270
2
179
4
271
4
272
4
273
2
274
2
275
0
280
0
281
0
282
0
283
1
284
4
285
0
286
0
287
3
288
0
340
11
278
46
341
223
342
223
343
223
344
223
  0
ENDTAB
  0
ENDSEC
  0
SECTION
  2
BLOCKS
  0
BLOCK
  5
20
100
AcDbEntity
  8
0
100
AcDbBlockBegin
  2
*Model_Space
 70
0
 10
0.0
 20
0.0
 30
0.0
  3
*Model_Space
  1

  0
ENDBLK
  5
21
100
AcDbEntity
  8
0
100
AcDbBlockEnd
  0
BLOCK
  5
1C
100
AcDbEntity
  8
0
100
AcDbBlockBegin
  2
*Paper_Space
 70
0
 10
0.0
 20
0.0
 30
0.0
  3
*Paper_Space
  1

  0
ENDBLK
  5
1D
100
AcDbEntity
  8
0
100
AcDbBlockEnd
  0
BLOCK
  5
225
100
AcDbEntity
  8
0
100
AcDbBlockBegin
  2
_CLOSED
 70
64
 10
0.0
 20
0.0
  3
_CLOSED
  1

  0
LINE
  5
226
100
AcDbEntity
  8
0
  6
BYBLOCK
 62
0
100
AcDbLine
 10
0.0
 20
0.0
 11
-1.0
 21
0.1666666667
  0
LINE
  5
227
100
AcDbEntity
  8
0
  6
BYBLOCK
 62
0
100
AcDbLine
 10
-1.0
 20
0.1666666667
 11
-1.0
 21
-0.1666666667
  0
LINE
  5
228
100
AcDbEntity
  8
0
  6
BYBLOCK
 62
0
100
AcDbLine
 10
-1.0
 20
-0.1666666667
 11
0.0
 21
0.0
  0
LINE
  5
229
100
AcDbEntity
  8
0
  6
BYBLOCK
 62
0
100
AcDbLine
 10
-1.0
 20
0.0
 11
0.0
 21
0.0
  0
ENDBLK
  5
22A
100
AcDbEntity
  8
0
  6
BYBLOCK
 62
0
100
AcDbBlockEnd
  0
ENDSEC
  0
SECTION
  2
ENTITIES
  0
MTEXT
  5
22B
100
AcDbEntity
  8
0
100
AcDbMText
 62
7
  6
CONTINUOUS
  7
STANDARD
 71
1
 72
1
 10
15.9560215477
 20
0.9479130325
 30
0.0
 11
1.0
 21
0.0
 31
0.0
 44
0.9
  1
SCALE: 1:1.000
 40
0.3
 41
3.36
  0
LEADER
  5
22C
100
AcDbEntity
  8
0
100
AcDbLeader
 62
2
  6
CONTINUOUS
  3
STANDARD
 71
1
 72
0
 73
0
 75
0
 40
0.15625
 41
0.75
 76
3
 10
15.182130057
 20
6.0476247044
 30
0.0
 10
15.1634108875
 20
6.0705562644
 30
0.0
 10
14.9134108875
 20
6.0705562644
 30
0.0
340
22D
1001
ACAD
1000
DSTYLE
1002
{
1070
77
1070
0
1002
}
  0
MTEXT
  5
22D
102
{ACAD_REACTORS
330
22C
102
}
100
AcDbEntity
  8
0
100
AcDbMText
 62
2
  6
CONTINUOUS
  7
STANDARD
 71
3
 72
1
 10
14.9134108875
 20
6.1486812644
 30
0.0
 11
1.0
 21
0.0
 31
0.0
 44
0.9
  1
#10-32 
 40
0.15625
 41
0.875
  0
LINE
  5
22E
100
AcDbEntity
  8
0
100
AcDbLine
 62
7
  6
CONTINUOUS
 10
0.0
 20
0.0
 11
0.0
 21
17.0
  0
LINE
  5
22F
100
AcDbEntity
  8
0
100
AcDbLine
 62
7
  6
CONTINUOUS
 10
0.0
 20
0.0
 11
22.0
 21
0.0
  0
LINE
  5
230
100
AcDbEntity
  8
0
100
AcDbLine
 62
7
  6
CONTINUOUS
 10
0.0
 20
17.0
 11
22.0
 21
17.0
  0
LINE
  5
231
100
AcDbEntity
  8
0
100
AcDbLine
 62
7
  6
CONTINUOUS
 10
22.0
 20
0.0
 11
22.0
 21
17.0
  0
LINE
  5
232
100
AcDbEntity
  8
0
100
AcDbLine
 62
7
  6
CONTINUOUS
 10
5.5433672762
 20
5.4456198968
 11
5.5433672762
 21
5.5946194698
  0
LINE
  5
233
100
AcDbEntity
  8
0
100
AcDbLine
 62
7
  6
CONTINUOUS
 10
6.0508672762
 20
6.0916168346
 11
6.0508672762
 21
6.1021198968
  0
LINE
  5
234
100
AcDbEntity
  8
0
100
AcDbLine
 62
7
  6
CONTINUOUS
 10
6.1303672762
 20
6.4453198968
 11
6.1303672762
 21
6.5513698968
  0
LINE
  5
235
100
AcDbEntity
  8
0
100
AcDbLine
 62
7
  6
CONTINUOUS
 10
5.5588703383
 20
5.4406198968
 11
5.5483672762
 21
5.4406198968
  0
LINE
  5
236
100
AcDbEntity
  8
0
100
AcDbLine
 62
7
  6
CONTINUOUS
 10
5.9697079822
 20
6.4312640298
 11
5.9512925929
 21
6.535702892
  0
LINE
  5
237
100
AcDbEntity
  8
0
100
AcDbLine
 62
7
  6
CONTINUOUS
 10
6.2098672762
 20
6.0916168346
 11
6.2098672762
 21
6.1021198968
  0
LINE
  5
238
100
AcDbEntity
  8
0
100
AcDbLine
 62
7
  6
CONTINUOUS
 10
5.5588703383
 20
5.5996198968
 11
5.5483672762
 21
5.5996198968
  0
LINE
  5
239
100
AcDbEntity
  8
0
100
AcDbLine
 62
7
  6
CONTINUOUS
 10
6.0558672762
 20
6.1071198968
 11
6.2048668492
 21
6.1071198968
  0
LINE
  5
23A
100
AcDbEntity
  8
0
100
AcDbLine
 62
7
  6
CONTINUOUS
 10
5.0396220839
 20
12.5861727814
 11
5.0396220839
 21
12.6330477814
  0
LINE
  5
23B
100
AcDbEntity
  8
0
100
AcDbLine
 62
7
  6
CONTINUOUS
 10
5.1456720839
 20
12.5124227814
 11
5.1456720839
 21
12.5861727814
  0
LINE
  5
23C
100
AcDbEntity
  8
0
100
AcDbLine
 62
7
  6
CONTINUOUS
 10
5.1456720839
 20
12.6330477814
 11
5.1456720839
 21
12.8995477814
  0
LINE
  5
23D
100
AcDbEntity
  8
0
100
AcDbLine
 62
7
  6
CONTINUOUS
 10
5.1456720839
 20
12.9932977814
 11
5.1456720839
 21
13.0964227814
  0
LINE
  5
23E
100
AcDbEntity
  8
0
100
AcDbLine
 62
7
  6
CONTINUOUS
 10
5.4838720839
 20
12.1505477814
 11
5.4838720839
 21
12.2995477814
  0
LINE
  5
23F
100
AcDbEntity
  8
0
100
AcDbLine
 62
7
  6
CONTINUOUS
 10
5.4938720839
 20
12.0106727814
 11
5.4938720839
 21
12.1455477814
  0
LINE
  5
240
100
AcDbEntity
  8
0
100
AcDbLine
 62
7
  6
CONTINUOUS
 10
5.4938720839
 20
12.3045477814
 11
5.4938720839
 21
12.4924227814
  0
LINE
  5
241
100
AcDbEntity
  8
0
100
AcDbLine
 62
7
  6
CONTINUOUS
 10
5.4938720839
 20
13.1164227814
 11
5.4938720839
 21
13.1894227814
  0
LINE
  5
242
100
AcDbEntity
  8
0
100
AcDbLine
 62
7
  6
CONTINUOUS
 10
6.6278720839
 20
11.9906727814
 11
5.5138720839
 21
11.9906727814
  0
LINE
  5
243
100
AcDbEntity
  8
0
100
AcDbLine
 62
7
  6
CONTINUOUS
 10
5.4888720839
 20
12.1455477814
 11
5.4938720839
 21
12.1455477814
  0
LINE
  5
244
100
AcDbEntity
  8
0
100
AcDbLine
 62
7
  6
CONTINUOUS
 10
6.0708720839
 20
12.179148435
 11
6.0311220839
 21
12.2020981082
  0
LINE
  5
245
100
AcDbEntity
  8
0
100
AcDbLine
 62
7
  6
CONTINUOUS
 10
5.4888720839
 20
12.3045477814
 11
5.4938720839
 21
12.3045477814
  0
LINE
  5
246
100
AcDbEntity
  8
0
100
AcDbLine
 62
7
  6
CONTINUOUS
 10
6.0708720839
 20
12.2709471278
 11
6.1106220839
 21
12.2479974546
  0
LINE
  5
247
100
AcDbEntity
  8
0
100
AcDbLine
 62
7
  6
CONTINUOUS
 10
5.8917974006
 20
12.5861727814
 11
5.8917974006
 21
12.6330477814
  0
LINE
  5
248
100
AcDbEntity
  8
0
100
AcDbLine
 62
7
  6
CONTINUOUS
 10
5.9183525482
 20
12.6330477814
 11
5.9183525482
 21
12.5861727814
  0
LINE
  5
249
100
AcDbEntity
  8
0
100
AcDbLine
 62
7
  6
CONTINUOUS
 10
6.9760720839
 20
12.4924227814
 11
5.1656720839
 21
12.4924227814
  0
LINE
  5
24A
100
AcDbEntity
  8
0
100
AcDbLine
 62
7
  6
CONTINUOUS
 10
6.0311220839
 20
12.2020981082
 11
6.0311220839
 21
12.2479974546
  0
LINE
  5
24B
100
AcDbEntity
  8
0
100
AcDbLine
 62
7
  6
CONTINUOUS
 10
6.0708720839
 20
12.6330477814
 11
6.0708720839
 21
12.5861727814
  0
LINE
  5
24C
100
AcDbEntity
  8
0
100
AcDbLine
 62
7
  6
CONTINUOUS
 10
5.0396220839
 20
12.5861727814
 11
7.1021220839
 21
12.5861727814
  0
LINE
  5
24D
100
AcDbEntity
  8
0
100
AcDbLine
 62
7
  6
CONTINUOUS
 10
6.1106220839
 20
12.2479974546
 11
6.1106220839
 21
12.2020981082
  0
LINE
  5
24E
100
AcDbEntity
  8
0
100
AcDbLine
 62
7
  6
CONTINUOUS
 10
5.0396220839
 20
12.6330477814
 11
7.1021220839
 21
12.6330477814
  0
LINE
  5
24F
100
AcDbEntity
  8
03__ASM_ALL_CURVES
100
AcDbLine
 62
8
  6
PHANTOM
 10
7.1021220839
 20
12.8044227814
 11
5.0396220839
 21
12.8044227814
  0
LINE
  5
250
100
AcDbEntity
  8
0
100
AcDbLine
 62
7
  6
CONTINUOUS
 10
6.0311220839
 20
12.2479974546
 11
6.0708720839
 21
12.2709471278
  0
LINE
  5
251
100
AcDbEntity
  8
0
100
AcDbLine
 62
7
  6
CONTINUOUS
 10
5.1456720839
 20
12.8995477814
 11
6.9960720839
 21
12.8995477814
  0
LINE
  5
252
100
AcDbEntity
  8
0
100
AcDbLine
 62
7
  6
CONTINUOUS
 10
6.1106220839
 20
12.2020981082
 11
6.0708720839
 21
12.179148435
  0
LINE
  5
253
100
AcDbEntity
  8
0
100
AcDbLine
 62
7
  6
CONTINUOUS
 10
6.9960720839
 20
12.9932977814
 11
5.1456720839
 21
12.9932977814
  0
LINE
  5
254
100
AcDbEntity
  8
0
100
AcDbLine
 62
7
  6
CONTINUOUS
 10
5.1656720839
 20
13.1164227814
 11
6.9760720839
 21
13.1164227814
  0
LINE
  5
255
100
AcDbEntity
  8
0
100
AcDbLine
 62
7
  6
CONTINUOUS
 10
6.6478720839
 20
12.0106727814
 11
6.6478720839
 21
12.4924227814
  0
LINE
  5
256
100
AcDbEntity
  8
0
100
AcDbLine
 62
7
  6
CONTINUOUS
 10
6.6478720839
 20
13.1164227814
 11
6.6478720839
 21
13.1894227814
  0
LINE
  5
257
100
AcDbEntity
  8
0
100
AcDbLine
 62
7
  6
CONTINUOUS
 10
5.5138720839
 20
13.2094227814
 11
6.6278720839
 21
13.2094227814
  0
LINE
  5
258
100
AcDbEntity
  8
0
100
AcDbLine
 62
7
  6
CONTINUOUS
 10
6.9960720839
 20
12.5124227814
 11
6.9960720839
 21
12.5861727814
  0
LINE
  5
259
100
AcDbEntity
  8
0
100
AcDbLine
 62
7
  6
CONTINUOUS
 10
6.9960720839
 20
12.6330477814
 11
6.9960720839
 21
12.8995477814
  0
LINE
  5
25A
100
AcDbEntity
  8
0
100
AcDbLine
 62
7
  6
CONTINUOUS
 10
6.9960720839
 20
12.9932977814
 11
6.9960720839
 21
13.0964227814
  0
LINE
  5
25B
100
AcDbEntity
  8
0
100
AcDbLine
 62
7
  6
CONTINUOUS
 10
7.1021220839
 20
12.5861727814
 11
7.1021220839
 21
12.6330477814
  0
LINE
  5
25C
100
AcDbEntity
  8
0
100
AcDbLine
 62
7
  6
CONTINUOUS
 10
15.5933552569
 20
4.4293747044
 11
15.5464802569
 21
4.4293747044
  0
LINE
  5
25D
100
AcDbEntity
  8
0
100
AcDbLine
 62
7
  6
CONTINUOUS
 10
16.0567302569
 20
4.5354247044
 11
15.9536052569
 21
4.5354247044
  0
LINE
  5
25E
100
AcDbEntity
  8
0
100
AcDbLine
 62
7
  6
CONTINUOUS
 10
15.8598552569
 20
4.5354247044
 11
15.5933552569
 21
4.5354247044
  0
LINE
  5
25F
100
AcDbEntity
  8
0
100
AcDbLine
 62
7
  6
CONTINUOUS
 10
15.5464802569
 20
4.5354247044
 11
15.4727302569
 21
4.5354247044
  0
LINE
  5
260
100
AcDbEntity
  8
0
100
AcDbLine
 62
7
  6
CONTINUOUS
 10
14.9509802569
 20
6.0176247044
 11
14.9509802569
 21
4.9036247044
  0
LINE
  5
261
100
AcDbEntity
  8
0
100
AcDbLine
 62
7
  6
CONTINUOUS
 10
16.1497302569
 20
4.8836247044
 11
16.0767302569
 21
4.8836247044
  0
LINE
  5
262
100
AcDbEntity
  8
0
100
AcDbLine
 62
7
  6
CONTINUOUS
 10
15.4527302569
 20
4.8836247044
 11
14.9709802569
 21
4.8836247044
  0
LINE
  5
263
100
AcDbEntity
  8
0
100
AcDbLine
 62
7
  6
CONTINUOUS
 10
15.1058552569
 20
6.0426247044
 11
15.1058552569
 21
6.0376247044
  0
LINE
  5
264
100
AcDbEntity
  8
0
100
AcDbLine
 62
7
  6
CONTINUOUS
 10
15.2648552569
 20
6.0426247044
 11
15.2648552569
 21
6.0376247044
  0
LINE
  5
265
100
AcDbEntity
  8
0
100
AcDbLine
 62
7
  6
CONTINUOUS
 10
15.4527302569
 20
6.3658247044
 11
15.4527302569
 21
4.5554252045
  0
LINE
  5
266
100
AcDbEntity
  8
0
100
AcDbLine
 62
7
  6
CONTINUOUS
 10
15.5464802569
 20
4.4293836748
 11
15.5464802569
 21
6.4918747044
  0
LINE
  5
267
100
AcDbEntity
  8
0
100
AcDbLine
 62
7
  6
CONTINUOUS
 10
15.5933552569
 20
6.4918747044
 11
15.5933552569
 21
4.4293836748
  0
LINE
  5
268
100
AcDbEntity
  8
03__ASM_ALL_CURVES
100
AcDbLine
 62
8
  6
PHANTOM
 10
15.7647302569
 20
4.430776323
 11
15.7647302569
 21
6.4906435336
  0
LINE
  5
269
100
AcDbEntity
  8
0
100
AcDbLine
 62
7
  6
CONTINUOUS
 10
15.8598552569
 20
6.3858247044
 11
15.8598552569
 21
4.5354247044
  0
LINE
  5
26A
100
AcDbEntity
  8
0
100
AcDbLine
 62
7
  6
CONTINUOUS
 10
15.9536052569
 20
4.5354247044
 11
15.9536052569
 21
6.3858247044
  0
LINE
  5
26B
100
AcDbEntity
  8
0
100
AcDbLine
 62
7
  6
CONTINUOUS
 10
16.0767302569
 20
6.3658242044
 11
16.0767302569
 21
4.5554252045
  0
LINE
  5
26C
100
AcDbEntity
  8
0
100
AcDbLine
 62
7
  6
CONTINUOUS
 10
16.1697302569
 20
6.017624122
 11
16.1697302569
 21
4.9036252869
  0
LINE
  5
26D
100
AcDbEntity
  8
0
100
AcDbLine
 62
7
  6
CONTINUOUS
 10
16.1497302569
 20
6.0376247044
 11
16.0767302569
 21
6.0376247044
  0
LINE
  5
26E
100
AcDbEntity
  8
0
100
AcDbLine
 62
7
  6
CONTINUOUS
 10
15.4527302569
 20
6.0376247044
 11
15.2648552569
 21
6.0376247044
  0
LINE
  5
26F
100
AcDbEntity
  8
0
100
AcDbLine
 62
7
  6
CONTINUOUS
 10
15.1058552569
 20
6.0376247044
 11
14.9709802569
 21
6.0376247044
  0
LINE
  5
270
100
AcDbEntity
  8
0
100
AcDbLine
 62
7
  6
CONTINUOUS
 10
15.1108552569
 20
6.0476247044
 11
15.2598552569
 21
6.0476247044
  0
LINE
  5
271
100
AcDbEntity
  8
0
100
AcDbLine
 62
7
  6
CONTINUOUS
 10
16.0567302569
 20
6.3858247044
 11
15.9536052569
 21
6.3858247044
  0
LINE
  5
272
100
AcDbEntity
  8
0
100
AcDbLine
 62
7
  6
CONTINUOUS
 10
15.8598552569
 20
6.3858247044
 11
15.5933552569
 21
6.3858247044
  0
LINE
  5
273
100
AcDbEntity
  8
0
100
AcDbLine
 62
7
  6
CONTINUOUS
 10
15.5464802569
 20
6.3858247044
 11
15.4727302569
 21
6.3858247044
  0
LINE
  5
274
100
AcDbEntity
  8
0
100
AcDbLine
 62
7
  6
CONTINUOUS
 10
15.5933552569
 20
6.4918747044
 11
15.5464802569
 21
6.4918747044
  0
LINE
  5
275
100
AcDbEntity
  8
0
100
AcDbLine
 62
7
  6
CONTINUOUS
 10
14.4703634075
 20
12.7693310386
 11
14.4590165485
 21
12.7326125897
  0
LINE
  5
276
100
AcDbEntity
  8
0
100
AcDbLine
 62
7
  6
CONTINUOUS
 10
14.4722497448
 20
12.7682200547
 11
14.4721340137
 21
12.7679546909
  0
LINE
  5
277
100
AcDbEntity
  8
0
100
AcDbLine
 62
7
  6
CONTINUOUS
 10
14.4722827634
 20
12.7682085027
 11
14.4721340137
 21
12.7679546909
  0
LINE
  5
278
100
AcDbEntity
  8
0
100
AcDbLine
 62
7
  6
CONTINUOUS
 10
14.6838532706
 20
13.1009941616
 11
14.658890181
 21
13.020213574
  0
LINE
  5
279
100
AcDbEntity
  8
0
100
AcDbLine
 62
7
  6
CONTINUOUS
 10
14.5603389291
 20
12.7013016059
 11
14.5424865377
 21
12.6435312464
  0
LINE
  5
27A
100
AcDbEntity
  8
0
100
AcDbLine
 62
7
  6
CONTINUOUS
 10
14.9695602559
 20
13.0594352513
 11
14.9809071148
 21
13.0961537002
  0
LINE
  5
27B
100
AcDbEntity
  8
0
100
AcDbLine
 62
7
  6
CONTINUOUS
 10
14.77385736
 20
12.3753357168
 11
14.7832439035
 21
12.3547018401
  0
LINE
  5
27C
100
AcDbEntity
  8
0
100
AcDbLine
 62
7
  6
CONTINUOUS
 10
14.7738507651
 20
12.3753359265
 11
14.7423057169
 21
12.4505006015
  0
LINE
  5
27D
100
AcDbEntity
  8
0
100
AcDbLine
 62
7
  6
CONTINUOUS
 10
14.8703227492
 20
12.5250595734
 11
14.7537072979
 21
12.1476918347
  0
LINE
  5
27E
100
AcDbEntity
  8
0
100
AcDbLine
 62
7
  6
CONTINUOUS
 10
15.0513058569
 20
13.0025381663
 11
15.0497265694
 21
12.9974275902
  0
LINE
  5
27F
100
AcDbEntity
  8
0
100
AcDbLine
 62
7
  6
CONTINUOUS
 10
15.1410667281
 20
13.1058924665
 11
15.1297198692
 21
13.0691740176
  0
LINE
  5
280
100
AcDbEntity
  8
0
100
AcDbLine
 62
7
  6
CONTINUOUS
 10
15.1356509999
 20
12.4921677624
 11
15.1467616859
 21
12.5281219556
  0
LINE
  5
281
100
AcDbEntity
  8
0
100
AcDbLine
 62
7
  6
CONTINUOUS
 10
15.1440850267
 20
12.4872857668
 11
15.1528625233
 21
12.5156897562
  0
LINE
  5
282
100
AcDbEntity
  8
0
100
AcDbLine
 62
7
  6
CONTINUOUS
 10
15.1106452413
 20
12.4665703692
 11
15.1079740603
 21
12.4720136638
  0
LINE
  5
283
100
AcDbEntity
  8
0
100
AcDbLine
 62
7
  6
CONTINUOUS
 10
15.1467616859
 20
12.5281219556
 11
15.1528625233
 21
12.5156897562
  0
LINE
  5
284
100
AcDbEntity
  8
0
100
AcDbLine
 62
7
  6
CONTINUOUS
 10
15.219986035
 20
12.5281219556
 11
15.2088753489
 21
12.4921677624
  0
LINE
  5
285
100
AcDbEntity
  8
0
100
AcDbLine
 62
7
  6
CONTINUOUS
 10
15.1128900212
 20
12.1103629503
 11
15.104988177
 21
12.0902687235
  0
LINE
  5
286
100
AcDbEntity
  8
0
100
AcDbLine
 62
7
  6
CONTINUOUS
 10
15.1667078314
 20
12.4741906658
 11
15.1356509999
 21
12.4921677624
  0
LINE
  5
287
100
AcDbEntity
  8
0
100
AcDbLine
 62
7
  6
CONTINUOUS
 10
15.1889292035
 20
12.5460990522
 11
15.1950300408
 21
12.5336668528
  0
LINE
  5
288
100
AcDbEntity
  8
0
100
AcDbLine
 62
7
  6
CONTINUOUS
 10
15.2533845742
 20
12.5366166599
 11
15.2507133932
 21
12.5420599545
  0
LINE
  5
289
100
AcDbEntity
  8
0
100
AcDbLine
 62
7
  6
CONTINUOUS
 10
15.1467616859
 20
12.5281219556
 11
15.1889292035
 21
12.5460990522
  0
LINE
  5
28A
100
AcDbEntity
  8
0
100
AcDbLine
 62
7
  6
CONTINUOUS
 10
15.1950300408
 20
12.5336668528
 11
15.1528625233
 21
12.5156897562
  0
LINE
  5
28B
100
AcDbEntity
  8
0
100
AcDbLine
 62
7
  6
CONTINUOUS
 10
15.2088753489
 20
12.4921677624
 11
15.1667078314
 21
12.4741906658
  0
LINE
  5
28C
100
AcDbEntity
  8
0
100
AcDbLine
 62
7
  6
CONTINUOUS
 10
15.2176528455
 20
12.5205717518
 11
15.1950300408
 21
12.5336668528
  0
LINE
  5
28D
100
AcDbEntity
  8
0
100
AcDbLine
 62
7
  6
CONTINUOUS
 10
15.1889292035
 20
12.5460990522
 11
15.219986035
 21
12.5281219556
  0
LINE
  5
28E
100
AcDbEntity
  8
0
100
AcDbLine
 62
7
  6
CONTINUOUS
 10
15.0183801781
 20
12.9945150135
 11
14.9695602559
 21
13.0594352513
  0
LINE
  5
28F
100
AcDbEntity
  8
0
100
AcDbLine
 62
7
  6
CONTINUOUS
 10
15.0513058569
 20
13.0025381663
 11
14.9809071148
 21
13.0961537002
  0
LINE
  5
290
100
AcDbEntity
  8
0
100
AcDbLine
 62
7
  6
CONTINUOUS
 10
15.1620695592
 20
13.0032522805
 11
15.1297198692
 21
13.0691740176
  0
LINE
  5
291
100
AcDbEntity
  8
0
100
AcDbLine
 62
7
  6
CONTINUOUS
 10
15.9728784035
 20
12.1843441067
 11
15.8562629522
 21
11.806976368
  0
LINE
  5
292
100
AcDbEntity
  8
0
100
AcDbLine
 62
7
  6
CONTINUOUS
 10
15.9680615295
 20
12.0062968886
 11
16.036512679
 21
12.0505604013
  0
LINE
  5
293
100
AcDbEntity
  8
0
100
AcDbLine
 62
7
  6
CONTINUOUS
 10
16.4517640008
 20
12.5546684254
 11
16.4268009112
 21
12.4738878378
  0
LINE
  5
294
100
AcDbEntity
  8
0
100
AcDbLine
 62
7
  6
CONTINUOUS
 10
16.3282496593
 20
12.1549758698
 11
16.3103972679
 21
12.0972055102
  0
LINE
  5
295
100
AcDbEntity
  8
0
100
AcDbLine
 62
7
  6
CONTINUOUS
 10
16.4409188987
 20
12.1603833349
 11
16.4295720398
 21
12.123664886
  0
ARC
  5
296
100
AcDbEntity
  8
03__ASM_ALL_CURVES
100
AcDbCircle
 62
8
  6
PHANTOM
 10
6.1303672762
 20
5.5201198968
 40
1.03125
100
AcDbArc
 50
90.0
 51
100.0000259953
  0
ARC
  5
297
100
AcDbEntity
  8
0
100
AcDbCircle
 62
7
  6
CONTINUOUS
 10
6.1303672762
 20
5.5201198968
 40
1.03125
100
AcDbArc
 50
100.0
 51
90.0
  0
CIRCLE
  5
298
100
AcDbEntity
  8
0
100
AcDbCircle
 62
7
  6
CONTINUOUS
 10
6.1303672762
 20
5.5201198968
 40
0.9252
  0
CIRCLE
  5
299
100
AcDbEntity
  8
0
100
AcDbCircle
 62
7
  6
CONTINUOUS
 10
6.1303672762
 20
5.5201198968
 40
0.7511
  0
CIRCLE
  5
29A
100
AcDbEntity
  8
0
100
AcDbCircle
 62
7
  6
CONTINUOUS
 10
6.1303672762
 20
5.5201198968
 40
0.6930666667
  0
CIRCLE
  5
29B
100
AcDbEntity
  8
0
100
AcDbCircle
 62
7
  6
CONTINUOUS
 10
6.1303672762
 20
5.5201198968
 40
0.577
  0
CIRCLE
  5
29C
100
AcDbEntity
  8
0
100
AcDbCircle
 62
7
  6
CONTINUOUS
 10
6.1303672762
 20
5.5201198968
 40
0.25
  0
ARC
  5
29D
100
AcDbEntity
  8
0
100
AcDbCircle
 62
7
  6
CONTINUOUS
 10
6.2048672762
 20
6.1021198968
 40
0.005
100
AcDbArc
 50
0.0
 51
90.0
  0
ARC
  5
29E
100
AcDbEntity
  8
0
100
AcDbCircle
 62
7
  6
CONTINUOUS
 10
6.0558672762
 20
6.1021198968
 40
0.005
100
AcDbArc
 50
90.0
 51
180.0
  0
ARC
  5
29F
100
AcDbEntity
  8
0
100
AcDbCircle
 62
7
  6
CONTINUOUS
 10
5.5483672762
 20
5.4456198968
 40
0.005
100
AcDbArc
 50
180.0
 51
270.0
  0
ARC
  5
2A0
100
AcDbEntity
  8
0
100
AcDbCircle
 62
7
  6
CONTINUOUS
 10
5.5483672762
 20
5.5946198968
 40
0.005
100
AcDbArc
 50
90.0
 51
180.0
  0
ARC
  5
2A1
100
AcDbEntity
  8
0
100
AcDbCircle
 62
7
  6
CONTINUOUS
 10
4.9223456195
 20
12.2250477814
 40
0.5770234915
100
AcDbArc
 50
352.0809050013
 51
7.9190949995
  0
ARC
  5
2A2
100
AcDbEntity
  8
0
100
AcDbCircle
 62
7
  6
CONTINUOUS
 10
6.0708720839
 20
12.2250477814
 40
0.0795
100
AcDbArc
 50
270.0
 51
269.5283018868
  0
ARC
  5
2A3
100
AcDbEntity
  8
0
100
AcDbCircle
 62
7
  6
CONTINUOUS
 10
6.9960720839
 20
12.9464227814
 40
0.046875
100
AcDbArc
 50
90.0
 51
270.0
  0
ARC
  5
2A4
100
AcDbEntity
  8
0
100
AcDbCircle
 62
7
  6
CONTINUOUS
 10
5.1456720839
 20
12.9464227814
 40
0.046875
100
AcDbArc
 50
270.0
 51
90.0
  0
CIRCLE
  5
2A5
100
AcDbEntity
  8
0
100
AcDbCircle
 62
7
  6
CONTINUOUS
 10
6.0708720839
 20
12.9464227814
 40
0.0234375
  0
ARC
  5
2A6
100
AcDbEntity
  8
0
100
AcDbCircle
 62
7
  6
CONTINUOUS
 10
5.5138720839
 20
12.0106727814
 40
0.02
100
AcDbArc
 50
180.0
 51
270.0
  0
ARC
  5
2A7
100
AcDbEntity
  8
0
100
AcDbCircle
 62
7
  6
CONTINUOUS
 10
6.6278720839
 20
12.0106727814
 40
0.02
100
AcDbArc
 50
270.0
 51
360.0
  0
ARC
  5
2A8
100
AcDbEntity
  8
0
100
AcDbCircle
 62
7
  6
CONTINUOUS
 10
6.6278720839
 20
13.1894227814
 40
0.02
100
AcDbArc
 50
0.0
 51
90.0
  0
ARC
  5
2A9
100
AcDbEntity
  8
0
100
AcDbCircle
 62
7
  6
CONTINUOUS
 10
5.5138720839
 20
13.1894227814
 40
0.02
100
AcDbArc
 50
90.0
 51
180.0
  0
ARC
  5
2AA
100
AcDbEntity
  8
0
100
AcDbCircle
 62
7
  6
CONTINUOUS
 10
6.9760720839
 20
12.5124227814
 40
0.02
100
AcDbArc
 50
270.0
 51
360.0
  0
ARC
  5
2AB
100
AcDbEntity
  8
0
100
AcDbCircle
 62
7
  6
CONTINUOUS
 10
5.1656720839
 20
12.5124227814
 40
0.02
100
AcDbArc
 50
180.0
 51
270.0
  0
ARC
  5
2AC
100
AcDbEntity
  8
0
100
AcDbCircle
 62
7
  6
CONTINUOUS
 10
6.9760720839
 20
13.0964227814
 40
0.02
100
AcDbArc
 50
0.0
 51
90.0
  0
ARC
  5
2AD
100
AcDbEntity
  8
0
100
AcDbCircle
 62
7
  6
CONTINUOUS
 10
5.1656720839
 20
13.0964227814
 40
0.02
100
AcDbArc
 50
90.0
 51
180.0
  0
ARC
  5
2AE
100
AcDbEntity
  8
0
100
AcDbCircle
 62
7
  6
CONTINUOUS
 10
5.4888720839
 20
12.1505477814
 40
0.005
100
AcDbArc
 50
180.0
 51
270.0
  0
ARC
  5
2AF
100
AcDbEntity
  8
0
100
AcDbCircle
 62
7
  6
CONTINUOUS
 10
5.4888720839
 20
12.2995477814
 40
0.005
100
AcDbArc
 50
90.0
 51
180.0
  0
ARC
  5
2B0
100
AcDbEntity
  8
0
100
AcDbCircle
 62
7
  6
CONTINUOUS
 10
15.1853552569
 20
6.6091521499
 40
0.5770244649
100
AcDbArc
 50
262.0809184226
 51
277.9190815774
  0
ARC
  5
2B1
100
AcDbEntity
  8
0
100
AcDbCircle
 62
7
  6
CONTINUOUS
 10
15.9067302569
 20
6.3858247044
 40
0.046875
100
AcDbArc
 50
300.0
 51
360.0
  0
ARC
  5
2B2
100
AcDbEntity
  8
0
100
AcDbCircle
 62
7
  6
CONTINUOUS
 10
15.9067302569
 20
6.3858247044
 40
0.046875
100
AcDbArc
 50
180.0
 51
240.0
  0
ARC
  5
2B3
100
AcDbEntity
  8
0
100
AcDbCircle
 62
7
  6
CONTINUOUS
 10
15.9067302569
 20
4.5354247044
 40
0.046875
100
AcDbArc
 50
0.0
 51
60.0
  0
ARC
  5
2B4
100
AcDbEntity
  8
0
100
AcDbCircle
 62
7
  6
CONTINUOUS
 10
15.9067302569
 20
4.5354247044
 40
0.046875
100
AcDbArc
 50
120.0
 51
180.0
  0
ARC
  5
2B5
100
AcDbEntity
  8
0
100
AcDbCircle
 62
7
  6
CONTINUOUS
 10
15.9067302569
 20
4.5376426909
 40
0.0449611526
100
AcDbArc
 50
58.5868329821
 51
121.4131670161
  0
ARC
  5
2B6
100
AcDbEntity
  8
0
100
AcDbCircle
 62
7
  6
CONTINUOUS
 10
15.9067302615
 20
6.3836066979
 40
0.0449611368
100
AcDbArc
 50
238.5868146448
 51
301.4131753487
  0
ARC
  5
2B7
100
AcDbEntity
  8
0
100
AcDbCircle
 62
7
  6
CONTINUOUS
 10
16.0567302569
 20
6.3658247044
 40
0.02
100
AcDbArc
 50
0.0
 51
90.0
  0
ARC
  5
2B8
100
AcDbEntity
  8
0
100
AcDbCircle
 62
7
  6
CONTINUOUS
 10
16.0567302569
 20
4.5554247044
 40
0.02
100
AcDbArc
 50
270.0
 51
360.0
  0
ARC
  5
2B9
100
AcDbEntity
  8
0
100
AcDbCircle
 62
7
  6
CONTINUOUS
 10
15.4727302569
 20
6.3658247044
 40
0.02
100
AcDbArc
 50
90.0
 51
180.0
  0
ARC
  5
2BA
100
AcDbEntity
  8
0
100
AcDbCircle
 62
7
  6
CONTINUOUS
 10
15.4727302569
 20
4.5554247044
 40
0.02
100
AcDbArc
 50
180.0
 51
270.0
  0
ARC
  5
2BB
100
AcDbEntity
  8
0
100
AcDbCircle
 62
7
  6
CONTINUOUS
 10
16.1497302569
 20
4.9036247044
 40
0.02
100
AcDbArc
 50
270.0
 51
360.0
  0
ARC
  5
2BC
100
AcDbEntity
  8
0
100
AcDbCircle
 62
7
  6
CONTINUOUS
 10
16.1497302569
 20
6.0176247044
 40
0.02
100
AcDbArc
 50
0.0
 51
90.0
  0
ARC
  5
2BD
100
AcDbEntity
  8
0
100
AcDbCircle
 62
7
  6
CONTINUOUS
 10
14.9709802569
 20
4.9036247044
 40
0.02
100
AcDbArc
 50
180.0
 51
270.0
  0
ARC
  5
2BE
100
AcDbEntity
  8
0
100
AcDbCircle
 62
7
  6
CONTINUOUS
 10
14.9709802569
 20
6.0176247044
 40
0.02
100
AcDbArc
 50
90.0
 51
180.0
  0
ARC
  5
2BF
100
AcDbEntity
  8
0
100
AcDbCircle
 62
7
  6
CONTINUOUS
 10
15.2598552569
 20
6.0426247044
 40
0.005
100
AcDbArc
 50
0.0
 51
90.0
  0
ARC
  5
2C0
100
AcDbEntity
  8
0
100
AcDbCircle
 62
7
  6
CONTINUOUS
 10
15.1108552569
 20
6.0426247044
 40
0.005
100
AcDbArc
 50
90.0
 51
180.0
  0
ARC
  5
2C1
100
AcDbEntity
  8
0
100
AcDbCircle
 62
7
  6
CONTINUOUS
 10
15.2378781504
 20
11.9728432606
 40
1.2758841793
100
AcDbArc
 50
89.1893977986
 51
89.8150598187
  0
ARC
  5
2C2
100
AcDbEntity
  8
0
100
AcDbCircle
 62
7
  6
CONTINUOUS
 10
15.1607447161
 20
11.8273528636
 40
1.1759001632
100
AcDbArc
 50
89.9354469568
 51
95.3359920933
  0
ARC
  5
2C3
100
AcDbEntity
  8
0
100
AcDbCircle
 62
7
  6
CONTINUOUS
 10
15.1505021846
 20
11.9484697445
 40
1.0543561682
100
AcDbArc
 50
95.3938797656
 51
97.1986930244
  0
ARC
  5
2C4
100
AcDbEntity
  8
0
100
AcDbCircle
 62
7
  6
CONTINUOUS
 10
15.4278432995
 20
12.8906050133
 40
1.0122846672
100
AcDbArc
 50
227.7323684463
 51
228.0367266166
  0
ARC
  5
2C5
100
AcDbEntity
  8
0
100
AcDbCircle
 62
7
  6
CONTINUOUS
 10
15.7189408564
 20
12.7997697355
 40
1.011345425
100
AcDbArc
 50
277.6485143405
 51
277.9170971812
  0
ARC
  5
2C6
100
AcDbEntity
  8
0
100
AcDbCircle
 62
7
  6
CONTINUOUS
 10
15.880780573
 20
12.175922784
 40
0.571969572
100
AcDbArc
 50
23.1370662377
 51
26.1651770207
  0
ARC
  5
2C7
100
AcDbEntity
  8
0
100
AcDbCircle
 62
7
  6
CONTINUOUS
 10
15.0720217419
 20
12.6056439362
 40
0.5539534863
100
AcDbArc
 50
206.1438411234
 51
207.4028779058
  0
ARC
  5
2C8
100
AcDbEntity
  8
0
100
AcDbCircle
 62
7
  6
CONTINUOUS
 10
15.9374861647
 20
12.6000749842
 40
0.5369439119
100
AcDbArc
 50
25.2232420379
 51
26.1409425685
  0
ARC
  5
2C9
100
AcDbEntity
  8
0
100
AcDbCircle
 62
7
  6
CONTINUOUS
 10
15.7425240538
 20
12.1769272049
 40
0.4190582181
100
AcDbArc
 50
24.5544171164
 51
26.1411444854
  0
ARC
  5
2CA
100
AcDbEntity
  8
0
100
AcDbCircle
 62
7
  6
CONTINUOUS
 10
15.0902778305
 20
12.1238206915
 40
0.3523482184
100
AcDbArc
 50
206.1517379133
 51
208.1428439231
  0
ARC
  5
2CB
100
AcDbEntity
  8
0
100
AcDbCircle
 62
7
  6
CONTINUOUS
 10
14.7834706264
 20
12.6323066091
 40
0.3396040173
100
AcDbArc
 50
156.457441084
 51
162.8208444148
  0
ARC
  5
2CC
100
AcDbEntity
  8
0
100
AcDbCircle
 62
7
  6
CONTINUOUS
 10
16.1055048047
 20
12.2237906863
 40
0.3391816214
100
AcDbArc
 50
342.8306223433
 51
349.3056507703
  0
ARC
  5
2CD
100
AcDbEntity
  8
0
100
AcDbCircle
 62
7
  6
CONTINUOUS
 10
16.1355518011
 20
12.5639377393
 40
0.3048516407
100
AcDbArc
 50
336.3501925767
 51
342.8191674642
  0
ARC
  5
2CE
100
AcDbEntity
  8
0
100
AcDbCircle
 62
7
  6
CONTINUOUS
 10
14.9495045614
 20
12.9304135416
 40
0.3041714303
100
AcDbArc
 50
162.8288170039
 51
169.2577172632
  0
ARC
  5
2CF
100
AcDbEntity
  8
0
100
AcDbCircle
 62
7
  6
CONTINUOUS
 10
15.9182624265
 20
12.2828631751
 40
0.2554452994
100
AcDbArc
 50
329.4466569596
 51
335.0817702742
  0
ARC
  5
2D0
100
AcDbEntity
  8
0
100
AcDbCircle
 62
7
  6
CONTINUOUS
 10
15.1973820708
 20
12.4844283943
 40
0.0859662697
100
AcDbArc
 50
90.002934513
 51
91.1091743464
  0
SPLINE
  5
2D1
100
AcDbEntity
  8
03__ASM_ALL_CURVES
100
AcDbSpline
 62
8
  6
PHANTOM
 70
0
 71
3
 72
113
 73
109
 74
0
 42
0.0000001
 43
0.0000001
 44
0.0000000001
 40
0.0
 40
0.0
 40
0.0
 40
0.0
 40
0.03125
 40
0.0625
 40
0.078125
 40
0.09375
 40
0.109375
 40
0.1171875
 40
0.125
 40
0.1328125
 40
0.13671875
 40
0.140625
 40
0.1416015625
 40
0.142578125
 40
0.14453125
 40
0.146484375
 40
0.1484375
 40
0.15625
 40
0.171875
 40
0.1875
 40
0.203125
 40
0.21875
 40
0.234375
 40
0.25
 40
0.2578125
 40
0.265625
 40
0.2734375
 40
0.27734375
 40
0.28125
 40
0.283203125
 40
0.28515625
 40
0.2890625
 40
0.29296875
 40
0.296875
 40
0.3046875
 40
0.3125
 40
0.328125
 40
0.34375
 40
0.375
 40
0.390625
 40
0.3984375
 40
0.40625
 40
0.4140625
 40
0.421875
 40
0.42578125
 40
0.427734375
 40
0.4287109375
 40
0.4296875
 40
0.431640625
 40
0.43359375
 40
0.4375
 40
0.4453125
 40
0.453125
 40
0.46875
 40
0.484375
 40
0.5
 40
0.515625
 40
0.53125
 40
0.546875
 40
0.5546875
 40
0.5625
 40
0.56640625
 40
0.568359375
 40
0.5703125
 40
0.5712890625
 40
0.572265625
 40
0.57421875
 40
0.578125
 40
0.5859375
 40
0.59375
 40
0.609375
 40
0.625
 40
0.65625
 40
0.671875
 40
0.6875
 40
0.6953125
 40
0.703125
 40
0.70703125
 40
0.7109375
 40
0.71484375
 40
0.716796875
 40
0.71875
 40
0.72265625
 40
0.7265625
 40
0.734375
 40
0.7421875
 40
0.75
 40
0.765625
 40
0.78125
 40
0.796875
 40
0.8125
 40
0.828125
 40
0.8359375
 40
0.84375
 40
0.8515625
 40
0.85546875
 40
0.857421875
 40
0.859375
 40
0.86328125
 40
0.8671875
 40
0.875
 40
0.8828125
 40
0.890625
 40
0.90625
 40
0.921875
 40
0.9375
 40
0.96875
 40
1.0
 40
1.0
 40
1.0
 40
1.0
 10
16.4469694193
 20
12.5990998359
 30
0.0
 10
16.4405579475
 20
12.6089776124
 30
0.0
 10
16.4277350009
 20
12.6287331651
 30
0.0
 10
16.4117063318
 20
12.6534276082
 30
0.0
 10
16.3988833671
 20
12.673183158
 30
0.0
 10
16.3892662232
 20
12.6879998329
 30
0.0
 10
16.3812516835
 20
12.7003470222
 30
0.0
 10
16.3748406193
 20
12.7102248629
 30
0.0
 10
16.3700307702
 20
12.7176329996
 30
0.0
 10
16.3660274963
 20
12.7238072222
 30
0.0
 10
16.3628138118
 20
12.7287448613
 30
0.0
 10
16.3610287911
 20
12.7315258473
 30
0.0
 10
16.3598027116
 20
12.7333741696
 30
0.0
 10
16.3590714218
 20
12.7346199162
 30
0.0
 10
16.3575296182
 20
12.7360784456
 30
0.0
 10
16.3558258795
 20
12.7378516945
 30
0.0
 10
16.3523431597
 20
12.7413863665
 30
0.0
 10
16.3448412423
 20
12.7490517341
 30
0.0
 10
16.3332701152
 20
12.7608399371
 30
0.0
 10
16.3193975013
 20
12.7749877825
 30
0.0
 10
16.3055214779
 20
12.7891350929
 30
0.0
 10
16.2916463538
 20
12.8032825415
 30
0.0
 10
16.2777710421
 20
12.8174299723
 30
0.0
 10
16.2662081582
 20
12.8292194419
 30
0.0
 10
16.2569582429
 20
12.8386511612
 30
0.0
 10
16.2500197055
 20
12.8457245537
 30
0.0
 10
16.2442410973
 20
12.8516203106
 30
0.0
 10
16.2396103462
 20
12.8563340829
 30
0.0
 10
16.2367340348
 20
12.8592866422
 30
0.0
 10
16.2343919727
 20
12.8616339141
 30
0.0
 10
16.232199636
 20
12.8640351268
 30
0.0
 10
16.2283875405
 20
12.8666505562
 30
0.0
 10
16.2240635657
 20
12.869879332
 30
0.0
 10
16.2182107576
 20
12.8741528403
 30
0.0
 10
16.2109247103
 20
12.8795055203
 30
0.0
 10
16.1992502896
 20
12.8880637755
 30
0.0
 10
16.1846629998
 20
12.8987636615
 30
0.0
 10
16.1613201154
 20
12.9158823155
 30
0.0
 10
16.1379781998
 20
12.9330013366
 30
0.0
 10
16.117553594
 20
12.9479802802
 30
0.0
 10
16.1058826429
 20
12.9565398356
 30
0.0
 10
16.0971287958
 20
12.962959082
 30
0.0
 10
16.0883773578
 20
12.9693799295
 30
0.0
 10
16.0810769904
 20
12.974725649
 30
0.0
 10
16.0759814342
 20
12.9784774244
 30
0.0
 10
16.0734135741
 20
12.9803399635
 30
0.0
 10
16.0719785515
 20
12.9814257588
 30
0.0
 10
16.0702189731
 20
12.9822958205
 30
0.0
 10
16.068130613
 20
12.9834572548
 30
0.0
 10
16.0647272253
 20
12.9852743305
 30
0.0
 10
16.0588001855
 20
12.9884734152
 30
0.0
 10
16.0503179129
 20
12.9930335173
 30
0.0
 10
16.0367547011
 20
13.0003352804
 30
0.0
 10
16.0197977947
 20
13.0094605615
 30
0.0
 10
15.9994507507
 20
13.0204117282
 30
0.0
 10
15.9791033586
 20
13.0313626542
 30
0.0
 10
15.9587561155
 20
13.0423137139
 30
0.0
 10
15.938408624
 20
13.0532644792
 30
0.0
 10
15.9214530852
 20
13.0623909869
 30
0.0
 10
15.9078870885
 20
13.0696902524
 30
0.0
 10
15.8994119024
 20
13.07425671
 30
0.0
 10
15.8934721349
 20
13.0774443798
 30
0.0
 10
15.8900891488
 20
13.0792797527
 30
0.0
 10
15.8879485648
 20
13.0803943499
 30
0.0
 10
15.8862962285
 20
13.0813605919
 30
0.0
 10
15.8844243425
 20
13.0820545856
 30
0.0
 10
15.8811868096
 20
13.0833165274
 30
0.0
 10
15.8746845784
 20
13.0858067254
 30
0.0
 10
15.8654098502
 20
13.0893817263
 30
0.0
 10
15.8505623646
 20
13.0950919069
 30
0.0
 10
15.8320057168
 20
13.102232989
 30
0.0
 10
15.8023135827
 20
13.1136568809
 30
0.0
 10
15.7726217648
 20
13.1250810696
 30
0.0
 10
15.7429301214
 20
13.1365057474
 30
0.0
 10
15.7243721446
 20
13.143644701
 30
0.0
 10
15.7095273987
 20
13.1493592696
 30
0.0
 10
15.7002456934
 20
13.1529230957
 30
0.0
 10
15.6928288943
 20
13.1557919755
 30
0.0
 10
15.6872428431
 20
13.1578948463
 30
0.0
 10
15.6826624044
 20
13.159802444
 30
0.0
 10
15.6786917023
 20
13.1606911922
 30
0.0
 10
15.6747745012
 20
13.1616912434
 30
0.0
 10
15.669859681
 20
13.1629031971
 30
0.0
 10
15.6620062071
 20
13.1648636229
 30
0.0
 10
15.6521858519
 20
13.1673068473
 30
0.0
 10
15.6404029294
 20
13.1702418444
 30
0.0
 10
15.6246918406
 20
13.1741540821
 30
0.0
 10
15.6050531608
 20
13.179044748
 30
0.0
 10
15.5814866636
 20
13.1849134148
 30
0.0
 10
15.5579202022
 20
13.1907820208
 30
0.0
 10
15.5343536791
 20
13.1966510025
 30
0.0
 10
15.5147150859
 20
13.2015406185
 30
0.0
 10
15.4990038196
 20
13.2054550085
 30
0.0
 10
15.4872214394
 20
13.2083834308
 30
0.0
 10
15.4773993873
 20
13.2108472263
 30
0.0
 10
15.4705306269
 20
13.212525876
 30
0.0
 10
15.4665951969
 20
13.2135569407
 30
0.0
 10
15.4627642142
 20
13.2138682163
 30
0.0
 10
15.457939723
 20
13.2145037676
 30
0.0
 10
15.4502405248
 20
13.2153829048
 30
0.0
 10
15.4406096694
 20
13.2165290859
 30
0.0
 10
15.4290555783
 20
13.2178842744
 30
0.0
 10
15.4136490981
 20
13.2196982586
 30
0.0
 10
15.3943913496
 20
13.2219633145
 30
0.0
 10
15.3712819009
 20
13.2246824193
 30
0.0
 10
15.3404693552
 20
13.2283075297
 30
0.0
 10
15.3019536549
 20
13.2328390431
 30
0.0
 10
15.2711411002
 20
13.2364642155
 30
0.0
 10
15.2557348222
 20
13.2382768066
 30
0.0
  0
SPLINE
  5
2D2
100
AcDbEntity
  8
03__ASM_ALL_CURVES
100
AcDbSpline
 62
8
  6
PHANTOM
 70
0
 71
3
 72
110
 73
106
 74
0
 42
0.0000001
 43
0.0000001
 44
0.0000000001
 40
0.0
 40
0.0
 40
0.0
 40
0.0
 40
0.0625
 40
0.09375
 40
0.109375
 40
0.125
 40
0.140625
 40
0.1484375
 40
0.15625
 40
0.16015625
 40
0.1640625
 40
0.166015625
 40
0.1669921875
 40
0.16796875
 40
0.169921875
 40
0.171875
 40
0.1796875
 40
0.1875
 40
0.1953125
 40
0.203125
 40
0.21875
 40
0.25
 40
0.28125
 40
0.296875
 40
0.3046875
 40
0.3125
 40
0.3203125
 40
0.328125
 40
0.330078125
 40
0.33203125
 40
0.3330078125
 40
0.333984375
 40
0.3359375
 40
0.33984375
 40
0.34375
 40
0.3515625
 40
0.359375
 40
0.375
 40
0.390625
 40
0.40625
 40
0.421875
 40
0.4375
 40
0.453125
 40
0.46875
 40
0.4765625
 40
0.484375
 40
0.48828125
 40
0.4921875
 40
0.49609375
 40
0.498046875
 40
0.4990234375
 40
0.5
 40
0.5009765625
 40
0.501953125
 40
0.50390625
 40
0.5078125
 40
0.51171875
 40
0.515625
 40
0.5234375
 40
0.53125
 40
0.546875
 40
0.5625
 40
0.578125
 40
0.59375
 40
0.609375
 40
0.625
 40
0.640625
 40
0.6484375
 40
0.65625
 40
0.66015625
 40
0.6640625
 40
0.666015625
 40
0.6669921875
 40
0.66796875
 40
0.669921875
 40
0.671875
 40
0.67578125
 40
0.6796875
 40
0.6875
 40
0.6953125
 40
0.703125
 40
0.71875
 40
0.75
 40
0.78125
 40
0.796875
 40
0.8046875
 40
0.8125
 40
0.8203125
 40
0.82421875
 40
0.828125
 40
0.830078125
 40
0.83203125
 40
0.8330078125
 40
0.833984375
 40
0.8359375
 40
0.83984375
 40
0.84375
 40
0.8515625
 40
0.859375
 40
0.875
 40
0.890625
 40
0.90625
 40
0.9375
 40
0.96875
 40
1.0
 40
1.0
 40
1.0
 40
1.0
 10
15.255734819
 20
13.2382768067
 30
0.0
 10
15.2307660316
 20
13.2377608305
 30
0.0
 10
15.1933128616
 20
13.2369868501
 30
0.0
 10
15.1496174578
 20
13.236083929
 30
0.0
 10
15.1246487111
 20
13.2355678942
 30
0.0
 10
15.1059219958
 20
13.2351810916
 30
0.0
 10
15.0903168942
 20
13.2348580443
 30
0.0
 10
15.0778317037
 20
13.2346012031
 30
0.0
 10
15.0700309854
 20
13.2344370415
 30
0.0
 10
15.0637846263
 20
13.2343140392
 30
0.0
 10
15.05989385
 20
13.2342181633
 30
0.0
 10
15.0571438559
 20
13.2341891275
 30
0.0
 10
15.0556138153
 20
13.23411296
 30
0.0
 10
15.0542396493
 20
13.2338124014
 30
0.0
 10
15.0524686633
 20
13.2335134009
 30
0.0
 10
15.0482621475
 20
13.2327326739
 30
0.0
 10
15.041933956
 20
13.2315880971
 30
0.0
 10
15.0335068941
 20
13.2300468405
 30
0.0
 10
15.0250770163
 20
13.2285096377
 30
0.0
 10
15.0138381619
 20
13.2264586196
 30
0.0
 10
14.9941697049
 20
13.2228700007
 30
0.0
 10
14.9660721818
 20
13.2177430252
 30
0.0
 10
14.9379744476
 20
13.2126162957
 30
0.0
 10
14.9183062863
 20
13.2090273323
 30
0.0
 10
14.9070669672
 20
13.2069768555
 30
0.0
 10
14.898638515
 20
13.2054379919
 30
0.0
 10
14.8902060991
 20
13.2039029726
 30
0.0
 10
14.8838929006
 20
13.2027409298
 30
0.0
 10
14.8796668179
 20
13.2019829971
 30
0.0
 10
14.8779316692
 20
13.2016422483
 30
0.0
 10
14.8764835527
 20
13.2014278373
 30
0.0
 10
14.875254851
 20
13.2010006291
 30
0.0
 10
14.8732065683
 20
13.2001541441
 30
0.0
 10
14.8702272602
 20
13.1989964655
 30
0.0
 10
14.8654900922
 20
13.1971153512
 30
0.0
 10
14.8595584543
 20
13.1947738293
 30
0.0
 10
14.8500735222
 20
13.1910218773
 30
0.0
 10
14.8382154051
 20
13.1863338305
 30
0.0
 10
14.8239865015
 20
13.1807073626
 30
0.0
 10
14.8097573731
 20
13.1750811126
 30
0.0
 10
14.7955283071
 20
13.1694548027
 30
0.0
 10
14.7812992161
 20
13.1638285147
 30
0.0
 10
14.7670701631
 20
13.1582021988
 30
0.0
 10
14.7552125128
 20
13.153513677
 30
0.0
 10
14.7457266283
 20
13.1497626941
 30
0.0
 10
14.7397974143
 20
13.147418706
 30
0.0
 10
14.7350552711
 20
13.1455426539
 30
0.0
 10
14.7314953013
 20
13.1441379741
 30
0.0
 10
14.7285393561
 20
13.1429599022
 30
0.0
 10
14.7264492033
 20
13.1421499811
 30
0.0
 10
14.7252876062
 20
13.1416641706
 30
0.0
 10
14.724324078
 20
13.1413645997
 30
0.0
 10
14.7237134832
 20
13.14081738
 30
0.0
 10
14.7227762496
 20
13.1401741365
 30
0.0
 10
14.7211934487
 20
13.139008213
 30
0.0
 10
14.7189023172
 20
13.1373636498
 30
0.0
 10
14.7161657949
 20
13.1353811673
 30
0.0
 10
14.7125126154
 20
13.1327410033
 30
0.0
 10
14.707947676
 20
13.129439721
 30
0.0
 10
14.700642915
 20
13.1241582715
 30
0.0
 10
14.6915122586
 20
13.1175562527
 30
0.0
 10
14.6805553429
 20
13.1096339197
 30
0.0
 10
14.6695984673
 20
13.1017115598
 30
0.0
 10
14.6586415595
 20
13.0937892181
 30
0.0
 10
14.6476847403
 20
13.0858668304
 30
0.0
 10
14.6367275991
 20
13.0779446084
 30
0.0
 10
14.6275976473
 20
13.0713422427
 30
0.0
 10
14.6202914489
 20
13.0660615011
 30
0.0
 10
14.6157301678
 20
13.0627584172
 30
0.0
 10
14.6120694791
 20
13.0601219513
 30
0.0
 10
14.6098081619
 20
13.0584604672
 30
0.0
 10
14.6081719034
 20
13.0573248706
 30
0.0
 10
14.6073203485
 20
13.0566330223
 30
0.0
 10
14.6067831618
 20
13.0557794276
 30
0.0
 10
14.6060040394
 20
13.0547678158
 30
0.0
 10
14.6048175972
 20
13.0531182872
 30
0.0
 10
14.6033139477
 20
13.0510669737
 30
0.0
 10
14.6009196201
 20
13.0477789493
 30
0.0
 10
14.5979227611
 20
13.0436709508
 30
0.0
 10
14.5943282207
 20
13.0387404829
 30
0.0
 10
14.5895349103
 20
13.0321668291
 30
0.0
 10
14.5811468938
 20
13.0206627929
 30
0.0
 10
14.5691638538
 20
13.0042285357
 30
0.0
 10
14.5571809236
 20
12.9877942286
 30
0.0
 10
14.5487927535
 20
12.9762902621
 30
0.0
 10
14.5439996845
 20
12.9697164989
 30
0.0
 10
14.5404044035
 20
12.9647863667
 30
0.0
 10
14.5374098622
 20
12.9606773175
 30
0.0
 10
14.5350108059
 20
12.9573914369
 30
0.0
 10
14.5335191909
 20
12.9553346674
 30
0.0
 10
14.5323080461
 20
12.953696338
 30
0.0
 10
14.531591815
 20
12.9526562137
 30
0.0
 10
14.5309255309
 20
12.9518611469
 30
0.0
 10
14.5305998559
 20
12.950930884
 30
0.0
 10
14.530188152
 20
12.9492401196
 30
0.0
 10
14.5295174486
 20
12.9468575099
 30
0.0
 10
14.5284904586
 20
12.9430270221
 30
0.0
 10
14.5271909244
 20
12.9382451826
 30
0.0
 10
14.5251204984
 20
12.9305907349
 30
0.0
 10
14.5225294368
 20
12.9210238776
 30
0.0
 10
14.5194214594
 20
12.9095431342
 30
0.0
 10
14.5152770367
 20
12.8942356561
 30
0.0
 10
14.5100966638
 20
12.8751012468
 30
0.0
 10
14.5038801493
 20
12.8521399822
 30
0.0
 10
14.499735819
 20
12.8368324674
 30
0.0
 10
14.4976636523
 20
12.8291787106
 30
0.0
  0
SPLINE
  5
2D3
100
AcDbEntity
  8
03__ASM_ALL_CURVES
100
AcDbSpline
 62
8
  6
PHANTOM
 70
0
 71
3
 72
68
 73
64
 74
0
 42
0.0000001
 43
0.0000001
 44
0.0000000001
 40
0.0
 40
0.0
 40
0.0
 40
0.0
 40
0.0625
 40
0.09375
 40
0.125
 40
0.140625
 40
0.15625
 40
0.1640625
 40
0.16796875
 40
0.171875
 40
0.1796875
 40
0.1875
 40
0.203125
 40
0.21875
 40
0.25
 40
0.28125
 40
0.296875
 40
0.3125
 40
0.3203125
 40
0.328125
 40
0.33203125
 40
0.3359375
 40
0.34375
 40
0.359375
 40
0.375
 40
0.40625
 40
0.4375
 40
0.453125
 40
0.46875
 40
0.484375
 40
0.4921875
 40
0.49609375
 40
0.5
 40
0.50390625
 40
0.5078125
 40
0.515625
 40
0.53125
 40
0.546875
 40
0.5625
 40
0.59375
 40
0.625
 40
0.640625
 40
0.65625
 40
0.6640625
 40
0.66796875
 40
0.671875
 40
0.6796875
 40
0.6875
 40
0.703125
 40
0.71875
 40
0.75
 40
0.78125
 40
0.8125
 40
0.8203125
 40
0.828125
 40
0.83203125
 40
0.8359375
 40
0.84375
 40
0.859375
 40
0.875
 40
0.90625
 40
0.9375
 40
1.0
 40
1.0
 40
1.0
 40
1.0
 10
16.452909778
 20
12.2265441643
 30
0.0
 10
16.4560376907
 20
12.2333721875
 30
0.0
 10
16.4607289661
 20
12.2436145465
 30
0.0
 10
16.4669863739
 20
12.2572697285
 30
0.0
 10
16.4708923084
 20
12.2658069185
 30
0.0
 10
16.4740283315
 20
12.2726305116
 30
0.0
 10
16.4759626297
 20
12.2769093039
 30
0.0
 10
16.477368176
 20
12.2798763079
 30
0.0
 10
16.4780907101
 20
12.281615783
 30
0.0
 10
16.4785094795
 20
12.2835211792
 30
0.0
 10
16.4791369498
 20
12.2858461134
 30
0.0
 10
16.4800827762
 20
12.2895977569
 30
0.0
 10
16.4812849712
 20
12.2942764398
 30
0.0
 10
16.4831972987
 20
12.3017684126
 30
0.0
 10
16.4855919441
 20
12.3111312626
 30
0.0
 10
16.4879836256
 20
12.3204949762
 30
0.0
 10
16.4899006954
 20
12.3279855674
 30
0.0
 10
16.4910910346
 20
12.3326677042
 30
0.0
 10
16.4920611654
 20
12.3364122671
 30
0.0
 10
16.4926267631
 20
12.3387552266
 30
0.0
 10
16.4931725382
 20
12.3406236224
 30
0.0
 10
16.4933777128
 20
12.3425138191
 30
0.0
 10
16.4935785452
 20
12.3458317906
 30
0.0
 10
16.4939479991
 20
12.3505664674
 30
0.0
 10
16.4944930065
 20
12.3581448936
 30
0.0
 10
16.4951899552
 20
12.3676169818
 30
0.0
 10
16.4958817945
 20
12.3770891692
 30
0.0
 10
16.4964349769
 20
12.3846674366
 30
0.0
 10
16.4968537967
 20
12.3903495251
 30
0.0
 10
16.4971898235
 20
12.3950897566
 30
0.0
 10
16.4974505999
 20
12.3983977928
 30
0.0
 10
16.4975596987
 20
12.4003039104
 30
0.0
 10
16.4977539695
 20
12.4016889581
 30
0.0
 10
16.4975184119
 20
12.4032442622
 30
0.0
 10
16.4973542639
 20
12.4052586136
 30
0.0
 10
16.4969971515
 20
12.408811398
 30
0.0
 10
16.4965235019
 20
12.4138723397
 30
0.0
 10
16.4959395348
 20
12.4199516558
 30
0.0
 10
16.4951661558
 20
12.4280552763
 30
0.0
 10
16.4941990722
 20
12.4381853435
 30
0.0
 10
16.4932268735
 20
12.4483159123
 30
0.0
 10
16.4924616785
 20
12.4564187303
 30
0.0
 10
16.4919545793
 20
12.4614868333
 30
0.0
 10
16.4916574514
 20
12.4650267959
 30
0.0
 10
16.4913971627
 20
12.4670616955
 30
0.0
 10
16.4907959416
 20
12.469142042
 30
0.0
 10
16.4901611491
 20
12.4717269143
 30
0.0
 10
16.489080249
 20
12.4758714061
 30
0.0
 10
16.4877514296
 20
12.4810490432
 30
0.0
 10
16.4856130254
 20
12.489334927
 30
0.0
 10
16.4829429962
 20
12.4996917083
 30
0.0
 10
16.4797431162
 20
12.5121201022
 30
0.0
 10
16.4773271696
 20
12.5214413168
 30
0.0
 10
16.4757419678
 20
12.5276555145
 30
0.0
 10
16.4750435395
 20
12.530244695
 30
0.0
 10
16.47457328
 20
12.5323161984
 30
0.0
 10
16.4737794302
 20
12.5343871206
 30
0.0
 10
16.4722398452
 20
12.5380109644
 30
0.0
 10
16.4701188821
 20
12.5431880249
 30
0.0
 10
16.466681502
 20
12.5514712431
 30
0.0
 10
16.462399794
 20
12.5618252928
 30
0.0
 10
16.4555406305
 20
12.5783917572
 30
0.0
 10
16.4503981548
 20
12.5908166088
 30
0.0
 10
16.4469694161
 20
12.5990998425
 30
0.0
  0
SPLINE
  5
2D4
100
AcDbEntity
  8
0
100
AcDbSpline
 62
7
  6
CONTINUOUS
 70
0
 71
3
 72
21
 73
17
 74
0
 42
0.0000001
 43
0.0000001
 44
0.0000000001
 40
0.0
 40
0.0
 40
0.0
 40
0.0
 40
0.0374918279
 40
0.07649664
 40
0.1177085287
 40
0.1618214575
 40
0.2093800486
 40
0.2608888657
 40
0.316739508
 40
0.3769611145
 40
0.4415102518
 40
0.5102848577
 40
0.6597349039
 40
0.8236915913
 40
0.910470074
 40
1.0
 40
1.0
 40
1.0
 40
1.0
 10
15.0709712405
 20
12.0668124824
 30
0.0
 10
15.0716140849
 20
12.0688927279
 30
0.0
 10
15.0731783604
 20
12.073063664
 30
0.0
 10
15.0763287247
 20
12.0791474431
 30
0.0
 10
15.0803802712
 20
12.0851428157
 30
0.0
 10
15.0853849083
 20
12.0910361147
 30
0.0
 10
15.0914028232
 20
12.0967943558
 30
0.0
 10
15.0984847775
 20
12.1023640981
 30
0.0
 10
15.1066502719
 20
12.1076807951
 30
0.0
 10
15.1158849104
 20
12.1126782476
 30
0.0
 10
15.1261578842
 20
12.117264511
 30
0.0
 10
15.1415955726
 20
12.1228972165
 30
0.0
 10
15.1631514317
 20
12.1284265065
 30
0.0
 10
15.1862042474
 20
12.1316903094
 30
0.0
 10
15.2059239727
 20
12.1330422032
 30
0.0
 10
15.2161649312
 20
12.1332675304
 30
0.0
 10
15.2213643102
 20
12.1332675304
 30
0.0
  0
SPLINE
  5
2D5
100
AcDbEntity
  8
0
100
AcDbSpline
 62
7
  6
CONTINUOUS
 70
0
 71
3
 72
32
 73
28
 74
0
 42
0.0000001
 43
0.0000001
 44
0.0000000001
 40
0.0
 40
0.0
 40
0.0
 40
0.0
 40
0.0362267209
 40
0.0733181521
 40
0.1495199309
 40
0.2275923532
 40
0.2670354686
 40
0.306576918
 40
0.3854292164
 40
0.4631495673
 40
0.5012808191
 40
0.5387577553
 40
0.6112544497
 40
0.6797268603
 40
0.7121905611
 40
0.7433286748
 40
0.7730475723
 40
0.8012663622
 40
0.8279114818
 40
0.852927856
 40
0.8762803604
 40
0.8979410282
 40
0.9364988641
 40
0.9537600536
 40
0.9699227218
 40
0.9852509509
 40
1.0
 40
1.0
 40
1.0
 40
1.0
 10
15.2213643102
 20
12.1332675304
 30
0.0
 10
15.2265516491
 20
12.1332675304
 30
0.0
 10
15.2370514503
 20
12.133036744
 30
0.0
 10
15.2584233595
 20
12.1316839246
 30
0.0
 10
15.2856460254
 20
12.1283034589
 30
0.0
 10
15.3128636108
 20
12.1228162764
 30
0.0
 10
15.3346367842
 20
12.1171696366
 30
0.0
 10
15.3562975147
 20
12.1107038194
 30
0.0
 10
15.3827532245
 20
12.1012086732
 30
0.0
 10
15.4082584276
 20
12.0898804716
 30
0.0
 10
15.427780477
 20
12.0798234402
 30
0.0
 10
15.4462420274
 20
12.0693775494
 30
0.0
 10
15.4677096523
 20
12.0554629157
 30
0.0
 10
15.4873196023
 20
12.0401619493
 30
0.0
 10
15.5013282193
 20
12.0274463646
 30
0.0
 10
15.5107493095
 20
12.017960553
 30
0.0
 10
15.519223155
 20
12.0084180847
 30
0.0
 10
15.5267200625
 20
11.9988961079
 30
0.0
 10
15.5332097767
 20
11.9894666329
 30
0.0
 10
15.5386712148
 20
11.9802071597
 30
0.0
 10
15.5431174103
 20
11.9712063552
 30
0.0
 10
15.5475375586
 20
11.9600779099
 30
0.0
 10
15.550308189
 20
11.9492524548
 30
0.0
 10
15.5512783831
 20
11.9389745984
 30
0.0
 10
15.5511834176
 20
11.9319795132
 30
0.0
 10
15.5503422029
 20
11.9253980594
 30
0.0
 10
15.5493052045
 20
11.9212065791
 30
0.0
 10
15.5486816626
 20
11.9191887967
 30
0.0
  0
SPLINE
  5
2D6
100
AcDbEntity
  8
0
100
AcDbSpline
 62
7
  6
CONTINUOUS
 70
0
 71
3
 72
15
 73
11
 74
0
 42
0.0000001
 43
0.0000001
 44
0.0000000001
 40
0.0
 40
0.0
 40
0.0
 40
0.0
 40
0.1383303858
 40
0.2725902616
 40
0.4023573799
 40
0.5278275742
 40
0.6495432778
 40
0.768184194
 40
0.8846662728
 40
1.0
 40
1.0
 40
1.0
 40
1.0
 10
15.1973776679
 20
12.5703946639
 30
0.0
 10
15.2003112673
 20
12.5703946639
 30
0.0
 10
15.2060974181
 20
12.5700954062
 30
0.0
 10
15.2145360794
 20
12.568713399
 30
0.0
 10
15.2224888001
 20
12.5664017779
 30
0.0
 10
15.2298338579
 20
12.5631850621
 30
0.0
 10
15.236456042
 20
12.5590912337
 30
0.0
 10
15.2422482851
 20
12.554172917
 30
0.0
 10
15.2470910154
 20
12.5484935546
 30
0.0
 10
15.2496358677
 20
12.5442557207
 30
0.0
 10
15.2507133932
 20
12.5420599545
 30
0.0
  0
SPLINE
  5
2D7
100
AcDbEntity
  8
0
100
AcDbSpline
 62
7
  6
CONTINUOUS
 70
0
 71
3
 72
22
 73
18
 74
0
 42
0.0000001
 43
0.0000001
 44
0.0000000001
 40
0.0
 40
0.0
 40
0.0
 40
0.0
 40
0.0525226132
 40
0.105662875
 40
0.1599748498
 40
0.2159339941
 40
0.2738775056
 40
0.3339896661
 40
0.3648849727
 40
0.3963149792
 40
0.4606625147
 40
0.5941130126
 40
0.7312158706
 40
0.7998946115
 40
0.8679015927
 40
0.9347803779
 40
1.0
 40
1.0
 40
1.0
 40
1.0
 10
15.1079740603
 20
12.4720136638
 30
0.0
 10
15.1067939921
 20
12.47441839
 30
0.0
 10
15.1048646042
 20
12.4794881463
 30
0.0
 10
15.1033751833
 20
12.4875515381
 30
0.0
 10
15.1033028629
 20
12.4959252429
 30
0.0
 10
15.1046185223
 20
12.5044377731
 30
0.0
 10
15.1072745887
 20
12.5129371579
 30
0.0
 10
15.1105201493
 20
12.5198313357
 30
0.0
 10
15.1136975391
 20
12.5252103843
 30
0.0
 10
15.1173154061
 20
12.5305672978
 30
0.0
 10
15.1247031664
 20
12.5396589848
 30
0.0
 10
15.1375949342
 20
12.5510616936
 30
0.0
 10
15.1526494838
 20
12.5598174822
 30
0.0
 10
15.1656219799
 20
12.5650328617
 30
0.0
 10
15.1756059816
 20
12.5679454436
 30
0.0
 10
15.185659114
 20
12.5697979299
 30
0.0
 10
15.1923923772
 20
12.5703142244
 30
0.0
 10
15.1957179757
 20
12.5703785561
 30
0.0
  0
SPLINE
  5
2D8
100
AcDbEntity
  8
0
100
AcDbSpline
 62
7
  6
CONTINUOUS
 70
0
 71
3
 72
47
 73
43
 74
0
 42
0.0000001
 43
0.0000001
 44
0.0000000001
 40
0.0
 40
0.0
 40
0.0
 40
0.0
 40
0.0102075882
 40
0.0204765377
 40
0.0308413103
 40
0.0413357055
 40
0.0519944841
 40
0.0628538925
 40
0.0739484568
 40
0.0853100573
 40
0.096962817
 40
0.1089251865
 40
0.1338323735
 40
0.1468076625
 40
0.1601369823
 40
0.1878647504
 40
0.2170192649
 40
0.2475625644
 40
0.2794257932
 40
0.3125168974
 40
0.3467221091
 40
0.3819112511
 40
0.4179399054
 40
0.4546522256
 40
0.491883917
 40
0.5294637158
 40
0.5672165636
 40
0.6049649421
 40
0.6425317353
 40
0.6797416084
 40
0.7164241202
 40
0.7524147753
 40
0.7875587285
 40
0.8217117056
 40
0.8547447756
 40
0.8708073524
 40
0.8865494383
 40
0.9170243341
 40
0.9317459747
 40
0.9461149346
 40
0.9737756565
 40
1.0
 40
1.0
 40
1.0
 40
1.0
 10
14.7088253067
 20
12.592128679
 30
0.0
 10
14.7104901515
 20
12.5975161188
 30
0.0
 10
14.7142262124
 20
12.6082053516
 30
0.0
 10
14.7210035675
 20
12.6238517927
 30
0.0
 10
14.7289574579
 20
12.6391138502
 30
0.0
 10
14.7380800098
 20
12.6539601286
 30
0.0
 10
14.7483635658
 20
12.6683636935
 30
0.0
 10
14.7597975318
 20
12.6823028239
 30
0.0
 10
14.7723728351
 20
12.6957573405
 30
0.0
 10
14.7860779247
 20
12.7087047229
 30
0.0
 10
14.8008956584
 20
12.7211223258
 30
0.0
 10
14.8223930552
 20
12.7371521282
 30
0.0
 10
14.8457995385
 20
12.7517662984
 30
0.0
 10
14.8708298041
 20
12.7649655266
 30
0.0
 10
14.8978639915
 20
12.777641545
 30
0.0
 10
14.9340654416
 20
12.7917058335
 30
0.0
 10
14.9803923659
 20
12.8055154638
 30
0.0
 10
15.0298421581
 20
12.8163480885
 30
0.0
 10
15.0820586366
 20
12.824119158
 30
0.0
 10
15.1366730896
 20
12.828756188
 30
0.0
 10
15.1932992101
 20
12.8302211973
 30
0.0
 10
15.2515391917
 20
12.8284965456
 30
0.0
 10
15.3109854099
 20
12.8235874977
 30
0.0
 10
15.3712242666
 20
12.8155285821
 30
0.0
 10
15.431836707
 20
12.804367811
 30
0.0
 10
15.4924041782
 20
12.7901863822
 30
0.0
 10
15.5525068489
 20
12.7730762274
 30
0.0
 10
15.6117308575
 20
12.7531588301
 30
0.0
 10
15.6696669739
 20
12.7305702073
 30
0.0
 10
15.7259151908
 20
12.7054670241
 30
0.0
 10
15.780088105
 20
12.6780269566
 30
0.0
 10
15.8318089076
 20
12.648438641
 30
0.0
 10
15.8807225632
 20
12.6169163717
 30
0.0
 10
15.9264850107
 20
12.5836801039
 30
0.0
 10
15.9620611411
 20
12.5544893108
 30
0.0
 10
15.9886336147
 20
12.5304641918
 30
0.0
 10
16.0133853052
 20
12.5065623398
 30
0.0
 10
16.0364081207
 20
12.4819560434
 30
0.0
 10
16.0575033386
 20
12.4566939009
 30
0.0
 10
16.0766511419
 20
12.4318617685
 30
0.0
 10
16.0978552628
 20
12.4006296744
 30
0.0
 10
16.1123353961
 20
12.3745626852
 30
0.0
 10
16.1187174022
 20
12.3615575241
 30
0.0
  0
SPLINE
  5
2D9
100
AcDbEntity
  8
0
100
AcDbSpline
 62
7
  6
CONTINUOUS
 70
0
 71
3
 72
15
 73
11
 74
0
 42
0.0000001
 43
0.0000001
 44
0.0000000001
 40
0.0
 40
0.0
 40
0.0
 40
0.0
 40
0.1393496447
 40
0.273515607
 40
0.4028519334
 40
0.5278866195
 40
0.6492805327
 40
0.7678676683
 40
0.8845106694
 40
1.0
 40
1.0
 40
1.0
 40
1.0
 10
16.1236855811
 20
12.3510699059
 30
0.0
 10
16.1277006264
 20
12.342278581
 30
0.0
 10
16.1349745976
 20
12.3247362173
 30
0.0
 10
16.1436623696
 20
12.298150804
 30
0.0
 10
16.1498962377
 20
12.2719004764
 30
0.0
 10
16.153678827
 20
12.2460790466
 30
0.0
 10
16.1550131167
 20
12.220759977
 30
0.0
 10
16.1539079229
 20
12.1960094401
 30
0.0
 10
16.1503813043
 20
12.1719014975
 30
0.0
 10
16.1464234058
 20
12.1562609189
 30
0.0
 10
16.144058499
 20
12.1486080776
 30
0.0
  0
SPLINE
  5
2DA
100
AcDbEntity
  8
0
100
AcDbSpline
 62
7
  6
CONTINUOUS
 70
0
 71
3
 72
14
 73
10
 74
0
 42
0.0000001
 43
0.0000001
 44
0.0000000001
 40
0.0
 40
0.0
 40
0.0
 40
0.0
 40
0.1110689429
 40
0.2261814881
 40
0.34533919
 40
0.4685323707
 40
0.5957260855
 40
0.7268238987
 40
1.0
 40
1.0
 40
1.0
 40
1.0
 10
14.4944501441
 20
12.4281387379
 30
0.0
 10
14.5008851921
 20
12.4150254888
 30
0.0
 10
14.5149738833
 20
12.388795122
 30
0.0
 10
14.5391061722
 20
12.3502851933
 30
0.0
 10
14.566527528
 20
12.3120636537
 30
0.0
 10
14.5971292665
 20
12.2742751354
 30
0.0
 10
14.6308031683
 20
12.2370510235
 30
0.0
 10
14.6803075895
 20
12.1876775584
 30
0.0
 10
14.7206836701
 20
12.1529319955
 30
0.0
 10
14.7488840377
 20
12.1306733728
 30
0.0
  0
SPLINE
  5
2DB
100
AcDbEntity
  8
0
100
AcDbSpline
 62
7
  6
CONTINUOUS
 70
0
 71
3
 72
23
 73
19
 74
0
 42
0.0000001
 43
0.0000001
 44
0.0000000001
 40
0.0
 40
0.0
 40
0.0
 40
0.0
 40
0.0780528808
 40
0.1540727024
 40
0.2279484561
 40
0.2995953513
 40
0.3689516337
 40
0.4359896443
 40
0.5007108843
 40
0.5631574444
 40
0.6234090731
 40
0.6815909322
 40
0.7378739739
 40
0.7924761878
 40
0.8456638856
 40
0.8977451031
 40
0.9490664104
 40
1.0
 40
1.0
 40
1.0
 40
1.0
 10
15.8496587511
 20
11.7901363376
 30
0.0
 10
15.8680767232
 20
11.7913904747
 30
0.0
 10
15.9043848054
 20
11.7946606404
 30
0.0
 10
15.9578172112
 20
11.8019900095
 30
0.0
 10
16.0093382406
 20
11.8116591599
 30
0.0
 10
16.0587561553
 20
11.8236268566
 30
0.0
 10
16.1058865336
 20
11.8378567748
 30
0.0
 10
16.1505561098
 20
11.8542904464
 30
0.0
 10
16.1925971521
 20
11.8728753547
 30
0.0
 10
16.2318548553
 20
11.8935401058
 30
0.0
 10
16.2681812321
 20
11.9162143784
 30
0.0
 10
16.3014393404
 20
11.9408167657
 30
0.0
 10
16.3315034791
 20
11.9672584044
 30
0.0
 10
16.3582534578
 20
11.9954478236
 30
0.0
 10
16.3815878847
 20
12.0252772843
 30
0.0
 10
16.4014051248
 20
12.0566424807
 30
0.0
 10
16.4176295151
 20
12.089412916
 30
0.0
 10
16.4260147087
 20
12.1121555818
 30
0.0
 10
16.4295712279
 20
12.1236651369
 30
0.0
  0
SPLINE
  5
2DC
100
AcDbEntity
  8
0
100
AcDbSpline
 62
7
  6
CONTINUOUS
 70
0
 71
3
 72
15
 73
11
 74
0
 42
0.0000001
 43
0.0000001
 44
0.0000000001
 40
0.0
 40
0.0
 40
0.0
 40
0.0
 40
0.1381134846
 40
0.2714884084
 40
0.4004244602
 40
0.5254199368
 40
0.6471123979
 40
0.7662284844
 40
0.8835680869
 40
1.0
 40
1.0
 40
1.0
 40
1.0
 10
16.4054853032
 20
12.4648571867
 30
0.0
 10
16.4118534231
 20
12.4518803227
 30
0.0
 10
16.4234497718
 20
12.4259044186
 30
0.0
 10
16.4374690407
 20
12.3863617498
 30
0.0
 10
16.4477283419
 20
12.3470908316
 30
0.0
 10
16.4541824883
 20
12.3082526648
 30
0.0
 10
16.4567990082
 20
12.2699942378
 30
0.0
 10
16.4555640036
 20
12.2324627579
 30
0.0
 10
16.4504778791
 20
12.1958137609
 30
0.0
 10
16.4445157887
 20
12.1720263417
 30
0.0
 10
16.4409181196
 20
12.1603835757
 30
0.0
  0
SPLINE
  5
2DD
100
AcDbEntity
  8
0
100
AcDbSpline
 62
7
  6
CONTINUOUS
 70
0
 71
3
 72
28
 73
24
 74
0
 42
0.0000001
 43
0.0000001
 44
0.0000000001
 40
0.0
 40
0.0
 40
0.0
 40
0.0
 40
0.0317470155
 40
0.0639785512
 40
0.1296559206
 40
0.1966288103
 40
0.2644972877
 40
0.332824685
 40
0.4011700378
 40
0.4690924058
 40
0.536158256
 40
0.6019509717
 40
0.6660800446
 40
0.7281903718
 40
0.7583946183
 40
0.7879831599
 40
0.8169259722
 40
0.8451980525
 40
0.8727781287
 40
0.8996517025
 40
0.9512449434
 40
0.9759786335
 40
1.0
 40
1.0
 40
1.0
 40
1.0
 10
15.1410667281
 20
13.1058924665
 30
0.0
 10
15.1567257416
 20
13.1058924665
 30
0.0
 10
15.188285238
 20
13.1053647167
 30
0.0
 10
15.2521696554
 20
13.1022471425
 30
0.0
 10
15.3331789845
 20
13.094460773
 30
0.0
 10
15.4309463816
 20
13.0791497146
 30
0.0
 10
15.5289488582
 20
13.0579635101
 30
0.0
 10
15.6262503799
 20
13.0311003806
 30
0.0
 10
15.7219192591
 20
12.9988194208
 30
0.0
 10
15.8150404457
 20
12.9614299261
 30
0.0
 10
15.904722907
 20
12.9192890228
 30
0.0
 10
15.9901097216
 20
12.8727982505
 30
0.0
 10
16.0703824332
 20
12.8224036348
 30
0.0
 10
16.1329569727
 20
12.7771373273
 30
0.0
 10
16.1797323649
 20
12.7393380898
 30
0.0
 10
16.2127497766
 20
12.7105902363
 30
0.0
 10
16.2439452526
 20
12.6812486288
 30
0.0
 10
16.2732459577
 20
12.6513870535
 30
0.0
 10
16.300582186
 20
12.621074527
 30
0.0
 10
16.3338634708
 20
12.580707182
 30
0.0
 10
16.3635181585
 20
12.5392108751
 30
0.0
 10
16.3890258571
 20
12.4967718865
 30
0.0
 10
16.400265583
 20
12.4754938581
 30
0.0
 10
16.4054853032
 20
12.4648571867
 30
0.0
  0
SPLINE
  5
2DE
100
AcDbEntity
  8
0
100
AcDbSpline
 62
7
  6
CONTINUOUS
 70
0
 71
3
 72
15
 73
11
 74
0
 42
0.0000001
 43
0.0000001
 44
0.0000000001
 40
0.0
 40
0.0
 40
0.0
 40
0.0
 40
0.1365904172
 40
0.2692911072
 40
0.3982783086
 40
0.5238153488
 40
0.6462868866
 40
0.7661380964
 40
0.883864147
 40
1.0
 40
1.0
 40
1.0
 40
1.0
 10
16.3723174599
 20
12.6736138082
 30
0.0
 10
16.377055393
 20
12.6639589156
 30
0.0
 10
16.3858251892
 20
12.6446362465
 30
0.0
 10
16.3969200172
 20
12.6152813799
 30
0.0
 10
16.4057259794
 20
12.5860649007
 30
0.0
 10
16.4122084213
 20
12.5570695177
 30
0.0
 10
16.4163540682
 20
12.5283736193
 30
0.0
 10
16.4181478172
 20
12.5000488671
 30
0.0
 10
16.4175829432
 20
12.472172478
 30
0.0
 10
16.4156252208
 20
12.4538353816
 30
0.0
 10
16.4142528065
 20
12.4447947311
 30
0.0
  0
SPLINE
  5
2DF
100
AcDbEntity
  8
0
100
AcDbSpline
 62
7
  6
CONTINUOUS
 70
0
 71
3
 72
42
 73
38
 74
0
 42
0.0000001
 43
0.0000001
 44
0.0000000001
 40
0.0
 40
0.0
 40
0.0
 40
0.0
 40
0.0267641595
 40
0.0547536495
 40
0.0839706759
 40
0.1144120003
 40
0.1460381904
 40
0.1787786058
 40
0.2125404833
 40
0.247213079
 40
0.2826678505
 40
0.3187635531
 40
0.355348604
 40
0.3922635034
 40
0.4293440822
 40
0.4664232993
 40
0.5033345145
 40
0.5399131898
 40
0.576000386
 40
0.6114442299
 40
0.6461038337
 40
0.6798513513
 40
0.7125749732
 40
0.7441834674
 40
0.7746076381
 40
0.8038066679
 40
0.8317698376
 40
0.8452979573
 40
0.8585295535
 40
0.8841342933
 40
0.9086960509
 40
0.9323607729
 40
0.9553130665
 40
0.9665944075
 40
0.9777813781
 40
0.9889056475
 40
1.0
 40
1.0
 40
1.0
 40
1.0
 10
16.4195076805
 20
12.8366421477
 30
0.0
 10
16.4114543392
 20
12.8530531319
 30
0.0
 10
16.3932793923
 20
12.8858127353
 30
0.0
 10
16.3610623515
 20
12.9333408911
 30
0.0
 10
16.3235169166
 20
12.9800482789
 30
0.0
 10
16.280916615
 20
13.0256461329
 30
0.0
 10
16.2335472441
 20
13.0698674516
 30
0.0
 10
16.1817201718
 20
13.1124323157
 30
0.0
 10
16.1257841513
 20
13.1530754962
 30
0.0
 10
16.0661094424
 20
13.1915336303
 30
0.0
 10
16.0030948303
 20
13.2275584549
 30
0.0
 10
15.9371621596
 20
13.2609140558
 30
0.0
 10
15.8687523881
 20
13.2913771475
 30
0.0
 10
15.7983268364
 20
13.3187490183
 30
0.0
 10
15.726357785
 20
13.3428425404
 30
0.0
 10
15.6533305348
 20
13.3634986224
 30
0.0
 10
15.5797362649
 20
13.3805775231
 30
0.0
 10
15.5060689688
 20
13.3939614
 30
0.0
 10
15.4328233161
 20
13.4035625934
 30
0.0
 10
15.360488006
 20
13.4093096401
 30
0.0
 10
15.2895447396
 20
13.4111639406
 30
0.0
 10
15.2204627918
 20
13.4091059954
 30
0.0
 10
15.1536963345
 20
13.4031402729
 30
0.0
 10
15.0896813438
 20
13.3932980192
 30
0.0
 10
15.0288325767
 20
13.3796224501
 30
0.0
 10
14.9715458517
 20
13.362186388
 30
0.0
 10
14.9265912742
 20
13.3443929467
 30
0.0
 10
14.8928387472
 20
13.3283078779
 30
0.0
 10
14.8613014448
 20
13.3114148717
 30
0.0
 10
14.8246545685
 20
13.2881940569
 30
0.0
 10
14.7851448067
 20
13.2566845919
 30
0.0
 10
14.7509011997
 20
13.2220051835
 30
0.0
 10
14.7268719487
 20
13.1904364648
 30
0.0
 10
14.7107038468
 20
13.1639347629
 30
0.0
 10
14.7001398457
 20
13.1435445109
 30
0.0
 10
14.6910951993
 20
13.1225772683
 30
0.0
 10
14.6860905616
 20
13.108234038
 30
0.0
 10
14.6838532706
 20
13.1009941616
 30
0.0
  0
SPLINE
  5
2E0
100
AcDbEntity
  8
0
100
AcDbSpline
 62
7
  6
CONTINUOUS
 70
0
 71
3
 72
15
 73
11
 74
0
 42
0.0000001
 43
0.0000001
 44
0.0000000001
 40
0.0
 40
0.0
 40
0.0
 40
0.0
 40
0.1179565103
 40
0.236619306
 40
0.356720117
 40
0.4789276702
 40
0.6038406419
 40
0.7320291323
 40
0.8639741971
 40
1.0
 40
1.0
 40
1.0
 40
1.0
 10
16.4517640008
 20
12.5546684254
 30
0.0
 10
16.4550391437
 20
12.5652667918
 30
0.0
 10
16.4604916931
 20
12.5868904143
 30
0.0
 10
16.4652676488
 20
12.6201530717
 30
0.0
 10
16.4666339267
 20
12.6541302214
 30
0.0
 10
16.4646151969
 20
12.6886589795
 30
0.0
 10
16.4592360888
 20
12.7235916928
 30
0.0
 10
16.4505483312
 20
12.7587915924
 30
0.0
 10
16.4386081859
 20
12.7941234648
 30
0.0
 10
16.428685926
 20
12.8173190935
 30
0.0
 10
16.4232347623
 20
12.8288916454
 30
0.0
  0
SPLINE
  5
2E1
100
AcDbEntity
  8
0
100
AcDbSpline
 62
7
  6
CONTINUOUS
 70
0
 71
3
 72
15
 73
11
 74
0
 42
0.0000001
 43
0.0000001
 44
0.0000000001
 40
0.0
 40
0.0
 40
0.0
 40
0.0
 40
0.1318930627
 40
0.2590641792
 40
0.3826757833
 40
0.5041675286
 40
0.6254039812
 40
0.7479431391
 40
0.8726765568
 40
1.0
 40
1.0
 40
1.0
 40
1.0
 10
15.277418184
 20
13.2468432539
 30
0.0
 10
15.2783358501
 20
13.247389477
 30
0.0
 10
15.2800708221
 20
13.2485834559
 30
0.0
 10
15.2823249912
 20
13.2507315797
 30
0.0
 10
15.2840913771
 20
13.2531978653
 30
0.0
 10
15.2853089486
 20
13.2559269206
 30
0.0
 10
15.2859097671
 20
13.2588456369
 30
0.0
 10
15.2859040938
 20
13.261849526
 30
0.0
 10
15.2853060284
 20
13.2648404607
 30
0.0
 10
15.2845552181
 20
13.2667505616
 30
0.0
 10
15.284101317
 20
13.2676761895
 30
0.0
  0
SPLINE
  5
2E2
100
AcDbEntity
  8
0
100
AcDbSpline
 62
7
  6
CONTINUOUS
 70
0
 71
3
 72
9
 73
5
 74
0
 42
0.0000001
 43
0.0000001
 44
0.0000000001
 40
0.0
 40
0.0
 40
0.0
 40
0.0
 40
0.2450935991
 40
1.0
 40
1.0
 40
1.0
 40
1.0
 10
14.7832439035
 20
12.3547018401
 30
0.0
 10
14.7848053654
 20
12.3515199151
 30
0.0
 10
14.791348482
 20
12.3386223633
 30
0.0
 10
14.7985604993
 20
12.3260665759
 30
0.0
 10
14.8043237576
 20
12.3167947685
 30
0.0
  0
SPLINE
  5
2E3
100
AcDbEntity
  8
0
100
AcDbSpline
 62
7
  6
CONTINUOUS
 70
0
 71
3
 72
9
 73
5
 74
0
 42
0.0000001
 43
0.0000001
 44
0.0000000001
 40
0.0
 40
0.0
 40
0.0
 40
0.0
 40
0.2577002349
 40
1.0
 40
1.0
 40
1.0
 40
1.0
 10
15.9092652825
 20
11.9748849749
 30
0.0
 10
15.9145113321
 20
11.977188563
 30
0.0
 10
15.9347020598
 20
11.9864980023
 30
0.0
 10
15.9542017771
 20
11.9973361536
 30
0.0
 10
15.9680607725
 20
12.0062973719
 30
0.0
  0
SPLINE
  5
2E4
100
AcDbEntity
  8
0
100
AcDbSpline
 62
7
  6
CONTINUOUS
 70
0
 71
3
 72
23
 73
19
 74
0
 42
0.0000001
 43
0.0000001
 44
0.0000000001
 40
0.0
 40
0.0
 40
0.0
 40
0.0
 40
0.0493448586
 40
0.099574281
 40
0.1510162273
 40
0.2039563508
 40
0.2586362904
 40
0.3152493415
 40
0.3739406062
 40
0.434812259
 40
0.4979204551
 40
0.5632871453
 40
0.6308946735
 40
0.7006976054
 40
0.7726202488
 40
0.8465624403
 40
0.9224032949
 40
1.0
 40
1.0
 40
1.0
 40
1.0
 10
14.6529001347
 20
12.9892447222
 30
0.0
 10
14.6577322533
 20
12.9992679075
 30
0.0
 10
14.6685833713
 20
13.0189822588
 30
0.0
 10
14.688046965
 20
13.046993975
 30
0.0
 10
14.7107353804
 20
13.0735396859
 30
0.0
 10
14.7365454592
 20
13.0985188191
 30
0.0
 10
14.7653766033
 20
13.1218359701
 30
0.0
 10
14.7971121514
 20
13.1434060628
 30
0.0
 10
14.8316271896
 20
13.1631519105
 30
0.0
 10
14.868789714
 20
13.180996707
 30
0.0
 10
14.9084539745
 20
13.1968814114
 30
0.0
 10
14.9504702326
 20
13.210739852
 30
0.0
 10
14.9946752918
 20
13.2225278091
 30
0.0
 10
15.0409011735
 20
13.2321955939
 30
0.0
 10
15.0889697937
 20
13.2397103535
 30
0.0
 10
15.1386973855
 20
13.2450432348
 30
0.0
 10
15.1898917801
 20
13.2481719897
 30
0.0
 10
15.2244986667
 20
13.2487771387
 30
0.0
 10
15.2419964615
 20
13.2487207933
 30
0.0
  0
SPLINE
  5
2E5
100
AcDbEntity
  8
0
100
AcDbSpline
 62
7
  6
CONTINUOUS
 70
0
 71
3
 72
29
 73
25
 74
0
 42
0.0000001
 43
0.0000001
 44
0.0000000001
 40
0.0
 40
0.0
 40
0.0
 40
0.0
 40
0.0643679702
 40
0.130333587
 40
0.1975131194
 40
0.2314350493
 40
0.2655061512
 40
0.3338761525
 40
0.40219978
 40
0.4362131966
 40
0.4700547085
 40
0.5370068432
 40
0.6026602302
 40
0.6348845864
 40
0.6666456043
 40
0.7286039567
 40
0.7882475429
 40
0.8171284942
 40
0.8453449606
 40
0.872876569
 40
0.8997118708
 40
0.9512589683
 40
0.9759818677
 40
1.0
 40
1.0
 40
1.0
 40
1.0
 10
15.255928346
 20
13.2485997536
 30
0.0
 10
15.2840236822
 20
13.2482028818
 30
0.0
 10
15.340899706
 20
13.2455434353
 30
0.0
 10
15.4266668233
 20
13.2362805738
 30
0.0
 10
15.4986384892
 20
13.2242345004
 30
0.0
 10
15.5563765489
 20
13.2120367067
 30
0.0
 10
15.6142559668
 20
13.1981045696
 30
0.0
 10
15.6859751401
 20
13.1776340481
 30
0.0
 10
15.7564302528
 20
13.1532408521
 30
0.0
 10
15.8117455542
 20
13.1314517387
 30
0.0
 10
15.8658752668
 20
13.1083503662
 30
0.0
 10
15.9314654815
 20
13.0769929499
 30
0.0
 10
15.9944880357
 20
13.0421794563
 30
0.0
 10
16.0427055228
 20
13.0125399725
 30
0.0
 10
16.0886139647
 20
12.9822779086
 30
0.0
 10
16.1426978419
 20
12.9427330243
 30
0.0
 10
16.1929391672
 20
12.9003155699
 30
0.0
 10
16.2299298519
 20
12.865247131
 30
0.0
 10
16.2557161885
 20
12.8387788919
 30
0.0
 10
16.2797803439
 20
12.8119205669
 30
0.0
 10
16.3090994622
 20
12.7761595092
 30
0.0
 10
16.3352420152
 20
12.7394158416
 30
0.0
 10
16.3577617675
 20
12.7018554015
 30
0.0
 10
16.3676985978
 20
12.6830260595
 30
0.0
 10
16.3723174599
 20
12.6736138082
 30
0.0
  0
SPLINE
  5
2E6
100
AcDbEntity
  8
0
100
AcDbSpline
 62
7
  6
CONTINUOUS
 70
0
 71
3
 72
17
 73
13
 74
0
 42
0.0000001
 43
0.0000001
 44
0.0000000001
 40
0.0
 40
0.0
 40
0.0
 40
0.0
 40
0.1364889488
 40
0.2687495367
 40
0.397095897
 40
0.4599640265
 40
0.5220461984
 40
0.6441247557
 40
0.7639926098
 40
0.8233330176
 40
0.8823894196
 40
1.0
 40
1.0
 40
1.0
 40
1.0
 10
14.574742858
 20
12.3615575241
 30
0.0
 10
14.5689155178
 20
12.3734323949
 30
0.0
 10
14.5582888188
 20
12.3972444753
 30
0.0
 10
14.5454278436
 20
12.4335586621
 30
0.0
 10
14.5375069313
 20
12.4639371955
 30
0.0
 10
14.5329552956
 20
12.4880674274
 30
0.0
 10
14.5296219024
 20
12.5117823099
 30
0.0
 10
14.5276239065
 20
12.5412293226
 30
0.0
 10
14.52859664
 20
12.5704672954
 30
0.0
 10
14.5311849137
 20
12.5934230205
 30
0.0
 10
14.5349490666
 20
12.6159911021
 30
0.0
 10
14.539121288
 20
12.6326412943
 30
0.0
 10
14.5424865377
 20
12.6435312464
 30
0.0
  0
SPLINE
  5
2E7
100
AcDbEntity
  8
0
100
AcDbSpline
 62
7
  6
CONTINUOUS
 70
0
 71
3
 72
22
 73
18
 74
0
 42
0.0000001
 43
0.0000001
 44
0.0000000001
 40
0.0
 40
0.0
 40
0.0
 40
0.0
 40
0.0533718972
 40
0.1070097851
 40
0.1611931062
 40
0.2161862603
 40
0.2722273587
 40
0.3295296438
 40
0.3882889196
 40
0.448669228
 40
0.5108046113
 40
0.5747993211
 40
0.6407278954
 40
0.7086341971
 40
0.7785377115
 40
0.8504307414
 40
1.0
 40
1.0
 40
1.0
 40
1.0
 10
16.3103972679
 20
12.0972055102
 30
0.0
 10
16.3073935657
 20
12.087485526
 30
0.0
 10
16.3004234174
 20
12.0682759868
 30
0.0
 10
16.28720986
 20
12.0404876504
 30
0.0
 10
16.2712806728
 20
12.0137996459
 30
0.0
 10
16.2527123379
 20
11.9883109097
 30
0.0
 10
16.2315924348
 20
11.9641014504
 30
0.0
 10
16.2080036512
 20
11.9412506721
 30
0.0
 10
16.182043978
 20
11.9198151813
 30
0.0
 10
16.1538045869
 20
11.8998502397
 30
0.0
 10
16.1233821579
 20
11.8814015855
 30
0.0
 10
16.0908753253
 20
11.8645087124
 30
0.0
 10
16.0563830316
 20
11.8492122759
 30
0.0
 10
16.0200113668
 20
11.8355420411
 30
0.0
 10
15.9818654383
 20
11.8235309203
 30
0.0
 10
15.9280888839
 20
11.8095816631
 30
0.0
 10
15.886482151
 20
11.8019910897
 30
0.0
 10
15.8582436865
 20
11.7980640451
 30
0.0
  0
SPLINE
  5
2E8
100
AcDbEntity
  8
0
100
AcDbSpline
 62
7
  6
CONTINUOUS
 70
0
 71
3
 72
11
 73
7
 74
0
 42
0.0000001
 43
0.0000001
 44
0.0000000001
 40
0.0
 40
0.0
 40
0.0
 40
0.0
 40
0.2675745724
 40
0.5235418797
 40
0.76767713
 40
1.0
 40
1.0
 40
1.0
 40
1.0
 10
14.7469861372
 20
12.1415030363
 30
0.0
 10
14.7292431743
 20
12.1576297639
 30
0.0
 10
14.6956335256
 20
12.1904346696
 30
0.0
 10
14.6503195419
 20
12.2422945057
 30
0.0
 10
14.6115677355
 20
12.2953712021
 30
0.0
 10
14.5898068812
 20
12.3322076789
 30
0.0
 10
14.5802261196
 20
12.3506899584
 30
0.0
  0
SPLINE
  5
2E9
100
AcDbEntity
  8
0
100
AcDbSpline
 62
7
  6
CONTINUOUS
 70
0
 71
3
 72
15
 73
11
 74
0
 42
0.0000001
 43
0.0000001
 44
0.0000000001
 40
0.0
 40
0.0
 40
0.0
 40
0.0
 40
0.1164322387
 40
0.2337721979
 40
0.3528872534
 40
0.4745783839
 40
0.5995741729
 40
0.7285132939
 40
0.8618894792
 40
1.0
 40
1.0
 40
1.0
 40
1.0
 10
14.459017744
 20
12.7326122204
 30
0.0
 10
14.4554199217
 20
12.7209694716
 30
0.0
 10
14.4494573877
 20
12.6971820615
 30
0.0
 10
14.4443722497
 20
12.6605329992
 30
0.0
 10
14.4431362313
 20
12.6230017962
 30
0.0
 10
14.4457532102
 20
12.5847436087
 30
0.0
 10
14.4522069537
 20
12.5459051884
 30
0.0
 10
14.4624667948
 20
12.506633907
 30
0.0
 10
14.4764860462
 20
12.4670911219
 30
0.0
 10
14.4880821636
 20
12.4411153177
 30
0.0
 10
14.4944501441
 20
12.4281387379
 30
0.0
  0
SPLINE
  5
2EA
100
AcDbEntity
  8
0
100
AcDbSpline
 62
7
  6
CONTINUOUS
 70
0
 71
3
 72
22
 73
18
 74
0
 42
0.0000001
 43
0.0000001
 44
0.0000000001
 40
0.0
 40
0.0
 40
0.0
 40
0.0
 40
0.0520193691
 40
0.1043749612
 40
0.1573919813
 40
0.2113755602
 40
0.2666036518
 40
0.3233187293
 40
0.381729677
 40
0.4420047577
 40
0.568571242
 40
0.6350834699
 40
0.7037744806
 40
0.774651518
 40
0.8477004005
 40
0.9228556727
 40
1.0
 40
1.0
 40
1.0
 40
1.0
 10
14.4703646029
 20
12.7693306692
 30
0.0
 10
14.4736401605
 20
12.7799305519
 30
0.0
 10
14.4812661691
 20
12.8008894067
 30
0.0
 10
14.4958019434
 20
12.8312026308
 30
0.0
 10
14.513394242
 20
12.8603421528
 30
0.0
 10
14.5339836555
 20
12.8882082231
 30
0.0
 10
14.5575012022
 20
12.914711525
 30
0.0
 10
14.5838627351
 20
12.9397732861
 30
0.0
 10
14.6129881408
 20
12.9633116051
 30
0.0
 10
14.656064749
 20
12.9930525953
 30
0.0
 10
14.7037437216
 20
13.0188802641
 30
0.0
 10
14.7550699615
 20
13.0408957944
 30
0.0
 10
14.7964259202
 20
13.0558540644
 30
0.0
 10
14.8398641675
 20
13.0689386574
 30
0.0
 10
14.8852547528
 20
13.080106947
 30
0.0
 10
14.9324411253
 20
13.0893238305
 30
0.0
 10
14.9645839729
 20
13.0940907715
 30
0.0
 10
14.9809071148
 20
13.0961537002
 30
0.0
  0
SPLINE
  5
2EB
100
AcDbEntity
  8
0
100
AcDbSpline
 62
7
  6
CONTINUOUS
 70
0
 71
3
 72
9
 73
5
 74
0
 42
0.0000001
 43
0.0000001
 44
0.0000000001
 40
0.0
 40
0.0
 40
0.0
 40
0.0
 40
0.517436864
 40
1.0
 40
1.0
 40
1.0
 40
1.0
 10
15.1015911986
 20
12.1037290007
 30
0.0
 10
15.1019280555
 20
12.1010779173
 30
0.0
 10
15.1027957841
 20
12.0959782058
 30
0.0
 10
15.1041932519
 20
12.0909925133
 30
0.0
 10
15.1050170832
 20
12.0886403236
 30
0.0
  0
LINE
  5
2EC
100
AcDbEntity
  8
0
100
AcDbLine
 62
7
  6
CONTINUOUS
 10
15.1050170832
 20
12.0886403236
 11
15.1073685719
 21
12.0829853183
  0
SPLINE
  5
2ED
100
AcDbEntity
  8
0
100
AcDbSpline
 62
7
  6
CONTINUOUS
 70
0
 71
3
 72
15
 73
11
 74
0
 42
0.0000001
 43
0.0000001
 44
0.0000000001
 40
0.0
 40
0.0
 40
0.0
 40
0.0
 40
0.1137402425
 40
0.2277112915
 40
0.3435123626
 40
0.4627579605
 40
0.5869144154
 40
0.7172663145
 40
0.8547553621
 40
1.0
 40
1.0
 40
1.0
 40
1.0
 10
15.1311562621
 20
12.0657627576
 30
0.0
 10
15.1299811645
 20
12.0657619906
 30
0.0
 10
15.1276241489
 20
12.0659427567
 30
0.0
 10
15.1241588616
 20
12.0667733674
 30
0.0
 10
15.1208168538
 20
12.06816716
 30
0.0
 10
15.1176397839
 20
12.0701116222
 30
0.0
 10
15.1146627528
 20
12.0725908529
 30
0.0
 10
15.1119234114
 20
12.0755892856
 30
0.0
 10
15.1094479317
 20
12.0790771939
 30
0.0
 10
15.1080296428
 20
12.0816381976
 30
0.0
 10
15.1073685719
 20
12.0829853183
 30
0.0
  0
SPLINE
  5
2EE
100
AcDbEntity
  8
0
100
AcDbSpline
 62
7
  6
CONTINUOUS
 70
0
 71
3
 72
16
 73
12
 74
0
 42
0.0000001
 43
0.0000001
 44
0.0000000001
 40
0.0
 40
0.0
 40
0.0
 40
0.0
 40
0.1355892301
 40
0.2672410643
 40
0.3952752582
 40
0.4580939434
 40
0.5201947905
 40
0.642500693
 40
0.7627944249
 40
0.8817124922
 40
1.0
 40
1.0
 40
1.0
 40
1.0
 10
14.7739995183
 20
11.9685232472
 30
0.0
 10
14.770321793
 20
11.9760176635
 30
0.0
 10
14.7636098879
 20
11.9910613308
 30
0.0
 10
14.7554816945
 20
12.0140279113
 30
0.0
 10
14.7504700751
 20
12.0332710485
 30
0.0
 10
14.7475866877
 20
12.0485811559
 30
0.0
 10
14.7454718528
 20
12.0636598587
 30
0.0
 10
14.7442068347
 20
12.0824101481
 30
0.0
 10
14.7449536833
 20
12.1046953767
 30
0.0
 10
14.7479974571
 20
12.126534972
 30
0.0
 10
14.7515570378
 20
12.1407335903
 30
0.0
 10
14.7537072979
 20
12.1476918347
 30
0.0
  0
SPLINE
  5
2EF
100
AcDbEntity
  8
0
100
AcDbSpline
 62
7
  6
CONTINUOUS
 70
0
 71
3
 72
42
 73
38
 74
0
 42
0.0000001
 43
0.0000001
 44
0.0000000001
 40
0.0
 40
0.0
 40
0.0
 40
0.0
 40
0.0113013375
 40
0.022623769
 40
0.0339990483
 40
0.0454576273
 40
0.0687245312
 40
0.0805942992
 40
0.0926458131
 40
0.1173672561
 40
0.1430464509
 40
0.1562838301
 40
0.1697976811
 40
0.1976769441
 40
0.2267248788
 40
0.2569420697
 40
0.2882975792
 40
0.3207341092
 40
0.3541699622
 40
0.388504319
 40
0.423618516
 40
0.4593811226
 40
0.4956487861
 40
0.5322707541
 40
0.6059266014
 40
0.6426608711
 40
0.6791138273
 40
0.7151316771
 40
0.7505670256
 40
0.785282639
 40
0.8191533126
 40
0.852070412
 40
0.8839418984
 40
0.9146960824
 40
0.9442928879
 40
0.9727277784
 40
1.0
 40
1.0
 40
1.0
 40
1.0
 10
15.8562629522
 20
11.806976368
 30
0.0
 10
15.8548537999
 20
11.8024163495
 30
0.0
 10
15.8517079852
 20
11.7933845889
 30
0.0
 10
15.8460380919
 20
11.7801809915
 30
0.0
 10
15.8394318531
 20
11.7673439801
 30
0.0
 10
15.8293496733
 20
11.7506744734
 30
0.0
 10
15.8174706047
 20
11.734902535
 30
0.0
 10
15.8040302931
 20
11.7201760612
 30
0.0
 10
15.7892729869
 20
11.7058681042
 30
0.0
 10
15.7687346513
 20
11.689224736
 30
0.0
 10
15.7461161271
 20
11.6746189123
 30
0.0
 10
15.7266840554
 20
11.6639895552
 30
0.0
 10
15.7059404822
 20
11.6538727785
 30
0.0
 10
15.6783448858
 20
11.6426549384
 30
0.0
 10
15.6432046763
 20
11.6315986833
 30
0.0
 10
15.6059133023
 20
11.6228506898
 30
0.0
 10
15.5667027642
 20
11.6164433908
 30
0.0
 10
15.5258147347
 20
11.6124043624
 30
0.0
 10
15.483504606
 20
11.610744919
 30
0.0
 10
15.440039088
 20
11.6114715376
 30
0.0
 10
15.3956943227
 20
11.6145697016
 30
0.0
 10
15.3507558045
 20
11.6200201342
 30
0.0
 10
15.3055111863
 20
11.6277800469
 30
0.0
 10
15.245068971
 20
11.6411659293
 30
0.0
 10
15.1854478928
 20
11.6588782099
 30
0.0
 10
15.1273756642
 20
11.6806862246
 30
0.0
 10
15.0850047206
 20
11.6989471535
 30
0.0
 10
15.0440632861
 20
11.7190011944
 30
0.0
 10
15.0048181098
 20
11.7407254473
 30
0.0
 10
14.9675221875
 20
11.76397873
 30
0.0
 10
14.9324179804
 20
11.7886199549
 30
0.0
 10
14.8997302948
 20
11.8144965408
 30
0.0
 10
14.8696713509
 20
11.8414549112
 30
0.0
 10
14.8424321562
 20
11.8693348129
 30
0.0
 10
14.81818892
 20
11.8979859792
 30
0.0
 10
14.7971112302
 20
11.9272478595
 30
0.0
 10
14.785017947
 20
11.9474717726
 30
0.0
 10
14.7795861875
 20
11.9576281228
 30
0.0
  0
SPLINE
  5
2F0
100
AcDbEntity
  8
0
100
AcDbSpline
 62
7
  6
CONTINUOUS
 70
0
 71
3
 72
23
 73
19
 74
0
 42
0.0000001
 43
0.0000001
 44
0.0000000001
 40
0.0
 40
0.0
 40
0.0
 40
0.0
 40
0.0653014745
 40
0.1327344142
 40
0.2015279315
 40
0.2709978792
 40
0.340433499
 40
0.4091715316
 40
0.4766451225
 40
0.5423965147
 40
0.6061012144
 40
0.6675890235
 40
0.7268518571
 40
0.7840465938
 40
0.8394849997
 40
0.8936046525
 40
0.946924398
 40
1.0
 40
1.0
 40
1.0
 40
1.0
 10
15.1616246634
 20
12.44165427
 30
0.0
 10
15.1649977471
 20
12.44165427
 30
0.0
 10
15.1718579003
 20
12.4420130418
 30
0.0
 10
15.1821688812
 20
12.4435423001
 30
0.0
 10
15.1925070468
 20
12.4460578681
 30
0.0
 10
15.2026747864
 20
12.4495261604
 30
0.0
 10
15.212483082
 20
12.453904014
 30
0.0
 10
15.221745723
 20
12.4591381318
 30
0.0
 10
15.2302854182
 20
12.4651624766
 30
0.0
 10
15.2379380324
 20
12.471896082
 30
0.0
 10
15.2445515418
 20
12.479246042
 30
0.0
 10
15.2499909119
 20
12.4871026635
 30
0.0
 10
15.2541452851
 20
12.4953376167
 30
0.0
 10
15.256923428
 20
12.5038088667
 30
0.0
 10
15.2582670611
 20
12.5123566055
 30
0.0
 10
15.2581508493
 20
12.5208117559
 30
0.0
 10
15.2565805196
 20
12.5289952596
 30
0.0
 10
15.2545922155
 20
12.5341554293
 30
0.0
 10
15.2533842642
 20
12.5366165368
 30
0.0
  0
SPLINE
  5
2F1
100
AcDbEntity
  8
0
100
AcDbSpline
 62
7
  6
CONTINUOUS
 70
0
 71
3
 72
13
 73
9
 74
0
 42
0.0000001
 43
0.0000001
 44
0.0000000001
 40
0.0
 40
0.0
 40
0.0
 40
0.0
 40
0.2443630643
 40
0.368767297
 40
0.4940818431
 40
0.61997519
 40
0.7464550485
 40
1.0
 40
1.0
 40
1.0
 40
1.0
 10
15.284101317
 20
13.2676761895
 30
0.0
 10
15.2833481012
 20
13.2692122014
 30
0.0
 10
15.2818887229
 20
13.2713880358
 30
0.0
 10
15.2794510677
 20
13.2738505187
 30
0.0
 10
15.2773710027
 20
13.2754722157
 30
0.0
 10
15.2750785691
 20
13.2768084349
 30
0.0
 10
15.2717872457
 20
13.2781386
 30
0.0
 10
15.2691055695
 20
13.2785708043
 30
0.0
 10
15.2673305382
 20
13.2785708043
 30
0.0
  0
SPLINE
  5
2F2
100
AcDbEntity
  8
0
100
AcDbSpline
 62
7
  6
CONTINUOUS
 70
0
 71
3
 72
15
 73
11
 74
0
 42
0.0000001
 43
0.0000001
 44
0.0000000001
 40
0.0
 40
0.0
 40
0.0
 40
0.0
 40
0.1164327268
 40
0.2337732846
 40
0.3528877383
 40
0.4745781895
 40
0.5995746789
 40
0.7285164188
 40
0.8618929278
 40
1.0
 40
1.0
 40
1.0
 40
1.0
 10
16.4268001182
 20
12.4738880829
 30
0.0
 10
16.4300281055
 20
12.4843335386
 30
0.0
 10
16.4353775863
 20
12.5056748592
 30
0.0
 10
16.4399390095
 20
12.5385552021
 30
0.0
 10
16.4410487024
 20
12.5722267488
 30
0.0
 10
16.4387002779
 20
12.6065505406
 30
0.0
 10
16.4329104215
 20
12.6413952447
 30
0.0
 10
16.4237051102
 20
12.6766282473
 30
0.0
 10
16.4111275656
 20
12.712104546
 30
0.0
 10
16.4007241576
 20
12.7354088771
 30
0.0
 10
16.3950111778
 20
12.7470507059
 30
0.0
  0
SPLINE
  5
2F3
100
AcDbEntity
  8
0
100
AcDbSpline
 62
7
  6
CONTINUOUS
 70
0
 71
3
 72
9
 73
5
 74
0
 42
0.0000001
 43
0.0000001
 44
0.0000000001
 40
0.0
 40
0.0
 40
0.0
 40
0.0
 40
0.4930712432
 40
1.0
 40
1.0
 40
1.0
 40
1.0
 10
15.0513058569
 20
13.0025381663
 30
0.0
 10
15.0688382047
 20
13.0047539153
 30
0.0
 10
15.1045223716
 20
13.0082865332
 30
0.0
 10
15.1403364774
 20
13.0100210328
 30
0.0
 10
15.1584993397
 20
13.0104721625
 30
0.0
  0
SPLINE
  5
2F4
100
AcDbEntity
  8
0
100
AcDbSpline
 62
7
  6
CONTINUOUS
 70
0
 71
3
 72
9
 73
5
 74
0
 42
0.0000001
 43
0.0000001
 44
0.0000000001
 40
0.0
 40
0.0
 40
0.0
 40
0.0
 40
0.5070090076
 40
1.0
 40
1.0
 40
1.0
 40
1.0
 10
15.1441919707
 20
13.0396284126
 30
0.0
 10
15.1247941688
 20
13.0391713262
 30
0.0
 10
15.0865499669
 20
13.0373573016
 30
0.0
 10
15.0484448663
 20
13.0335990332
 30
0.0
 10
15.029727037
 20
13.0312334624
 30
0.0
  0
SPLINE
  5
2F5
100
AcDbEntity
  8
0
100
AcDbSpline
 62
7
  6
CONTINUOUS
 70
0
 71
3
 72
48
 73
44
 74
0
 42
0.0000001
 43
0.0000001
 44
0.0000000001
 40
0.0
 40
0.0
 40
0.0
 40
0.0
 40
0.0265246107
 40
0.0543675206
 40
0.0687850152
 40
0.0835296988
 40
0.1139833168
 40
0.145683873
 40
0.1785510174
 40
0.212483072
 40
0.2473614189
 40
0.2830504812
 40
0.3194031123
 40
0.3562619726
 40
0.3934627674
 40
0.4308364076
 40
0.468211395
 40
0.5054162949
 40
0.5422818776
 40
0.5786438526
 40
0.6143446099
 40
0.6492369723
 40
0.6831851929
 40
0.7160699014
 40
0.7320827909
 40
0.7477937206
 40
0.7782688777
 40
0.7930247824
 40
0.8074523042
 40
0.8353097371
 40
0.8487496016
 40
0.861867463
 40
0.8746710923
 40
0.8871716768
 40
0.8993829081
 40
0.9113212283
 40
0.9344515723
 40
0.9457035798
 40
0.9567805607
 40
0.9677141946
 40
0.9785381135
 40
0.9892877433
 40
1.0
 40
1.0
 40
1.0
 40
1.0
 10
16.3950111778
 20
12.7470507059
 30
0.0
 10
16.387043115
 20
12.7632879106
 30
0.0
 10
16.369018695
 20
12.7957577496
 30
0.0
 10
16.342656654
 20
12.8346207687
 30
0.0
 10
16.3189274717
 20
12.8654196195
 30
0.0
 10
16.2928775957
 20
12.8966396729
 30
0.0
 10
16.2570329464
 20
12.9349792845
 30
0.0
 10
16.2096241941
 20
12.9792119956
 30
0.0
 10
16.1576784085
 20
13.021857277
 30
0.0
 10
16.1015542739
 20
13.0626300143
 30
0.0
 10
16.0416287817
 20
13.1012505858
 30
0.0
 10
15.9783112873
 20
13.1374614388
 30
0.0
 10
15.9120305939
 20
13.1710142154
 30
0.0
 10
15.8432374635
 20
13.2016809678
 30
0.0
 10
15.7724008161
 20
13.2292555888
 30
0.0
 10
15.7000010146
 20
13.2535460249
 30
0.0
 10
15.626532531
 20
13.2743922152
 30
0.0
 10
15.5524939748
 20
13.2916474991
 30
0.0
 10
15.4783899485
 20
13.3051976264
 30
0.0
 10
15.4047242971
 20
13.3149497387
 30
0.0
 10
15.3319976739
 20
13.3208353594
 30
0.0
 10
15.2607039992
 20
13.3228188136
 30
0.0
 10
15.1913286587
 20
13.3208800811
 30
0.0
 10
15.1350117513
 20
13.3159693393
 30
0.0
 10
15.0913488886
 20
13.3100420029
 30
0.0
 10
15.0495260351
 20
13.3029584356
 30
0.0
 10
15.0089173516
 20
13.293941442
 30
0.0
 10
14.9697543242
 20
13.2829001686
 30
0.0
 10
14.9327492499
 20
13.27089837
 30
0.0
 10
14.8973252694
 20
13.256997967
 30
0.0
 10
14.863771102
 20
13.2411323902
 30
0.0
 10
14.8400622644
 20
13.2285282044
 30
0.0
 10
14.8175538554
 20
13.2150976518
 30
0.0
 10
14.7962827687
 20
13.2008657482
 30
0.0
 10
14.7762839886
 20
13.185854832
 30
0.0
 10
14.7516317828
 20
13.165059527
 30
0.0
 10
14.7293084983
 20
13.1425773267
 30
0.0
 10
14.7096986478
 20
13.1185465553
 30
0.0
 10
14.6965492043
 20
13.100043507
 30
0.0
 10
14.6848485786
 20
13.0809338316
 30
0.0
 10
14.674616682
 20
13.061249007
 30
0.0
 10
14.6658758197
 20
13.0410235383
 30
0.0
 10
14.6610476984
 20
13.0271922817
 30
0.0
 10
14.658890974
 20
13.020213329
 30
0.0
  0
SPLINE
  5
2F6
100
AcDbEntity
  8
0
100
AcDbSpline
 62
7
  6
CONTINUOUS
 70
0
 71
3
 72
21
 73
17
 74
0
 42
0.0000001
 43
0.0000001
 44
0.0000000001
 40
0.0
 40
0.0
 40
0.0
 40
0.0
 40
0.1302080033
 40
0.1969268582
 40
0.2646718096
 40
0.3334746573
 40
0.4030940146
 40
0.5431293839
 40
0.612397194
 40
0.6799390394
 40
0.7447668496
 40
0.805803918
 40
0.8620706974
 40
0.913112226
 40
0.9588823592
 40
1.0
 40
1.0
 40
1.0
 40
1.0
 10
15.2673305382
 20
13.2785708043
 30
0.0
 10
15.2654372389
 20
13.2785708043
 30
0.0
 10
15.2625549015
 20
13.2780756403
 30
0.0
 10
15.2589835889
 20
13.2766246666
 30
0.0
 10
15.2564051012
 20
13.2751630621
 30
0.0
 10
15.2539738331
 20
13.2734004119
 30
0.0
 10
15.2509386875
 20
13.2707131599
 30
0.0
 10
15.2482610865
 20
13.2676395935
 30
0.0
 10
15.2459654705
 20
13.2643301321
 30
0.0
 10
15.2444746093
 20
13.2618020743
 30
0.0
 10
15.2432332849
 20
13.2592754975
 30
0.0
 10
15.2422632016
 20
13.2568075676
 30
0.0
 10
15.24158787
 20
13.2544502288
 30
0.0
 10
15.2412203255
 20
13.2522489459
 30
0.0
 10
15.2411670052
 20
13.2502366006
 30
0.0
 10
15.2413572397
 20
13.2489779713
 30
0.0
 10
15.2415107753
 20
13.2484001476
 30
0.0
  0
SPLINE
  5
2F7
100
AcDbEntity
  8
0
100
AcDbSpline
 62
7
  6
CONTINUOUS
 70
0
 71
3
 72
52
 73
48
 74
0
 42
0.0000001
 43
0.0000001
 44
0.0000000001
 40
0.0
 40
0.0
 40
0.0
 40
0.0
 40
0.0277230708
 40
0.0570522086
 40
0.0723196336
 40
0.0879820939
 40
0.1040335061
 40
0.1204628082
 40
0.1543907908
 40
0.1718608512
 40
0.1896399692
 40
0.2260328932
 40
0.2633805135
 40
0.3014693483
 40
0.3400708507
 40
0.378946931
 40
0.4178544385
 40
0.4565493812
 40
0.494792154
 40
0.5323512107
 40
0.5690087423
 40
0.6045656059
 40
0.6388458923
 40
0.6717048005
 40
0.687569125
 40
0.7030412759
 40
0.7181142967
 40
0.7327855124
 40
0.7609189385
 40
0.7744041579
 40
0.7875150743
 40
0.8126767827
 40
0.8247934518
 40
0.83663877
 40
0.8482513203
 40
0.8596743394
 40
0.8709546252
 40
0.8821424684
 40
0.8932903404
 40
0.9044515346
 40
0.9156790814
 40
0.9270239233
 40
0.9385344207
 40
0.9502560904
 40
0.9622307859
 40
0.9744961208
 40
1.0
 40
1.0
 40
1.0
 40
1.0
 10
16.0599572493
 20
12.3547018401
 30
0.0
 10
16.0529521696
 20
12.3689766917
 30
0.0
 10
16.0367838131
 20
12.3975145876
 30
0.0
 10
16.0127093476
 20
12.4313730583
 30
0.0
 10
15.9908003703
 20
12.4581163931
 30
0.0
 10
15.9728219121
 20
12.4782005822
 30
0.0
 10
15.9535572593
 20
12.4979945079
 30
0.0
 10
15.9259230748
 20
12.5242201305
 30
0.0
 10
15.8961822891
 20
12.5493633741
 30
0.0
 10
15.8645889643
 20
12.5733760208
 30
0.0
 10
15.8310494488
 20
12.5971289174
 30
0.0
 10
15.7867367253
 20
12.6253403502
 30
0.0
 10
15.7305867036
 20
12.6564223803
 30
0.0
 10
15.6715678439
 20
12.6847033923
 30
0.0
 10
15.6102295701
 20
12.7099209127
 30
0.0
 10
15.5471412232
 20
12.7318433063
 30
0.0
 10
15.4828874225
 20
12.7502642481
 30
0.0
 10
15.4180648567
 20
12.7650140648
 30
0.0
 10
15.3532752399
 20
12.775957364
 30
0.0
 10
15.2891187119
 20
12.782989443
 30
0.0
 10
15.2261901765
 20
12.7860472374
 30
0.0
 10
15.1650706569
 20
12.7851025423
 30
0.0
 10
15.1063275768
 20
12.7801596835
 30
0.0
 10
15.0592598477
 20
12.7726622227
 30
0.0
 10
15.0233143443
 20
12.7646404149
 30
0.0
 10
14.997596979
 20
12.7577386059
 30
0.0
 10
14.9728666746
 20
12.7498935671
 30
0.0
 10
14.9417270844
 20
12.738365915
 30
0.0
 10
14.9122932961
 20
12.7249238351
 30
0.0
 10
14.8849378077
 20
12.7094931649
 30
0.0
 10
14.8599787633
 20
12.6933978194
 30
0.0
 10
14.8371683841
 20
12.6754853095
 30
0.0
 10
14.8169559962
 20
12.6558266554
 30
0.0
 10
14.8033953112
 20
12.6405539786
 30
0.0
 10
14.7912813661
 20
12.624606768
 30
0.0
 10
14.7806402526
 20
12.608023583
 30
0.0
 10
14.7715010842
 20
12.5908420595
 30
0.0
 10
14.7638877337
 20
12.573103177
 30
0.0
 10
14.7578157269
 20
12.5548511183
 30
0.0
 10
14.7533024358
 20
12.536129074
 30
0.0
 10
14.7503601955
 20
12.5169829615
 30
0.0
 10
14.7489909322
 20
12.4974605013
 30
0.0
 10
14.7491985467
 20
12.4776085053
 30
0.0
 10
14.7509837804
 20
12.4574746295
 30
0.0
 10
14.7543387019
 20
12.437103205
 30
0.0
 10
14.7609786976
 20
12.409336869
 30
0.0
 10
14.768192182
 20
12.3888247013
 30
0.0
 10
14.7738521394
 20
12.3753358832
 30
0.0
  0
SPLINE
  5
2F8
100
AcDbEntity
  8
0
100
AcDbSpline
 62
7
  6
CONTINUOUS
 70
0
 71
3
 72
22
 73
18
 74
0
 42
0.0000001
 43
0.0000001
 44
0.0000000001
 40
0.0
 40
0.0
 40
0.0
 40
0.0
 40
0.0818547591
 40
0.1617925854
 40
0.2394874925
 40
0.3146566295
 40
0.3870703728
 40
0.4565387689
 40
0.5229295915
 40
0.5862232001
 40
0.703696384
 40
0.7583110898
 40
0.8103887661
 40
0.8602032271
 40
0.9081234906
 40
0.954569937
 40
1.0
 40
1.0
 40
1.0
 40
1.0
 10
15.1664615119
 20
12.1277717037
 30
0.0
 10
15.1665380551
 20
12.1256191258
 30
0.0
 10
15.1665886547
 20
12.1213598184
 30
0.0
 10
15.1663213516
 20
12.1150603335
 30
0.0
 10
15.1657032077
 20
12.1089617695
 30
0.0
 10
15.1647284858
 20
12.1031099172
 30
0.0
 10
15.1633922589
 20
12.0975515265
 30
0.0
 10
15.161706237
 20
12.0923309046
 30
0.0
 10
15.1596767211
 20
12.0874907562
 30
0.0
 10
15.1566146172
 20
12.0817466617
 30
0.0
 10
15.1529189586
 20
12.0767075863
 30
0.0
 10
15.1486550771
 20
12.0726146601
 30
0.0
 10
15.1453535434
 20
12.0701342197
 30
0.0
 10
15.1419095092
 20
12.0681917393
 30
0.0
 10
15.1383670081
 20
12.0667977267
 30
0.0
 10
15.134773038
 20
12.0659555372
 30
0.0
 10
15.1323517153
 20
12.0657635379
 30
0.0
 10
15.1311562621
 20
12.0657627576
 30
0.0
  0
SPLINE
  5
2F9
100
AcDbEntity
  8
0
100
AcDbSpline
 62
7
  6
CONTINUOUS
 70
0
 71
3
 72
15
 73
11
 74
0
 42
0.0000001
 43
0.0000001
 44
0.0000000001
 40
0.0
 40
0.0
 40
0.0
 40
0.0
 40
0.1164327268
 40
0.2337732846
 40
0.3528877383
 40
0.4745781895
 40
0.5995746789
 40
0.7285164188
 40
0.8618929278
 40
1.0
 40
1.0
 40
1.0
 40
1.0
 10
16.3282488664
 20
12.154976115
 30
0.0
 10
16.3314768536
 20
12.1654215707
 30
0.0
 10
16.3368263344
 20
12.1867628913
 30
0.0
 10
16.3413877576
 20
12.2196432341
 30
0.0
 10
16.3424974505
 20
12.2533147808
 30
0.0
 10
16.340149026
 20
12.2876385726
 30
0.0
 10
16.3343591696
 20
12.3224832767
 30
0.0
 10
16.3251538583
 20
12.3577162793
 30
0.0
 10
16.3125763137
 20
12.3931925779
 30
0.0
 10
16.3021729056
 20
12.416496909
 30
0.0
 10
16.2964599258
 20
12.4281387379
 30
0.0
  0
SPLINE
  5
2FA
100
AcDbEntity
  8
0
100
AcDbSpline
 62
7
  6
CONTINUOUS
 70
0
 71
3
 72
16
 73
12
 74
0
 42
0.0000001
 43
0.0000001
 44
0.0000000001
 40
0.0
 40
0.0
 40
0.0
 40
0.0
 40
0.1093843792
 40
0.2202952829
 40
0.3348036726
 40
0.4545700751
 40
0.5168174893
 40
0.5807427809
 40
0.7137514252
 40
0.853737004
 40
1.0
 40
1.0
 40
1.0
 40
1.0
 10
15.1106455248
 20
12.4665705464
 30
0.0
 10
15.111605406
 20
12.4646149083
 30
0.0
 10
15.113899394
 20
12.4608419498
 30
0.0
 10
15.1183487317
 20
12.4558316693
 30
0.0
 10
15.1237396547
 20
12.4515165477
 30
0.0
 10
15.1288869467
 20
12.4485755099
 30
0.0
 10
15.1333695931
 20
12.4465942327
 30
0.0
 10
15.1382214424
 20
12.444822396
 30
0.0
 10
15.1447297688
 20
12.4431197166
 30
0.0
 10
15.1530062755
 20
12.4419124923
 30
0.0
 10
15.1587116794
 20
12.44165427
 30
0.0
 10
15.1616246634
 20
12.44165427
 30
0.0
  0
SPLINE
  5
2FB
100
AcDbEntity
  8
0
100
AcDbSpline
 62
7
  6
CONTINUOUS
 70
0
 71
3
 72
15
 73
11
 74
0
 42
0.0000001
 43
0.0000001
 44
0.0000000001
 40
0.0
 40
0.0
 40
0.0
 40
0.0
 40
0.1173454147
 40
0.235970874
 40
0.3563781629
 40
0.4790354575
 40
0.6043739831
 40
0.7327803784
 40
0.8645832899
 40
1.0
 40
1.0
 40
1.0
 40
1.0
 10
16.4387952155
 20
12.160848853
 30
0.0
 10
16.4405788319
 20
12.1702839568
 30
0.0
 10
16.4433661606
 20
12.1894176699
 30
0.0
 10
16.445178234
 20
12.2185538879
 30
0.0
 10
16.4446402621
 20
12.2481768866
 30
0.0
 10
16.4417498161
 20
12.2782131578
 30
0.0
 10
16.4365179243
 20
12.3085936592
 30
0.0
 10
16.4289584178
 20
12.3392498934
 30
0.0
 10
16.4190871984
 20
12.370105425
 30
0.0
 10
16.4110976517
 20
12.3904776055
 30
0.0
 10
16.4067451973
 20
12.4006679849
 30
0.0
  0
SPLINE
  5
2FC
100
AcDbEntity
  8
0
100
AcDbSpline
 62
7
  6
CONTINUOUS
 70
0
 71
3
 72
14
 73
10
 74
0
 42
0.0000001
 43
0.0000001
 44
0.0000000001
 40
0.0
 40
0.0
 40
0.0
 40
0.0
 40
0.1175134811
 40
0.2363500497
 40
0.356962632
 40
0.4797771169
 40
0.6051840171
 40
0.7335351357
 40
1.0
 40
1.0
 40
1.0
 40
1.0
 10
14.7189960536
 20
12.6173857892
 30
0.0
 10
14.717899759
 20
12.610789387
 30
0.0
 10
14.7162254805
 20
12.5974282411
 30
0.0
 10
14.7152817063
 20
12.5771187086
 30
0.0
 10
14.7158975418
 20
12.5564942271
 30
0.0
 10
14.7180716831
 20
12.5356012551
 30
0.0
 10
14.7217964404
 20
12.5144808564
 30
0.0
 10
14.7289075251
 20
12.4857282899
 30
0.0
 10
14.7364404141
 20
12.4644822446
 30
0.0
 10
14.7423071947
 20
12.4505005544
 30
0.0
  0
SPLINE
  5
2FD
100
AcDbEntity
  8
0
100
AcDbSpline
 62
7
  6
CONTINUOUS
 70
0
 71
3
 72
30
 73
26
 74
0
 42
0.0000001
 43
0.0000001
 44
0.0000000001
 40
0.0
 40
0.0
 40
0.0
 40
0.0
 40
0.0240189147
 40
0.048752109
 40
0.1003476861
 40
0.1272213192
 40
0.1548000465
 40
0.1830714195
 40
0.2120139518
 40
0.2717962702
 40
0.3339055497
 40
0.3657430243
 40
0.3980422732
 40
0.4638343866
 40
0.5308993501
 40
0.5647834618
 40
0.5988278975
 40
0.6671724033
 40
0.7354995207
 40
0.7695217024
 40
0.8033733958
 40
0.8703448098
 40
0.9360254232
 40
0.9682562795
 40
1.0
 40
1.0
 40
1.0
 40
1.0
 10
16.2964599258
 20
12.4281387379
 30
0.0
 10
16.2917774053
 20
12.4376807114
 30
0.0
 10
16.2816937748
 20
12.456769534
 30
0.0
 10
16.2588087723
 20
12.4948442604
 30
0.0
 10
16.2322040244
 20
12.5320752088
 30
0.0
 10
16.2023440293
 20
12.568291653
 30
0.0
 10
16.1778200351
 20
12.5954872138
 30
0.0
 10
16.1515319027
 20
12.6222769366
 30
0.0
 10
16.1138097857
 20
12.6577564067
 30
0.0
 10
16.0625656745
 20
12.700629383
 30
0.0
 10
16.0074044748
 20
12.7405362958
 30
0.0
 10
15.9605861355
 20
12.7710334773
 30
0.0
 10
15.9114249822
 20
12.8008674643
 30
0.0
 10
15.8471934617
 20
12.8358375658
 30
0.0
 10
15.7803724312
 20
12.8672381033
 30
0.0
 10
15.7252572119
 20
12.8902985591
 30
0.0
 10
15.6689799851
 20
12.9119860196
 30
0.0
 10
15.5973582613
 20
12.9361511171
 30
0.0
 10
15.5245051757
 20
12.9562650161
 30
0.0
 10
15.4657708114
 20
12.9698261104
 30
0.0
 10
15.4072623634
 20
12.9815905685
 30
0.0
 10
15.3344238383
 20
12.9929965034
 30
0.0
 10
15.2617447911
 20
12.9999814
 30
0.0
 10
15.2044295508
 20
13.0027786116
 30
0.0
 10
15.1761169646
 20
13.0032522805
 30
0.0
 10
15.1620695592
 20
13.0032522805
 30
0.0
  0
SPLINE
  5
2FE
100
AcDbEntity
  8
0
100
AcDbSpline
 62
7
  6
CONTINUOUS
 70
0
 71
3
 72
28
 73
24
 74
0
 42
0.0000001
 43
0.0000001
 44
0.0000000001
 40
0.0
 40
0.0
 40
0.0
 40
0.0
 40
0.0240213664
 40
0.048755056
 40
0.1003482957
 40
0.1272218691
 40
0.154801945
 40
0.1830740249
 40
0.2120168369
 40
0.2416053782
 40
0.2718096243
 40
0.3339199511
 40
0.3980490236
 40
0.4638417391
 40
0.5309075893
 40
0.5988299575
 40
0.6671753107
 40
0.7355027086
 40
0.8033711867
 40
0.8703440772
 40
0.9360214481
 40
0.9682529843
 40
1.0
 40
1.0
 40
1.0
 40
1.0
 10
16.3941384443
 20
12.4281387379
 30
0.0
 10
16.3889187241
 20
12.4387754092
 30
0.0
 10
16.3776789984
 20
12.4600534373
 30
0.0
 10
16.3521713003
 20
12.5024924252
 30
0.0
 10
16.3225166132
 20
12.5439887313
 30
0.0
 10
16.2892353292
 20
12.5843560757
 30
0.0
 10
16.2618991013
 20
12.6146686019
 30
0.0
 10
16.2325983968
 20
12.6445301771
 30
0.0
 10
16.2014029213
 20
12.6738717842
 30
0.0
 10
16.16838551
 20
12.7026196375
 30
0.0
 10
16.1216101185
 20
12.740418875
 30
0.0
 10
16.0590355796
 20
12.7856851824
 30
0.0
 10
15.9787628685
 20
12.8360797981
 30
0.0
 10
15.8933760544
 20
12.8825705707
 30
0.0
 10
15.8036935933
 20
12.9247114744
 30
0.0
 10
15.7105724066
 20
12.9621009695
 30
0.0
 10
15.614903527
 20
12.9943819298
 30
0.0
 10
15.5176020045
 20
13.0212450599
 30
0.0
 10
15.4195995271
 20
13.0424312649
 30
0.0
 10
15.3218321285
 20
13.0577423238
 30
0.0
 10
15.2408227981
 20
13.0655286935
 30
0.0
 10
15.1769383795
 20
13.0686462678
 30
0.0
 10
15.1453788828
 20
13.0691740176
 30
0.0
 10
15.1297198692
 20
13.0691740176
 30
0.0
  0
SPLINE
  5
2FF
100
AcDbEntity
  8
0
100
AcDbSpline
 62
7
  6
CONTINUOUS
 70
0
 71
3
 72
14
 73
10
 74
0
 42
0.0000001
 43
0.0000001
 44
0.0000000001
 40
0.0
 40
0.0
 40
0.0
 40
0.0
 40
0.1381995962
 40
0.2728493207
 40
0.4037401633
 40
0.5307545772
 40
0.6538668098
 40
0.7730891135
 40
1.0
 40
1.0
 40
1.0
 40
1.0
 10
14.9695602559
 20
13.0594352513
 30
0.0
 10
14.9532934936
 20
13.0573794479
 30
0.0
 10
14.9212598261
 20
13.0526311255
 30
0.0
 10
14.8742295323
 20
13.0434565188
 30
0.0
 10
14.8289813938
 20
13.032343944
 30
0.0
 10
14.7856707623
 20
13.0193280859
 30
0.0
 10
14.7444254757
 20
13.0044507261
 30
0.0
 10
14.6932212829
 20
12.9825574448
 30
0.0
 10
14.6569449584
 20
12.9629802101
 30
0.0
 10
14.6342433888
 20
12.9485103489
 30
0.0
  0
SPLINE
  5
300
100
AcDbEntity
  8
0
100
AcDbSpline
 62
7
  6
CONTINUOUS
 70
0
 71
3
 72
15
 73
11
 74
0
 42
0.0000001
 43
0.0000001
 44
0.0000000001
 40
0.0
 40
0.0
 40
0.0
 40
0.0
 40
0.135424446
 40
0.2672070405
 40
0.3956108063
 40
0.5209589209
 40
0.6436257441
 40
0.764033375
 40
0.8826551233
 40
1.0
 40
1.0
 40
1.0
 40
1.0
 10
14.6342433888
 20
12.9485103489
 30
0.0
 10
14.6248816705
 20
12.9425432389
 30
0.0
 10
14.6067575224
 20
12.9302114295
 30
0.0
 10
14.5811535351
 20
12.9102695431
 30
0.0
 10
14.5575757786
 20
12.8891839696
 30
0.0
 10
14.5360809644
 20
12.8670059545
 30
0.0
 10
14.5167193486
 20
12.8437880226
 30
0.0
 10
14.4995431175
 20
12.8195801229
 30
0.0
 10
14.4845930268
 20
12.7944448007
 30
0.0
 10
14.4760990011
 20
12.7770359525
 30
0.0
 10
14.4722497448
 20
12.7682200547
 30
0.0
  0
SPLINE
  5
301
100
AcDbEntity
  8
0
100
AcDbSpline
 62
7
  6
CONTINUOUS
 70
0
 71
3
 72
22
 73
18
 74
0
 42
0.0000001
 43
0.0000001
 44
0.0000000001
 40
0.0
 40
0.0
 40
0.0
 40
0.0
 40
0.0771441619
 40
0.1522990969
 40
0.2253475864
 40
0.2962244645
 40
0.3649154769
 40
0.4314277747
 40
0.557994409
 40
0.6182696065
 40
0.6766806749
 40
0.7333958725
 40
0.7886240828
 40
0.8426077672
 40
0.8956248826
 40
0.9479805612
 40
1.0
 40
1.0
 40
1.0
 40
1.0
 10
15.0183801781
 20
12.9945150135
 30
0.0
 10
15.003735672
 20
12.9926642318
 30
0.0
 10
14.9748983552
 20
12.9883875353
 30
0.0
 10
14.9325645935
 20
12.980118554
 30
0.0
 10
14.8918419529
 20
12.9700988121
 30
0.0
 10
14.8528707938
 20
12.9583598923
 30
0.0
 10
14.8157677059
 20
12.9449399326
 30
0.0
 10
14.7697195615
 20
12.9251884741
 30
0.0
 10
14.7269436026
 20
12.9020168557
 30
0.0
 10
14.688296694
 20
12.8753343508
 30
0.0
 10
14.6621663361
 20
12.8542166146
 30
0.0
 10
14.6385156398
 20
12.8317320801
 30
0.0
 10
14.6174164644
 20
12.8079542473
 30
0.0
 10
14.5989443326
 20
12.7829537669
 30
0.0
 10
14.5831611325
 20
12.7568107814
 30
0.0
 10
14.5701201334
 20
12.7296148016
 30
0.0
 10
14.5632783646
 20
12.7108112313
 30
0.0
 10
14.560339663
 20
12.7013013794
 30
0.0
  0
SPLINE
  5
302
100
AcDbEntity
  8
0
100
AcDbSpline
 62
7
  6
CONTINUOUS
 70
0
 71
3
 72
11
 73
7
 74
0
 42
0.0000001
 43
0.0000001
 44
0.0000000001
 40
0.0
 40
0.0
 40
0.0
 40
0.0
 40
0.2647182062
 40
0.518458342
 40
0.762860758
 40
1.0
 40
1.0
 40
1.0
 40
1.0
 10
16.0365121345
 20
12.0505607485
 30
0.0
 10
16.0473010896
 20
12.0575368983
 30
0.0
 10
16.0677924564
 20
12.0722297017
 30
0.0
 10
16.0954499974
 20
12.0969586781
 30
0.0
 10
16.1191614014
 20
12.1237393798
 30
0.0
 10
16.1323917991
 20
12.1430976466
 30
0.0
 10
16.1382407459
 20
12.1530100274
 30
0.0
  0
SPLINE
  5
303
100
AcDbEntity
  8
0
100
AcDbSpline
 62
7
  6
CONTINUOUS
 70
0
 71
3
 72
15
 73
11
 74
0
 42
0.0000001
 43
0.0000001
 44
0.0000000001
 40
0.0
 40
0.0
 40
0.0
 40
0.0
 40
0.1164344503
 40
0.233774773
 40
0.3528842141
 40
0.4745721574
 40
0.5995740841
 40
0.7285310562
 40
0.8619094481
 40
1.0
 40
1.0
 40
1.0
 40
1.0
 10
15.9728782653
 20
12.1843441497
 30
0.0
 10
15.9748916399
 20
12.190858472
 30
0.0
 10
15.9782259142
 20
12.2041685518
 30
0.0
 10
15.9810715497
 20
12.2246738448
 30
0.0
 10
15.9817648349
 20
12.2456726503
 30
0.0
 10
15.9802991008
 20
12.2670784143
 30
0.0
 10
15.9766890879
 20
12.288810479
 30
0.0
 10
15.9709462558
 20
12.3107843789
 30
0.0
 10
15.9631026501
 20
12.3329092159
 30
0.0
 10
15.9566152348
 20
12.3474422999
 30
0.0
 10
15.9530527699
 20
12.3547018401
 30
0.0
  0
SPLINE
  5
304
100
AcDbEntity
  8
0
100
AcDbSpline
 62
7
  6
CONTINUOUS
 70
0
 71
3
 72
24
 73
20
 74
0
 42
0.0000001
 43
0.0000001
 44
0.0000000001
 40
0.0
 40
0.0
 40
0.0
 40
0.0
 40
0.067630667
 40
0.1330878667
 40
0.1965880316
 40
0.2583917367
 40
0.3188096893
 40
0.3781920347
 40
0.4369223172
 40
0.4954075872
 40
0.5540627028
 40
0.6132952853
 40
0.6734904553
 40
0.7350071595
 40
0.7981705886
 40
0.8632641572
 40
0.8966092424
 40
0.9305061565
 40
1.0
 40
1.0
 40
1.0
 40
1.0
 10
15.9680607725
 20
12.0062973719
 30
0.0
 10
15.9756214954
 20
12.0111861309
 30
0.0
 10
15.990155702
 20
12.0213549482
 30
0.0
 10
16.010361039
 20
12.0380332926
 30
0.0
 10
16.0285341861
 20
12.0558190727
 30
0.0
 10
16.0446033145
 20
12.0746561777
 30
0.0
 10
16.058511422
 20
12.0944776397
 30
0.0
 10
16.0702069854
 20
12.1152140062
 30
0.0
 10
16.07964036
 20
12.1367934164
 30
0.0
 10
16.0867819883
 20
12.1591346275
 30
0.0
 10
16.0915992343
 20
12.1821576025
 30
0.0
 10
16.0940786338
 20
12.2057755624
 30
0.0
 10
16.0942164969
 20
12.2299020201
 30
0.0
 10
16.0920093506
 20
12.2544508773
 30
0.0
 10
16.0874736289
 20
12.2793374522
 30
0.0
 10
16.0818095173
 20
12.3001198639
 30
0.0
 10
16.0761671759
 20
12.3168135739
 30
0.0
 10
16.0696720452
 20
12.3338226025
 30
0.0
 10
16.064032985
 20
12.3463963639
 30
0.0
 10
16.0599572493
 20
12.3547018401
 30
0.0
  0
SPLINE
  5
305
100
AcDbEntity
  8
0
100
AcDbSpline
 62
7
  6
CONTINUOUS
 70
0
 71
3
 72
44
 73
40
 74
0
 42
0.0000001
 43
0.0000001
 44
0.0000000001
 40
0.0
 40
0.0
 40
0.0
 40
0.0
 40
0.0265230445
 40
0.0543684211
 40
0.0835275754
 40
0.1139809513
 40
0.145682247
 40
0.1785502884
 40
0.2124837053
 40
0.2473626407
 40
0.2830528551
 40
0.3194064054
 40
0.3562663468
 40
0.3934681198
 40
0.4308428352
 40
0.4682187958
 40
0.505424801
 40
0.5422913209
 40
0.5786543793
 40
0.6143560535
 40
0.6492494452
 40
0.6831985185
 40
0.7160842797
 40
0.7478044778
 40
0.7782807522
 40
0.8074591376
 40
0.8353176628
 40
0.848757593
 40
0.8618758362
 40
0.8746801663
 40
0.8871809392
 40
0.899392246
 40
0.9113311015
 40
0.9344620085
 40
0.9567794063
 40
0.9677133078
 40
0.9785373786
 40
0.9892873574
 40
1.0
 40
1.0
 40
1.0
 40
1.0
 10
15.9530527699
 20
12.3547018401
 30
0.0
 10
15.9480839281
 20
12.364827275
 30
0.0
 10
15.9368421255
 20
12.3850769186
 30
0.0
 10
15.9168806969
 20
12.4145057923
 30
0.0
 10
15.893544033
 20
12.4435135675
 30
0.0
 10
15.8670037594
 20
12.4719036466
 30
0.0
 10
15.8374353224
 20
12.4994880053
 30
0.0
 10
15.8050410542
 20
12.5260853553
 30
0.0
 10
15.7700381602
 20
12.5515118817
 30
0.0
 10
15.7326663399
 20
12.575598605
 30
0.0
 10
15.6931781863
 20
12.5981808051
 30
0.0
 10
15.6518423085
 20
12.6191059992
 30
0.0
 10
15.6089398394
 20
12.6382319125
 30
0.0
 10
15.5647621757
 20
12.6554275734
 30
0.0
 10
15.519610676
 20
12.6705778508
 30
0.0
 10
15.4737916412
 20
12.6835768563
 30
0.0
 10
15.4276180068
 20
12.6943397476
 30
0.0
 10
15.3814028193
 20
12.7027888651
 30
0.0
 10
15.3354615315
 20
12.7088718717
 30
0.0
 10
15.290105497
 20
12.7125415871
 30
0.0
 10
15.2456435518
 20
12.7137792229
 30
0.0
 10
15.2023769296
 20
12.7125695167
 30
0.0
 10
15.1605988743
 20
12.7089269156
 30
0.0
 10
15.1205924537
 20
12.702868549
 30
0.0
 10
15.0826265284
 20
12.6944401153
 30
0.0
 10
15.0469604641
 20
12.6836908065
 30
0.0
 10
15.0190226028
 20
12.6727310257
 30
0.0
 10
14.9980968641
 20
12.6628348516
 30
0.0
 10
14.9833110634
 20
12.6549740975
 30
0.0
 10
14.969272815
 20
12.6465994934
 30
0.0
 10
14.956007336
 20
12.6377233168
 30
0.0
 10
14.943536259
 20
12.6283609227
 30
0.0
 10
14.9281602696
 20
12.6153919831
 30
0.0
 10
14.9109185274
 20
12.5980298384
 30
0.0
 10
14.896305499
 20
12.5789240142
 30
0.0
 10
14.8865111172
 20
12.5629283931
 30
0.0
 10
14.8801313979
 20
12.5506509203
 30
0.0
 10
14.8746799149
 20
12.5380376081
 30
0.0
 10
14.8716680812
 20
12.5294119376
 30
0.0
 10
14.8703228874
 20
12.5250595304
 30
0.0
  0
ENDSEC
  0
SECTION
  2
OBJECTS
  0
DICTIONARY
  5
C
100
AcDbDictionary
280
0
281
1
  3
ACAD_GROUP
350
D
  3
ACAD_MLINESTYLE
350
17
  3
ACAD_LAYOUT
350
1A
  3
ACAD_PLOTSETTINGS
350
19
  3
ACAD_PLOTSTYLENAME
350
E
  0
DICTIONARY
  5
D
102
{ACAD_REACTORS
330
C
102
}
100
AcDbDictionary
280
0
281
1
  0
ACDBDICTIONARYWDFLT
  5
E
102
{ACAD_REACTORS
330
C
102
}
100
AcDbDictionary
281
1
  3
Normal
350
F
100
AcDbDictionaryWithDefault
340
F
  0
DICTIONARY
  5
17
102
{ACAD_REACTORS
330
C
102
}
100
AcDbDictionary
280
0
281
1
  3
Standard
350
18
  0
DICTIONARY
  5
19
102
{ACAD_REACTORS
330
C
102
}
100
AcDbDictionary
281
1
  0
DICTIONARY
  5
1A
102
{ACAD_REACTORS
330
C
102
}
100
AcDbDictionary
281
1
  3
Model
350
306
  3
Layout1
350
307
  0
ACDBPLACEHOLDER
  5
F
102
{ACAD_REACTORS
330
E
102
}
  0
MLINESTYLE
  5
18
102
{ACAD_REACTORS
330
17
102
}
100
AcDbMlineStyle
  2
STANDARD
 70
0
  3

 62
256
 51
90.0
 52
90.0
 71
2
 49
0.5
 62
256
  6
BYLAYER
 49
-0.5
 62
256
  6
BYLAYER
  0
LAYOUT
  5
306
102
{ACAD_REACTORS
330
1A
102
}
100
AcDbPlotSettings
  1

  2
none_device
  4
ANSI_C_(22.00_x_17.00_Inches)
  6

 40
0.0
 41
0.0
 42
0.0
 43
0.0
 44
558.8
 45
431.8
 46
0.0
 47
0.0
 48
0.0
 49
0.0
140
0.0
141
0.0
142
1.0
143
1.0
 70
1024
 72
0
 73
0
 74
0
  7

 75
0
147
1.0
148
0.0
149
0.0
100
AcDbLayout
  1
Model
 70
0
 71
0
 10
0.0
 20
0.0
 11
22.0
 21
17.0
 12
0.0
 22
0.0
 32
0.0
 14
0.0
 24
0.0
 34
0.0
 15
0.0
 25
0.0
 35
0.0
146
0.0
 13
0.0
 23
0.0
 33
0.0
 16
1.0
 26
0.0
 36
0.0
 17
0.0
 27
1.0
 37
0.0
 76
0
330
221
345
0
346
0
  0
LAYOUT
  5
307
102
{ACAD_REACTORS
330
1A
102
}
100
AcDbPlotSettings
  1

  2
none_device
  4
ANSI_C_(22.00_x_17.00_Inches)
  6

 40
0.0
 41
0.0
 42
0.0
 43
0.0
 44
558.8
 45
431.8
 46
0.0
 47
0.0
 48
0.0
 49
0.0
140
0.0
141
0.0
142
1.0
143
1.0
 70
0
 72
0
 73
0
 74
0
  7

 75
0
147
1.0
148
0.0
149
0.0
100
AcDbLayout
  1
Layout1
 70
0
 71
1
 10
0.0
 20
0.0
 11
22.0
 21
17.0
 12
0.0
 22
0.0
 32
0.0
 14
0.0
 24
0.0
 34
0.0
 15
0.0
 25
0.0
 35
0.0
146
0.0
 13
0.0
 23
0.0
 33
0.0
 16
1.0
 26
0.0
 36
0.0
 17
0.0
 27
1.0
 37
0.0
 76
0
330
222
345
0
346
0
  0
ENDSEC
  0
EOF