999
DXF file: _cgs_temp_output.dxf
999
Pro/ENGINEER 2016360 by Parametric Technology Corporation
  0
SECTION
  2
HEADER
  9
$ACADVER
  1
AC1021
  9
$DWGCODEPAGE
  3
ANSI_1252
  9
$EXTMAX
 10
22.0
 20
17.0
 30
0.0
  9
$EXTMIN
 10
0.0
 20
0.0
 30
0.0
  9
$LIMMIN
 10
0.0
 20
0.0
  9
$LIMMAX
 10
22.0
 20
17.0
  9
$VIEWCTR
 10
11.0
 20
8.5
  9
$VIEWSIZE
 40
17.0
  9
$CLAYER
  8
0
  9
$LTSCALE
 40
1.21
  9
$CELTYPE
  6
BYLAYER
  9
$DIMSCALE
 40
1.0
  9
$DIMASZ
 40
0.1875
  9
$DIMEXO
 40
0.0625
  9
$DIMDLI
 40
0.836
  9
$DIMEXE
 40
0.125
  9
$DIMCEN
 40
0.198
  9
$DIMLFAC
 40
1.0
  9
$DIMBLK
  1
_CLOSED
  9
$DIMALT
 70
0
  9
$DIMALTF
 40
25.4
  9
$DIMTXT
 40
0.15625
  9
$DIMTOL
 70
0
  9
$DIMLIM
 70
0
  9
$DIMTFAC
 40
1.0
  9
$DIMGAP
 40
0.09
  9
$DIMDSEP
 70
46
  9
$AUNITS
 70
0
  9
$PDMODE
 70
3
  9
$PDSIZE
 40
0.3125
  9
$HANDSEED
  5
31B
  9
$TILEMODE
 70
1
  9
$MEASUREMENT
 70
0
  9
$INSUNITS
 70
1
  0
ENDSEC
  0
SECTION
  2
CLASSES
  0
CLASS
  1
ACDBDICTIONARYWDFLT
  2
AcDbDictionaryWithDefault
  3
AutoCAD 2000
 90
0
 91
1
280
0
281
0
  0
CLASS
  1
ACDBPLACEHOLDER
  2
AcDbPlaceHolder
  3
AutoCAD 2000
 90
0
 91
1
280
0
281
0
  0
CLASS
  1
LAYOUT
  2
AcDbLayout
  3
AutoCAD 2000
 90
0
 91
0
280
0
281
0
  0
ENDSEC
  0
SECTION
  2
TABLES
  0
TABLE
  2
VPORT
  5
8
100
AcDbSymbolTable
 70
2
  0
VPORT
  5
1F4
100
AcDbSymbolTableRecord
100
AcDbViewportTableRecord
  2
*ACTIVE
 70
0
 10
0.0
 20
0.0
 11
1.0
 21
1.0
 12
11.0
 22
8.5
 13
0.0
 23
0.0
 14
1.0
 24
1.0
 15
0.0
 25
0.0
 16
0.0
 26
0.0
 36
1.0
 17
0.0
 27
0.0
 37
0.0
 40
17.0
 41
1.2941176471
 42
50.0
 43
0.0
 44
0.0
 50
0.0
 51
0.0
 71
0
 72
100
 73
1
 74
1
 75
0
 76
0
 77
0
 78
0
  0
ENDTAB
  0
TABLE
  2
LTYPE
  5
5
100
AcDbSymbolTable
 70
6
  0
LTYPE
  5
14
100
AcDbSymbolTableRecord
100
AcDbLinetypeTableRecord
  2
BYBLOCK
 70
0
  3

 72
65
 73
0
 40
0.0
  0
LTYPE
  5
15
100
AcDbSymbolTableRecord
100
AcDbLinetypeTableRecord
  2
BYLAYER
 70
0
  3

 72
65
 73
0
 40
0.0
  0
LTYPE
  5
16
100
AcDbSymbolTableRecord
100
AcDbLinetypeTableRecord
  2
CONTINUOUS
 70
64
  3
Solid line
 72
65
 73
0
 40
0.0
  0
LTYPE
  5
1F5
100
AcDbSymbolTableRecord
100
AcDbLinetypeTableRecord
  2
CENTER
 70
64
  3
____ _ ____ _ ____ _ ____ _ ____ _ ____ _ ____
 72
65
 73
4
 40
0.6
 49
0.375
 74
0
 49
-0.075
 74
0
 49
0.075
 74
0
 49
-0.075
 74
0
  0
LTYPE
  5
1F6
100
AcDbSymbolTableRecord
100
AcDbLinetypeTableRecord
  2
HIDDEN
 70
64
  3
- - - - - - - - - - - - - - - - - - - -
 72
65
 73
2
 40
0.2
 49
0.1
 74
0
 49
-0.1
 74
0
  0
LTYPE
  5
1F7
100
AcDbSymbolTableRecord
100
AcDbLinetypeTableRecord
  2
PHANTOM
 70
64
  3
_____ _ _ _____ _ _ _____ _ _ _____
 72
65
 73
6
 40
0.8
 49
0.45
 74
0
 49
-0.05
 74
0
 49
0.1
 74
0
 49
-0.05
 74
0
 49
0.1
 74
0
 49
-0.05
 74
0
  0
LTYPE
  5
1F8
100
AcDbSymbolTableRecord
100
AcDbLinetypeTableRecord
  2
DOT
 70
64
  3
. . . . . . . . . . . . . . . . . . . .
 72
65
 73
2
 40
0.2
 49
0.1
 74
0
 49
-0.1
 74
0
  0
LTYPE
  5
1F9
100
AcDbSymbolTableRecord
100
AcDbLinetypeTableRecord
  2
DASHED
 70
64
  3
- - - - - - - - - - - - - - - - - - - -
 72
65
 73
2
 40
0.2
 49
0.1
 74
0
 49
-0.1
 74
0
  0
ENDTAB
  0
TABLE
  2
LAYER
  5
2
100
AcDbSymbolTable
 70
36
  0
LAYER
  5
10
100
AcDbSymbolTableRecord
100
AcDbLayerTableRecord
  2
0
 70
0
 62
7
  6
CONTINUOUS
370
-3
390
F
  0
LAYER
  5
1FA
100
AcDbSymbolTableRecord
100
AcDbLayerTableRecord
  2
DEFAULT_1
 70
0
 62
7
  6
CENTER
370
-3
390
F
  0
LAYER
  5
1FB
100
AcDbSymbolTableRecord
100
AcDbLayerTableRecord
  2
DEFAULT_2
 70
0
 62
8
  6
HIDDEN
370
-3
390
F
  0
LAYER
  5
1FC
100
AcDbSymbolTableRecord
100
AcDbLayerTableRecord
  2
DEFAULT_3
 70
0
 62
7
  6
PHANTOM
370
-3
390
F
  0
LAYER
  5
1FD
100
AcDbSymbolTableRecord
100
AcDbLayerTableRecord
  2
01_ALL_DTM_PLN
 70
0
 62
7
  6
CONTINUOUS
370
-3
390
F
  0
LAYER
  5
1FE
100
AcDbSymbolTableRecord
100
AcDbLayerTableRecord
  2
01__ASM_ALL_DTM_PLN
 70
0
 62
7
  6
CONTINUOUS
370
-3
390
F
  0
LAYER
  5
1FF
100
AcDbSymbolTableRecord
100
AcDbLayerTableRecord
  2
01__ASM_DEF_DTM_PLN
 70
0
 62
7
  6
CONTINUOUS
370
-3
390
F
  0
LAYER
  5
200
100
AcDbSymbolTableRecord
100
AcDbLayerTableRecord
  2
01___PRT_ALL_DTM_PLN
 70
0
 62
7
  6
CONTINUOUS
370
-3
390
F
  0
LAYER
  5
201
100
AcDbSymbolTableRecord
100
AcDbLayerTableRecord
  2
01___PRT_DEF_DTM_PLN
 70
0
 62
7
  6
CONTINUOUS
370
-3
390
F
  0
LAYER
  5
202
100
AcDbSymbolTableRecord
100
AcDbLayerTableRecord
  2
02_ALL_AXES
 70
0
 62
7
  6
CONTINUOUS
370
-3
390
F
  0
LAYER
  5
203
100
AcDbSymbolTableRecord
100
AcDbLayerTableRecord
  2
02__ASM_ALL_AXES
 70
0
 62
7
  6
CONTINUOUS
370
-3
390
F
  0
LAYER
  5
204
100
AcDbSymbolTableRecord
100
AcDbLayerTableRecord
  2
02___PRT_ALL_AXES
 70
0
 62
7
  6
CONTINUOUS
370
-3
390
F
  0
LAYER
  5
205
100
AcDbSymbolTableRecord
100
AcDbLayerTableRecord
  2
03_ALL_CURVES
 70
0
 62
7
  6
CONTINUOUS
370
-3
390
F
  0
LAYER
  5
206
100
AcDbSymbolTableRecord
100
AcDbLayerTableRecord
  2
03__ASM_ALL_CURVES
 70
0
 62
7
  6
CONTINUOUS
370
-3
390
F
  0
LAYER
  5
207
100
AcDbSymbolTableRecord
100
AcDbLayerTableRecord
  2
03___PRT_ALL_CURVES
 70
0
 62
7
  6
CONTINUOUS
370
-3
390
F
  0
LAYER
  5
208
100
AcDbSymbolTableRecord
100
AcDbLayerTableRecord
  2
04_ALL_DTM_PNT
 70
0
 62
7
  6
CONTINUOUS
370
-3
390
F
  0
LAYER
  5
209
100
AcDbSymbolTableRecord
100
AcDbLayerTableRecord
  2
04__ASM_ALL_DTM_PNT
 70
0
 62
7
  6
CONTINUOUS
370
-3
390
F
  0
LAYER
  5
20A
100
AcDbSymbolTableRecord
100
AcDbLayerTableRecord
  2
04___PRT_ALL_DTM_PNT
 70
0
 62
7
  6
CONTINUOUS
370
-3
390
F
  0
LAYER
  5
20B
100
AcDbSymbolTableRecord
100
AcDbLayerTableRecord
  2
05_ALL_DTM_CSYS
 70
0
 62
7
  6
CONTINUOUS
370
-3
390
F
  0
LAYER
  5
20C
100
AcDbSymbolTableRecord
100
AcDbLayerTableRecord
  2
05__ASM_ALL_DTM_CSYS
 70
0
 62
7
  6
CONTINUOUS
370
-3
390
F
  0
LAYER
  5
20D
100
AcDbSymbolTableRecord
100
AcDbLayerTableRecord
  2
05__ASM_DEF_DTM_CSYS
 70
0
 62
7
  6
CONTINUOUS
370
-3
390
F
  0
LAYER
  5
20E
100
AcDbSymbolTableRecord
100
AcDbLayerTableRecord
  2
05___PRT_ALL_DTM_CSYS
 70
0
 62
7
  6
CONTINUOUS
370
-3
390
F
  0
LAYER
  5
20F
100
AcDbSymbolTableRecord
100
AcDbLayerTableRecord
  2
05___PRT_DEF_DTM_CSYS
 70
0
 62
7
  6
CONTINUOUS
370
-3
390
F
  0
LAYER
  5
210
100
AcDbSymbolTableRecord
100
AcDbLayerTableRecord
  2
06_ALL_SURFS
 70
0
 62
7
  6
CONTINUOUS
370
-3
390
F
  0
LAYER
  5
211
100
AcDbSymbolTableRecord
100
AcDbLayerTableRecord
  2
06__ASM_ALL_SURFS
 70
0
 62
7
  6
CONTINUOUS
370
-3
390
F
  0
LAYER
  5
212
100
AcDbSymbolTableRecord
100
AcDbLayerTableRecord
  2
06___PRT_ALL_SURFS
 70
0
 62
7
  6
CONTINUOUS
370
-3
390
F
  0
LAYER
  5
213
100
AcDbSymbolTableRecord
100
AcDbLayerTableRecord
  2
07__ASM_ALL_SKELETONS
 70
0
 62
7
  6
CONTINUOUS
370
-3
390
F
  0
LAYER
  5
214
100
AcDbSymbolTableRecord
100
AcDbLayerTableRecord
  2
ARI
 70
0
 62
7
  6
CONTINUOUS
370
-3
390
F
  0
LAYER
  5
215
100
AcDbSymbolTableRecord
100
AcDbLayerTableRecord
  2
INTFCLR_1228
 70
0
 62
7
  6
CONTINUOUS
370
-3
390
F
  0
LAYER
  5
216
100
AcDbSymbolTableRecord
100
AcDbLayerTableRecord
  2
INTFCLR_2507
 70
0
 62
7
  6
CONTINUOUS
370
-3
390
F
  0
LAYER
  5
217
100
AcDbSymbolTableRecord
100
AcDbLayerTableRecord
  2
INTFCLR_2793
 70
0
 62
7
  6
CONTINUOUS
370
-3
390
F
  0
LAYER
  5
218
100
AcDbSymbolTableRecord
100
AcDbLayerTableRecord
  2
INTFCLR_3361
 70
0
 62
7
  6
CONTINUOUS
370
-3
390
F
  0
LAYER
  5
219
100
AcDbSymbolTableRecord
100
AcDbLayerTableRecord
  2
NONE
 70
0
 62
7
  6
CONTINUOUS
370
-3
390
F
  0
LAYER
  5
21A
100
AcDbSymbolTableRecord
100
AcDbLayerTableRecord
  2
_2212
 70
0
 62
7
  6
CONTINUOUS
370
-3
390
F
  0
LAYER
  5
21B
100
AcDbSymbolTableRecord
100
AcDbLayerTableRecord
  2
_2554
 70
0
 62
7
  6
CONTINUOUS
370
-3
390
F
  0
LAYER
  5
21C
100
AcDbSymbolTableRecord
100
AcDbLayerTableRecord
  2
_2686
 70
0
 62
7
  6
CONTINUOUS
370
-3
390
F
  0
LAYER
  5
21D
100
AcDbSymbolTableRecord
100
AcDbLayerTableRecord
  2
_3359
 70
0
 62
7
  6
CONTINUOUS
370
-3
390
F
  0
LAYER
  5
21E
100
AcDbSymbolTableRecord
100
AcDbLayerTableRecord
  2
_3771
 70
0
 62
7
  6
CONTINUOUS
370
-3
390
F
  0
ENDTAB
  0
TABLE
  2
STYLE
  5
3
100
AcDbSymbolTable
 70
1
  0
STYLE
  5
11
100
AcDbSymbolTableRecord
100
AcDbTextStyleTableRecord
  2
STANDARD
 70
0
 40
0.0
 41
0.8
 50
0.0
 71
0
 42
0.2
  3
txt
  4

  0
STYLE
  5
21F
100
AcDbSymbolTableRecord
100
AcDbTextStyleTableRecord
  2
TEXTSTYLE_1
 70
0
 40
0.0
 41
0.8
 50
0.0
 71
0
 42
0.2
  3
gdt
  4

  0
ENDTAB
  0
TABLE
  2
VIEW
  5
6
100
AcDbSymbolTable
 70
0
  0
ENDTAB
  0
TABLE
  2
UCS
  5
7
100
AcDbSymbolTable
 70
0
  0
ENDTAB
  0
TABLE
  2
APPID
  5
9
100
AcDbSymbolTable
 70
1
  0
APPID
  5
220
100
AcDbSymbolTableRecord
100
AcDbRegAppTableRecord
  2
ACAD
 70
0
  0
ENDTAB
  0
TABLE
  2
BLOCK_RECORD
  5
1
100
AcDbSymbolTable
 70
0
  0
BLOCK_RECORD
  5
221
100
AcDbSymbolTableRecord
100
AcDbBlockTableRecord
  2
*Model_Space
  0
BLOCK_RECORD
  5
222
100
AcDbSymbolTableRecord
100
AcDbBlockTableRecord
  2
*Paper_Space
  0
BLOCK_RECORD
  5
223
100
AcDbSymbolTableRecord
100
AcDbBlockTableRecord
  2
_CLOSED
  0
ENDTAB
  0
TABLE
  2
DIMSTYLE
  5
A
100
AcDbSymbolTable
 70
1
100
AcDbDimStyleTable
 71
0
  0
DIMSTYLE
105
224
100
AcDbSymbolTableRecord
100
AcDbDimStyleTableRecord
  2
STANDARD
 70
0
  3

  4

 40
1.0
 41
0.1875
 42
0.0625
 43
0.38
 44
0.125
 45
0.0
 46
0.0
 47
0.0001
 48
0.0001
140
0.15625
141
0.09
142
0.0
143
25.4
144
1.0
145
0.0
146
1.0
147
0.09
 71
0.0
 72
0.0
 73
1
 74
1
 75
0
 76
0
 77
0
 78
4
 79
1
170
0
171
3
172
0
173
0
174
0
175
0
176
0
177
0
178
0
270
2
179
4
271
4
272
4
273
2
274
2
275
0
280
0
281
0
282
0
283
1
284
4
285
0
286
0
287
3
288
0
340
11
278
46
341
223
342
223
343
223
344
223
  0
ENDTAB
  0
ENDSEC
  0
SECTION
  2
BLOCKS
  0
BLOCK
  5
20
100
AcDbEntity
  8
0
100
AcDbBlockBegin
  2
*Model_Space
 70
0
 10
0.0
 20
0.0
 30
0.0
  3
*Model_Space
  1

  0
ENDBLK
  5
21
100
AcDbEntity
  8
0
100
AcDbBlockEnd
  0
BLOCK
  5
1C
100
AcDbEntity
  8
0
100
AcDbBlockBegin
  2
*Paper_Space
 70
0
 10
0.0
 20
0.0
 30
0.0
  3
*Paper_Space
  1

  0
ENDBLK
  5
1D
100
AcDbEntity
  8
0
100
AcDbBlockEnd
  0
BLOCK
  5
225
100
AcDbEntity
  8
0
100
AcDbBlockBegin
  2
_CLOSED
 70
64
 10
0.0
 20
0.0
  3
_CLOSED
  1

  0
LINE
  5
226
100
AcDbEntity
  8
0
  6
BYBLOCK
 62
0
100
AcDbLine
 10
0.0
 20
0.0
 11
-1.0
 21
0.1666666667
  0
LINE
  5
227
100
AcDbEntity
  8
0
  6
BYBLOCK
 62
0
100
AcDbLine
 10
-1.0
 20
0.1666666667
 11
-1.0
 21
-0.1666666667
  0
LINE
  5
228
100
AcDbEntity
  8
0
  6
BYBLOCK
 62
0
100
AcDbLine
 10
-1.0
 20
-0.1666666667
 11
0.0
 21
0.0
  0
LINE
  5
229
100
AcDbEntity
  8
0
  6
BYBLOCK
 62
0
100
AcDbLine
 10
-1.0
 20
0.0
 11
0.0
 21
0.0
  0
ENDBLK
  5
22A
100
AcDbEntity
  8
0
  6
BYBLOCK
 62
0
100
AcDbBlockEnd
  0
ENDSEC
  0
SECTION
  2
ENTITIES
  0
MTEXT
  5
22B
100
AcDbEntity
  8
0
100
AcDbMText
 62
7
  6
CONTINUOUS
  7
STANDARD
 71
1
 72
1
 10
15.9560215477
 20
0.9479130325
 30
0.0
 11
1.0
 21
0.0
 31
0.0
 44
0.9
  1
SCALE: 1:1.000
 40
0.3
 41
3.36
  0
LEADER
  5
22C
100
AcDbEntity
  8
0
100
AcDbLeader
 62
2
  6
CONTINUOUS
  3
STANDARD
 71
1
 72
0
 73
0
 75
0
 40
0.15625
 41
1.0
 76
3
 10
14.3973708772
 20
7.2866247044
 30
0.0
 10
15.1772858875
 20
6.0705562644
 30
0.0
 10
15.4272858875
 20
6.0705562644
 30
0.0
340
22D
1001
ACAD
1000
DSTYLE
1002
{
1070
77
1070
0
1002
}
  0
MTEXT
  5
22D
102
{ACAD_REACTORS
330
22C
102
}
100
AcDbEntity
  8
0
100
AcDbMText
 62
2
  6
CONTINUOUS
  7
STANDARD
 71
1
 72
1
 10
15.4272858875
 20
6.1486812644
 30
0.0
 11
1.0
 21
0.0
 31
0.0
 44
0.9
  1
3/8"- 24 
 40
0.15625
 41
1.125
  0
LINE
  5
22E
100
AcDbEntity
  8
0
100
AcDbLine
 62
7
  6
CONTINUOUS
 10
0.0
 20
0.0
 11
0.0
 21
17.0
  0
LINE
  5
22F
100
AcDbEntity
  8
0
100
AcDbLine
 62
7
  6
CONTINUOUS
 10
0.0
 20
0.0
 11
22.0
 21
0.0
  0
LINE
  5
230
100
AcDbEntity
  8
0
100
AcDbLine
 62
7
  6
CONTINUOUS
 10
0.0
 20
17.0
 11
22.0
 21
17.0
  0
LINE
  5
231
100
AcDbEntity
  8
0
100
AcDbLine
 62
7
  6
CONTINUOUS
 10
22.0
 20
0.0
 11
22.0
 21
17.0
  0
LINE
  5
232
100
AcDbEntity
  8
0
100
AcDbLine
 62
7
  6
CONTINUOUS
 10
4.3043672762
 20
5.6811198968
 11
4.3043672762
 21
5.3591198968
  0
LINE
  5
233
100
AcDbEntity
  8
0
100
AcDbLine
 62
7
  6
CONTINUOUS
 10
5.9643672762
 20
7.328516977
 11
5.9643672762
 21
7.3411198968
  0
LINE
  5
234
100
AcDbEntity
  8
0
100
AcDbLine
 62
7
  6
CONTINUOUS
 10
6.1303672762
 20
8.0791698968
 11
6.1303672762
 21
8.2701198968
  0
LINE
  5
235
100
AcDbEntity
  8
0
100
AcDbLine
 62
7
  6
CONTINUOUS
 10
4.3219701958
 20
5.3541198968
 11
4.3093672762
 21
5.3541198968
  0
LINE
  5
236
100
AcDbEntity
  8
0
100
AcDbLine
 62
7
  6
CONTINUOUS
 10
5.6859929071
 20
8.0402921771
 11
5.6528347876
 21
8.2283412175
  0
LINE
  5
237
100
AcDbEntity
  8
0
100
AcDbLine
 62
7
  6
CONTINUOUS
 10
6.2963672762
 20
7.328516977
 11
6.2963672762
 21
7.3411198968
  0
LINE
  5
238
100
AcDbEntity
  8
0
100
AcDbLine
 62
7
  6
CONTINUOUS
 10
4.3219701959
 20
5.6861198968
 11
4.3093672762
 21
5.6861198968
  0
LINE
  5
239
100
AcDbEntity
  8
0
100
AcDbLine
 62
7
  6
CONTINUOUS
 10
6.2913672762
 20
7.3461198968
 11
5.9693672762
 21
7.3461198968
  0
LINE
  5
23A
100
AcDbEntity
  8
0
100
AcDbLine
 62
7
  6
CONTINUOUS
 10
3.3208720839
 20
12.2250477814
 11
3.3208720839
 21
12.3344227814
  0
LINE
  5
23B
100
AcDbEntity
  8
0
100
AcDbLine
 62
7
  6
CONTINUOUS
 10
3.5118220839
 20
12.1087977814
 11
3.5118220839
 21
12.2250477814
  0
LINE
  5
23C
100
AcDbEntity
  8
0
100
AcDbLine
 62
7
  6
CONTINUOUS
 10
3.5118220839
 20
12.3344227814
 11
3.5118220839
 21
13.0829227814
  0
LINE
  5
23D
100
AcDbEntity
  8
0
100
AcDbLine
 62
7
  6
CONTINUOUS
 10
3.5118220839
 20
13.3016727814
 11
3.5118220839
 21
13.5277977814
  0
LINE
  5
23E
100
AcDbEntity
  8
0
100
AcDbLine
 62
7
  6
CONTINUOUS
 10
4.2548720839
 20
11.6097977814
 11
4.255379529
 21
11.6041511939
  0
LINE
  5
23F
100
AcDbEntity
  8
0
100
AcDbLine
 62
7
  6
CONTINUOUS
 10
4.2448720839
 20
11.2827977814
 11
4.2448720839
 21
11.6047977814
  0
LINE
  5
240
100
AcDbEntity
  8
0
100
AcDbLine
 62
7
  6
CONTINUOUS
 10
4.2548720839
 20
11.0887977814
 11
4.2548720839
 21
11.2777977814
  0
LINE
  5
241
100
AcDbEntity
  8
0
100
AcDbLine
 62
7
  6
CONTINUOUS
 10
4.2548720839
 20
11.6097977814
 11
4.2548720839
 21
12.0687977814
  0
LINE
  5
242
100
AcDbEntity
  8
0
100
AcDbLine
 62
7
  6
CONTINUOUS
 10
4.2548720839
 20
13.5677977814
 11
4.2548720839
 21
14.1112977814
  0
LINE
  5
243
100
AcDbEntity
  8
0
100
AcDbLine
 62
7
  6
CONTINUOUS
 10
4.2553795653
 20
11.2834447808
 11
4.2548720839
 21
11.2777977814
  0
LINE
  5
244
100
AcDbEntity
  8
0
100
AcDbLine
 62
7
  6
CONTINUOUS
 10
7.8668720839
 20
11.0687977814
 11
4.2748720839
 21
11.0687977814
  0
LINE
  5
245
100
AcDbEntity
  8
0
100
AcDbLine
 62
7
  6
CONTINUOUS
 10
4.2498720839
 20
11.2777977814
 11
4.2548720839
 21
11.2777977814
  0
LINE
  5
246
100
AcDbEntity
  8
0
100
AcDbLine
 62
7
  6
CONTINUOUS
 10
6.0708720839
 20
11.3479576367
 11
5.9878720839
 21
11.395877709
  0
LINE
  5
247
100
AcDbEntity
  8
0
100
AcDbLine
 62
7
  6
CONTINUOUS
 10
4.2498720839
 20
11.6097977814
 11
4.2548720839
 21
11.6097977814
  0
LINE
  5
248
100
AcDbEntity
  8
0
100
AcDbLine
 62
7
  6
CONTINUOUS
 10
6.0708720839
 20
11.5396379261
 11
6.1538720839
 21
11.4917178537
  0
LINE
  5
249
100
AcDbEntity
  8
0
100
AcDbLine
 62
7
  6
CONTINUOUS
 10
5.5933395953
 20
12.2250477814
 11
5.5933395953
 21
12.3344227814
  0
LINE
  5
24A
100
AcDbEntity
  8
0
100
AcDbLine
 62
7
  6
CONTINUOUS
 10
5.6454904842
 20
12.3344227814
 11
5.6454904842
 21
12.2250477814
  0
LINE
  5
24B
100
AcDbEntity
  8
0
100
AcDbLine
 62
7
  6
CONTINUOUS
 10
8.5899220839
 20
12.0687977814
 11
3.5518220839
 21
12.0687977814
  0
LINE
  5
24C
100
AcDbEntity
  8
0
100
AcDbLine
 62
7
  6
CONTINUOUS
 10
3.3208720839
 20
12.2250477814
 11
8.8208720839
 21
12.2250477814
  0
LINE
  5
24D
100
AcDbEntity
  8
0
100
AcDbLine
 62
7
  6
CONTINUOUS
 10
3.3208720839
 20
12.3344227814
 11
8.8208720839
 21
12.3344227814
  0
LINE
  5
24E
100
AcDbEntity
  8
0
100
AcDbLine
 62
7
  6
CONTINUOUS
 10
5.9878720839
 20
11.395877709
 11
5.9878720839
 21
11.4917178537
  0
LINE
  5
24F
100
AcDbEntity
  8
0
100
AcDbLine
 62
7
  6
CONTINUOUS
 10
6.0708720839
 20
12.3344227814
 11
6.0708720839
 21
12.2250477814
  0
LINE
  5
250
100
AcDbEntity
  8
0
100
AcDbLine
 62
7
  6
CONTINUOUS
 10
6.1538720839
 20
11.4917178537
 11
6.1538720839
 21
11.395877709
  0
LINE
  5
251
100
AcDbEntity
  8
03__ASM_ALL_CURVES
100
AcDbLine
 62
8
  6
PHANTOM
 10
8.8208720839
 20
12.8182977814
 11
3.3208720839
 21
12.8182977814
  0
LINE
  5
252
100
AcDbEntity
  8
0
100
AcDbLine
 62
7
  6
CONTINUOUS
 10
3.5118220839
 20
13.0829227814
 11
8.6299220839
 21
13.0829227814
  0
LINE
  5
253
100
AcDbEntity
  8
0
100
AcDbLine
 62
7
  6
CONTINUOUS
 10
8.6299220839
 20
13.3016727814
 11
3.5118220839
 21
13.3016727814
  0
LINE
  5
254
100
AcDbEntity
  8
0
100
AcDbLine
 62
7
  6
CONTINUOUS
 10
5.9878720839
 20
11.4917178537
 11
6.0708720839
 21
11.5396379261
  0
LINE
  5
255
100
AcDbEntity
  8
0
100
AcDbLine
 62
7
  6
CONTINUOUS
 10
3.5518220839
 20
13.5677977814
 11
8.5899220839
 21
13.5677977814
  0
LINE
  5
256
100
AcDbEntity
  8
0
100
AcDbLine
 62
7
  6
CONTINUOUS
 10
6.1538720839
 20
11.395877709
 11
6.0708720839
 21
11.3479576367
  0
LINE
  5
257
100
AcDbEntity
  8
0
100
AcDbLine
 62
7
  6
CONTINUOUS
 10
4.2748720839
 20
14.1312977814
 11
7.8668720839
 21
14.1312977814
  0
LINE
  5
258
100
AcDbEntity
  8
0
100
AcDbLine
 62
7
  6
CONTINUOUS
 10
7.8868720839
 20
11.0887977814
 11
7.8868720839
 21
12.0687977814
  0
LINE
  5
259
100
AcDbEntity
  8
0
100
AcDbLine
 62
7
  6
CONTINUOUS
 10
7.8868720839
 20
13.5677977814
 11
7.8868720839
 21
14.1112977814
  0
LINE
  5
25A
100
AcDbEntity
  8
0
100
AcDbLine
 62
7
  6
CONTINUOUS
 10
8.6299220839
 20
12.1087977814
 11
8.6299220839
 21
12.2250477814
  0
LINE
  5
25B
100
AcDbEntity
  8
0
100
AcDbLine
 62
7
  6
CONTINUOUS
 10
8.6299220839
 20
12.3344227814
 11
8.6299220839
 21
13.0829227814
  0
LINE
  5
25C
100
AcDbEntity
  8
0
100
AcDbLine
 62
7
  6
CONTINUOUS
 10
8.6299220839
 20
13.3016727814
 11
8.6299220839
 21
13.5277977814
  0
LINE
  5
25D
100
AcDbEntity
  8
0
100
AcDbLine
 62
7
  6
CONTINUOUS
 10
8.8208720839
 20
12.2250477814
 11
8.8208720839
 21
12.3344227814
  0
LINE
  5
25E
100
AcDbEntity
  8
0
100
AcDbLine
 62
7
  6
CONTINUOUS
 10
15.2947302569
 20
2.7106247044
 11
15.1853552569
 21
2.7106247044
  0
LINE
  5
25F
100
AcDbEntity
  8
0
100
AcDbLine
 62
7
  6
CONTINUOUS
 10
16.4881052569
 20
2.9015747044
 11
16.2619802569
 21
2.9015747044
  0
LINE
  5
260
100
AcDbEntity
  8
0
100
AcDbLine
 62
7
  6
CONTINUOUS
 10
16.0432302569
 20
2.9015747044
 11
15.2947302569
 21
2.9015747044
  0
LINE
  5
261
100
AcDbEntity
  8
0
100
AcDbLine
 62
7
  6
CONTINUOUS
 10
15.1853552569
 20
2.9015747044
 11
15.0691052569
 21
2.9015747044
  0
LINE
  5
262
100
AcDbEntity
  8
0
100
AcDbLine
 62
7
  6
CONTINUOUS
 10
17.0716052569
 20
3.6446247044
 11
16.5281052569
 21
3.6446247044
  0
LINE
  5
263
100
AcDbEntity
  8
0
100
AcDbLine
 62
7
  6
CONTINUOUS
 10
15.0291052569
 20
3.6446247044
 11
14.0491052569
 21
3.6446247044
  0
LINE
  5
264
100
AcDbEntity
  8
0
100
AcDbLine
 62
7
  6
CONTINUOUS
 10
14.0291052569
 20
7.2566247044
 11
14.0291052569
 21
3.6646247044
  0
LINE
  5
265
100
AcDbEntity
  8
0
100
AcDbLine
 62
7
  6
CONTINUOUS
 10
14.2381052569
 20
7.2816247044
 11
14.2381052569
 21
7.2766247044
  0
LINE
  5
266
100
AcDbEntity
  8
0
100
AcDbLine
 62
7
  6
CONTINUOUS
 10
14.5701052569
 20
7.2816247044
 11
14.5701052569
 21
7.2766247044
  0
LINE
  5
267
100
AcDbEntity
  8
0
100
AcDbLine
 62
7
  6
CONTINUOUS
 10
15.0291052569
 20
7.9796747044
 11
15.0291052569
 21
2.9415761023
  0
LINE
  5
268
100
AcDbEntity
  8
0
100
AcDbLine
 62
7
  6
CONTINUOUS
 10
15.1853552569
 20
2.7106485836
 11
15.1853552569
 21
8.2106247044
  0
LINE
  5
269
100
AcDbEntity
  8
0
100
AcDbLine
 62
7
  6
CONTINUOUS
 10
15.2947302569
 20
8.2106247044
 11
15.2947302569
 21
2.7106485836
  0
LINE
  5
26A
100
AcDbEntity
  8
03__ASM_ALL_CURVES
100
AcDbLine
 62
8
  6
PHANTOM
 10
15.7786052569
 20
2.7147909377
 11
15.7786052569
 21
8.2057842312
  0
LINE
  5
26B
100
AcDbEntity
  8
0
100
AcDbLine
 62
7
  6
CONTINUOUS
 10
16.0432302569
 20
8.0196747044
 11
16.0432302569
 21
2.9015747044
  0
LINE
  5
26C
100
AcDbEntity
  8
0
100
AcDbLine
 62
7
  6
CONTINUOUS
 10
16.2619802569
 20
2.9015747044
 11
16.2619802569
 21
8.0196747044
  0
LINE
  5
26D
100
AcDbEntity
  8
0
100
AcDbLine
 62
7
  6
CONTINUOUS
 10
16.5281052569
 20
7.9796733066
 11
16.5281052569
 21
2.9415761023
  0
LINE
  5
26E
100
AcDbEntity
  8
0
100
AcDbLine
 62
7
  6
CONTINUOUS
 10
17.0916052569
 20
7.256601158
 11
17.0916052569
 21
3.6646482509
  0
LINE
  5
26F
100
AcDbEntity
  8
0
100
AcDbLine
 62
7
  6
CONTINUOUS
 10
14.2437522564
 20
7.276117223
 11
14.2381052569
 21
7.2766247044
  0
LINE
  5
270
100
AcDbEntity
  8
0
100
AcDbLine
 62
7
  6
CONTINUOUS
 10
14.5701052569
 20
7.2766247044
 11
14.5644586694
 21
7.2761172593
  0
LINE
  5
271
100
AcDbEntity
  8
0
100
AcDbLine
 62
7
  6
CONTINUOUS
 10
17.0716052569
 20
7.2766247044
 11
16.5281052569
 21
7.2766247044
  0
LINE
  5
272
100
AcDbEntity
  8
0
100
AcDbLine
 62
7
  6
CONTINUOUS
 10
15.0291052569
 20
7.2766247044
 11
14.5701052569
 21
7.2766247044
  0
LINE
  5
273
100
AcDbEntity
  8
0
100
AcDbLine
 62
7
  6
CONTINUOUS
 10
14.2381052569
 20
7.2766247044
 11
14.0491052569
 21
7.2766247044
  0
LINE
  5
274
100
AcDbEntity
  8
0
100
AcDbLine
 62
7
  6
CONTINUOUS
 10
14.2431052569
 20
7.2866247044
 11
14.5651052569
 21
7.2866247044
  0
LINE
  5
275
100
AcDbEntity
  8
0
100
AcDbLine
 62
7
  6
CONTINUOUS
 10
16.4881052569
 20
8.0196747044
 11
16.2619802569
 21
8.0196747044
  0
LINE
  5
276
100
AcDbEntity
  8
0
100
AcDbLine
 62
7
  6
CONTINUOUS
 10
16.0432302569
 20
8.0196747044
 11
15.2947302569
 21
8.0196747044
  0
LINE
  5
277
100
AcDbEntity
  8
0
100
AcDbLine
 62
7
  6
CONTINUOUS
 10
15.1853552569
 20
8.0196747044
 11
15.0691052569
 21
8.0196747044
  0
LINE
  5
278
100
AcDbEntity
  8
0
100
AcDbLine
 62
7
  6
CONTINUOUS
 10
15.2947302569
 20
8.2106247044
 11
15.1853552569
 21
8.2106247044
  0
LINE
  5
279
100
AcDbEntity
  8
0
100
AcDbLine
 62
7
  6
CONTINUOUS
 10
12.7973043964
 20
13.1084721362
 11
12.7708283923
 21
13.0227957555
  0
LINE
  5
27A
100
AcDbEntity
  8
0
100
AcDbLine
 62
7
  6
CONTINUOUS
 10
13.2686179053
 20
13.9868974014
 11
13.2138806579
 21
13.809767604
  0
LINE
  5
27B
100
AcDbEntity
  8
0
100
AcDbLine
 62
7
  6
CONTINUOUS
 10
13.1609286497
 20
13.6384148425
 11
13.1479380631
 21
13.5963772889
  0
LINE
  5
27C
100
AcDbEntity
  8
0
100
AcDbLine
 62
7
  6
CONTINUOUS
 10
12.9532660025
 20
12.9664182699
 11
12.9251257924
 21
12.8753565166
  0
LINE
  5
27D
100
AcDbEntity
  8
0
100
AcDbLine
 62
7
  6
CONTINUOUS
 10
13.4570220189
 20
12.079870152
 11
13.4528842716
 21
12.0864710111
  0
LINE
  5
27E
100
AcDbEntity
  8
0
100
AcDbLine
 62
7
  6
CONTINUOUS
 10
13.3833917631
 20
12.2108654839
 11
13.4528842716
 21
12.0864710111
  0
LINE
  5
27F
100
AcDbEntity
  8
0
100
AcDbLine
 62
7
  6
CONTINUOUS
 10
13.6253685978
 20
12.6246398809
 11
13.3881436008
 21
11.8569795094
  0
LINE
  5
280
100
AcDbEntity
  8
0
100
AcDbLine
 62
7
  6
CONTINUOUS
 10
14.1322782784
 20
13.8943228532
 11
14.1587542825
 21
13.9799992339
  0
LINE
  5
281
100
AcDbEntity
  8
0
100
AcDbLine
 62
7
  6
CONTINUOUS
 10
13.8850962199
 20
11.5988913358
 11
13.8439207613
 21
11.7035996785
  0
LINE
  5
282
100
AcDbEntity
  8
0
100
AcDbLine
 62
7
  6
CONTINUOUS
 10
14.2970083432
 20
13.796150385
 11
14.293323301
 21
13.7842255842
  0
LINE
  5
283
100
AcDbEntity
  8
0
100
AcDbLine
 62
7
  6
CONTINUOUS
 10
14.5858465849
 20
14.0059692774
 11
14.5593705807
 21
13.9202928966
  0
LINE
  5
284
100
AcDbEntity
  8
0
100
AcDbLine
 62
7
  6
CONTINUOUS
 10
13.8850962199
 20
11.5988913358
 11
13.8396903575
 21
11.4834251634
  0
LINE
  5
285
100
AcDbEntity
  8
0
100
AcDbLine
 62
7
  6
CONTINUOUS
 10
14.5640670521
 20
12.6964140556
 11
14.5872667236
 21
12.77148822
  0
LINE
  5
286
100
AcDbEntity
  8
0
100
AcDbLine
 62
7
  6
CONTINUOUS
 10
14.5725010789
 20
12.6915320601
 11
14.5933675609
 21
12.7590560206
  0
LINE
  5
287
100
AcDbEntity
  8
0
100
AcDbLine
 62
7
  6
CONTINUOUS
 10
14.7401628486
 20
12.77148822
 11
14.7169631771
 21
12.6964140556
  0
LINE
  5
288
100
AcDbEntity
  8
0
100
AcDbLine
 62
7
  6
CONTINUOUS
 10
14.5077265203
 20
12.6513758613
 11
14.5046167052
 21
12.6577129983
  0
LINE
  5
289
100
AcDbEntity
  8
0
100
AcDbLine
 62
7
  6
CONTINUOUS
 10
14.5872667236
 20
12.77148822
 11
14.6753146218
 21
12.8090253022
  0
LINE
  5
28A
100
AcDbEntity
  8
0
100
AcDbLine
 62
7
  6
CONTINUOUS
 10
14.6814154591
 20
12.7965931028
 11
14.5933675609
 21
12.7590560206
  0
LINE
  5
28B
100
AcDbEntity
  8
0
100
AcDbLine
 62
7
  6
CONTINUOUS
 10
14.7169631771
 20
12.6964140556
 11
14.6289152789
 21
12.6588769735
  0
LINE
  5
28C
100
AcDbEntity
  8
0
100
AcDbLine
 62
7
  6
CONTINUOUS
 10
14.5872667236
 20
12.77148822
 11
14.5933675609
 21
12.7590560206
  0
LINE
  5
28D
100
AcDbEntity
  8
0
100
AcDbLine
 62
7
  6
CONTINUOUS
 10
14.6753146218
 20
12.8090253022
 11
14.6814154591
 21
12.7965931028
  0
LINE
  5
28E
100
AcDbEntity
  8
0
100
AcDbLine
 62
7
  6
CONTINUOUS
 10
14.8057734293
 20
12.7976360407
 11
14.8026636141
 21
12.8039731777
  0
LINE
  5
28F
100
AcDbEntity
  8
0
100
AcDbLine
 62
7
  6
CONTINUOUS
 10
14.6289152789
 20
12.6588769735
 11
14.5640670521
 21
12.6964140556
  0
LINE
  5
290
100
AcDbEntity
  8
0
100
AcDbLine
 62
7
  6
CONTINUOUS
 10
14.2201817593
 20
13.7774296951
 11
14.1322782784
 21
13.8943228532
  0
LINE
  5
291
100
AcDbEntity
  8
0
100
AcDbLine
 62
7
  6
CONTINUOUS
 10
14.7378296591
 20
12.7639380162
 11
14.6814154591
 21
12.7965931028
  0
LINE
  5
292
100
AcDbEntity
  8
0
100
AcDbLine
 62
7
  6
CONTINUOUS
 10
14.6753146218
 20
12.8090253022
 11
14.7401628486
 21
12.77148822
  0
LINE
  5
293
100
AcDbEntity
  8
0
100
AcDbLine
 62
7
  6
CONTINUOUS
 10
14.2970083432
 20
13.796150385
 11
14.1587542825
 21
13.9799992339
  0
LINE
  5
294
100
AcDbEntity
  8
0
100
AcDbLine
 62
7
  6
CONTINUOUS
 10
14.6176183252
 20
13.8015964732
 11
14.5593705807
 21
13.9202928966
  0
LINE
  5
295
100
AcDbEntity
  8
0
100
AcDbLine
 62
7
  6
CONTINUOUS
 10
17.0954571041
 20
11.5523014277
 11
16.8582321072
 21
10.7846410562
  0
LINE
  5
296
100
AcDbEntity
  8
0
100
AcDbLine
 62
7
  6
CONTINUOUS
 10
16.9271105252
 20
11.0075316988
 11
16.9342509025
 21
11.0106473539
  0
LINE
  5
297
100
AcDbEntity
  8
0
100
AcDbLine
 62
7
  6
CONTINUOUS
 10
18.1585573283
 20
12.4757918294
 11
18.1038200809
 21
12.298662032
  0
LINE
  5
298
100
AcDbEntity
  8
0
100
AcDbLine
 62
7
  6
CONTINUOUS
 10
18.0508680727
 20
12.1273092705
 11
18.0387682745
 21
12.0881543095
  0
LINE
  5
299
100
AcDbEntity
  8
0
100
AcDbLine
 62
7
  6
CONTINUOUS
 10
17.8432054255
 20
11.4553126979
 11
17.8150652154
 21
11.3642509447
  0
LINE
  5
29A
100
AcDbEntity
  8
0
100
AcDbLine
 62
7
  6
CONTINUOUS
 10
18.0521190398
 20
11.4846115931
 11
18.0256430357
 21
11.3989352123
  0
ARC
  5
29B
100
AcDbEntity
  8
03__ASM_ALL_CURVES
100
AcDbCircle
 62
8
  6
PHANTOM
 10
6.1303672762
 20
5.5201198968
 40
2.75
100
AcDbArc
 50
90.0
 51
100.0000259953
  0
ARC
  5
29C
100
AcDbEntity
  8
0
100
AcDbCircle
 62
7
  6
CONTINUOUS
 10
6.1303672762
 20
5.5201198968
 40
2.75
100
AcDbArc
 50
100.0
 51
90.0
  0
CIRCLE
  5
29D
100
AcDbEntity
  8
0
100
AcDbCircle
 62
7
  6
CONTINUOUS
 10
6.1303672762
 20
5.5201198968
 40
2.55905
  0
CIRCLE
  5
29E
100
AcDbEntity
  8
0
100
AcDbCircle
 62
7
  6
CONTINUOUS
 10
6.1303672762
 20
5.5201198968
 40
2.187525
  0
CIRCLE
  5
29F
100
AcDbEntity
  8
0
100
AcDbCircle
 62
7
  6
CONTINUOUS
 10
6.1303672762
 20
5.5201198968
 40
2.0636833333
  0
CIRCLE
  5
2A0
100
AcDbEntity
  8
0
100
AcDbCircle
 62
7
  6
CONTINUOUS
 10
6.1303672762
 20
5.5201198968
 40
1.816
  0
CIRCLE
  5
2A1
100
AcDbEntity
  8
0
100
AcDbCircle
 62
7
  6
CONTINUOUS
 10
6.1303672762
 20
5.5201198968
 40
1.4375
  0
CIRCLE
  5
2A2
100
AcDbEntity
  8
02__ASM_ALL_AXES
100
AcDbCircle
 62
4
  6
CONTINUOUS
 10
6.1303672762
 20
5.5201198968
 40
0.4921259843
  0
ARC
  5
2A3
100
AcDbEntity
  8
0
100
AcDbCircle
 62
7
  6
CONTINUOUS
 10
5.9693672762
 20
7.3411198968
 40
0.005
100
AcDbArc
 50
90.0
 51
180.0
  0
ARC
  5
2A4
100
AcDbEntity
  8
0
100
AcDbCircle
 62
7
  6
CONTINUOUS
 10
6.2913672762
 20
7.3411198968
 40
0.005
100
AcDbArc
 50
0.0
 51
90.0
  0
ARC
  5
2A5
100
AcDbEntity
  8
0
100
AcDbCircle
 62
7
  6
CONTINUOUS
 10
4.3093672762
 20
5.6811198968
 40
0.005
100
AcDbArc
 50
90.0
 51
180.0
  0
ARC
  5
2A6
100
AcDbEntity
  8
0
100
AcDbCircle
 62
7
  6
CONTINUOUS
 10
4.3093672762
 20
5.3591198968
 40
0.005
100
AcDbArc
 50
180.0
 51
270.0
  0
ARC
  5
2A7
100
AcDbEntity
  8
0
100
AcDbCircle
 62
7
  6
CONTINUOUS
 10
2.4469796974
 20
11.4437977822
 40
1.8154925367
100
AcDbArc
 50
354.9327667849
 51
5.0672462165
  0
CIRCLE
  5
2A8
100
AcDbEntity
  8
0
100
AcDbCircle
 62
7
  6
CONTINUOUS
 10
6.0708720839
 20
11.4437977814
 40
0.166
  0
ARC
  5
2A9
100
AcDbEntity
  8
0
100
AcDbCircle
 62
7
  6
CONTINUOUS
 10
8.6299220839
 20
13.1922977814
 40
0.109375
100
AcDbArc
 50
90.0
 51
270.0
  0
ARC
  5
2AA
100
AcDbEntity
  8
0
100
AcDbCircle
 62
7
  6
CONTINUOUS
 10
3.5118220839
 20
13.1922977814
 40
0.109375
100
AcDbArc
 50
270.0
 51
90.0
  0
CIRCLE
  5
2AB
100
AcDbEntity
  8
0
100
AcDbCircle
 62
7
  6
CONTINUOUS
 10
6.0708720839
 20
13.1922977814
 40
0.0546875
  0
ARC
  5
2AC
100
AcDbEntity
  8
0
100
AcDbCircle
 62
7
  6
CONTINUOUS
 10
3.5518220839
 20
13.5277977814
 40
0.04
100
AcDbArc
 50
90.0
 51
180.0
  0
ARC
  5
2AD
100
AcDbEntity
  8
0
100
AcDbCircle
 62
7
  6
CONTINUOUS
 10
8.5899220839
 20
13.5277977814
 40
0.04
100
AcDbArc
 50
0.0
 51
90.0
  0
ARC
  5
2AE
100
AcDbEntity
  8
0
100
AcDbCircle
 62
7
  6
CONTINUOUS
 10
8.5899220839
 20
12.1087977814
 40
0.04
100
AcDbArc
 50
270.0
 51
360.0
  0
ARC
  5
2AF
100
AcDbEntity
  8
0
100
AcDbCircle
 62
7
  6
CONTINUOUS
 10
3.5518220839
 20
12.1087977814
 40
0.04
100
AcDbArc
 50
180.0
 51
270.0
  0
ARC
  5
2B0
100
AcDbEntity
  8
0
100
AcDbCircle
 62
7
  6
CONTINUOUS
 10
4.2748720839
 20
11.0887977814
 40
0.02
100
AcDbArc
 50
180.0
 51
270.0
  0
ARC
  5
2B1
100
AcDbEntity
  8
0
100
AcDbCircle
 62
7
  6
CONTINUOUS
 10
7.8668720839
 20
11.0887977814
 40
0.02
100
AcDbArc
 50
270.0
 51
360.0
  0
ARC
  5
2B2
100
AcDbEntity
  8
0
100
AcDbCircle
 62
7
  6
CONTINUOUS
 10
7.8668720839
 20
14.1112977814
 40
0.02
100
AcDbArc
 50
0.0
 51
90.0
  0
ARC
  5
2B3
100
AcDbEntity
  8
0
100
AcDbCircle
 62
7
  6
CONTINUOUS
 10
4.2748720839
 20
14.1112977814
 40
0.02
100
AcDbArc
 50
90.0
 51
180.0
  0
ARC
  5
2B4
100
AcDbEntity
  8
0
100
AcDbCircle
 62
7
  6
CONTINUOUS
 10
4.2498720839
 20
11.2827977814
 40
0.005
100
AcDbArc
 50
180.0
 51
270.0
  0
ARC
  5
2B5
100
AcDbEntity
  8
0
100
AcDbCircle
 62
7
  6
CONTINUOUS
 10
4.2498720839
 20
11.6047977814
 40
0.005
100
AcDbArc
 50
90.0
 51
180.0
  0
ARC
  5
2B6
100
AcDbEntity
  8
0
100
AcDbCircle
 62
7
  6
CONTINUOUS
 10
14.4041052577
 20
9.0845170909
 40
1.8154925367
100
AcDbArc
 50
264.9327667849
 51
275.0672462165
  0
ARC
  5
2B7
100
AcDbEntity
  8
0
100
AcDbCircle
 62
7
  6
CONTINUOUS
 10
16.1526052569
 20
2.9015747044
 40
0.109375
100
AcDbArc
 50
0.0
 51
60.0
  0
ARC
  5
2B8
100
AcDbEntity
  8
0
100
AcDbCircle
 62
7
  6
CONTINUOUS
 10
16.1526052569
 20
2.9015747044
 40
0.109375
100
AcDbArc
 50
120.0
 51
180.0
  0
ARC
  5
2B9
100
AcDbEntity
  8
0
100
AcDbCircle
 62
7
  6
CONTINUOUS
 10
16.1526052569
 20
8.0196747044
 40
0.109375
100
AcDbArc
 50
300.0
 51
360.0
  0
ARC
  5
2BA
100
AcDbEntity
  8
0
100
AcDbCircle
 62
7
  6
CONTINUOUS
 10
16.1526052569
 20
8.0196747044
 40
0.109375
100
AcDbArc
 50
180.0
 51
240.0
  0
ARC
  5
2BB
100
AcDbEntity
  8
0
100
AcDbCircle
 62
7
  6
CONTINUOUS
 10
15.0691052569
 20
7.9796747044
 40
0.04
100
AcDbArc
 50
90.0
 51
180.0
  0
ARC
  5
2BC
100
AcDbEntity
  8
0
100
AcDbCircle
 62
7
  6
CONTINUOUS
 10
15.0691052569
 20
2.9415747044
 40
0.04
100
AcDbArc
 50
180.0
 51
270.0
  0
ARC
  5
2BD
100
AcDbEntity
  8
0
100
AcDbCircle
 62
7
  6
CONTINUOUS
 10
16.4881052569
 20
7.9796747044
 40
0.04
100
AcDbArc
 50
0.0
 51
90.0
  0
ARC
  5
2BE
100
AcDbEntity
  8
0
100
AcDbCircle
 62
7
  6
CONTINUOUS
 10
16.4881052569
 20
2.9415747044
 40
0.04
100
AcDbArc
 50
270.0
 51
360.0
  0
ARC
  5
2BF
100
AcDbEntity
  8
0
100
AcDbCircle
 62
7
  6
CONTINUOUS
 10
14.0491052569
 20
7.2566247044
 40
0.02
100
AcDbArc
 50
90.0
 51
180.0
  0
ARC
  5
2C0
100
AcDbEntity
  8
0
100
AcDbCircle
 62
7
  6
CONTINUOUS
 10
14.0491052569
 20
3.6646247044
 40
0.02
100
AcDbArc
 50
180.0
 51
270.0
  0
ARC
  5
2C1
100
AcDbEntity
  8
0
100
AcDbCircle
 62
7
  6
CONTINUOUS
 10
17.0716052569
 20
7.2566247044
 40
0.02
100
AcDbArc
 50
0.0
 51
90.0
  0
ARC
  5
2C2
100
AcDbEntity
  8
0
100
AcDbCircle
 62
7
  6
CONTINUOUS
 10
17.0716052569
 20
3.6646247044
 40
0.02
100
AcDbArc
 50
270.0
 51
360.0
  0
ARC
  5
2C3
100
AcDbEntity
  8
0
100
AcDbCircle
 62
7
  6
CONTINUOUS
 10
14.5651052569
 20
7.2816247044
 40
0.005
100
AcDbArc
 50
0.0
 51
90.0
  0
ARC
  5
2C4
100
AcDbEntity
  8
0
100
AcDbCircle
 62
7
  6
CONTINUOUS
 10
14.2431052569
 20
7.2816247044
 40
0.005
100
AcDbArc
 50
90.0
 51
180.0
  0
ARC
  5
2C5
100
AcDbEntity
  8
0
100
AcDbCircle
 62
7
  6
CONTINUOUS
 10
14.8251844851
 20
10.951160403
 40
3.5224327909
100
AcDbArc
 50
89.3156851609
 51
89.8442132901
  0
ARC
  5
2C6
100
AcDbEntity
  8
0
100
AcDbCircle
 62
7
  6
CONTINUOUS
 10
14.8252776022
 20
10.979574721
 40
3.4940183248
100
AcDbArc
 50
89.8444733439
 51
89.9999447358
  0
ARC
  5
2C7
100
AcDbEntity
  8
0
100
AcDbCircle
 62
7
  6
CONTINUOUS
 10
14.6135775457
 20
10.5611983805
 40
3.2404006121
100
AcDbArc
 50
89.9285521459
 51
95.6053182676
  0
ARC
  5
2C8
100
AcDbEntity
  8
0
100
AcDbCircle
 62
7
  6
CONTINUOUS
 10
14.5843827918
 20
10.8944344193
 40
2.9059084901
100
AcDbArc
 50
95.6742048887
 51
97.1998832423
  0
ARC
  5
2C9
100
AcDbEntity
  8
0
100
AcDbCircle
 62
7
  6
CONTINUOUS
 10
14.3764024031
 20
12.770842088
 40
1.5176562656
100
AcDbArc
 50
206.1413587389
 51
207.0582057397
  0
ARC
  5
2CA
100
AcDbEntity
  8
0
100
AcDbCircle
 62
7
  6
CONTINUOUS
 10
16.7378221862
 20
12.5953405626
 40
1.4836149677
100
AcDbArc
 50
25.4746244858
 51
26.1398039723
  0
ARC
  5
2CB
100
AcDbEntity
  8
0
100
AcDbCircle
 62
7
  6
CONTINUOUS
 10
16.2774507472
 20
11.5582188367
 40
1.2347044237
100
AcDbArc
 50
25.0620965498
 51
26.1397100824
  0
ARC
  5
2CC
100
AcDbEntity
  8
0
100
AcDbCircle
 62
7
  6
CONTINUOUS
 10
14.4099622578
 20
11.7826161138
 40
1.0682106323
100
AcDbArc
 50
206.1399638699
 51
206.7902033089
  0
ARC
  5
2CD
100
AcDbEntity
  8
0
100
AcDbCircle
 62
7
  6
CONTINUOUS
 10
13.64040346
 20
12.7534741582
 40
0.9103461933
100
AcDbArc
 50
156.4610460854
 51
157.1544033947
  0
ARC
  5
2CE
100
AcDbEntity
  8
0
100
AcDbCircle
 62
7
  6
CONTINUOUS
 10
13.6353463182
 20
12.755561816
 40
0.9048752313
100
AcDbArc
 50
157.1518997396
 51
162.8229283284
  0
ARC
  5
2CF
100
AcDbEntity
  8
0
100
AcDbCircle
 62
7
  6
CONTINUOUS
 10
17.1619868317
 20
11.665786613
 40
0.9039400489
100
AcDbArc
 50
342.8299632397
 51
348.4970517031
  0
ARC
  5
2D0
100
AcDbEntity
  8
0
100
AcDbCircle
 62
7
  6
CONTINUOUS
 10
14.0256721988
 20
13.5584012493
 40
0.8498156555
100
AcDbArc
 50
150.6127694453
 51
162.7951761931
  0
ARC
  5
2D1
100
AcDbEntity
  8
0
100
AcDbCircle
 62
7
  6
CONTINUOUS
 10
13.9720666884
 20
13.3872993965
 40
0.8491171807
100
AcDbArc
 50
150.9987167371
 51
162.798305977
  0
ARC
  5
2D2
100
AcDbEntity
  8
0
100
AcDbCircle
 62
7
  6
CONTINUOUS
 10
17.2990087535
 20
12.547459182
 40
0.8423879314
100
AcDbArc
 50
337.125971804
 51
342.8216734919
  0
ARC
  5
2D3
100
AcDbEntity
  8
0
100
AcDbCircle
 62
7
  6
CONTINUOUS
 10
14.0177652975
 20
13.5613680845
 40
0.8413851508
100
AcDbArc
 50
162.8289052623
 51
169.366418301
  0
ARC
  5
2D4
100
AcDbEntity
  8
0
100
AcDbCircle
 62
7
  6
CONTINUOUS
 10
14.0030309524
 20
12.6428389822
 40
0.7270136056
100
AcDbArc
 50
169.4667453252
 51
170.2860881395
  0
ARC
  5
2D5
100
AcDbEntity
  8
0
100
AcDbCircle
 62
7
  6
CONTINUOUS
 10
16.7951790328
 20
11.7797874718
 40
0.7256026808
100
AcDbArc
 50
335.224094707
 51
338.0899607512
  0
ARC
  5
2D6
100
AcDbEntity
  8
0
100
AcDbCircle
 62
7
  6
CONTINUOUS
 10
13.9998018121
 20
12.6434446646
 40
0.7237281572
100
AcDbArc
 50
168.1137908861
 51
169.4671545578
  0
ARC
  5
2D7
100
AcDbEntity
  8
0
100
AcDbCircle
 62
7
  6
CONTINUOUS
 10
14.6926143591
 20
12.6837399551
 40
0.1782187653
100
AcDbArc
 50
90.0004891184
 51
90.5355369694
  0
SPLINE
  5
2D8
100
AcDbEntity
  8
0
100
AcDbSpline
 62
7
  6
CONTINUOUS
 70
0
 71
3
 72
25
 73
21
 74
0
 42
0.0000001
 43
0.0000001
 44
0.0000000001
 40
0.0
 40
0.0
 40
0.0
 40
0.0
 40
0.0110657614
 40
0.0244322701
 40
0.0426056525
 40
0.0917749424
 40
0.1552580741
 40
0.2302402498
 40
0.314495126
 40
0.4054156462
 40
0.499999894
 40
0.5945840376
 40
0.6855043855
 40
0.7697590109
 40
0.8447413506
 40
0.9082247221
 40
0.9573940016
 40
0.9755673699
 40
0.9889339925
 40
1.0
 40
1.0
 40
1.0
 40
1.0
 10
16.2072927569
 20
2.996296233
 30
0.0
 10
16.2069307589
 20
2.9965168142
 30
0.0
 10
16.2061263166
 20
2.9969951309
 30
0.0
 10
16.2047086319
 20
2.9978037957
 30
0.0
 10
16.2020016712
 20
2.9992973692
 30
0.0
 10
16.1975311142
 20
3.0015670852
 30
0.0
 10
16.1909321345
 20
3.004428914
 30
0.0
 10
16.1828679429
 20
3.0072422007
 30
0.0
 10
16.1735665912
 20
3.0095998828
 30
0.0
 10
16.1633396683
 20
3.0111947676
 30
0.0
 10
16.1526052727
 20
3.0117379396
 30
0.0
 10
16.1418708848
 20
3.0111947675
 30
0.0
 10
16.1316439779
 20
3.0095999072
 30
0.0
 10
16.1223426395
 20
3.0072422129
 30
0.0
 10
16.1142784385
 20
3.0044289372
 30
0.0
 10
16.1076794426
 20
3.0015671062
 30
0.0
 10
16.1032088813
 20
2.9992973814
 30
0.0
 10
16.1005019103
 20
2.9978038194
 30
0.0
 10
16.0990842132
 20
2.9969951495
 30
0.0
 10
16.0982797612
 20
2.996516822
 30
0.0
 10
16.0979177569
 20
2.996296233
 30
0.0
  0
SPLINE
  5
2D9
100
AcDbEntity
  8
0
100
AcDbSpline
 62
7
  6
CONTINUOUS
 70
0
 71
3
 72
25
 73
21
 74
0
 42
0.0000001
 43
0.0000001
 44
0.0000000001
 40
0.0
 40
0.0
 40
0.0
 40
0.0
 40
0.0110659437
 40
0.0244325364
 40
0.0426059073
 40
0.0917751827
 40
0.1552584754
 40
0.2302407593
 40
0.3144954476
 40
0.4054158289
 40
0.4999999824
 40
0.5945841122
 40
0.6855044468
 40
0.7697590693
 40
0.8447413877
 40
0.9082247373
 40
0.9573940135
 40
0.975567382
 40
0.9889340007
 40
1.0
 40
1.0
 40
1.0
 40
1.0
 10
16.0979177569
 20
7.9249531759
 30
0.0
 10
16.0982797596
 20
7.9247325889
 30
0.0
 10
16.0990842091
 20
7.9242542642
 30
0.0
 10
16.1005019029
 20
7.9234455956
 30
0.0
 10
16.103208871
 20
7.9219520308
 30
0.0
 10
16.1076794304
 20
7.9196823087
 30
0.0
 10
16.1142784207
 20
7.9168204786
 30
0.0
 10
16.1223426179
 20
7.9140072001
 30
0.0
 10
16.1316439589
 20
7.9116495092
 30
0.0
 10
16.1418708685
 20
7.910054642
 30
0.0
 10
16.1526052541
 20
7.9095114686
 30
0.0
 10
16.1633396376
 20
7.9100546422
 30
0.0
 10
16.1735665431
 20
7.9116495035
 30
0.0
 10
16.1828678801
 20
7.9140071975
 30
0.0
 10
16.1909320793
 20
7.9168204731
 30
0.0
 10
16.1975310734
 20
7.9196823038
 30
0.0
 10
16.202001634
 20
7.921952028
 30
0.0
 10
16.2047086045
 20
7.9234455902
 30
0.0
 10
16.2061263012
 20
7.92425426
 30
0.0
 10
16.2069307529
 20
7.9247325871
 30
0.0
 10
16.2072927569
 20
7.9249531759
 30
0.0
  0
SPLINE
  5
2DA
100
AcDbEntity
  8
03__ASM_ALL_CURVES
100
AcDbSpline
 62
8
  6
PHANTOM
 70
0
 71
3
 72
33
 73
29
 74
0
 42
0.0000001
 43
0.0000001
 44
0.0000000001
 40
0.0
 40
0.0
 40
0.0
 40
0.0
 40
0.0625
 40
0.125
 40
0.15625
 40
0.171875
 40
0.1875
 40
0.21875
 40
0.25
 40
0.3125
 40
0.375
 40
0.4375
 40
0.46875
 40
0.484375
 40
0.5
 40
0.515625
 40
0.53125
 40
0.5625
 40
0.59375
 40
0.625
 40
0.65625
 40
0.671875
 40
0.6875
 40
0.71875
 40
0.75
 40
0.8125
 40
0.875
 40
1.0
 40
1.0
 40
1.0
 40
1.0
 10
18.0747592938
 20
12.675574173
 30
0.0
 10
18.072881045
 20
12.6793033758
 30
0.0
 10
18.0691339144
 20
12.6867478895
 30
0.0
 10
18.0644031654
 20
12.6961229906
 30
0.0
 10
18.0611777019
 20
12.7025579305
 30
0.0
 10
18.0592010977
 20
12.706432997
 30
0.0
 10
18.0567213412
 20
12.7110533352
 30
0.0
 10
18.0537960301
 20
12.7165735821
 30
0.0
 10
18.0490057755
 20
12.7255485585
 30
0.0
 10
18.0431435955
 20
12.7367186221
 30
0.0
 10
18.0356705511
 20
12.7501423798
 30
0.0
 10
18.0293668276
 20
12.7612921362
 30
0.0
 10
18.0249463748
 20
12.7691559979
 30
0.0
 10
18.0224567086
 20
12.7735594476
 30
0.0
 10
18.0204827803
 20
12.7771157253
 30
0.0
 10
18.0189174132
 20
12.779702334
 30
0.0
 10
18.0166877167
 20
12.7834896354
 30
0.0
 10
18.0139482453
 20
12.7881092621
 30
0.0
 10
18.0106459743
 20
12.7936946796
 30
0.0
 10
18.0073270859
 20
12.7992958351
 30
0.0
 10
18.0046291581
 20
12.8038761168
 30
0.0
 10
18.0023163744
 20
12.8077421082
 30
0.0
 10
17.9994391547
 20
12.812345815
 30
0.0
 10
17.9960391322
 20
12.8178462548
 30
0.0
 10
17.9904703545
 20
12.8267983676
 30
0.0
 10
17.9836889364
 20
12.837869715
 30
0.0
 10
17.971947005
 20
12.856041332
 30
0.0
 10
17.9629655219
 20
12.8697527317
 30
0.0
 10
17.9570167631
 20
12.8788752899
 30
0.0
  0
LINE
  5
2DB
100
AcDbEntity
  8
03__ASM_ALL_CURVES
100
AcDbLine
 62
8
  6
PHANTOM
 10
17.9570167604
 20
12.8788752939
 11
17.9496488013
 21
12.8898222382
  0
SPLINE
  5
2DC
100
AcDbEntity
  8
03__ASM_ALL_CURVES
100
AcDbSpline
 62
8
  6
PHANTOM
 70
0
 71
3
 72
32
 73
28
 74
0
 42
0.0000001
 43
0.0000001
 44
0.0000000001
 40
0.0
 40
0.0
 40
0.0
 40
0.0
 40
0.0625
 40
0.125
 40
0.140625
 40
0.15625
 40
0.171875
 40
0.1875
 40
0.21875
 40
0.25
 40
0.3125
 40
0.34375
 40
0.375
 40
0.4375
 40
0.46875
 40
0.5
 40
0.53125
 40
0.5625
 40
0.625
 40
0.65625
 40
0.6875
 40
0.75
 40
0.8125
 40
0.84375
 40
0.875
 40
0.9375
 40
1.0
 40
1.0
 40
1.0
 40
1.0
 10
17.9496488013
 20
12.8898222382
 30
0.0
 10
17.9444499208
 20
12.8972043907
 30
0.0
 10
17.9340479126
 20
12.9119718277
 30
0.0
 10
17.9223647664
 20
12.9285711001
 30
0.0
 10
17.9145481291
 20
12.9396578358
 30
0.0
 10
17.9106891857
 20
12.9451647936
 30
0.0
 10
17.9066383158
 20
12.9508132806
 30
0.0
 10
17.9003232396
 20
12.959017914
 30
0.0
 10
17.892744743
 20
12.9690434749
 30
0.0
 10
17.8804287493
 20
12.9852112151
 30
0.0
 10
17.8682460351
 20
13.0013546373
 30
0.0
 10
17.8558062817
 20
13.0174758813
 30
0.0
 10
17.8425090545
 20
13.0334692159
 30
0.0
 10
17.8294899356
 20
13.0495050455
 30
0.0
 10
17.8162795969
 20
13.0655093223
 30
0.0
 10
17.806667394
 20
13.0775646931
 30
0.0
 10
17.7959685968
 20
13.0894271876
 30
0.0
 10
17.7820969377
 20
13.1053141392
 30
0.0
 10
17.7680380437
 20
13.1211650893
 30
0.0
 10
17.7542458016
 20
13.1370713247
 30
0.0
 10
17.7396365985
 20
13.1528044208
 30
0.0
 10
17.721063689
 20
13.1724137145
 30
0.0
 10
17.702722504
 20
13.1920388995
 30
0.0
 10
17.6877425416
 20
13.2077465696
 30
0.0
 10
17.6717268428
 20
13.2234986212
 30
0.0
 10
17.6520649571
 20
13.2431733566
 30
0.0
 10
17.6362264237
 20
13.2589178166
 30
0.0
 10
17.6283207851
 20
13.2667894627
 30
0.0
  0
SPLINE
  5
2DD
100
AcDbEntity
  8
03__ASM_ALL_CURVES
100
AcDbSpline
 62
8
  6
PHANTOM
 70
0
 71
3
 72
147
 73
143
 74
0
 42
0.0000001
 43
0.0000001
 44
0.0000000001
 40
0.0
 40
0.0
 40
0.0
 40
0.0
 40
0.03125
 40
0.046875
 40
0.0625
 40
0.078125
 40
0.0859375
 40
0.09375
 40
0.09765625
 40
0.1015625
 40
0.10546875
 40
0.107421875
 40
0.109375
 40
0.111328125
 40
0.1123046875
 40
0.11328125
 40
0.1171875
 40
0.125
 40
0.1328125
 40
0.140625
 40
0.15625
 40
0.171875
 40
0.1875
 40
0.1953125
 40
0.203125
 40
0.2109375
 40
0.21484375
 40
0.21875
 40
0.220703125
 40
0.22265625
 40
0.224609375
 40
0.2265625
 40
0.23046875
 40
0.234375
 40
0.2421875
 40
0.25
 40
0.265625
 40
0.28125
 40
0.296875
 40
0.3046875
 40
0.3125
 40
0.3203125
 40
0.328125
 40
0.330078125
 40
0.33203125
 40
0.3330078125
 40
0.333984375
 40
0.3359375
 40
0.33984375
 40
0.34375
 40
0.3515625
 40
0.359375
 40
0.375
 40
0.390625
 40
0.40625
 40
0.4140625
 40
0.421875
 40
0.4296875
 40
0.4375
 40
0.44140625
 40
0.4453125
 40
0.447265625
 40
0.44921875
 40
0.453125
 40
0.45703125
 40
0.4609375
 40
0.46875
 40
0.484375
 40
0.5
 40
0.515625
 40
0.53125
 40
0.5390625
 40
0.54296875
 40
0.546875
 40
0.55078125
 40
0.552734375
 40
0.5546875
 40
0.5556640625
 40
0.556640625
 40
0.55859375
 40
0.5625
 40
0.5703125
 40
0.578125
 40
0.5859375
 40
0.59375
 40
0.609375
 40
0.625
 40
0.640625
 40
0.6484375
 40
0.65625
 40
0.66015625
 40
0.6640625
 40
0.666015625
 40
0.6669921875
 40
0.66796875
 40
0.669921875
 40
0.671875
 40
0.67578125
 40
0.6796875
 40
0.6875
 40
0.6953125
 40
0.703125
 40
0.71875
 40
0.734375
 40
0.75
 40
0.7578125
 40
0.765625
 40
0.76953125
 40
0.7734375
 40
0.775390625
 40
0.7763671875
 40
0.77734375
 40
0.779296875
 40
0.78125
 40
0.78515625
 40
0.7890625
 40
0.796875
 40
0.8046875
 40
0.8125
 40
0.828125
 40
0.84375
 40
0.859375
 40
0.8671875
 40
0.875
 40
0.8828125
 40
0.884765625
 40
0.88671875
 40
0.8876953125
 40
0.888671875
 40
0.8896484375
 40
0.890625
 40
0.892578125
 40
0.89453125
 40
0.8984375
 40
0.90234375
 40
0.90625
 40
0.9140625
 40
0.921875
 40
0.9375
 40
0.953125
 40
0.96875
 40
1.0
 40
1.0
 40
1.0
 40
1.0
 10
17.6283207891
 20
13.2667894588
 30
0.0
 10
17.5916292074
 20
13.2968417063
 30
0.0
 10
17.5365918281
 20
13.3419200745
 30
0.0
 10
17.4632086827
 20
13.4020245771
 30
0.0
 10
17.4081712562
 20
13.4471029249
 30
0.0
 10
17.3623069476
 20
13.484668307
 30
0.0
 10
17.3256150221
 20
13.5147204059
 30
0.0
 10
17.3026836584
 20
13.5335034385
 30
0.0
 10
17.2843360717
 20
13.5485287863
 30
0.0
 10
17.270582215
 20
13.5598007494
 30
0.0
 10
17.2590989301
 20
13.5691846607
 30
0.0
 10
17.2499610558
 20
13.5767128527
 30
0.0
 10
17.2429744319
 20
13.5823014426
 30
0.0
 10
17.2375759917
 20
13.5871416714
 30
0.0
 10
17.2318242945
 20
13.5903947812
 30
0.0
 10
17.2235649161
 20
13.5954335047
 30
0.0
 10
17.205454423
 20
13.606257778
 30
0.0
 10
17.1777375041
 20
13.6229733137
 30
0.0
 10
17.1444149745
 20
13.6430050727
 30
0.0
 10
17.1000066716
 20
13.6697234754
 30
0.0
 10
17.0444888356
 20
13.7031182584
 30
0.0
 10
16.9778706235
 20
13.7431933699
 30
0.0
 10
16.9223547528
 20
13.7765890168
 30
0.0
 10
16.8779421261
 20
13.8033055188
 30
0.0
 10
16.8446328631
 20
13.8233431095
 30
0.0
 10
16.8168744244
 20
13.8400403941
 30
0.0
 10
16.7946692969
 20
13.8533998131
 30
0.0
 10
16.7807873934
 20
13.8617458256
 30
0.0
 10
16.7696903419
 20
13.8684309362
 30
0.0
 10
16.7613443587
 20
13.8734220421
 30
0.0
 10
16.7517939412
 20
13.8772329913
 30
0.0
 10
16.7394807349
 20
13.8827264609
 30
0.0
 10
16.7239451856
 20
13.88945216
 30
0.0
 10
16.6991688039
 20
13.9002921531
 30
0.0
 10
16.668170764
 20
13.9138151368
 30
0.0
 10
16.6185893079
 20
13.9354670111
 30
0.0
 10
16.5566071804
 20
13.9625266316
 30
0.0
 10
16.4822309911
 20
13.9950005933
 30
0.0
 10
16.4202500307
 20
14.022061134
 30
0.0
 10
16.3706660069
 20
14.0437109839
 30
0.0
 10
16.3334762373
 20
14.0599447755
 30
0.0
 10
16.2962931024
 20
14.0761922419
 30
0.0
 10
16.2683871607
 20
14.0883395141
 30
0.0
 10
16.2498121105
 20
14.0964973015
 30
0.0
 10
16.2420294854
 20
14.0998076829
 30
0.0
 10
16.2359037443
 20
14.1026628996
 30
0.0
 10
16.2294109841
 20
14.104761427
 30
0.0
 10
16.2178781282
 20
14.1080822743
 30
0.0
 10
16.2014915915
 20
14.1130097764
 30
0.0
 10
16.1752234111
 20
14.1207912678
 30
0.0
 10
16.1424052104
 20
14.1305532331
 30
0.0
 10
16.0898865743
 20
14.1461527546
 30
0.0
 10
16.0242415432
 20
14.1656589245
 30
0.0
 10
15.9454661106
 20
14.1890632768
 30
0.0
 10
15.8798202154
 20
14.2085680515
 30
0.0
 10
15.8273034803
 20
14.2241706422
 30
0.0
 10
15.7879158066
 20
14.235875584
 30
0.0
 10
15.7485286321
 20
14.2475691451
 30
0.0
 10
15.7157044244
 20
14.2573492162
 30
0.0
 10
15.6894485582
 20
14.2650939148
 30
0.0
 10
15.6730306729
 20
14.2701150287
 30
0.0
 10
15.6599900203
 20
14.2720085281
 30
0.0
 10
15.6469330101
 20
14.2742728914
 30
0.0
 10
15.6306173596
 20
14.2769761052
 30
0.0
 10
15.6110361769
 20
14.2802744196
 30
0.0
 10
15.5849287713
 20
14.2846531767
 30
0.0
 10
15.5392404211
 20
14.2923248508
 30
0.0
 10
15.4739715522
 20
14.3032797684
 30
0.0
 10
15.3956488286
 20
14.3164276037
 30
0.0
 10
15.3173261041
 20
14.3295750889
 30
0.0
 10
15.2520572373
 20
14.3405308818
 30
0.0
 10
15.2063688834
 20
14.348201024
 30
0.0
 10
15.1802614837
 20
14.3525822321
 30
0.0
 10
15.1606802828
 20
14.3558730187
 30
0.0
 10
15.1443646895
 20
14.3585997932
 30
0.0
 10
15.1313075625
 20
14.3608160869
 30
0.0
 10
15.123157452
 20
14.362121859
 30
0.0
 10
15.1166131014
 20
14.3633483457
 30
0.0
 10
15.1102345136
 20
14.3633322789
 30
0.0
 10
15.0989949033
 20
14.3638819648
 30
0.0
 10
15.0765704089
 20
14.3645711094
 30
0.0
 10
15.0445068014
 20
14.365770104
 30
0.0
 10
15.0060427383
 20
14.3671169484
 30
0.0
 10
14.9675753968
 20
14.3684883857
 30
0.0
 10
14.9162867378
 20
14.3703084054
 30
0.0
 10
14.8521756381
 20
14.3725861727
 30
0.0
 10
14.7752419485
 20
14.3753191738
 30
0.0
 10
14.7111321417
 20
14.3775940833
 30
0.0
 10
14.6598406384
 20
14.3794203901
 30
0.0
 10
14.6277917928
 20
14.3805471797
 30
0.0
 10
14.6021336053
 20
14.3814821817
 30
0.0
 10
14.5861408438
 20
14.3819899581
 30
0.0
 10
14.5748585192
 20
14.3824989178
 30
0.0
 10
14.568548209
 20
14.3825495612
 30
0.0
 10
14.5627529899
 20
14.3816953707
 30
0.0
 10
14.5553325998
 20
14.3809374461
 30
0.0
 10
14.5435585373
 20
14.3795516284
 30
0.0
 10
14.5288072115
 20
14.3778786391
 30
0.0
 10
14.5052239519
 20
14.3751687229
 30
0.0
 10
14.4757384058
 20
14.3717926958
 30
0.0
 10
14.4403585216
 20
14.3677365962
 30
0.0
 10
14.3931843696
 20
14.3623301693
 30
0.0
 10
14.3342170502
 20
14.3555715091
 30
0.0
 10
14.263455947
 20
14.3474615657
 30
0.0
 10
14.2044889334
 20
14.3407026187
 30
0.0
 10
14.1573141088
 20
14.3352968227
 30
0.0
 10
14.1278325915
 20
14.3319151266
 30
0.0
 10
14.1042410856
 20
14.329216806
 30
0.0
 10
14.0895107506
 20
14.3275143018
 30
0.0
 10
14.0791707446
 20
14.3263547226
 30
0.0
 10
14.0733071854
 20
14.3256417671
 30
0.0
 10
14.067274524
 20
14.3251179104
 30
0.0
 10
14.0609456939
 20
14.3231077717
 30
0.0
 10
14.0506876168
 20
14.3200391019
 30
0.0
 10
14.0379101998
 20
14.3161527427
 30
0.0
 10
14.0174410819
 20
14.3099628047
 30
0.0
 10
13.9918633475
 20
14.3022156945
 30
0.0
 10
13.96116636
 20
14.2929233076
 30
0.0
 10
13.9202383289
 20
14.2805320175
 30
0.0
 10
13.8690779143
 20
14.2650433483
 30
0.0
 10
13.8076852917
 20
14.2464569778
 30
0.0
 10
13.7565256906
 20
14.230967636
 30
0.0
 10
13.7155958696
 20
14.2185778258
 30
0.0
 10
13.6849043737
 20
14.2092808982
 30
0.0
 10
13.6618689449
 20
14.2023212886
 30
0.0
 10
13.6465381694
 20
14.1976611668
 30
0.0
 10
13.6401113865
 20
14.1957497844
 30
0.0
 10
13.635060846
 20
14.1941499127
 30
0.0
 10
13.6310236589
 20
14.1931441052
 30
0.0
 10
13.6279381559
 20
14.1913972954
 30
0.0
 10
13.6238485906
 20
14.1890491873
 30
0.0
 10
13.618728266
 20
14.1861205675
 30
0.0
 10
13.6105404236
 20
14.1814311344
 30
0.0
 10
13.6003040159
 20
14.1755705923
 30
0.0
 10
13.5880210136
 20
14.1685374071
 30
0.0
 10
13.5716434372
 20
14.1591600136
 30
0.0
 10
13.5511715488
 20
14.1474382078
 30
0.0
 10
13.5184164816
 20
14.1286833542
 30
0.0
 10
13.4774726633
 20
14.105239775
 30
0.0
 10
13.4283400745
 20
14.0771074852
 30
0.0
 10
13.3628299586
 20
14.0395977636
 30
0.0
 10
13.3136973711
 20
14.0114654728
 30
0.0
 10
13.2809423129
 20
13.9927106122
 30
0.0
  0
LINE
  5
2DE
100
AcDbEntity
  8
03__ASM_ALL_CURVES
100
AcDbLine
 62
8
  6
PHANTOM
 10
13.2809423389
 20
13.9927106321
 11
13.2704008197
 21
13.9845185584
  0
SPLINE
  5
2DF
100
AcDbEntity
  8
03__ASM_ALL_CURVES
100
AcDbSpline
 62
8
  6
PHANTOM
 70
0
 71
3
 72
61
 73
57
 74
0
 42
0.0000001
 43
0.0000001
 44
0.0000000001
 40
0.0
 40
0.0
 40
0.0
 40
0.0
 40
0.0625
 40
0.09375
 40
0.125
 40
0.140625
 40
0.15625
 40
0.1640625
 40
0.171875
 40
0.1796875
 40
0.1875
 40
0.21875
 40
0.25
 40
0.28125
 40
0.3125
 40
0.3203125
 40
0.328125
 40
0.3359375
 40
0.34375
 40
0.359375
 40
0.375
 40
0.40625
 40
0.4375
 40
0.453125
 40
0.46875
 40
0.484375
 40
0.4921875
 40
0.5
 40
0.5078125
 40
0.515625
 40
0.53125
 40
0.546875
 40
0.5625
 40
0.59375
 40
0.625
 40
0.640625
 40
0.65625
 40
0.6640625
 40
0.66796875
 40
0.671875
 40
0.6796875
 40
0.6875
 40
0.71875
 40
0.75
 40
0.78125
 40
0.8125
 40
0.8203125
 40
0.828125
 40
0.83203125
 40
0.8359375
 40
0.84375
 40
0.859375
 40
0.875
 40
0.90625
 40
0.9375
 40
1.0
 40
1.0
 40
1.0
 40
1.0
 10
13.2704008197
 20
13.9845185584
 30
0.0
 10
13.2567532642
 20
13.9724446984
 30
0.0
 10
13.2362847425
 20
13.9543324764
 30
0.0
 10
13.2089821334
 20
13.9301885748
 30
0.0
 10
13.1919414339
 20
13.9150867038
 30
0.0
 10
13.1782554513
 20
13.9030324131
 30
0.0
 10
13.169823554
 20
13.8954364323
 30
0.0
 10
13.1627989714
 20
13.889501764
 30
0.0
 10
13.1582946237
 20
13.8846616434
 30
0.0
 10
13.1540043917
 20
13.8797124814
 30
0.0
 10
13.1453137634
 20
13.8698702678
 30
0.0
 10
13.1323244167
 20
13.8550830997
 30
0.0
 10
13.114977106
 20
13.8353818428
 30
0.0
 10
13.0976431179
 20
13.815671592
 30
0.0
 10
13.0846237956
 20
13.8009046601
 30
0.0
 10
13.0759714694
 20
13.7910365891
 30
0.0
 10
13.0715971394
 20
13.7861442011
 30
0.0
 10
13.0674100328
 20
13.7810899132
 30
0.0
 10
13.0627180578
 20
13.7735805214
 30
0.0
 10
13.05654804
 20
13.764457553
 30
0.0
 10
13.046846658
 20
13.7497133498
 30
0.0
 10
13.0346602772
 20
13.731333913
 30
0.0
 10
13.0224992017
 20
13.7129355248
 30
0.0
 10
13.0127573312
 20
13.6982216437
 30
0.0
 10
13.0054747754
 20
13.6871831155
 30
0.0
 10
12.9993319096
 20
13.6779927209
 30
0.0
 10
12.9945834598
 20
13.6706218545
 30
0.0
 10
12.9905690352
 20
13.6651443297
 30
0.0
 10
12.9882840384
 20
13.6594735799
 30
0.0
 10
12.9846332624
 20
13.6519800776
 30
0.0
 10
12.9802770754
 20
13.6425900319
 30
0.0
 10
12.9749608625
 20
13.6313319364
 30
0.0
 10
12.9679039137
 20
13.6163174506
 30
0.0
 10
12.959069686
 20
13.5975521336
 30
0.0
 10
12.9502484563
 20
13.5787802702
 30
0.0
 10
12.9431707105
 20
13.5637762585
 30
0.0
 10
12.9387925256
 20
13.554368327
 30
0.0
 10
12.9356369849
 20
13.5478437172
 30
0.0
 10
12.9339758733
 20
13.5440200236
 30
0.0
 10
12.9328498027
 20
13.5398372149
 30
0.0
 10
12.9312593305
 20
13.5347314519
 30
0.0
 10
12.9275927604
 20
13.5223765858
 30
0.0
 10
12.9220290651
 20
13.5038868359
 30
0.0
 10
12.9146501593
 20
13.4792089768
 30
0.0
 10
12.9072500273
 20
13.4545397827
 30
0.0
 10
12.9017340908
 20
13.4360305364
 30
0.0
 10
12.8980064955
 20
13.4237005823
 30
0.0
 10
12.8965276818
 20
13.4185492375
 30
0.0
 10
12.8951712188
 20
13.4144604809
 30
0.0
 10
12.8944489231
 20
13.4102535384
 30
0.0
 10
12.8934795541
 20
13.4028364776
 30
0.0
 10
12.8919410082
 20
13.3922693266
 30
0.0
 10
12.8895652497
 20
13.3753458735
 30
0.0
 10
12.8865661216
 20
13.3541970419
 30
0.0
 10
12.8817840387
 20
13.3203558322
 30
0.0
 10
12.8781937591
 20
13.2949756177
 30
0.0
 10
12.8758010655
 20
13.2780553208
 30
0.0
  0
SPLINE
  5
2E0
100
AcDbEntity
  8
03__ASM_ALL_CURVES
100
AcDbSpline
 62
8
  6
PHANTOM
 70
0
 71
3
 72
56
 73
52
 74
0
 42
0.0000001
 43
0.0000001
 44
0.0000000001
 40
0.0
 40
0.0
 40
0.0
 40
0.0
 40
0.0625
 40
0.09375
 40
0.125
 40
0.140625
 40
0.15625
 40
0.1640625
 40
0.171875
 40
0.1796875
 40
0.1875
 40
0.21875
 40
0.25
 40
0.28125
 40
0.3125
 40
0.3203125
 40
0.328125
 40
0.3359375
 40
0.34375
 40
0.359375
 40
0.375
 40
0.4375
 40
0.46875
 40
0.484375
 40
0.4921875
 40
0.5
 40
0.5078125
 40
0.515625
 40
0.53125
 40
0.5625
 40
0.625
 40
0.640625
 40
0.65625
 40
0.6640625
 40
0.671875
 40
0.6796875
 40
0.6875
 40
0.71875
 40
0.75
 40
0.78125
 40
0.8125
 40
0.8203125
 40
0.828125
 40
0.83203125
 40
0.8359375
 40
0.84375
 40
0.859375
 40
0.875
 40
0.90625
 40
0.9375
 40
1.0
 40
1.0
 40
1.0
 40
1.0
 10
18.0840931811
 20
11.6708074669
 30
0.0
 10
18.0911910934
 20
11.6850760419
 30
0.0
 10
18.1018353709
 20
11.7064807681
 30
0.0
 10
18.1160381047
 20
11.7350129481
 30
0.0
 10
18.1248932222
 20
11.7528610918
 30
0.0
 10
18.1320265437
 20
11.7671041957
 30
0.0
 10
18.1363725966
 20
11.7760868976
 30
0.0
 10
18.1401065875
 20
11.7830880832
 30
0.0
 10
18.1422029985
 20
11.788845443
 30
0.0
 10
18.144102108
 20
11.7947447268
 30
0.0
 10
18.1480018478
 20
11.8064702799
 30
0.0
 10
18.1538084055
 20
11.8240893967
 30
0.0
 10
18.1615770518
 20
11.8475633835
 30
0.0
 10
18.169331265
 20
11.8710443668
 30
0.0
 10
18.1751702971
 20
11.8886477414
 30
0.0
 10
18.1790285418
 20
11.9003934096
 30
0.0
 10
18.1810187602
 20
11.9062485278
 30
0.0
 10
18.1827714832
 20
11.9121724924
 30
0.0
 10
18.1839785368
 20
11.9203986449
 30
0.0
 10
18.1858738291
 20
11.9305693176
 30
0.0
 10
18.1901020983
 20
11.9550717059
 30
0.0
 10
18.1951663548
 20
11.9836209633
 30
0.0
 10
18.2001171621
 20
12.0121996305
 30
0.0
 10
18.2026839741
 20
12.0264669669
 30
0.0
 10
18.2040102309
 20
12.0346532387
 30
0.0
 10
18.2054002855
 20
12.040698703
 30
0.0
 10
18.2052791383
 20
12.0471043714
 30
0.0
 10
18.2056447588
 20
12.0555196167
 30
0.0
 10
18.2060387248
 20
12.0703048642
 30
0.0
 10
18.2070095568
 20
12.0998321828
 30
0.0
 10
18.2078664681
 20
12.1293842866
 30
0.0
 10
18.2087144364
 20
12.1546923903
 30
0.0
 10
18.208932883
 20
12.1652627493
 30
0.0
 10
18.2094199894
 20
12.1736605057
 30
0.0
 10
18.2089291961
 20
12.1801192259
 30
0.0
 10
18.2081984819
 20
12.1866228955
 30
0.0
 10
18.2068604286
 20
12.1996071296
 30
0.0
 10
18.2048021307
 20
12.2190929358
 30
0.0
 10
18.2020841456
 20
12.2450697938
 30
0.0
 10
18.1993697768
 20
12.2710433489
 30
0.0
 10
18.1973033422
 20
12.2905365864
 30
0.0
 10
18.1959756858
 20
12.303511325
 30
0.0
 10
18.1953477339
 20
12.3089484235
 30
0.0
 10
18.1950198038
 20
12.3132258799
 30
0.0
 10
18.1940539574
 20
12.31776746
 30
0.0
 10
18.1920673349
 20
12.3258379434
 30
0.0
 10
18.189383945
 20
12.337303177
 30
0.0
 10
18.1850040981
 20
12.3556833335
 30
0.0
 10
18.1795588936
 20
12.3786462719
 30
0.0
 10
18.1708299465
 20
12.4153938546
 30
0.0
 10
18.1642869756
 20
12.4429529933
 30
0.0
 10
18.1599241641
 20
12.4613260965
 30
0.0
  0
LINE
  5
2E1
100
AcDbEntity
  8
03__ASM_ALL_CURVES
100
AcDbLine
 62
8
  6
PHANTOM
 10
18.1599241606
 20
12.4613261079
 11
18.1557793259
 21
12.4747189959
  0
SPLINE
  5
2E2
100
AcDbEntity
  8
03__ASM_ALL_CURVES
100
AcDbSpline
 62
8
  6
PHANTOM
 70
0
 71
3
 72
33
 73
29
 74
0
 42
0.0000001
 43
0.0000001
 44
0.0000000001
 40
0.0
 40
0.0
 40
0.0
 40
0.0
 40
0.0625
 40
0.125
 40
0.15625
 40
0.171875
 40
0.1875
 40
0.21875
 40
0.25
 40
0.28125
 40
0.3125
 40
0.328125
 40
0.34375
 40
0.375
 40
0.40625
 40
0.4375
 40
0.46875
 40
0.484375
 40
0.5
 40
0.515625
 40
0.53125
 40
0.5625
 40
0.625
 40
0.6875
 40
0.75
 40
0.8125
 40
0.875
 40
1.0
 40
1.0
 40
1.0
 40
1.0
 10
18.1557793259
 20
12.4747189961
 30
0.0
 10
18.1545614712
 20
12.4784261907
 30
0.0
 10
18.152132751
 20
12.4858265789
 30
0.0
 10
18.1490619054
 20
12.4951470701
 30
0.0
 10
18.1469765256
 20
12.5015427779
 30
0.0
 10
18.1456852856
 20
12.5053969852
 30
0.0
 10
18.1440191125
 20
12.5100020161
 30
0.0
 10
18.1420647035
 20
12.515502311
 30
0.0
 10
18.1396659366
 20
12.5222051991
 30
0.0
 10
18.1372757823
 20
12.52890754
 30
0.0
 10
18.1352998418
 20
12.5344092029
 30
0.0
 10
18.1336767315
 20
12.5390114977
 30
0.0
 10
18.1322103693
 20
12.5428768317
 30
0.0
 10
18.1304308244
 20
12.5474562759
 30
0.0
 10
18.1282743185
 20
12.5530564327
 30
0.0
 10
18.1261165681
 20
12.5586408514
 30
0.0
 10
18.1243401345
 20
12.5632596411
 30
0.0
 10
18.1228675496
 20
12.567046284
 30
0.0
 10
18.12190441
 20
12.5696323683
 30
0.0
 10
18.1204017933
 20
12.5731882386
 30
0.0
 10
18.1185867705
 20
12.5775910886
 30
0.0
 10
18.1153197553
 20
12.5854540837
 30
0.0
 10
18.1107234895
 20
12.5966012472
 30
0.0
 10
18.1050750283
 20
12.6100279794
 30
0.0
 10
18.0990010263
 20
12.6234143031
 30
0.0
 10
18.0930743872
 20
12.6369581981
 30
0.0
 10
18.084953654
 20
12.6542302229
 30
0.0
 10
18.0788330277
 20
12.6670138779
 30
0.0
 10
18.0747592938
 20
12.6755741731
 30
0.0
  0
SPLINE
  5
2E3
100
AcDbEntity
  8
03__ASM_ALL_CURVES
100
AcDbSpline
 62
4
  6
CONTINUOUS
 70
0
 71
3
 72
69
 73
65
 74
0
 42
0.0000001
 43
0.0000001
 44
0.0000000001
 40
0.0
 40
0.0
 40
0.0
 40
0.0
 40
0.0625
 40
0.09375
 40
0.125
 40
0.140625
 40
0.15625
 40
0.1640625
 40
0.16796875
 40
0.171875
 40
0.1796875
 40
0.1875
 40
0.203125
 40
0.21875
 40
0.25
 40
0.28125
 40
0.296875
 40
0.3125
 40
0.3203125
 40
0.328125
 40
0.33203125
 40
0.3359375
 40
0.34375
 40
0.359375
 40
0.375
 40
0.40625
 40
0.4375
 40
0.453125
 40
0.46875
 40
0.484375
 40
0.4921875
 40
0.49609375
 40
0.5
 40
0.50390625
 40
0.5078125
 40
0.515625
 40
0.53125
 40
0.546875
 40
0.5625
 40
0.59375
 40
0.625
 40
0.640625
 40
0.65625
 40
0.6640625
 40
0.66796875
 40
0.671875
 40
0.6796875
 40
0.6875
 40
0.703125
 40
0.71875
 40
0.75
 40
0.78125
 40
0.796875
 40
0.8125
 40
0.8203125
 40
0.828125
 40
0.83203125
 40
0.8359375
 40
0.84375
 40
0.859375
 40
0.875
 40
0.90625
 40
0.9375
 40
1.0
 40
1.0
 40
1.0
 40
1.0
 10
14.615578889
 20
12.2279548187
 30
0.0
 10
14.6410109278
 20
12.2114231258
 30
0.0
 10
14.6791607165
 20
12.1866266312
 30
0.0
 10
14.7300201797
 20
12.1535604595
 30
0.0
 10
14.7618217643
 20
12.1329028084
 30
0.0
 10
14.7872301543
 20
12.1163568373
 30
0.0
 10
14.803185382
 20
12.1060608778
 30
0.0
 10
14.8142037671
 20
12.0987629762
 30
0.0
 10
14.8207351051
 20
12.094734702
 30
0.0
 10
14.8281521667
 20
12.0912411944
 30
0.0
 10
14.8371202233
 20
12.0866912062
 30
0.0
 10
14.851638597
 20
12.0795135549
 30
0.0
 10
14.869728522
 20
12.070506431
 30
0.0
 10
14.8987049053
 20
12.0561147562
 30
0.0
 10
14.9349137781
 20
12.038117477
 30
0.0
 10
14.9711284475
 20
12.020126286
 30
0.0
 10
15.0000955561
 20
12.0057248699
 30
0.0
 10
15.0182086678
 20
11.996742099
 30
0.0
 10
15.0326795089
 20
11.9895145242
 30
0.0
 10
15.0417685708
 20
11.985091628
 30
0.0
 10
15.0489372454
 20
11.9813372393
 30
0.0
 10
15.0564803908
 20
11.9783716672
 30
0.0
 10
15.0698548523
 20
11.9735483542
 30
0.0
 10
15.0888704671
 20
11.9664667238
 30
0.0
 10
15.1193461524
 20
11.9552429239
 30
0.0
 10
15.1574235316
 20
11.9411768415
 30
0.0
 10
15.1955064436
 20
11.9271225782
 30
0.0
 10
15.2259732765
 20
11.9158798677
 30
0.0
 10
15.2488185717
 20
11.907438643
 30
0.0
 10
15.2678722062
 20
11.9004346366
 30
0.0
 10
15.2811784973
 20
11.8954721239
 30
0.0
 10
15.2888309023
 20
11.892729655
 30
0.0
 10
15.2944327053
 20
11.8904101047
 30
0.0
 10
15.3005601063
 20
11.8890947228
 30
0.0
 10
15.3085466398
 20
11.8869906153
 30
0.0
 10
15.3226084924
 20
11.8834716192
 30
0.0
 10
15.3426521949
 20
11.8783591877
 30
0.0
 10
15.3667237546
 20
11.8722606713
 30
0.0
 10
15.3988124832
 20
11.8641171364
 30
0.0
 10
15.4389257351
 20
11.8539380622
 30
0.0
 10
15.4790379774
 20
11.8437728347
 30
0.0
 10
15.5111283213
 20
11.8356071452
 30
0.0
 10
15.5311839161
 20
11.8305804347
 30
0.0
 10
15.5452245394
 20
11.8269076916
 30
0.0
 10
15.5532450875
 20
11.8250500061
 30
0.0
 10
15.561255597
 20
11.8241002985
 30
0.0
 10
15.5712721712
 20
11.8226022735
 30
0.0
 10
15.5872967677
 20
11.8203791772
 30
0.0
 10
15.6073281807
 20
11.8175407903
 30
0.0
 10
15.6393780148
 20
11.8130327899
 30
0.0
 10
15.6794408383
 20
11.8073852158
 30
0.0
 10
15.7195020717
 20
11.8017461629
 30
0.0
 10
15.75155445
 20
11.7972245285
 30
0.0
 10
15.7715795024
 20
11.7944202266
 30
0.0
 10
15.7876171381
 20
11.792127256
 30
0.0
 10
15.7976005181
 20
11.7908071124
 30
0.0
 10
15.8056791652
 20
11.7894922684
 30
0.0
 10
15.8134221537
 20
11.7891219708
 30
0.0
 10
15.826816456
 20
11.788912732
 30
0.0
 10
15.8460325288
 20
11.7883848848
 30
0.0
 10
15.8767327793
 20
11.7876682712
 30
0.0
 10
15.9151236667
 20
11.7867286779
 30
0.0
 10
15.9765403431
 20
11.7852499329
 30
0.0
 10
16.0226048177
 20
11.7841353382
 30
0.0
 10
16.0533140302
 20
11.7833935053
 30
0.0
  0
SPLINE
  5
2E4
100
AcDbEntity
  8
0
100
AcDbSpline
 62
7
  6
CONTINUOUS
 70
0
 71
3
 72
23
 73
19
 74
0
 42
0.0000001
 43
0.0000001
 44
0.0000000001
 40
0.0
 40
0.0
 40
0.0
 40
0.0
 40
0.0459349896
 40
0.0926785116
 40
0.1406861804
 40
0.1904303315
 40
0.2423833899
 40
0.2969242072
 40
0.3542589156
 40
0.4145328135
 40
0.4778110092
 40
0.544106163
 40
0.6133715288
 40
0.6855135348
 40
0.7604139366
 40
0.8379309866
 40
0.9178785631
 40
1.0
 40
1.0
 40
1.0
 40
1.0
 10
13.7642943698
 20
11.7922279939
 30
0.0
 10
13.7691590572
 20
11.807970128
 30
0.0
 10
13.7808822263
 20
11.8391756925
 30
0.0
 10
13.8040978465
 20
11.8841033942
 30
0.0
 10
13.8330549417
 20
11.9272225925
 30
0.0
 10
13.8677578323
 20
11.9683337047
 30
0.0
 10
13.9081996098
 20
12.0072641641
 30
0.0
 10
13.9543147832
 20
12.0438216961
 30
0.0
 10
14.0059780079
 20
12.0777805814
 30
0.0
 10
14.0630138857
 20
12.1088537004
 30
0.0
 10
14.1251619046
 20
12.1368368637
 30
0.0
 10
14.1921413228
 20
12.1615020671
 30
0.0
 10
14.2636197592
 20
12.1826810804
 30
0.0
 10
14.3392460276
 20
12.2002152038
 30
0.0
 10
14.4186506694
 20
12.2139743884
 30
0.0
 10
14.5014466358
 20
12.2238670875
 30
0.0
 10
14.5872112982
 20
12.2298094755
 30
0.0
 10
14.6453542553
 20
12.2311030243
 30
0.0
 10
14.6748108008
 20
12.2311030243
 30
0.0
  0
SPLINE
  5
2E5
100
AcDbEntity
  8
0
100
AcDbSpline
 62
7
  6
CONTINUOUS
 70
0
 71
3
 72
14
 73
10
 74
0
 42
0.0000001
 43
0.0000001
 44
0.0000000001
 40
0.0
 40
0.0
 40
0.0
 40
0.0
 40
0.1134641664
 40
0.2302417915
 40
0.4736825213
 40
0.6004046011
 40
0.730409655
 40
0.8636401512
 40
1.0
 40
1.0
 40
1.0
 40
1.0
 10
12.8653179805
 20
12.2108654839
 30
0.0
 10
12.8790012429
 20
12.1829819268
 30
0.0
 10
12.9084308145
 20
12.1272014793
 30
0.0
 10
12.9751018517
 20
12.0159324999
 30
0.0
 10
13.0524728308
 20
11.9070752401
 30
0.0
 10
13.139225779
 20
11.8011130862
 30
0.0
 10
13.2104222511
 20
11.7215264886
 30
0.0
 10
13.2867036574
 20
11.643087998
 30
0.0
 10
13.340226138
 20
11.5922470823
 30
0.0
 10
13.3677674844
 20
11.5670514514
 30
0.0
  0
SPLINE
  5
2E6
100
AcDbEntity
  8
0
100
AcDbSpline
 62
7
  6
CONTINUOUS
 70
0
 71
3
 72
22
 73
18
 74
0
 42
0.0000001
 43
0.0000001
 44
0.0000000001
 40
0.0
 40
0.0
 40
0.0
 40
0.0
 40
0.0769301711
 40
0.1518349638
 40
0.2246505341
 40
0.2953337639
 40
0.4301991625
 40
0.4944784665
 40
0.5567130603
 40
0.617000287
 40
0.6754738136
 40
0.7322999783
 40
0.7876842881
 40
0.8418644289
 40
0.8951101849
 40
0.9477174173
 40
1.0
 40
1.0
 40
1.0
 40
1.0
 10
16.7069399947
 20
10.533119869
 30
0.0
 10
16.7491710383
 20
10.5390689397
 30
0.0
 10
16.8322833715
 20
10.5525972313
 30
0.0
 10
16.9542081725
 20
10.5781902006
 30
0.0
 10
17.0714229912
 20
10.6087510512
 30
0.0
 10
17.2186061302
 20
10.6552698428
 30
0.0
 10
17.3575583819
 20
10.7117352465
 30
0.0
 10
17.486183029
 20
10.7786401208
 30
0.0
 10
17.5747894093
 20
10.8323999909
 30
0.0
 10
17.6567846626
 20
10.890383458
 30
0.0
 10
17.7319284604
 20
10.9524104785
 30
0.0
 10
17.7999727496
 20
11.0183137908
 30
0.0
 10
17.8607123726
 20
11.087885854
 30
0.0
 10
17.9139462068
 20
11.1609230983
 30
0.0
 10
17.9594954755
 20
11.2372063566
 30
0.0
 10
17.9972194287
 20
11.3164804553
 30
0.0
 10
18.0170838507
 20
11.3712437782
 30
0.0
 10
18.0256408707
 20
11.3989358814
 30
0.0
  0
SPLINE
  5
2E7
100
AcDbEntity
  8
0
100
AcDbSpline
 62
7
  6
CONTINUOUS
 70
0
 71
3
 72
35
 73
31
 74
0
 42
0.0000001
 43
0.0000001
 44
0.0000000001
 40
0.0
 40
0.0
 40
0.0
 40
0.0
 40
0.0350711338
 40
0.0708759846
 40
0.1442015729
 40
0.2191436649
 40
0.2948495525
 40
0.3327157226
 40
0.3704383844
 40
0.4079076362
 40
0.4450149593
 40
0.4816536027
 40
0.5177208482
 40
0.587731988
 40
0.6543296066
 40
0.6861577298
 40
0.7169081979
 40
0.7465261307
 40
0.7749683461
 40
0.8022052702
 40
0.8282287523
 40
0.8530459345
 40
0.8650147907
 40
0.8766976084
 40
0.8992303488
 40
0.9207434809
 40
0.9413978732
 40
0.9613733127
 40
0.9808485878
 40
1.0
 40
1.0
 40
1.0
 40
1.0
 10
14.6748108008
 20
12.2311030243
 30
0.0
 10
14.703917479
 20
12.2311030243
 30
0.0
 10
14.7627473523
 20
12.2298095047
 30
0.0
 10
14.8822103294
 20
12.2222160217
 30
0.0
 10
15.0339745493
 20
12.2032783413
 30
0.0
 10
15.2163078702
 20
12.166300717
 30
0.0
 10
15.3670862313
 20
12.1239667591
 30
0.0
 10
15.4859511758
 20
12.0834293742
 30
0.0
 10
15.5736053042
 20
12.0498859717
 30
0.0
 10
15.6593682704
 20
12.0133464902
 30
0.0
 10
15.7428787767
 20
11.9739818097
 30
0.0
 10
15.8237742443
 20
11.9319523715
 30
0.0
 10
15.9266559508
 20
11.8732097886
 30
0.0
 10
16.0467153176
 20
11.7946340771
 30
0.0
 10
16.1566404481
 20
11.7079135193
 30
0.0
 10
16.2356411541
 20
11.6353795113
 30
0.0
 10
16.2892440326
 20
11.5807222123
 30
0.0
 10
16.3378608816
 20
11.5252688131
 30
0.0
 10
16.3813000055
 20
11.4693152358
 30
0.0
 10
16.4193714362
 20
11.4131428034
 30
0.0
 10
16.4519595476
 20
11.3570717355
 30
0.0
 10
16.474719101
 20
11.3101098669
 30
0.0
 10
16.4900060071
 20
11.2728903493
 30
0.0
 10
16.5030704225
 20
11.2368458419
 30
0.0
 10
16.5160123939
 20
11.1923718226
 30
0.0
 10
16.5261188453
 20
11.1395494462
 30
0.0
 10
16.5306811896
 20
11.0880845349
 30
0.0
 10
16.5297816734
 20
11.0381098631
 30
0.0
 10
16.5235293205
 20
10.9897796997
 30
0.0
 10
16.5158220715
 20
10.9585776246
 30
0.0
 10
16.511129297
 20
10.9433918009
 30
0.0
  0
SPLINE
  5
2E8
100
AcDbEntity
  8
0
100
AcDbSpline
 62
7
  6
CONTINUOUS
 70
0
 71
3
 72
9
 73
5
 74
0
 42
0.0000001
 43
0.0000001
 44
0.0000000001
 40
0.0
 40
0.0
 40
0.0
 40
0.0
 40
0.2556600997
 40
1.0
 40
1.0
 40
1.0
 40
1.0
 10
17.9576294516
 20
12.2965418646
 30
0.0
 10
17.9648941401
 20
12.2817379859
 30
0.0
 10
17.9924062979
 20
12.2233972173
 30
0.0
 10
18.0162171737
 20
12.1632902562
 30
0.0
 10
18.0314666242
 20
12.1177658231
 30
0.0
  0
SPLINE
  5
2E9
100
AcDbEntity
  8
0
100
AcDbSpline
 62
7
  6
CONTINUOUS
 70
0
 71
3
 72
15
 73
11
 74
0
 42
0.0000001
 43
0.0000001
 44
0.0000000001
 40
0.0
 40
0.0
 40
0.0
 40
0.0
 40
0.1340067449
 40
0.2645952118
 40
0.3921298175
 40
0.5170267489
 40
0.6397470064
 40
0.7607884287
 40
0.8806841455
 40
1.0
 40
1.0
 40
1.0
 40
1.0
 10
18.0314666242
 20
12.1177658231
 30
0.0
 10
18.0406019443
 20
12.0904940028
 30
0.0
 10
18.0569006098
 20
12.0360414559
 30
0.0
 10
18.0754007423
 20
11.9538695315
 30
0.0
 10
18.0875912728
 20
11.8724952163
 30
0.0
 10
18.0934295634
 20
11.7921089253
 30
0.0
 10
18.0928997544
 20
11.7129023077
 30
0.0
 10
18.0860068345
 20
11.6350665782
 30
0.0
 10
18.0727492474
 20
11.5588035263
 30
0.0
 10
18.0596772866
 20
11.5090789357
 30
0.0
 10
18.0521169619
 20
11.4846122352
 30
0.0
  0
SPLINE
  5
2EA
100
AcDbEntity
  8
0
100
AcDbSpline
 62
7
  6
CONTINUOUS
 70
0
 71
3
 72
28
 73
24
 74
0
 42
0.0000001
 43
0.0000001
 44
0.0000000001
 40
0.0
 40
0.0
 40
0.0
 40
0.0
 40
0.0317470155
 40
0.0639785512
 40
0.1296559206
 40
0.1966288103
 40
0.2644972877
 40
0.332824685
 40
0.4011700378
 40
0.4690924058
 40
0.536158256
 40
0.6019509717
 40
0.6660800446
 40
0.7281903718
 40
0.7583946183
 40
0.7879831599
 40
0.8169259722
 40
0.8451980525
 40
0.8727781287
 40
0.8996517025
 40
0.9512449434
 40
0.9759786335
 40
1.0
 40
1.0
 40
1.0
 40
1.0
 10
14.5858465849
 20
14.0059692774
 30
0.0
 10
14.6276039542
 20
14.0059692774
 30
0.0
 10
14.7117626111
 20
14.0045619446
 30
0.0
 10
14.8821210576
 20
13.9962484134
 30
0.0
 10
15.0981459351
 20
13.9754847613
 30
0.0
 10
15.3588589942
 20
13.9346552721
 30
0.0
 10
15.6201989316
 20
13.878158727
 30
0.0
 10
15.8796696562
 20
13.8065237149
 30
0.0
 10
16.1347866675
 20
13.7204411555
 30
0.0
 10
16.3831098317
 20
13.6207358361
 30
0.0
 10
16.6222630618
 20
13.5083600942
 30
0.0
 10
16.849961234
 20
13.3843847014
 30
0.0
 10
17.0640217984
 20
13.2499990596
 30
0.0
 10
17.230887237
 20
13.1292889061
 30
0.0
 10
17.3556216161
 20
13.0284909394
 30
0.0
 10
17.4436680475
 20
12.9518299967
 30
0.0
 10
17.5268559833
 20
12.8735857102
 30
0.0
 10
17.6049911971
 20
12.7939548428
 30
0.0
 10
17.6778878058
 20
12.7131214386
 30
0.0
 10
17.7666378986
 20
12.6054751854
 30
0.0
 10
17.8457170658
 20
12.4948183668
 30
0.0
 10
17.9137375954
 20
12.3816477306
 30
0.0
 10
17.9437101978
 20
12.3249063217
 30
0.0
 10
17.9576294516
 20
12.2965418646
 30
0.0
  0
SPLINE
  5
2EB
100
AcDbEntity
  8
0
100
AcDbSpline
 62
7
  6
CONTINUOUS
 70
0
 71
3
 72
15
 73
11
 74
0
 42
0.0000001
 43
0.0000001
 44
0.0000000001
 40
0.0
 40
0.0
 40
0.0
 40
0.0
 40
0.1372767117
 40
0.2700737027
 40
0.3987028346
 40
0.5236603407
 40
0.6455579505
 40
0.7650741336
 40
0.8829589169
 40
1.0
 40
1.0
 40
1.0
 40
1.0
 10
13.4510076757
 20
11.3119994287
 30
0.0
 10
13.4396796506
 20
11.3350835167
 30
0.0
 10
13.4190360022
 20
11.3813317108
 30
0.0
 10
13.3940656699
 20
11.4518018353
 30
0.0
 10
13.3757653764
 20
11.5219223374
 30
0.0
 10
13.3642352798
 20
11.5914083173
 30
0.0
 10
13.3595635482
 20
11.6599869481
 30
0.0
 10
13.3617907204
 20
11.7273729437
 30
0.0
 10
13.3709514519
 20
11.7932500667
 30
0.0
 10
13.3816707785
 20
11.8360334486
 30
0.0
 10
13.3881436008
 20
11.8569795094
 30
0.0
  0
SPLINE
  5
2EC
100
AcDbEntity
  8
0
100
AcDbSpline
 62
7
  6
CONTINUOUS
 70
0
 71
3
 72
44
 73
40
 74
0
 42
0.0000001
 43
0.0000001
 44
0.0000000001
 40
0.0
 40
0.0
 40
0.0
 40
0.0
 40
0.0108995523
 40
0.0218355023
 40
0.0328405476
 40
0.0439462595
 40
0.0665702519
 40
0.0899499094
 40
0.1019891254
 40
0.1142846786
 40
0.1268533818
 40
0.1397094326
 40
0.1528640299
 40
0.1663256145
 40
0.1941860842
 40
0.2233180493
 40
0.2537063819
 40
0.2853051091
 40
0.3180422983
 40
0.3518226694
 40
0.3865328226
 40
0.4220424863
 40
0.4582096201
 40
0.4948810604
 40
0.5318970462
 40
0.5690921441
 40
0.6062988454
 40
0.6433491915
 40
0.6800775722
 40
0.7163230458
 40
0.7519317268
 40
0.7867593015
 40
0.8206744529
 40
0.8535611615
 40
0.8853211855
 40
0.9158764398
 40
0.9451829575
 40
0.9732264828
 40
1.0
 40
1.0
 40
1.0
 40
1.0
 10
16.8582321072
 20
10.7846410562
 30
0.0
 10
16.8539343291
 20
10.7707334414
 30
0.0
 10
16.8443167975
 20
10.7431718623
 30
0.0
 10
16.8269305329
 20
10.7028680781
 30
0.0
 10
16.8066123783
 20
10.6636459942
 30
0.0
 10
16.7754854591
 20
10.6126031426
 30
0.0
 10
16.7291403936
 20
10.5517230464
 30
0.0
 10
16.6745432134
 20
10.4964077711
 30
0.0
 10
16.6259444054
 20
10.4551478738
 30
0.0
 10
16.5866090033
 20
10.4254091788
 30
0.0
 10
16.5448219138
 20
10.3972326574
 30
0.0
 10
16.5006525006
 20
10.3706625432
 30
0.0
 10
16.4541791065
 20
10.3457351529
 30
0.0
 10
16.3885048261
 20
10.3143767534
 30
0.0
 10
16.3009258925
 20
10.2796315008
 30
0.0
 10
16.1892113872
 20
10.2455046202
 30
0.0
 10
16.0704111393
 20
10.2186629148
 30
0.0
 10
15.9453115805
 20
10.1992529774
 30
0.0
 10
15.8147314865
 20
10.187392988
 30
0.0
 10
15.6795330667
 20
10.1831368988
 30
0.0
 10
15.5406119881
 20
10.1865183126
 30
0.0
 10
15.398891027
 20
10.1974925782
 30
0.0
 10
15.2553177879
 20
10.215999557
 30
0.0
 10
15.1108498283
 20
10.2418944742
 30
0.0
 10
14.9664592518
 20
10.2750200746
 30
0.0
 10
14.82311082
 20
10.3151352795
 30
0.0
 10
14.6817722498
 20
10.3619868515
 30
0.0
 10
14.5433881182
 20
10.4152452375
 30
0.0
 10
14.4088928209
 20
10.4745667295
 30
0.0
 10
14.2791845574
 20
10.5395445556
 30
0.0
 10
14.1551368977
 20
10.6097540701
 30
0.0
 10
14.0375768845
 20
10.6847241626
 30
0.0
 10
13.9272910589
 20
10.7639641564
 30
0.0
 10
13.8250167542
 20
10.8469572889
 30
0.0
 10
13.7314345922
 20
10.9331590731
 30
0.0
 10
13.647168302
 20
11.0220198069
 30
0.0
 10
13.5727731796
 20
11.1129897293
 30
0.0
 10
13.5087883317
 20
11.2054871273
 30
0.0
 10
13.4725263253
 20
11.2692283517
 30
0.0
 10
13.4564102586
 20
11.3011469665
 30
0.0
  0
SPLINE
  5
2ED
100
AcDbEntity
  8
0
100
AcDbSpline
 62
7
  6
CONTINUOUS
 70
0
 71
3
 72
17
 73
13
 74
0
 42
0.0000001
 43
0.0000001
 44
0.0000000001
 40
0.0
 40
0.0
 40
0.0
 40
0.0
 40
0.0386449834
 40
0.0781275457
 40
0.1630019508
 40
0.2100119021
 40
0.2606891998
 40
0.3742555996
 40
0.5052167448
 40
0.6537222007
 40
0.8191097339
 40
1.0
 40
1.0
 40
1.0
 40
1.0
 10
13.8885122617
 20
11.7648886023
 30
0.0
 10
13.8874581148
 20
11.764888799
 30
0.0
 10
13.8853226128
 20
11.7647093977
 30
0.0
 10
13.880997019
 20
11.763608694
 30
0.0
 10
13.8768043324
 20
11.7613852595
 30
0.0
 10
13.8728708942
 20
11.7583251302
 30
0.0
 10
13.8686982468
 20
11.7543361879
 30
0.0
 10
13.863655575
 20
11.7480153309
 30
0.0
 10
13.8580491008
 20
11.7388560661
 30
0.0
 10
13.8527027021
 20
11.7279467789
 30
0.0
 10
13.8476624884
 20
11.715416885
 30
0.0
 10
13.8446631004
 20
11.7064542578
 30
0.0
 10
13.843211739
 20
11.7017382633
 30
0.0
  0
SPLINE
  5
2EE
100
AcDbEntity
  8
0
100
AcDbSpline
 62
7
  6
CONTINUOUS
 70
0
 71
3
 72
15
 73
11
 74
0
 42
0.0000001
 43
0.0000001
 44
0.0000000001
 40
0.0
 40
0.0
 40
0.0
 40
0.0
 40
0.1145878637
 40
0.2381457734
 40
0.3677437802
 40
0.5002687443
 40
0.6326236822
 40
0.7618191683
 40
0.8850663035
 40
1.0
 40
1.0
 40
1.0
 40
1.0
 10
13.843211739
 20
11.7017382633
 30
0.0
 10
13.8409165861
 20
11.6942804873
 30
0.0
 10
13.8367386953
 20
11.6785959163
 30
0.0
 10
13.8317892318
 20
11.6540349249
 30
0.0
 10
13.8280628119
 20
11.6280232147
 30
0.0
 10
13.825745163
 20
11.6012465887
 30
0.0
 10
13.8249983127
 20
11.5744055941
 30
0.0
 10
13.8259570723
 20
11.5481987903
 30
0.0
 10
13.8287051348
 20
11.5233098024
 30
0.0
 10
13.8318740661
 20
11.5073723148
 30
0.0
 10
13.833821811
 20
11.4997920436
 30
0.0
  0
SPLINE
  5
2EF
100
AcDbEntity
  8
0
100
AcDbSpline
 62
7
  6
CONTINUOUS
 70
0
 71
3
 72
9
 73
5
 74
0
 42
0.0000001
 43
0.0000001
 44
0.0000000001
 40
0.0
 40
0.0
 40
0.0
 40
0.0
 40
0.5227449018
 40
1.0
 40
1.0
 40
1.0
 40
1.0
 10
13.833821811
 20
11.4997920436
 30
0.0
 10
13.8352486465
 20
11.4942390577
 30
0.0
 10
13.8384125833
 20
11.4837211595
 30
0.0
 10
13.8426072138
 20
11.4735581954
 30
0.0
 10
13.8449132102
 20
11.4688590688
 30
0.0
  0
SPLINE
  5
2F0
100
AcDbEntity
  8
0
100
AcDbSpline
 62
7
  6
CONTINUOUS
 70
0
 71
3
 72
15
 73
11
 74
0
 42
0.0000001
 43
0.0000001
 44
0.0000000001
 40
0.0
 40
0.0
 40
0.0
 40
0.0
 40
0.1322578619
 40
0.259868217
 40
0.3835530569
 40
0.5050807548
 40
0.6261822932
 40
0.74842427
 40
0.8729666394
 40
1.0
 40
1.0
 40
1.0
 40
1.0
 10
14.9167350477
 20
14.4688526411
 30
0.0
 10
14.9189267172
 20
14.4701204855
 30
0.0
 10
14.9230771827
 20
14.4729011511
 30
0.0
 10
14.9284750776
 20
14.4779293405
 30
0.0
 10
14.9327538079
 20
14.4837013998
 30
0.0
 10
14.9356805505
 20
14.4901323194
 30
0.0
 10
14.9371927906
 20
14.4970059652
 30
0.0
 10
14.9372121814
 20
14.5040996679
 30
0.0
 10
14.9358319863
 20
14.5111622759
 30
0.0
 10
14.9340688347
 20
14.5156747076
 30
0.0
 10
14.9329977357
 20
14.5178580784
 30
0.0
  0
SPLINE
  5
2F1
100
AcDbEntity
  8
0
100
AcDbSpline
 62
7
  6
CONTINUOUS
 70
0
 71
3
 72
15
 73
11
 74
0
 42
0.0000001
 43
0.0000001
 44
0.0000000001
 40
0.0
 40
0.0
 40
0.0
 40
0.0
 40
0.1381070722
 40
0.2714835812
 40
0.4004253211
 40
0.5254218105
 40
0.6471122617
 40
0.7662267154
 40
0.8835672732
 40
1.0
 40
1.0
 40
1.0
 40
1.0
 10
17.9629394979
 20
12.8828620565
 30
0.0
 10
17.9787412715
 20
12.8506614273
 30
0.0
 10
18.0075164999
 20
12.7862029874
 30
0.0
 10
18.042305265
 20
12.6880775853
 30
0.0
 10
18.0677666269
 20
12.590625126
 30
0.0
 10
18.0837810368
 20
12.4942466781
 30
0.0
 10
18.0902766438
 20
12.3993090435
 30
0.0
 10
18.0872072971
 20
12.3061754815
 30
0.0
 10
18.0745906629
 20
12.2152303438
 30
0.0
 10
18.0597943064
 20
12.1562014782
 30
0.0
 10
18.0508658794
 20
12.1273099483
 30
0.0
  0
SPLINE
  5
2F2
100
AcDbEntity
  8
0
100
AcDbSpline
 62
7
  6
CONTINUOUS
 70
0
 71
3
 72
18
 73
14
 74
0
 42
0.0000001
 43
0.0000001
 44
0.0000000001
 40
0.0
 40
0.0
 40
0.0
 40
0.0
 40
0.1202889019
 40
0.2446920863
 40
0.3080448173
 40
0.3719254681
 40
0.4361554016
 40
0.500551558
 40
0.5649298808
 40
0.6291068643
 40
0.7561069225
 40
0.8801692593
 40
1.0
 40
1.0
 40
1.0
 40
1.0
 10
16.981007229
 20
14.2948800122
 30
0.0
 10
16.9207039782
 20
14.3375451232
 30
0.0
 10
16.7940102652
 20
14.4187508592
 30
0.0
 10
16.6266777975
 20
14.5074294634
 30
0.0
 10
16.4861166229
 20
14.5717135989
 30
0.0
 10
16.3773610656
 20
14.6164800624
 30
0.0
 10
16.2663839751
 20
14.6573030948
 30
0.0
 10
16.1536613599
 20
14.694022933
 30
0.0
 10
16.0396669981
 20
14.7264698075
 30
0.0
 10
15.8871858819
 20
14.7637285654
 30
0.0
 10
15.696615909
 20
14.7989771565
 30
0.0
 10
15.4698645185
 20
14.8227371471
 30
0.0
 10
15.3198957696
 20
14.82591377
 30
0.0
 10
15.2463300491
 20
14.8240726903
 30
0.0
  0
SPLINE
  5
2F3
100
AcDbEntity
  8
0
100
AcDbSpline
 62
7
  6
CONTINUOUS
 70
0
 71
3
 72
23
 73
19
 74
0
 42
0.0000001
 43
0.0000001
 44
0.0000000001
 40
0.0
 40
0.0
 40
0.0
 40
0.0
 40
0.0514325678
 40
0.1036403706
 40
0.1571939285
 40
0.2126248149
 40
0.2702957648
 40
0.330365193
 40
0.3928182177
 40
0.4574659254
 40
0.5239957099
 40
0.5919745808
 40
0.6608985282
 40
0.7301967389
 40
0.7992851899
 40
0.8676394164
 40
0.9347480548
 40
1.0
 40
1.0
 40
1.0
 40
1.0
 10
14.5046167052
 20
12.6577129983
 30
0.0
 10
14.5021929508
 20
12.6626520904
 30
0.0
 10
14.4982395973
 20
12.6730898421
 30
0.0
 10
14.4952215469
 20
12.6897196374
 30
0.0
 10
14.4951659341
 20
12.7070467583
 30
0.0
 10
14.4980122726
 20
12.7247186973
 30
0.0
 10
14.503688774
 20
12.742418636
 30
0.0
 10
14.5120459055
 20
12.7598494098
 30
0.0
 10
14.5229364579
 20
12.7767082562
 30
0.0
 10
14.5361394823
 20
12.7927238646
 30
0.0
 10
14.5514317736
 20
12.807613308
 30
0.0
 10
14.5685284048
 20
12.8211364424
 30
0.0
 10
14.5871385425
 20
12.8330428336
 30
0.0
 10
14.6069200349
 20
12.8431432918
 30
0.0
 10
14.6275353413
 20
12.8512452853
 30
0.0
 10
14.6486243587
 20
12.8572173682
 30
0.0
 10
14.6698085367
 20
12.8609293982
 30
0.0
 10
14.683968891
 20
12.8618857544
 30
0.0
 10
14.6909485934
 20
12.8619509355
 30
0.0
  0
SPLINE
  5
2F4
100
AcDbEntity
  8
0
100
AcDbSpline
 62
7
  6
CONTINUOUS
 70
0
 71
3
 72
15
 73
11
 74
0
 42
0.0000001
 43
0.0000001
 44
0.0000000001
 40
0.0
 40
0.0
 40
0.0
 40
0.0
 40
0.1398100285
 40
0.275165325
 40
0.4055910777
 40
0.531247375
 40
0.6526504076
 40
0.7705592836
 40
0.8859852024
 40
1.0
 40
1.0
 40
1.0
 40
1.0
 10
14.6926128377
 20
12.8619587204
 30
0.0
 10
14.6987190776
 20
12.8619587204
 30
0.0
 10
14.7107478935
 20
12.8613401765
 30
0.0
 10
14.7282686024
 20
12.8584848141
 30
0.0
 10
14.7447334693
 20
12.8537185831
 30
0.0
 10
14.7598911701
 20
12.8471069652
 30
0.0
 10
14.7735109947
 20
12.8387178494
 30
0.0
 10
14.7853831432
 20
12.8286638924
 30
0.0
 10
14.7952790274
 20
12.8170800701
 30
0.0
 10
14.8004698761
 20
12.8084435458
 30
0.0
 10
14.8026636141
 20
12.8039731777
 30
0.0
  0
SPLINE
  5
2F5
100
AcDbEntity
  8
0
100
AcDbSpline
 62
7
  6
CONTINUOUS
 70
0
 71
3
 72
15
 73
11
 74
0
 42
0.0000001
 43
0.0000001
 44
0.0000000001
 40
0.0
 40
0.0
 40
0.0
 40
0.0
 40
0.1369334972
 40
0.2694982226
 40
0.3980067712
 40
0.5229500665
 40
0.6449315784
 40
0.7646069549
 40
0.882703422
 40
1.0
 40
1.0
 40
1.0
 40
1.0
 10
13.0139875408
 20
12.1021820223
 30
0.0
 10
12.9979571545
 20
12.134848515
 30
0.0
 10
12.968735414
 20
12.2003199908
 30
0.0
 10
12.9333800795
 20
12.3001208971
 30
0.0
 10
12.9074521133
 20
12.399505681
 30
0.0
 10
12.8911080208
 20
12.4980708788
 30
0.0
 10
12.8844884336
 20
12.5954218917
 30
0.0
 10
12.8876599732
 20
12.691140021
 30
0.0
 10
12.900684198
 20
12.7847613074
 30
0.0
 10
12.9159230418
 20
12.8455764048
 30
0.0
 10
12.9251257924
 20
12.8753565166
 30
0.0
  0
SPLINE
  5
2F6
100
AcDbEntity
  8
0
100
AcDbSpline
 62
7
  6
CONTINUOUS
 70
0
 71
3
 72
21
 73
17
 74
0
 42
0.0000001
 43
0.0000001
 44
0.0000000001
 40
0.0
 40
0.0
 40
0.0
 40
0.0
 40
0.0542056931
 40
0.1086558405
 40
0.1635890707
 40
0.2192361591
 40
0.2758146167
 40
0.3335201564
 40
0.3925305844
 40
0.4530018693
 40
0.5787632306
 40
0.7116365342
 40
0.78089674
 40
0.8520497407
 40
0.9250924409
 40
1.0
 40
1.0
 40
1.0
 40
1.0
 10
17.8150652154
 20
11.3642509447
 30
0.0
 10
17.8075975266
 20
11.340085495
 30
0.0
 10
17.7904871706
 20
11.2922783961
 30
0.0
 10
17.7585649589
 20
11.2228414583
 30
0.0
 10
17.7204647292
 20
11.1558138583
 30
0.0
 10
17.6763137338
 20
11.0914074011
 30
0.0
 10
17.6262827819
 20
11.0297845954
 30
0.0
 10
17.5705270159
 20
10.9711124253
 30
0.0
 10
17.5092213895
 20
10.9155295668
 30
0.0
 10
17.4191746735
 20
10.8447832307
 30
0.0
 10
17.2929988668
 20
10.7649049895
 30
0.0
 10
17.154638429
 20
10.6988348787
 30
0.0
 10
17.0355872033
 20
10.6530237947
 30
0.0
 10
16.9409186898
 20
10.621932089
 30
0.0
 10
16.8423534699
 20
10.5946553827
 30
0.0
 10
16.7750357837
 20
10.5792351505
 30
0.0
 10
16.7408087784
 20
10.5721496457
 30
0.0
  0
SPLINE
  5
2F7
100
AcDbEntity
  8
0
100
AcDbSpline
 62
7
  6
CONTINUOUS
 70
0
 71
3
 72
11
 73
7
 74
0
 42
0.0000001
 43
0.0000001
 44
0.0000000001
 40
0.0
 40
0.0
 40
0.0
 40
0.0
 40
0.2645902162
 40
0.5194648341
 40
0.7646014668
 40
1.0
 40
1.0
 40
1.0
 40
1.0
 10
13.3616183607
 20
11.6190246571
 30
0.0
 10
13.3266032556
 20
11.6554844734
 30
0.0
 10
13.2600226417
 20
11.7291902291
 30
0.0
 10
13.1695065545
 20
11.8439943617
 30
0.0
 10
13.0906875743
 20
11.9604588636
 30
0.0
 10
13.0453190233
 20
12.0404158819
 30
0.0
 10
13.0248614107
 20
12.0804671996
 30
0.0
  0
SPLINE
  5
2F8
100
AcDbEntity
  8
0
100
AcDbSpline
 62
7
  6
CONTINUOUS
 70
0
 71
3
 72
48
 73
44
 74
0
 42
0.0000001
 43
0.0000001
 44
0.0000000001
 40
0.0
 40
0.0
 40
0.0
 40
0.0
 40
0.0103664965
 40
0.0207886499
 40
0.0313004821
 40
0.0419352582
 40
0.0527270548
 40
0.0637108822
 40
0.0749198108
 40
0.0863841634
 40
0.098127499
 40
0.1101686373
 40
0.1351988626
 40
0.1482191364
 40
0.1615832029
 40
0.1893518764
 40
0.2185134069
 40
0.2490350018
 40
0.2808525126
 40
0.2972227963
 40
0.3138819841
 40
0.348005763
 40
0.3831007921
 40
0.4190255965
 40
0.455626837
 40
0.4927425248
 40
0.5302034422
 40
0.5678364816
 40
0.605465965
 40
0.6429166338
 40
0.6800150451
 40
0.7165927979
 40
0.7524875768
 40
0.7875470172
 40
0.8216296179
 40
0.8546096938
 40
0.870653382
 40
0.8863822716
 40
0.9168498347
 40
0.9315785748
 40
0.9459627801
 40
0.9736810085
 40
1.0
 40
1.0
 40
1.0
 40
1.0
 10
13.2800885215
 20
12.7656647369
 30
0.0
 10
13.2850160083
 20
12.7816100898
 30
0.0
 10
13.296067718
 20
12.8132378959
 30
0.0
 10
13.316102963
 20
12.8595204497
 30
0.0
 10
13.3395947043
 20
12.9046377901
 30
0.0
 10
13.3665140426
 20
12.9484955249
 30
0.0
 10
13.3968301264
 20
12.9910128925
 30
0.0
 10
13.4305017191
 20
13.032124824
 30
0.0
 10
13.4674921977
 20
13.0717698416
 30
0.0
 10
13.5077588345
 20
13.1098806826
 30
0.0
 10
13.5512439967
 20
13.146393195
 30
0.0
 10
13.6142269622
 20
13.1934523685
 30
0.0
 10
13.6827352862
 20
13.2363247972
 30
0.0
 10
13.7559324727
 20
13.275017979
 30
0.0
 10
13.8348593375
 20
13.3121203136
 30
0.0
 10
13.9404473253
 20
13.3532603917
 30
0.0
 10
14.0754653315
 20
13.3936410407
 30
0.0
 10
14.2194564095
 20
13.4253103356
 30
0.0
 10
14.3448739037
 20
13.444074366
 30
0.0
 10
14.448748564
 20
13.4546592902
 30
0.0
 10
14.556602595
 20
13.4623384421
 30
0.0
 10
14.6948948732
 20
13.4659986025
 30
0.0
 10
14.8641774369
 20
13.4610787454
 30
0.0
 10
15.0369366443
 20
13.4468955297
 30
0.0
 10
15.2119756976
 20
13.42355315
 30
0.0
 10
15.3880860119
 20
13.3911914396
 30
0.0
 10
15.5640578964
 20
13.3500461259
 30
0.0
 10
15.7386776994
 20
13.3003839204
 30
0.0
 10
15.9107481828
 20
13.2425555091
 30
0.0
 10
16.079085733
 20
13.1769544739
 30
0.0
 10
16.2425330501
 20
13.1040321241
 30
0.0
 10
16.3999699773
 20
13.0243008698
 30
0.0
 10
16.5503071927
 20
12.9383028942
 30
0.0
 10
16.6925189076
 20
12.8466533132
 30
0.0
 10
16.8256120005
 20
12.749981862
 30
0.0
 10
16.9291094769
 20
12.6650462648
 30
0.0
 10
17.0064430334
 20
12.5951131404
 30
0.0
 10
17.0785252761
 20
12.5254910093
 30
0.0
 10
17.1455981543
 20
12.4537867809
 30
0.0
 10
17.2070840156
 20
12.3801381021
 30
0.0
 10
17.2629572201
 20
12.3076597109
 30
0.0
 10
17.3248934293
 20
12.2164070729
 30
0.0
 10
17.3672060517
 20
12.1402205062
 30
0.0
 10
17.3858726284
 20
12.1021820223
 30
0.0
  0
SPLINE
  5
2F9
100
AcDbEntity
  8
0
100
AcDbSpline
 62
7
  6
CONTINUOUS
 70
0
 71
3
 72
15
 73
11
 74
0
 42
0.0000001
 43
0.0000001
 44
0.0000000001
 40
0.0
 40
0.0
 40
0.0
 40
0.0
 40
0.1389684096
 40
0.272888672
 40
0.4020985444
 40
0.5271227026
 40
0.6486091948
 40
0.7673605769
 40
0.8842252051
 40
1.0
 40
1.0
 40
1.0
 40
1.0
 10
17.3959067934
 20
12.0812399516
 30
0.0
 10
17.408164939
 20
12.0550221703
 30
0.0
 10
17.4304102221
 20
12.0026560061
 30
0.0
 10
17.4570863581
 20
11.9231843715
 30
0.0
 10
17.476352279
 20
11.8445719932
 30
0.0
 10
17.4881882668
 20
11.7671139093
 30
0.0
 10
17.4925806634
 20
11.691053043
 30
0.0
 10
17.4895389611
 20
11.6166171978
 30
0.0
 10
17.4790962313
 20
11.5440596138
 30
0.0
 10
17.467221358
 20
11.4969794019
 30
0.0
 10
17.4601024862
 20
11.4739427244
 30
0.0
  0
SPLINE
  5
2FA
100
AcDbEntity
  8
0
100
AcDbSpline
 62
7
  6
CONTINUOUS
 70
0
 71
3
 72
44
 73
40
 74
0
 42
0.0000001
 43
0.0000001
 44
0.0000000001
 40
0.0
 40
0.0
 40
0.0
 40
0.0
 40
0.0266982046
 40
0.0546468953
 40
0.0838467163
 40
0.1142908975
 40
0.1459368859
 40
0.1787114512
 40
0.2125194337
 40
0.2472478831
 40
0.2827663864
 40
0.3189320043
 40
0.3555916628
 40
0.392584475
 40
0.4297449737
 40
0.4669048565
 40
0.5038962075
 40
0.5405531581
 40
0.5767153216
 40
0.6122292655
 40
0.6469522739
 40
0.6807545084
 40
0.7135218276
 40
0.7451603787
 40
0.7755980372
 40
0.8047907277
 40
0.8327244529
 40
0.8462280804
 40
0.8594281733
 40
0.884947882
 40
0.9093937279
 40
0.9212632773
 40
0.9329230164
 40
0.9443976055
 40
0.9557136897
 40
0.966900441
 40
0.9779889844
 40
0.9890112019
 40
1.0
 40
1.0
 40
1.0
 40
1.0
 10
18.0696955799
 20
13.2489663238
 30
0.0
 10
18.0474853239
 20
13.2942260669
 30
0.0
 10
17.9973290165
 20
13.3846171502
 30
0.0
 10
17.9083768206
 20
13.5158158038
 30
0.0
 10
17.8046264997
 20
13.6448558874
 30
0.0
 10
17.6868301061
 20
13.7709167663
 30
0.0
 10
17.5557796787
 20
13.8932386214
 30
0.0
 10
17.4123406675
 20
14.0110301475
 30
0.0
 10
17.2574834198
 20
14.123544085
 30
0.0
 10
17.0922382902
 20
14.2300405176
 30
0.0
 10
16.917714882
 20
14.3298235193
 30
0.0
 10
16.7350867297
 20
14.4222338643
 30
0.0
 10
16.5455796871
 20
14.5066478986
 30
0.0
 10
16.3504761094
 20
14.5825117884
 30
0.0
 10
16.1510885458
 20
14.6493046259
 30
0.0
 10
15.9487654795
 20
14.706583251
 30
0.0
 10
15.74487224
 20
14.7539598833
 30
0.0
 10
15.5407820879
 20
14.7911066557
 30
0.0
 10
15.3378710561
 20
14.8177810659
 30
0.0
 10
15.1374994879
 20
14.8337858824
 30
0.0
 10
14.9410093874
 20
14.8390154503
 30
0.0
 10
14.7497096602
 20
14.8334198924
 30
0.0
 10
14.5648686063
 20
14.8170155318
 30
0.0
 10
14.3877051287
 20
14.7898978786
 30
0.0
 10
14.2193800873
 20
14.752197049
 30
0.0
 10
14.0610013387
 20
14.7041301741
 30
0.0
 10
13.9367789804
 20
14.6550852143
 30
0.0
 10
13.8435703289
 20
14.6107656675
 30
0.0
 10
13.7565720159
 20
14.5642632421
 30
0.0
 10
13.655571765
 20
14.5003991587
 30
0.0
 10
13.564005098
 20
14.4275003881
 30
0.0
 10
13.498433907
 20
14.3649180676
 30
0.0
 10
13.4534979784
 20
14.3163805313
 30
0.0
 10
13.4124250672
 20
14.2658724462
 30
0.0
 10
13.3752987508
 20
14.2134840136
 30
0.0
 10
13.3422109452
 20
14.1593059167
 30
0.0
 10
13.3132436126
 20
14.1034390273
 30
0.0
 10
13.2884544603
 20
14.0460064381
 30
0.0
 10
13.2747445081
 20
14.0067230952
 30
0.0
 10
13.2686179053
 20
13.9868974014
 30
0.0
  0
SPLINE
  5
2FB
100
AcDbEntity
  8
0
100
AcDbSpline
 62
7
  6
CONTINUOUS
 70
0
 71
3
 72
15
 73
11
 74
0
 42
0.0000001
 43
0.0000001
 44
0.0000000001
 40
0.0
 40
0.0
 40
0.0
 40
0.0
 40
0.1175499728
 40
0.2358708141
 40
0.3557142186
 40
0.4777844588
 40
0.6027166707
 40
0.7310984874
 40
0.8634193468
 40
1.0
 40
1.0
 40
1.0
 40
1.0
 10
18.1585573283
 20
12.4757918294
 30
0.0
 10
18.167580874
 20
12.5049920341
 30
0.0
 10
18.1825826896
 20
12.5645940334
 30
0.0
 10
18.1956352443
 20
12.656314388
 30
0.0
 10
18.1992166662
 20
12.7500686852
 30
0.0
 10
18.1933825138
 20
12.8454188316
 30
0.0
 10
18.1781923412
 20
12.9419686505
 30
0.0
 10
18.1537749095
 20
13.0393453501
 30
0.0
 10
18.1202719642
 20
13.1371694263
 30
0.0
 10
18.0924672324
 20
13.2014019279
 30
0.0
 10
18.0771939695
 20
13.2334601428
 30
0.0
  0
SPLINE
  5
2FC
100
AcDbEntity
  8
0
100
AcDbSpline
 62
7
  6
CONTINUOUS
 70
0
 71
3
 72
14
 73
10
 74
0
 42
0.0000001
 43
0.0000001
 44
0.0000000001
 40
0.0
 40
0.0
 40
0.0
 40
0.0
 40
0.1564961959
 40
0.3025361012
 40
0.5636288942
 40
0.6808737206
 40
0.7911798983
 40
0.8967072424
 40
1.0
 40
1.0
 40
1.0
 40
1.0
 10
13.8449132102
 20
11.4688590688
 30
0.0
 10
13.8462796288
 20
11.4660746005
 30
0.0
 10
13.8491333077
 20
11.4607888636
 30
0.0
 10
13.8553077974
 20
11.4514745889
 30
0.0
 10
13.8623608521
 20
11.4436711201
 30
0.0
 10
13.8702714111
 20
11.4380262424
 30
0.0
 10
13.8762115356
 20
11.4350738721
 30
0.0
 10
13.882315405
 20
11.4332913934
 30
0.0
 10
13.8864645957
 20
11.4328942918
 30
0.0
 10
13.888511803
 20
11.4328939711
 30
0.0
  0
SPLINE
  5
2FD
100
AcDbEntity
  8
0
100
AcDbSpline
 62
7
  6
CONTINUOUS
 70
0
 71
3
 72
15
 73
11
 74
0
 42
0.0000001
 43
0.0000001
 44
0.0000000001
 40
0.0
 40
0.0
 40
0.0
 40
0.0
 40
0.1193198565
 40
0.239218508
 40
0.3602612695
 40
0.4829849122
 40
0.6078927307
 40
0.735438364
 40
0.8660235115
 40
1.0
 40
1.0
 40
1.0
 40
1.0
 10
12.7973075843
 20
13.1084711513
 30
0.0
 10
12.8048675478
 20
13.1329356046
 30
0.0
 10
12.8221243892
 20
13.1813621883
 30
0.0
 10
12.8542035859
 20
13.2518004983
 30
0.0
 10
12.8924167
 20
13.3199504274
 30
0.0
 10
12.9366588442
 20
13.3856439841
 30
0.0
 10
12.9868310988
 20
13.4487160304
 30
0.0
 10
13.0427986368
 20
13.5090236388
 30
0.0
 10
13.1044181304
 20
13.5664255715
 30
0.0
 10
13.1485822821
 20
13.6021836795
 30
0.0
 10
13.171501272
 20
13.6195431635
 30
0.0
  0
SPLINE
  5
2FE
100
AcDbEntity
  8
0
100
AcDbSpline
 62
7
  6
CONTINUOUS
 70
0
 71
3
 72
15
 73
11
 74
0
 42
0.0000001
 43
0.0000001
 44
0.0000000001
 40
0.0
 40
0.0
 40
0.0
 40
0.0
 40
0.1097615419
 40
0.2236624196
 40
0.3419123928
 40
0.4646265948
 40
0.5918548522
 40
0.7235879768
 40
0.8597218359
 40
1.0
 40
1.0
 40
1.0
 40
1.0
 10
13.171501272
 20
13.6195431635
 30
0.0
 10
13.2024906277
 20
13.6430153682
 30
0.0
 10
13.2677578846
 20
13.6881005729
 30
0.0
 10
13.3726777712
 20
13.7487952409
 30
0.0
 10
13.4859334756
 20
13.8035437611
 30
0.0
 10
13.6070526159
 20
13.8521306008
 30
0.0
 10
13.7355583388
 20
13.8943619977
 30
0.0
 10
13.8709383041
 20
13.9300798587
 30
0.0
 10
14.0126150797
 20
13.9591256148
 30
0.0
 10
14.1094627734
 20
13.9737697426
 30
0.0
 10
14.1587542825
 20
13.9799992339
 30
0.0
  0
SPLINE
  5
2FF
100
AcDbEntity
  8
0
100
AcDbSpline
 62
7
  6
CONTINUOUS
 70
0
 71
3
 72
15
 73
11
 74
0
 42
0.0000001
 43
0.0000001
 44
0.0000000001
 40
0.0
 40
0.0
 40
0.0
 40
0.0
 40
0.1164322387
 40
0.2337721979
 40
0.3528872534
 40
0.4745783839
 40
0.5995741729
 40
0.7285132939
 40
0.8618894792
 40
1.0
 40
1.0
 40
1.0
 40
1.0
 10
12.7708315802
 20
13.0227947706
 30
0.0
 10
12.7612373873
 20
12.9917474405
 30
0.0
 10
12.7453372967
 20
12.9283143469
 30
0.0
 10
12.7317769286
 20
12.8305835141
 30
0.0
 10
12.7284808796
 20
12.730500306
 30
0.0
 10
12.7354594899
 20
12.6284784729
 30
0.0
 10
12.7526694728
 20
12.524909352
 30
0.0
 10
12.7800290489
 20
12.4201859349
 30
0.0
 10
12.8174137193
 20
12.314738508
 30
0.0
 10
12.8483366992
 20
12.2454696969
 30
0.0
 10
12.8653179805
 20
12.2108654839
 30
0.0
  0
SPLINE
  5
300
100
AcDbEntity
  8
0
100
AcDbSpline
 62
7
  6
CONTINUOUS
 70
0
 71
3
 72
23
 73
19
 74
0
 42
0.0000001
 43
0.0000001
 44
0.0000000001
 40
0.0
 40
0.0
 40
0.0
 40
0.0
 40
0.0494529503
 40
0.0999096656
 40
0.1516553157
 40
0.204934545
 40
0.2599537333
 40
0.316873376
 40
0.3758151286
 40
0.4368603247
 40
0.5000524453
 40
0.5654045882
 40
0.6328950102
 40
0.702478952
 40
0.7740838847
 40
0.8476167291
 40
0.9229658636
 40
1.0
 40
1.0
 40
1.0
 40
1.0
 10
13.2294212887
 20
13.7989762077
 30
0.0
 10
13.2438743442
 20
13.8251051113
 30
0.0
 10
13.2757996864
 20
13.8764315028
 30
0.0
 10
13.3316465317
 20
13.9491688601
 30
0.0
 10
13.3956424928
 20
14.0180378818
 30
0.0
 10
13.4675248604
 20
14.0828010672
 30
0.0
 10
13.5470427161
 20
14.1432203534
 30
0.0
 10
13.6338913344
 20
14.1991059122
 30
0.0
 10
13.7277651729
 20
14.2502562231
 30
0.0
 10
13.8283249643
 20
14.2964997514
 30
0.0
 10
13.9352106887
 20
14.337685184
 30
0.0
 10
14.0480464882
 20
14.3736564261
 30
0.0
 10
14.1664268222
 20
14.404307933
 30
0.0
 10
14.2899353264
 20
14.4295157693
 30
0.0
 10
14.4181305578
 20
14.4492047459
 30
0.0
 10
14.5505588029
 20
14.4633018809
 30
0.0
 10
14.6867458546
 20
14.4717533728
 30
0.0
 10
14.7787675197
 20
14.4735930458
 30
0.0
 10
14.8252809724
 20
14.4735930458
 30
0.0
  0
SPLINE
  5
301
100
AcDbEntity
  8
0
100
AcDbSpline
 62
7
  6
CONTINUOUS
 70
0
 71
3
 72
29
 73
25
 74
0
 42
0.0000001
 43
0.0000001
 44
0.0000000001
 40
0.0
 40
0.0
 40
0.0
 40
0.0
 40
0.0643070715
 40
0.1302268553
 40
0.197374947
 40
0.2312862188
 40
0.265349801
 40
0.3337133187
 40
0.4020404837
 40
0.4360588314
 40
0.4699070527
 40
0.5368768589
 40
0.6025518938
 40
0.6347879091
 40
0.6665608161
 40
0.7285425912
 40
0.7882076548
 40
0.8170981169
 40
0.8453230465
 40
0.8728618951
 40
0.8997030621
 40
0.9512574854
 40
0.9759818692
 40
1.0
 40
1.0
 40
1.0
 40
1.0
 10
14.8672538267
 20
14.4733419624
 30
0.0
 10
14.9450601242
 20
14.4724139036
 30
0.0
 10
15.1026020188
 20
14.4653713781
 30
0.0
 10
15.3402219253
 20
14.4401487393
 30
0.0
 10
15.53967127
 20
14.4071035515
 30
0.0
 10
15.6997087686
 20
14.3735491807
 30
0.0
 10
15.8601724134
 20
14.3351709373
 30
0.0
 10
16.0590364559
 20
14.2787009735
 30
0.0
 10
16.2544179848
 20
14.2113262301
 30
0.0
 10
16.4078342419
 20
14.1511001622
 30
0.0
 10
16.557980887
 20
14.0872185024
 30
0.0
 10
16.7399324083
 20
14.0004643996
 30
0.0
 10
16.9147722201
 20
13.9041023273
 30
0.0
 10
17.0485470069
 20
13.8220355024
 30
0.0
 10
17.1759203135
 20
13.7382293625
 30
0.0
 10
17.3259785634
 20
13.6286924717
 30
0.0
 10
17.4653762466
 20
13.5111700859
 30
0.0
 10
17.5680061631
 20
13.4139942961
 30
0.0
 10
17.6395463477
 20
13.3406451764
 30
0.0
 10
17.7063049596
 20
13.2662103468
 30
0.0
 10
17.7876335409
 20
13.1670999091
 30
0.0
 10
17.8601419879
 20
13.0652579262
 30
0.0
 10
17.9225882124
 20
12.9611452011
 30
0.0
 10
17.9501364275
 20
12.9089519708
 30
0.0
 10
17.9629394979
 20
12.8828620565
 30
0.0
  0
SPLINE
  5
302
100
AcDbEntity
  8
0
100
AcDbSpline
 62
7
  6
CONTINUOUS
 70
0
 71
3
 72
54
 73
50
 74
0
 42
0.0000001
 43
0.0000001
 44
0.0000000001
 40
0.0
 40
0.0
 40
0.0
 40
0.0
 40
0.0137005123
 40
0.0278091478
 40
0.0572423085
 40
0.0725723472
 40
0.0883040743
 40
0.1044308553
 40
0.1209407719
 40
0.1550427409
 40
0.1726045074
 40
0.1904772051
 40
0.2270585378
 40
0.2645887922
 40
0.3028452394
 40
0.3415902415
 40
0.3805765055
 40
0.4195523958
 40
0.4582660904
 40
0.4964712146
 40
0.5153106624
 40
0.533935526
 40
0.5704287213
 40
0.605754921
 40
0.6229273996
 40
0.6397457447
 40
0.6722489546
 40
0.7031714705
 40
0.7180262355
 40
0.7324722016
 40
0.760142784
 40
0.7733984208
 40
0.7862851495
 40
0.8110321033
 40
0.8229686688
 40
0.8346583589
 40
0.8461449092
 40
0.8574758972
 40
0.8687026077
 40
0.8798790022
 40
0.8910600675
 40
0.9023007857
 40
0.9136541719
 40
0.9251705603
 40
0.9368973421
 40
0.9488781757
 40
0.9611522823
 40
0.9737526115
 40
1.0
 40
1.0
 40
1.0
 40
1.0
 10
17.2611910732
 20
12.0884706543
 30
0.0
 10
17.2507471717
 20
12.1097530879
 30
0.0
 10
17.2282557219
 20
12.1523297273
 30
0.0
 10
17.1772092191
 20
12.2372563653
 30
0.0
 10
17.1178671548
 20
12.3203042672
 30
0.0
 10
17.0512612212
 20
12.4010868781
 30
0.0
 10
16.9965606912
 20
12.4617476286
 30
0.0
 10
16.9379242588
 20
12.5215022588
 30
0.0
 10
16.8537840404
 20
12.6006365596
 30
0.0
 10
16.7632128626
 20
12.6764179759
 30
0.0
 10
16.6670009869
 20
12.7487021244
 30
0.0
 10
16.564865911
 20
12.8201339136
 30
0.0
 10
16.4299589766
 20
12.904820635
 30
0.0
 10
16.2590919675
 20
12.9978545331
 30
0.0
 10
16.0796234056
 20
13.0821871164
 30
0.0
 10
15.8932735036
 20
13.1570068757
 30
0.0
 10
15.70182664
 20
13.2216064738
 30
0.0
 10
15.5071119463
 20
13.2753633226
 30
0.0
 10
15.3109965057
 20
13.3177586035
 30
0.0
 10
15.1471928376
 20
13.3434131024
 30
0.0
 10
15.017037048
 20
13.357845281
 30
0.0
 10
14.8894559712
 20
13.3680752061
 30
0.0
 10
14.732930937
 20
13.3733241419
 30
0.0
 10
14.5788931736
 20
13.368325935
 30
0.0
 10
14.4593704323
 20
13.3579946671
 30
0.0
 10
14.3451613776
 20
13.3438545932
 30
0.0
 10
14.2084111171
 20
13.3189110329
 30
0.0
 10
14.0774962209
 20
13.2833832197
 30
0.0
 10
13.9790974005
 20
13.2489519941
 30
0.0
 10
13.8877564147
 20
13.211796042
 30
0.0
 10
13.8018701877
 20
13.1687916015
 30
0.0
 10
13.7226372069
 20
13.1197725644
 30
0.0
 10
13.6507636706
 20
13.0688275489
 30
0.0
 10
13.5857293471
 20
13.0123893614
 30
0.0
 10
13.5289594846
 20
12.950789787
 30
0.0
 10
13.4912980051
 20
12.9030298629
 30
0.0
 10
13.4581433279
 20
12.8532924296
 30
0.0
 10
13.4295810602
 20
12.8016923037
 30
0.0
 10
13.4056937829
 20
12.7483542378
 30
0.0
 10
13.3865313356
 20
12.6934161849
 30
0.0
 10
13.3721466776
 20
12.6370129468
 30
0.0
 10
13.3625843966
 20
12.5792859774
 30
0.0
 10
13.3578518902
 20
12.5203843721
 30
0.0
 10
13.3579601977
 20
12.4604546168
 30
0.0
 10
13.3629151523
 20
12.3996438749
 30
0.0
 10
13.3726911052
 20
12.338097041
 30
0.0
 10
13.3872673192
 20
12.2759537193
 30
0.0
 10
13.4134058107
 20
12.1913903831
 30
0.0
 10
13.4396262425
 20
12.1292434584
 30
0.0
 10
13.4596346286
 20
12.0884706543
 30
0.0
  0
SPLINE
  5
303
100
AcDbEntity
  8
0
100
AcDbSpline
 62
7
  6
CONTINUOUS
 70
0
 71
3
 72
43
 73
39
 74
0
 42
0.0000001
 43
0.0000001
 44
0.0000000001
 40
0.0
 40
0.0
 40
0.0
 40
0.0
 40
0.0265244576
 40
0.0543691356
 40
0.0835274823
 40
0.1139815718
 40
0.1456831819
 40
0.1785514571
 40
0.2124847653
 40
0.2473641858
 40
0.2830544226
 40
0.3194083526
 40
0.3562683642
 40
0.3934704882
 40
0.4308453141
 40
0.4682216165
 40
0.5054276865
 40
0.542294629
 40
0.5786576351
 40
0.6143598513
 40
0.6492530702
 40
0.6832027424
 40
0.7160883105
 40
0.7478090241
 40
0.7782852316
 40
0.8074639287
 40
0.8353226018
 40
0.8487628298
 40
0.8618808725
 40
0.8871778204
 40
0.911318178
 40
0.9344494392
 40
0.945701693
 40
0.9567791159
 40
0.9677131556
 40
0.9785373552
 40
0.9892873438
 40
1.0
 40
1.0
 40
1.0
 40
1.0
 10
17.033059616
 20
12.0884706543
 30
0.0
 10
17.0174203689
 20
12.1203400893
 30
0.0
 10
16.9820399528
 20
12.1840733272
 30
0.0
 10
16.9192134822
 20
12.2766932388
 30
0.0
 10
16.8457676143
 20
12.3679891234
 30
0.0
 10
16.7622357637
 20
12.4573397786
 30
0.0
 10
16.6691768679
 20
12.5441602882
 30
0.0
 10
16.5672189958
 20
12.6278666454
 30
0.0
 10
16.4570565791
 20
12.7078955951
 30
0.0
 10
16.3394334918
 20
12.7837001316
 30
0.0
 10
16.2151538932
 20
12.8547775793
 30
0.0
 10
16.0850552503
 20
12.9206320972
 30
0.0
 10
15.9500287087
 20
12.980829944
 30
0.0
 10
15.8109873087
 20
13.0349487798
 30
0.0
 10
15.6688811303
 20
13.0826311388
 30
0.0
 10
15.5246749143
 20
13.123545116
 30
0.0
 10
15.3793509268
 20
13.1574154123
 30
0.0
 10
15.2338984508
 20
13.1840131066
 30
0.0
 10
15.089305547
 20
13.2031509922
 30
0.0
 10
14.9465568917
 20
13.2147092711
 30
0.0
 10
14.8066205123
 20
13.2185952045
 30
0.0
 10
14.6704470453
 20
13.2147973405
 30
0.0
 10
14.5389587304
 20
13.2033238993
 30
0.0
 10
14.4130451492
 20
13.1842642548
 30
0.0
 10
14.2935556776
 20
13.1577308276
 30
0.0
 10
14.1813016558
 20
13.1239043874
 30
0.0
 10
14.0933746388
 20
13.0894064926
 30
0.0
 10
14.0275109459
 20
13.0582640346
 30
0.0
 10
13.966214887
 20
13.0256713454
 30
0.0
 10
13.8952134271
 20
12.9810020246
 30
0.0
 10
13.8189359751
 20
12.9205576398
 30
0.0
 10
13.7635862244
 20
12.8648210663
 30
0.0
 10
13.7250982008
 20
12.8176479724
 30
0.0
 10
13.6992871058
 20
12.7813313567
 30
0.0
 10
13.676318583
 20
12.7438236675
 30
0.0
 10
13.6562374483
 20
12.7051848059
 30
0.0
 10
13.6390815739
 20
12.6654856644
 30
0.0
 10
13.6296035586
 20
12.6383378278
 30
0.0
 10
13.6253698892
 20
12.6246394801
 30
0.0
  0
SPLINE
  5
304
100
AcDbEntity
  8
0
100
AcDbSpline
 62
7
  6
CONTINUOUS
 70
0
 71
3
 72
24
 73
20
 74
0
 42
0.0000001
 43
0.0000001
 44
0.0000000001
 40
0.0
 40
0.0
 40
0.0
 40
0.0
 40
0.0521961778
 40
0.1048277592
 40
0.131525129
 40
0.1585564389
 40
0.2138244945
 40
0.2710900921
 40
0.3306132101
 40
0.3924786997
 40
0.4566077239
 40
0.522762203
 40
0.5905698201
 40
0.659542899
 40
0.7290917095
 40
0.7985645597
 40
0.8673264145
 40
0.9347279741
 40
1.0
 40
1.0
 40
1.0
 40
1.0
 10
14.8057724251
 20
12.7976356095
 30
0.0
 10
14.8082494809
 20
12.7925898443
 30
0.0
 10
14.8123132876
 20
12.7819808037
 30
0.0
 10
14.8149293258
 20
12.7679818873
 30
0.0
 10
14.8155462376
 20
12.7565320418
 30
0.0
 10
14.815163041
 20
12.7447876637
 30
0.0
 10
14.8127726823
 20
12.7298753578
 30
0.0
 10
14.8069776017
 20
12.7122034
 30
0.0
 10
14.7983670336
 20
12.694927799
 30
0.0
 10
14.7871072942
 20
12.6783581583
 30
0.0
 10
14.7734316132
 20
12.6627645751
 30
0.0
 10
14.7575987978
 20
12.6484041328
 30
0.0
 10
14.7399206071
 20
12.6354903764
 30
0.0
 10
14.7207260887
 20
12.6242275919
 30
0.0
 10
14.7003855901
 20
12.6147691491
 30
0.0
 10
14.6792730295
 20
12.6072598132
 30
0.0
 10
14.6577773584
 20
12.6018001327
 30
0.0
 10
14.6363076821
 20
12.5984837741
 30
0.0
 10
14.6220114859
 20
12.5977027711
 30
0.0
 10
14.6149823593
 20
12.5977027711
 30
0.0
  0
SPLINE
  5
305
100
AcDbEntity
  8
0
100
AcDbSpline
 62
7
  6
CONTINUOUS
 70
0
 71
3
 72
9
 73
5
 74
0
 42
0.0000001
 43
0.0000001
 44
0.0000000001
 40
0.0
 40
0.0
 40
0.0
 40
0.0
 40
0.5072422199
 40
1.0
 40
1.0
 40
1.0
 40
1.0
 10
14.5758469866
 20
13.8865991353
 30
0.0
 10
14.5200373473
 20
13.8854918984
 30
0.0
 10
14.4100457322
 20
13.8805956981
 30
0.0
 10
14.3004564759
 20
13.8699051904
 30
0.0
 10
14.2466577634
 20
13.8631060759
 30
0.0
  0
SPLINE
  5
306
100
AcDbEntity
  8
0
100
AcDbSpline
 62
7
  6
CONTINUOUS
 70
0
 71
3
 72
9
 73
5
 74
0
 42
0.0000001
 43
0.0000001
 44
0.0000000001
 40
0.0
 40
0.0
 40
0.0
 40
0.0
 40
0.4928137262
 40
1.0
 40
1.0
 40
1.0
 40
1.0
 10
14.2970083432
 20
13.796150385
 30
0.0
 10
14.348040402
 20
13.8025998481
 30
0.0
 10
14.4519784851
 20
13.8127660747
 30
0.0
 10
14.556297731
 20
13.8174830009
 30
0.0
 10
14.6092244933
 20
13.8185804393
 30
0.0
  0
SPLINE
  5
307
100
AcDbEntity
  8
0
100
AcDbSpline
 62
7
  6
CONTINUOUS
 70
0
 71
3
 72
14
 73
10
 74
0
 42
0.0000001
 43
0.0000001
 44
0.0000000001
 40
0.0
 40
0.0
 40
0.0
 40
0.0
 40
0.1129357311
 40
0.2293467433
 40
0.4725222364
 40
0.5993411134
 40
0.7295821702
 40
0.8631732725
 40
1.0
 40
1.0
 40
1.0
 40
1.0
 10
18.0158915061
 20
13.054214818
 30
0.0
 10
18.0024784767
 20
13.0815476981
 30
0.0
 10
17.9735200811
 20
13.1362271525
 30
0.0
 10
17.9075548637
 20
13.2452656079
 30
0.0
 10
17.8305831023
 20
13.3517675425
 30
0.0
 10
17.7440280314
 20
13.4552242339
 30
0.0
 10
17.6728222622
 20
13.5328740659
 30
0.0
 10
17.5964313884
 20
13.6092802814
 30
0.0
 10
17.5427993894
 20
13.6586946416
 30
0.0
 10
17.5151916588
 20
13.6831588175
 30
0.0
  0
SPLINE
  5
308
100
AcDbEntity
  8
0
100
AcDbSpline
 62
7
  6
CONTINUOUS
 70
0
 71
3
 72
35
 73
31
 74
0
 42
0.0000001
 43
0.0000001
 44
0.0000000001
 40
0.0
 40
0.0
 40
0.0
 40
0.0
 40
0.0316699451
 40
0.0641903131
 40
0.0974913626
 40
0.1314948725
 40
0.1661148118
 40
0.2012598521
 40
0.2727204627
 40
0.3450767749
 40
0.4174824696
 40
0.4890895182
 40
0.5243425764
 40
0.5590925505
 40
0.5932468
 40
0.6267180276
 40
0.6594259591
 40
0.6912986439
 40
0.7222728836
 40
0.7522973477
 40
0.7813316183
 40
0.8093510758
 40
0.8363450512
 40
0.8623226987
 40
0.8873111492
 40
0.9113609696
 40
0.9345448333
 40
0.9569608219
 40
0.9787308622
 40
1.0
 40
1.0
 40
1.0
 40
1.0
 10
17.5151916588
 20
13.6831588175
 30
0.0
 10
17.4783052319
 20
13.7158451708
 30
0.0
 10
17.40181193
 20
13.7801665298
 30
0.0
 10
17.2810774611
 20
13.8721288127
 30
0.0
 10
17.1532623682
 20
13.9605192169
 30
0.0
 10
17.0189291075
 20
14.0449510317
 30
0.0
 10
16.878660547
 20
14.1250619794
 30
0.0
 10
16.6834753707
 20
14.2261875381
 30
0.0
 10
16.4286903805
 20
14.3394123
 30
0.0
 10
16.1113711593
 20
14.4523000539
 30
0.0
 10
15.7862304804
 20
14.5410238147
 30
0.0
 10
15.5119864055
 20
14.5938263339
 30
0.0
 10
15.293442472
 20
14.6225552534
 30
0.0
 10
15.1319623179
 20
14.6371443457
 30
0.0
 10
14.9727825016
 20
14.644825618
 30
0.0
 10
14.8165933622
 20
14.6455665773
 30
0.0
 10
14.6640759687
 20
14.6393579294
 30
0.0
 10
14.5158933773
 20
14.626235762
 30
0.0
 10
14.3726907974
 20
14.6062418982
 30
0.0
 10
14.2350883839
 20
14.5794788004
 30
0.0
 10
14.1036864518
 20
14.5460393671
 30
0.0
 10
13.9790504843
 20
14.5060866045
 30
0.0
 10
13.8617272449
 20
14.4597651111
 30
0.0
 10
13.7522194621
 20
14.4072893605
 30
0.0
 10
13.6510129915
 20
14.3488568102
 30
0.0
 10
13.5585452191
 20
14.2847240311
 30
0.0
 10
13.4752359127
 20
14.2151446007
 30
0.0
 10
13.4014580128
 20
14.1404104159
 30
0.0
 10
13.3375651049
 20
14.0608500773
 30
0.0
 10
13.3014209844
 20
14.0042704094
 30
0.0
 10
13.2852081053
 20
13.9754139284
 30
0.0
  0
SPLINE
  5
309
100
AcDbEntity
  8
0
100
AcDbSpline
 62
7
  6
CONTINUOUS
 70
0
 71
3
 72
15
 73
11
 74
0
 42
0.0000001
 43
0.0000001
 44
0.0000000001
 40
0.0
 40
0.0
 40
0.0
 40
0.0
 40
0.1164334051
 40
0.2337742699
 40
0.3528865338
 40
0.4745754596
 40
0.5995740645
 40
0.7285227927
 40
0.861900504
 40
1.0
 40
1.0
 40
1.0
 40
1.0
 10
17.0954558127
 20
11.5523018285
 30
0.0
 10
17.1017923924
 20
11.5728042961
 30
0.0
 10
17.1122906274
 20
11.6146941767
 30
0.0
 10
17.1212434436
 20
11.6792319333
 30
0.0
 10
17.1234244618
 20
11.7453224217
 30
0.0
 10
17.1188127867
 20
11.8126933649
 30
0.0
 10
17.1074497318
 20
11.8810888054
 30
0.0
 10
17.0893786452
 20
11.9502461027
 30
0.0
 10
17.0646915965
 20
12.0198797862
 30
0.0
 10
17.0442725417
 20
12.0656211142
 30
0.0
 10
17.033059616
 20
12.0884706543
 30
0.0
  0
SPLINE
  5
30A
100
AcDbEntity
  8
0
100
AcDbSpline
 62
7
  6
CONTINUOUS
 70
0
 71
3
 72
22
 73
18
 74
0
 42
0.0000001
 43
0.0000001
 44
0.0000000001
 40
0.0
 40
0.0
 40
0.0
 40
0.0
 40
0.0771441619
 40
0.1522990969
 40
0.2253475864
 40
0.2962244645
 40
0.3649154769
 40
0.4314277747
 40
0.557994409
 40
0.6182696065
 40
0.6766806749
 40
0.7333958725
 40
0.7886240828
 40
0.8426077672
 40
0.8956248826
 40
0.9479805612
 40
1.0
 40
1.0
 40
1.0
 40
1.0
 10
14.2201817593
 20
13.7774296951
 30
0.0
 10
14.1796758977
 20
13.7723105393
 30
0.0
 10
14.0999135375
 20
13.7604814426
 30
0.0
 10
13.982820787
 20
13.7376099159
 30
0.0
 10
13.8701843045
 20
13.7098958861
 30
0.0
 10
13.7623923195
 20
13.6774267087
 30
0.0
 10
13.6597673117
 20
13.6403078718
 30
0.0
 10
13.5324007921
 20
13.5856764734
 30
0.0
 10
13.4140849495
 20
13.5215851093
 30
0.0
 10
13.3071898226
 20
13.447782835
 30
0.0
 10
13.2349147552
 20
13.3893723911
 30
0.0
 10
13.1694982892
 20
13.3271814614
 30
0.0
 10
13.1111391833
 20
13.2614133432
 30
0.0
 10
13.0600463286
 20
13.192263452
 30
0.0
 10
13.0163909048
 20
13.1199534573
 30
0.0
 10
12.9803202511
 20
13.044730941
 30
0.0
 10
12.9613963121
 20
12.9927213467
 30
0.0
 10
12.9532680323
 20
12.9664176432
 30
0.0
  0
SPLINE
  5
30B
100
AcDbEntity
  8
0
100
AcDbSpline
 62
7
  6
CONTINUOUS
 70
0
 71
3
 72
20
 73
16
 74
0
 42
0.0000001
 43
0.0000001
 44
0.0000000001
 40
0.0
 40
0.0
 40
0.0
 40
0.0
 40
0.1301078847
 40
0.1968601833
 40
0.2645632364
 40
0.3333219839
 40
0.4029326513
 40
0.5428477123
 40
0.6120847328
 40
0.6796477806
 40
0.7444534089
 40
0.8054815078
 40
0.861907342
 40
0.913073152
 40
1.0
 40
1.0
 40
1.0
 40
1.0
 10
14.8938890104
 20
14.5432277706
 30
0.0
 10
14.8894815866
 20
14.5432277706
 30
0.0
 10
14.8827718917
 20
14.5420696306
 30
0.0
 10
14.8744450263
 20
14.5387176404
 30
0.0
 10
14.8684310722
 20
14.5353273916
 30
0.0
 10
14.8627628698
 20
14.531232079
 30
0.0
 10
14.8556835596
 20
14.524990276
 30
0.0
 10
14.8494286431
 20
14.5178516441
 30
0.0
 10
14.8440692691
 20
14.5101546075
 30
0.0
 10
14.8405832126
 20
14.5042741353
 30
0.0
 10
14.8376762762
 20
14.4983951133
 30
0.0
 10
14.8354082436
 20
14.4926455102
 30
0.0
 10
14.8338173099
 20
14.487144678
 30
0.0
 10
14.8327061797
 20
14.4806510951
 30
0.0
 10
14.8328480411
 20
14.4758530572
 30
0.0
 10
14.8335846275
 20
14.4730020114
 30
0.0
  0
SPLINE
  5
30C
100
AcDbEntity
  8
0
100
AcDbSpline
 62
7
  6
CONTINUOUS
 70
0
 71
3
 72
15
 73
11
 74
0
 42
0.0000001
 43
0.0000001
 44
0.0000000001
 40
0.0
 40
0.0
 40
0.0
 40
0.0
 40
0.1161170548
 40
0.2337627922
 40
0.3535090799
 40
0.4758857359
 40
0.6013696976
 40
0.7303747006
 40
0.8631885651
 40
1.0
 40
1.0
 40
1.0
 40
1.0
 10
13.2864408829
 20
12.7655070508
 30
0.0
 10
13.2827033146
 20
12.7436739354
 30
0.0
 10
13.2771841867
 20
12.6993519362
 30
0.0
 10
13.2748201327
 20
12.6318754994
 30
0.0
 10
13.2783351837
 20
12.5632521116
 30
0.0
 10
13.2877186965
 20
12.4936804232
 30
0.0
 10
13.30293075
 20
12.4233440234
 30
0.0
 10
13.3239386796
 20
12.3524421425
 30
0.0
 10
13.3506570594
 20
12.2811860979
 30
0.0
 10
13.3718942946
 20
12.2342948614
 30
0.0
 10
13.3833917631
 20
12.2108654839
 30
0.0
  0
SPLINE
  5
30D
100
AcDbEntity
  8
0
100
AcDbSpline
 62
7
  6
CONTINUOUS
 70
0
 71
3
 72
15
 73
11
 74
0
 42
0.0000001
 43
0.0000001
 44
0.0000000001
 40
0.0
 40
0.0
 40
0.0
 40
0.0
 40
0.1403335073
 40
0.2755122352
 40
0.4057821644
 40
0.5314964778
 40
0.6531287301
 40
0.7712712962
 40
0.8866269383
 40
1.0
 40
1.0
 40
1.0
 40
1.0
 10
16.9342493042
 20
11.0106486027
 30
0.0
 10
16.9648133782
 20
11.0239853696
 30
0.0
 10
17.0239671787
 20
11.0521899108
 30
0.0
 10
17.1077903518
 20
11.100032324
 30
0.0
 10
17.1847007882
 20
11.1524191458
 30
0.0
 10
17.2543734861
 20
11.2091519505
 30
0.0
 10
17.316514036
 20
11.2700118248
 30
0.0
 10
17.3708632194
 20
11.3347571559
 30
0.0
 10
17.417162311
 20
11.4031260641
 30
0.0
 10
17.4427032488
 20
11.4512478925
 30
0.0
 10
17.4539927378
 20
11.4757089417
 30
0.0
  0
SPLINE
  5
30E
100
AcDbEntity
  8
0
100
AcDbSpline
 62
7
  6
CONTINUOUS
 70
0
 71
3
 72
24
 73
20
 74
0
 42
0.0000001
 43
0.0000001
 44
0.0000000001
 40
0.0
 40
0.0
 40
0.0
 40
0.0
 40
0.0689242911
 40
0.13546465
 40
0.1998202482
 40
0.2622448122
 40
0.3230451685
 40
0.3825815028
 40
0.4412538119
 40
0.4994961339
 40
0.5577577266
 40
0.6164870272
 40
0.6761108347
 40
0.7370271231
 40
0.7995979868
 40
0.8641396659
 40
0.8972346631
 40
0.9309014663
 40
1.0
 40
1.0
 40
1.0
 40
1.0
 10
16.9360547328
 20
11.0196731725
 30
0.0
 10
16.9609495367
 20
11.0339672589
 30
0.0
 10
17.0088840233
 20
11.0638477336
 30
0.0
 10
17.0758658314
 20
11.1133929365
 30
0.0
 10
17.1363745
 20
11.1666707857
 30
0.0
 10
17.1901721555
 20
11.223480557
 30
0.0
 10
17.2370293975
 20
11.2836249328
 30
0.0
 10
17.2767708244
 20
11.3468619886
 30
0.0
 10
17.3092116151
 20
11.4129591796
 30
0.0
 10
17.3342257105
 20
11.481647101
 30
0.0
 10
17.3517075808
 20
11.5526517166
 30
0.0
 10
17.3615784834
 20
11.6256842005
 30
0.0
 10
17.3638299898
 20
11.7004460671
 30
0.0
 10
17.3584414632
 20
11.7766440096
 30
0.0
 10
17.3454607382
 20
11.853986528
 30
0.0
 10
17.3284971009
 20
11.9186143261
 30
0.0
 10
17.3113078313
 20
11.9705436486
 30
0.0
 10
17.2913463619
 20
12.0235039211
 30
0.0
 10
17.2738695525
 20
12.06263463
 30
0.0
 10
17.2611910732
 20
12.0884706543
 30
0.0
  0
SPLINE
  5
30F
100
AcDbEntity
  8
0
100
AcDbSpline
 62
7
  6
CONTINUOUS
 70
0
 71
3
 72
15
 73
11
 74
0
 42
0.0000001
 43
0.0000001
 44
0.0000000001
 40
0.0
 40
0.0
 40
0.0
 40
0.0
 40
0.1444335534
 40
0.2832094635
 40
0.4155808726
 40
0.541594359
 40
0.66181949
 40
0.7772788061
 40
0.8894006896
 40
1.0
 40
1.0
 40
1.0
 40
1.0
 10
14.6149823593
 20
12.5977027711
 30
0.0
 10
14.6089018229
 20
12.5977027711
 30
0.0
 10
14.5969694673
 20
12.5982682453
 30
0.0
 10
14.5796381901
 20
12.6008896927
 30
0.0
 10
14.5634595319
 20
12.605267194
 30
0.0
 10
14.5486748691
 20
12.6113473055
 30
0.0
 10
14.535492524
 20
12.619077644
 30
0.0
 10
14.524095489
 20
12.6283715977
 30
0.0
 10
14.5146650341
 20
12.6391266758
 30
0.0
 10
14.5097793958
 20
12.6471967659
 30
0.0
 10
14.5077274753
 20
12.6513763928
 30
0.0
  0
SPLINE
  5
310
100
AcDbEntity
  8
0
100
AcDbSpline
 62
7
  6
CONTINUOUS
 70
0
 71
3
 72
28
 73
24
 74
0
 42
0.0000001
 43
0.0000001
 44
0.0000000001
 40
0.0
 40
0.0
 40
0.0
 40
0.0
 40
0.0240213664
 40
0.048755056
 40
0.1003482957
 40
0.1272218691
 40
0.154801945
 40
0.1830740249
 40
0.2120168369
 40
0.2416053782
 40
0.2718096243
 40
0.3339199511
 40
0.3980490236
 40
0.4638417391
 40
0.5309075893
 40
0.5988299575
 40
0.6671753107
 40
0.7355027086
 40
0.8033711867
 40
0.8703440772
 40
0.9360214481
 40
0.9682529843
 40
1.0
 40
1.0
 40
1.0
 40
1.0
 10
17.9311534475
 20
12.2108654839
 30
0.0
 10
17.9172341938
 20
12.2392299408
 30
0.0
 10
17.8872615918
 20
12.2959713491
 30
0.0
 10
17.8192410637
 20
12.4091419834
 30
0.0
 10
17.7401618981
 20
12.5197987997
 30
0.0
 10
17.6514118074
 20
12.6274450514
 30
0.0
 10
17.5785151997
 20
12.7082784547
 30
0.0
 10
17.5003799875
 20
12.7879093218
 30
0.0
 10
17.4171920529
 20
12.8661536075
 30
0.0
 10
17.3291456227
 20
12.9428145496
 30
0.0
 10
17.2044112454
 20
13.0436125163
 30
0.0
 10
17.0375458084
 20
13.1643226694
 30
0.0
 10
16.8234852456
 20
13.2987083113
 30
0.0
 10
16.5957870747
 20
13.4226837049
 30
0.0
 10
16.356633845
 20
13.535059448
 30
0.0
 10
16.1083106804
 20
13.6347647684
 30
0.0
 10
15.853193668
 20
13.720847329
 30
0.0
 10
15.5937229416
 20
13.7924823427
 30
0.0
 10
15.3323830017
 20
13.8489788893
 30
0.0
 10
15.0716699389
 20
13.8898083797
 30
0.0
 10
14.8556450576
 20
13.9105720322
 30
0.0
 10
14.6852866082
 20
13.9188855637
 30
0.0
 10
14.6011279503
 20
13.9202928966
 30
0.0
 10
14.5593705807
 20
13.9202928966
 30
0.0
  0
SPLINE
  5
311
100
AcDbEntity
  8
0
100
AcDbSpline
 62
7
  6
CONTINUOUS
 70
0
 71
3
 72
30
 73
26
 74
0
 42
0.0000001
 43
0.0000001
 44
0.0000000001
 40
0.0
 40
0.0
 40
0.0
 40
0.0
 40
0.0240189147
 40
0.048752109
 40
0.1003476861
 40
0.1272213192
 40
0.1548000465
 40
0.1830714195
 40
0.2120139518
 40
0.2717962702
 40
0.3339055497
 40
0.3657430243
 40
0.3980422732
 40
0.4638343866
 40
0.5308993501
 40
0.5647834618
 40
0.5988278975
 40
0.6671724033
 40
0.7354995207
 40
0.7695217024
 40
0.8033733958
 40
0.8703448098
 40
0.9360254232
 40
0.9682562795
 40
1.0
 40
1.0
 40
1.0
 40
1.0
 10
17.7552768507
 20
12.2108654839
 30
0.0
 10
17.7423252682
 20
12.2372580341
 30
0.0
 10
17.7144345261
 20
12.2900566196
 30
0.0
 10
17.6511359249
 20
12.3953691235
 30
0.0
 10
17.577548722
 20
12.498347786
 30
0.0
 10
17.4949576926
 20
12.5985203884
 30
0.0
 10
17.4271257349
 20
12.6737417456
 30
0.0
 10
17.3544142722
 20
12.7478405785
 30
0.0
 10
17.2500770656
 20
12.8459747527
 30
0.0
 10
17.1083388007
 20
12.9645589397
 30
0.0
 10
16.955766094
 20
13.0749391659
 30
0.0
 10
16.8262692598
 20
13.1592926163
 30
0.0
 10
16.6902923366
 20
13.2418117089
 30
0.0
 10
16.5126316442
 20
13.3385369989
 30
0.0
 10
16.3278085162
 20
13.4253890801
 30
0.0
 10
16.1753629887
 20
13.4891729749
 30
0.0
 10
16.0197034153
 20
13.5491592434
 30
0.0
 10
15.8216018456
 20
13.6159985136
 30
0.0
 10
15.6200943999
 20
13.6716324018
 30
0.0
 10
15.4576385257
 20
13.7091416087
 30
0.0
 10
15.2958075227
 20
13.7416814234
 30
0.0
 10
15.0943403507
 20
13.7732295836
 30
0.0
 10
14.8933142853
 20
13.7925494057
 30
0.0
 10
14.7347836262
 20
13.8002863321
 30
0.0
 10
14.656472641
 20
13.8015964732
 30
0.0
 10
14.6176183252
 20
13.8015964732
 30
0.0
  0
SPLINE
  5
312
100
AcDbEntity
  8
0
100
AcDbSpline
 62
7
  6
CONTINUOUS
 70
0
 71
3
 72
22
 73
18
 74
0
 42
0.0000001
 43
0.0000001
 44
0.0000000001
 40
0.0
 40
0.0
 40
0.0
 40
0.0
 40
0.076236966
 40
0.1506571837
 40
0.2936332292
 40
0.3621439386
 40
0.4286508141
 40
0.4931721284
 40
0.555745059
 40
0.6164309952
 40
0.6753254719
 40
0.7325507439
 40
0.7882593311
 40
0.8426350704
 40
0.8958879411
 40
0.9482563503
 40
1.0
 40
1.0
 40
1.0
 40
1.0
 10
14.1322782784
 20
13.8943228532
 30
0.0
 10
14.0917941396
 20
13.8892064427
 30
0.0
 10
14.0119789816
 20
13.8774918626
 30
0.0
 10
13.8575530827
 20
13.8481083698
 30
0.0
 10
13.7091603111
 20
13.8096049936
 30
0.0
 10
13.5683128971
 20
13.761450488
 30
0.0
 10
13.4691666189
 20
13.7215906223
 30
0.0
 10
13.3752841638
 20
13.6775882859
 30
0.0
 10
13.2869172997
 20
13.6295638835
 30
0.0
 10
13.2043196503
 20
13.5776302853
 30
0.0
 10
13.1277120547
 20
13.5219382796
 30
0.0
 10
13.0573086241
 20
13.4626301347
 30
0.0
 10
12.9933124674
 20
13.3998576852
 30
0.0
 10
12.935894363
 20
13.3338010158
 30
0.0
 10
12.8852315405
 20
13.2646250457
 30
0.0
 10
12.8414718842
 20
13.192533697
 30
0.0
 10
12.816869271
 20
13.1424327746
 30
0.0
 10
12.8058082992
 20
13.1170413588
 30
0.0
  0
SPLINE
  5
313
100
AcDbEntity
  8
0
100
AcDbSpline
 62
7
  6
CONTINUOUS
 70
0
 71
3
 72
13
 73
9
 74
0
 42
0.0000001
 43
0.0000001
 44
0.0000000001
 40
0.0
 40
0.0
 40
0.0
 40
0.0
 40
0.2442574143
 40
0.3686725371
 40
0.493936022
 40
0.6198129946
 40
0.7464116787
 40
1.0
 40
1.0
 40
1.0
 40
1.0
 10
14.9329977357
 20
14.5178580784
 30
0.0
 10
14.9312422028
 20
14.5214366267
 30
0.0
 10
14.9278366761
 20
14.526503919
 30
0.0
 10
14.9221566901
 20
14.5322423041
 30
0.0
 10
14.9173074694
 20
14.5360203914
 30
0.0
 10
14.9119585701
 20
14.5391283952
 30
0.0
 10
14.9042785077
 20
14.5422137059
 30
0.0
 10
14.898027242
 20
14.5432277706
 30
0.0
 10
14.8938890104
 20
14.5432277706
 30
0.0
  0
SPLINE
  5
314
100
AcDbEntity
  8
0
100
AcDbSpline
 62
7
  6
CONTINUOUS
 70
0
 71
3
 72
15
 73
11
 74
0
 42
0.0000001
 43
0.0000001
 44
0.0000000001
 40
0.0
 40
0.0
 40
0.0
 40
0.0
 40
0.1164327268
 40
0.2337732846
 40
0.3528877383
 40
0.4745781895
 40
0.5995746789
 40
0.7285164188
 40
0.8618929278
 40
1.0
 40
1.0
 40
1.0
 40
1.0
 10
18.1038178876
 20
12.2986627098
 30
0.0
 10
18.1127463147
 20
12.3275542397
 30
0.0
 10
18.1275426711
 20
12.3865831053
 30
0.0
 10
18.1401593053
 20
12.477528243
 30
0.0
 10
18.1432286521
 20
12.570661805
 30
0.0
 10
18.136733045
 20
12.6655994396
 30
0.0
 10
18.1207186351
 20
12.7619778875
 30
0.0
 10
18.0952572733
 20
12.8594303468
 30
0.0
 10
18.0604685082
 20
12.9575557489
 30
0.0
 10
18.0316932798
 20
13.0220141888
 30
0.0
 10
18.0158915061
 20
13.054214818
 30
0.0
  0
SPLINE
  5
315
100
AcDbEntity
  8
0
100
AcDbSpline
 62
7
  6
CONTINUOUS
 70
0
 71
3
 72
29
 73
25
 74
0
 42
0.0000001
 43
0.0000001
 44
0.0000000001
 40
0.0
 40
0.0
 40
0.0
 40
0.0
 40
0.0173135901
 40
0.0350771574
 40
0.053633959
 40
0.0732641161
 40
0.1164983122
 40
0.1404356985
 40
0.1659832678
 40
0.1931623409
 40
0.2219524983
 40
0.2841083303
 40
0.3173367686
 40
0.3518400511
 40
0.4241184969
 40
0.499759554
 40
0.5773863061
 40
0.6555159136
 40
0.7325957989
 40
0.8070465337
 40
0.8773530462
 40
0.9421177109
 40
0.972002249
 40
1.0
 40
1.0
 40
1.0
 40
1.0
 10
13.888511803
 20
11.4328939711
 30
0.0
 10
13.8904045942
 20
11.4328936746
 30
0.0
 10
13.8942474135
 20
11.4332318874
 30
0.0
 10
13.8999393514
 20
11.4347431063
 30
0.0
 10
13.9055484285
 20
11.437243052
 30
0.0
 10
13.9130963075
 20
11.4420088576
 30
0.0
 10
13.9200374219
 20
11.4486253612
 30
0.0
 10
13.9262978604
 20
11.4566043642
 30
0.0
 10
13.9308784402
 20
11.4636371563
 30
0.0
 10
13.9351404948
 20
11.4714726174
 30
0.0
 10
13.9405018114
 20
11.4832304406
 30
0.0
 10
13.9449307362
 20
11.4961014865
 30
0.0
 10
13.9485031045
 20
11.5098479141
 30
0.0
 10
13.9516364123
 20
11.5248360955
 30
0.0
 10
13.9543834129
 20
11.5446150599
 30
0.0
 10
13.9558740844
 20
11.5692487384
 30
0.0
 10
13.9556398406
 20
11.5945638223
 30
0.0
 10
13.953783679
 20
11.6199669025
 30
0.0
 10
13.9504381093
 20
11.6448653937
 30
0.0
 10
13.9457844075
 20
11.6686820256
 30
0.0
 10
13.9400092106
 20
11.6908629811
 30
0.0
 10
13.9342885152
 20
11.7079848956
 30
0.0
 10
13.9292628082
 20
11.7204193173
 30
0.0
 10
13.9266276545
 20
11.7261758017
 30
0.0
 10
13.9252792296
 20
11.7289236028
 30
0.0
  0
SPLINE
  5
316
100
AcDbEntity
  8
0
100
AcDbSpline
 62
7
  6
CONTINUOUS
 70
0
 71
3
 72
15
 73
11
 74
0
 42
0.0000001
 43
0.0000001
 44
0.0000000001
 40
0.0
 40
0.0
 40
0.0
 40
0.0
 40
0.1718531273
 40
0.3295489707
 40
0.4726364211
 40
0.6010687325
 40
0.7157513661
 40
0.8184431847
 40
0.9118774614
 40
1.0
 40
1.0
 40
1.0
 40
1.0
 10
13.9252792296
 20
11.7289236028
 30
0.0
 10
13.9239215187
 20
11.7316903267
 30
0.0
 10
13.9211731747
 20
11.7369271219
 30
0.0
 10
13.9167437866
 20
11.7441619035
 30
0.0
 10
13.9122100373
 20
11.7503946574
 30
0.0
 10
13.9075919313
 20
11.7555751315
 30
0.0
 10
13.9029071229
 20
11.7596685797
 30
0.0
 10
13.8981618253
 20
11.7626483559
 30
0.0
 10
13.8933604936
 20
11.7644711131
 30
0.0
 10
13.8900925955
 20
11.7648883074
 30
0.0
 10
13.8885122617
 20
11.7648886023
 30
0.0
  0
SPLINE
  5
317
100
AcDbEntity
  8
0
100
AcDbSpline
 62
7
  6
CONTINUOUS
 70
0
 71
3
 72
15
 73
11
 74
0
 42
0.0000001
 43
0.0000001
 44
0.0000000001
 40
0.0
 40
0.0
 40
0.0
 40
0.0
 40
0.1161199588
 40
0.2336533011
 40
0.3532353611
 40
0.4754528952
 40
0.600836682
 40
0.7298504512
 40
0.8628342401
 40
1.0
 40
1.0
 40
1.0
 40
1.0
 10
18.0477707425
 20
11.4855243722
 30
0.0
 10
18.0535478462
 20
11.5138941502
 30
0.0
 10
18.062445244
 20
11.5715711514
 30
0.0
 10
18.0676898407
 20
11.6596049462
 30
0.0
 10
18.0648995272
 20
11.7492736074
 30
0.0
 10
18.0540711334
 20
11.8402914498
 30
0.0
 10
18.0352612261
 20
11.9323935077
 30
0.0
 10
18.0085197718
 20
12.0253019272
 30
0.0
 10
17.9739531713
 20
12.1187164079
 30
0.0
 10
17.9462197148
 20
12.1801636591
 30
0.0
 10
17.9311534475
 20
12.2108654839
 30
0.0
  0
SPLINE
  5
318
100
AcDbEntity
  8
0
100
AcDbSpline
 62
7
  6
CONTINUOUS
 70
0
 71
3
 72
15
 73
11
 74
0
 42
0.0000001
 43
0.0000001
 44
0.0000000001
 40
0.0
 40
0.0
 40
0.0
 40
0.0
 40
0.1164327268
 40
0.2337732846
 40
0.3528877383
 40
0.4745781895
 40
0.5995746789
 40
0.7285164188
 40
0.8618929278
 40
1.0
 40
1.0
 40
1.0
 40
1.0
 10
17.8432032323
 20
11.4553133761
 30
0.0
 10
17.8521316593
 20
11.484204906
 30
0.0
 10
17.8669280158
 20
11.5432337716
 30
0.0
 10
17.8795446499
 20
11.6341789093
 30
0.0
 10
17.8826139966
 20
11.7273124712
 30
0.0
 10
17.8761183895
 20
11.8222501058
 30
0.0
 10
17.8601039796
 20
11.9186285536
 30
0.0
 10
17.8346426178
 20
12.0160810129
 30
0.0
 10
17.7998538527
 20
12.1142064149
 30
0.0
 10
17.7710786243
 20
12.1786648548
 30
0.0
 10
17.7552768507
 20
12.2108654839
 30
0.0
  0
ENDSEC
  0
SECTION
  2
OBJECTS
  0
DICTIONARY
  5
C
100
AcDbDictionary
280
0
281
1
  3
ACAD_GROUP
350
D
  3
ACAD_MLINESTYLE
350
17
  3
ACAD_LAYOUT
350
1A
  3
ACAD_PLOTSETTINGS
350
19
  3
ACAD_PLOTSTYLENAME
350
E
  0
DICTIONARY
  5
D
102
{ACAD_REACTORS
330
C
102
}
100
AcDbDictionary
280
0
281
1
  0
ACDBDICTIONARYWDFLT
  5
E
102
{ACAD_REACTORS
330
C
102
}
100
AcDbDictionary
281
1
  3
Normal
350
F
100
AcDbDictionaryWithDefault
340
F
  0
DICTIONARY
  5
17
102
{ACAD_REACTORS
330
C
102
}
100
AcDbDictionary
280
0
281
1
  3
Standard
350
18
  0
DICTIONARY
  5
19
102
{ACAD_REACTORS
330
C
102
}
100
AcDbDictionary
281
1
  0
DICTIONARY
  5
1A
102
{ACAD_REACTORS
330
C
102
}
100
AcDbDictionary
281
1
  3
Model
350
319
  3
Layout1
350
31A
  0
ACDBPLACEHOLDER
  5
F
102
{ACAD_REACTORS
330
E
102
}
  0
MLINESTYLE
  5
18
102
{ACAD_REACTORS
330
17
102
}
100
AcDbMlineStyle
  2
STANDARD
 70
0
  3

 62
256
 51
90.0
 52
90.0
 71
2
 49
0.5
 62
256
  6
BYLAYER
 49
-0.5
 62
256
  6
BYLAYER
  0
LAYOUT
  5
319
102
{ACAD_REACTORS
330
1A
102
}
100
AcDbPlotSettings
  1

  2
none_device
  4
ANSI_C_(22.00_x_17.00_Inches)
  6

 40
0.0
 41
0.0
 42
0.0
 43
0.0
 44
558.8
 45
431.8
 46
0.0
 47
0.0
 48
0.0
 49
0.0
140
0.0
141
0.0
142
1.0
143
1.0
 70
1024
 72
0
 73
0
 74
0
  7

 75
0
147
1.0
148
0.0
149
0.0
100
AcDbLayout
  1
Model
 70
0
 71
0
 10
0.0
 20
0.0
 11
22.0
 21
17.0
 12
0.0
 22
0.0
 32
0.0
 14
0.0
 24
0.0
 34
0.0
 15
0.0
 25
0.0
 35
0.0
146
0.0
 13
0.0
 23
0.0
 33
0.0
 16
1.0
 26
0.0
 36
0.0
 17
0.0
 27
1.0
 37
0.0
 76
0
330
221
345
0
346
0
  0
LAYOUT
  5
31A
102
{ACAD_REACTORS
330
1A
102
}
100
AcDbPlotSettings
  1

  2
none_device
  4
ANSI_C_(22.00_x_17.00_Inches)
  6

 40
0.0
 41
0.0
 42
0.0
 43
0.0
 44
558.8
 45
431.8
 46
0.0
 47
0.0
 48
0.0
 49
0.0
140
0.0
141
0.0
142
1.0
143
1.0
 70
0
 72
0
 73
0
 74
0
  7

 75
0
147
1.0
148
0.0
149
0.0
100
AcDbLayout
  1
Layout1
 70
0
 71
1
 10
0.0
 20
0.0
 11
22.0
 21
17.0
 12
0.0
 22
0.0
 32
0.0
 14
0.0
 24
0.0
 34
0.0
 15
0.0
 25
0.0
 35
0.0
146
0.0
 13
0.0
 23
0.0
 33
0.0
 16
1.0
 26
0.0
 36
0.0
 17
0.0
 27
1.0
 37
0.0
 76
0
330
222
345
0
346
0
  0
ENDSEC
  0
EOF