999
DXF file: _cgs_temp_output.dxf
999
Pro/ENGINEER 2016360 by Parametric Technology Corporation
  0
SECTION
  2
HEADER
  9
$ACADVER
  1
AC1021
  9
$DWGCODEPAGE
  3
ANSI_1252
  9
$EXTMAX
 10
22.0
 20
17.0
 30
0.0
  9
$EXTMIN
 10
0.0
 20
0.0
 30
0.0
  9
$LIMMIN
 10
0.0
 20
0.0
  9
$LIMMAX
 10
22.0
 20
17.0
  9
$VIEWCTR
 10
11.0
 20
8.5
  9
$VIEWSIZE
 40
17.0
  9
$CLAYER
  8
0
  9
$LTSCALE
 40
1.21
  9
$CELTYPE
  6
BYLAYER
  9
$DIMSCALE
 40
1.0
  9
$DIMASZ
 40
0.1875
  9
$DIMEXO
 40
0.0625
  9
$DIMDLI
 40
0.836
  9
$DIMEXE
 40
0.125
  9
$DIMCEN
 40
0.198
  9
$DIMLFAC
 40
1.0
  9
$DIMBLK
  1
_CLOSED
  9
$DIMALT
 70
0
  9
$DIMALTF
 40
25.4
  9
$DIMTXT
 40
0.15625
  9
$DIMTOL
 70
0
  9
$DIMLIM
 70
0
  9
$DIMTFAC
 40
1.0
  9
$DIMGAP
 40
0.09
  9
$DIMDSEP
 70
46
  9
$AUNITS
 70
0
  9
$PDMODE
 70
3
  9
$PDSIZE
 40
0.3125
  9
$HANDSEED
  5
30C
  9
$TILEMODE
 70
1
  9
$MEASUREMENT
 70
0
  9
$INSUNITS
 70
1
  0
ENDSEC
  0
SECTION
  2
CLASSES
  0
CLASS
  1
ACDBDICTIONARYWDFLT
  2
AcDbDictionaryWithDefault
  3
AutoCAD 2000
 90
0
 91
1
280
0
281
0
  0
CLASS
  1
ACDBPLACEHOLDER
  2
AcDbPlaceHolder
  3
AutoCAD 2000
 90
0
 91
1
280
0
281
0
  0
CLASS
  1
LAYOUT
  2
AcDbLayout
  3
AutoCAD 2000
 90
0
 91
0
280
0
281
0
  0
ENDSEC
  0
SECTION
  2
TABLES
  0
TABLE
  2
VPORT
  5
8
100
AcDbSymbolTable
 70
2
  0
VPORT
  5
1F4
100
AcDbSymbolTableRecord
100
AcDbViewportTableRecord
  2
*ACTIVE
 70
0
 10
0.0
 20
0.0
 11
1.0
 21
1.0
 12
11.0
 22
8.5
 13
0.0
 23
0.0
 14
1.0
 24
1.0
 15
0.0
 25
0.0
 16
0.0
 26
0.0
 36
1.0
 17
0.0
 27
0.0
 37
0.0
 40
17.0
 41
1.2941176471
 42
50.0
 43
0.0
 44
0.0
 50
0.0
 51
0.0
 71
0
 72
100
 73
1
 74
1
 75
0
 76
0
 77
0
 78
0
  0
ENDTAB
  0
TABLE
  2
LTYPE
  5
5
100
AcDbSymbolTable
 70
6
  0
LTYPE
  5
14
100
AcDbSymbolTableRecord
100
AcDbLinetypeTableRecord
  2
BYBLOCK
 70
0
  3

 72
65
 73
0
 40
0.0
  0
LTYPE
  5
15
100
AcDbSymbolTableRecord
100
AcDbLinetypeTableRecord
  2
BYLAYER
 70
0
  3

 72
65
 73
0
 40
0.0
  0
LTYPE
  5
16
100
AcDbSymbolTableRecord
100
AcDbLinetypeTableRecord
  2
CONTINUOUS
 70
64
  3
Solid line
 72
65
 73
0
 40
0.0
  0
LTYPE
  5
1F5
100
AcDbSymbolTableRecord
100
AcDbLinetypeTableRecord
  2
CENTER
 70
64
  3
____ _ ____ _ ____ _ ____ _ ____ _ ____ _ ____
 72
65
 73
4
 40
0.6
 49
0.375
 74
0
 49
-0.075
 74
0
 49
0.075
 74
0
 49
-0.075
 74
0
  0
LTYPE
  5
1F6
100
AcDbSymbolTableRecord
100
AcDbLinetypeTableRecord
  2
HIDDEN
 70
64
  3
- - - - - - - - - - - - - - - - - - - -
 72
65
 73
2
 40
0.2
 49
0.1
 74
0
 49
-0.1
 74
0
  0
LTYPE
  5
1F7
100
AcDbSymbolTableRecord
100
AcDbLinetypeTableRecord
  2
PHANTOM
 70
64
  3
_____ _ _ _____ _ _ _____ _ _ _____
 72
65
 73
6
 40
0.8
 49
0.45
 74
0
 49
-0.05
 74
0
 49
0.1
 74
0
 49
-0.05
 74
0
 49
0.1
 74
0
 49
-0.05
 74
0
  0
LTYPE
  5
1F8
100
AcDbSymbolTableRecord
100
AcDbLinetypeTableRecord
  2
DOT
 70
64
  3
. . . . . . . . . . . . . . . . . . . .
 72
65
 73
2
 40
0.2
 49
0.1
 74
0
 49
-0.1
 74
0
  0
LTYPE
  5
1F9
100
AcDbSymbolTableRecord
100
AcDbLinetypeTableRecord
  2
DASHED
 70
64
  3
- - - - - - - - - - - - - - - - - - - -
 72
65
 73
2
 40
0.2
 49
0.1
 74
0
 49
-0.1
 74
0
  0
ENDTAB
  0
TABLE
  2
LAYER
  5
2
100
AcDbSymbolTable
 70
36
  0
LAYER
  5
10
100
AcDbSymbolTableRecord
100
AcDbLayerTableRecord
  2
0
 70
0
 62
7
  6
CONTINUOUS
370
-3
390
F
  0
LAYER
  5
1FA
100
AcDbSymbolTableRecord
100
AcDbLayerTableRecord
  2
DEFAULT_1
 70
0
 62
7
  6
CENTER
370
-3
390
F
  0
LAYER
  5
1FB
100
AcDbSymbolTableRecord
100
AcDbLayerTableRecord
  2
DEFAULT_2
 70
0
 62
8
  6
HIDDEN
370
-3
390
F
  0
LAYER
  5
1FC
100
AcDbSymbolTableRecord
100
AcDbLayerTableRecord
  2
DEFAULT_3
 70
0
 62
7
  6
PHANTOM
370
-3
390
F
  0
LAYER
  5
1FD
100
AcDbSymbolTableRecord
100
AcDbLayerTableRecord
  2
01_ALL_DTM_PLN
 70
0
 62
7
  6
CONTINUOUS
370
-3
390
F
  0
LAYER
  5
1FE
100
AcDbSymbolTableRecord
100
AcDbLayerTableRecord
  2
01__ASM_ALL_DTM_PLN
 70
0
 62
7
  6
CONTINUOUS
370
-3
390
F
  0
LAYER
  5
1FF
100
AcDbSymbolTableRecord
100
AcDbLayerTableRecord
  2
01__ASM_DEF_DTM_PLN
 70
0
 62
7
  6
CONTINUOUS
370
-3
390
F
  0
LAYER
  5
200
100
AcDbSymbolTableRecord
100
AcDbLayerTableRecord
  2
01___PRT_ALL_DTM_PLN
 70
0
 62
7
  6
CONTINUOUS
370
-3
390
F
  0
LAYER
  5
201
100
AcDbSymbolTableRecord
100
AcDbLayerTableRecord
  2
01___PRT_DEF_DTM_PLN
 70
0
 62
7
  6
CONTINUOUS
370
-3
390
F
  0
LAYER
  5
202
100
AcDbSymbolTableRecord
100
AcDbLayerTableRecord
  2
02_ALL_AXES
 70
0
 62
7
  6
CONTINUOUS
370
-3
390
F
  0
LAYER
  5
203
100
AcDbSymbolTableRecord
100
AcDbLayerTableRecord
  2
02__ASM_ALL_AXES
 70
0
 62
7
  6
CONTINUOUS
370
-3
390
F
  0
LAYER
  5
204
100
AcDbSymbolTableRecord
100
AcDbLayerTableRecord
  2
02___PRT_ALL_AXES
 70
0
 62
7
  6
CONTINUOUS
370
-3
390
F
  0
LAYER
  5
205
100
AcDbSymbolTableRecord
100
AcDbLayerTableRecord
  2
03_ALL_CURVES
 70
0
 62
7
  6
CONTINUOUS
370
-3
390
F
  0
LAYER
  5
206
100
AcDbSymbolTableRecord
100
AcDbLayerTableRecord
  2
03__ASM_ALL_CURVES
 70
0
 62
7
  6
CONTINUOUS
370
-3
390
F
  0
LAYER
  5
207
100
AcDbSymbolTableRecord
100
AcDbLayerTableRecord
  2
03___PRT_ALL_CURVES
 70
0
 62
7
  6
CONTINUOUS
370
-3
390
F
  0
LAYER
  5
208
100
AcDbSymbolTableRecord
100
AcDbLayerTableRecord
  2
04_ALL_DTM_PNT
 70
0
 62
7
  6
CONTINUOUS
370
-3
390
F
  0
LAYER
  5
209
100
AcDbSymbolTableRecord
100
AcDbLayerTableRecord
  2
04__ASM_ALL_DTM_PNT
 70
0
 62
7
  6
CONTINUOUS
370
-3
390
F
  0
LAYER
  5
20A
100
AcDbSymbolTableRecord
100
AcDbLayerTableRecord
  2
04___PRT_ALL_DTM_PNT
 70
0
 62
7
  6
CONTINUOUS
370
-3
390
F
  0
LAYER
  5
20B
100
AcDbSymbolTableRecord
100
AcDbLayerTableRecord
  2
05_ALL_DTM_CSYS
 70
0
 62
7
  6
CONTINUOUS
370
-3
390
F
  0
LAYER
  5
20C
100
AcDbSymbolTableRecord
100
AcDbLayerTableRecord
  2
05__ASM_ALL_DTM_CSYS
 70
0
 62
7
  6
CONTINUOUS
370
-3
390
F
  0
LAYER
  5
20D
100
AcDbSymbolTableRecord
100
AcDbLayerTableRecord
  2
05__ASM_DEF_DTM_CSYS
 70
0
 62
7
  6
CONTINUOUS
370
-3
390
F
  0
LAYER
  5
20E
100
AcDbSymbolTableRecord
100
AcDbLayerTableRecord
  2
05___PRT_ALL_DTM_CSYS
 70
0
 62
7
  6
CONTINUOUS
370
-3
390
F
  0
LAYER
  5
20F
100
AcDbSymbolTableRecord
100
AcDbLayerTableRecord
  2
05___PRT_DEF_DTM_CSYS
 70
0
 62
7
  6
CONTINUOUS
370
-3
390
F
  0
LAYER
  5
210
100
AcDbSymbolTableRecord
100
AcDbLayerTableRecord
  2
06_ALL_SURFS
 70
0
 62
7
  6
CONTINUOUS
370
-3
390
F
  0
LAYER
  5
211
100
AcDbSymbolTableRecord
100
AcDbLayerTableRecord
  2
06__ASM_ALL_SURFS
 70
0
 62
7
  6
CONTINUOUS
370
-3
390
F
  0
LAYER
  5
212
100
AcDbSymbolTableRecord
100
AcDbLayerTableRecord
  2
06___PRT_ALL_SURFS
 70
0
 62
7
  6
CONTINUOUS
370
-3
390
F
  0
LAYER
  5
213
100
AcDbSymbolTableRecord
100
AcDbLayerTableRecord
  2
07__ASM_ALL_SKELETONS
 70
0
 62
7
  6
CONTINUOUS
370
-3
390
F
  0
LAYER
  5
214
100
AcDbSymbolTableRecord
100
AcDbLayerTableRecord
  2
ARI
 70
0
 62
7
  6
CONTINUOUS
370
-3
390
F
  0
LAYER
  5
215
100
AcDbSymbolTableRecord
100
AcDbLayerTableRecord
  2
INTFCLR_177
 70
0
 62
7
  6
CONTINUOUS
370
-3
390
F
  0
LAYER
  5
216
100
AcDbSymbolTableRecord
100
AcDbLayerTableRecord
  2
INTFCLR_1850
 70
0
 62
7
  6
CONTINUOUS
370
-3
390
F
  0
LAYER
  5
217
100
AcDbSymbolTableRecord
100
AcDbLayerTableRecord
  2
INTFCLR_2767
 70
0
 62
7
  6
CONTINUOUS
370
-3
390
F
  0
LAYER
  5
218
100
AcDbSymbolTableRecord
100
AcDbLayerTableRecord
  2
INTFCLR_4283
 70
0
 62
7
  6
CONTINUOUS
370
-3
390
F
  0
LAYER
  5
219
100
AcDbSymbolTableRecord
100
AcDbLayerTableRecord
  2
NONE
 70
0
 62
7
  6
CONTINUOUS
370
-3
390
F
  0
LAYER
  5
21A
100
AcDbSymbolTableRecord
100
AcDbLayerTableRecord
  2
_1642
 70
0
 62
7
  6
CONTINUOUS
370
-3
390
F
  0
LAYER
  5
21B
100
AcDbSymbolTableRecord
100
AcDbLayerTableRecord
  2
_1831
 70
0
 62
7
  6
CONTINUOUS
370
-3
390
F
  0
LAYER
  5
21C
100
AcDbSymbolTableRecord
100
AcDbLayerTableRecord
  2
_2289
 70
0
 62
7
  6
CONTINUOUS
370
-3
390
F
  0
LAYER
  5
21D
100
AcDbSymbolTableRecord
100
AcDbLayerTableRecord
  2
_2638
 70
0
 62
7
  6
CONTINUOUS
370
-3
390
F
  0
LAYER
  5
21E
100
AcDbSymbolTableRecord
100
AcDbLayerTableRecord
  2
_2673
 70
0
 62
7
  6
CONTINUOUS
370
-3
390
F
  0
ENDTAB
  0
TABLE
  2
STYLE
  5
3
100
AcDbSymbolTable
 70
1
  0
STYLE
  5
11
100
AcDbSymbolTableRecord
100
AcDbTextStyleTableRecord
  2
STANDARD
 70
0
 40
0.0
 41
0.8
 50
0.0
 71
0
 42
0.2
  3
txt
  4

  0
STYLE
  5
21F
100
AcDbSymbolTableRecord
100
AcDbTextStyleTableRecord
  2
TEXTSTYLE_1
 70
0
 40
0.0
 41
0.8
 50
0.0
 71
0
 42
0.2
  3
gdt
  4

  0
ENDTAB
  0
TABLE
  2
VIEW
  5
6
100
AcDbSymbolTable
 70
0
  0
ENDTAB
  0
TABLE
  2
UCS
  5
7
100
AcDbSymbolTable
 70
0
  0
ENDTAB
  0
TABLE
  2
APPID
  5
9
100
AcDbSymbolTable
 70
1
  0
APPID
  5
220
100
AcDbSymbolTableRecord
100
AcDbRegAppTableRecord
  2
ACAD
 70
0
  0
ENDTAB
  0
TABLE
  2
BLOCK_RECORD
  5
1
100
AcDbSymbolTable
 70
0
  0
BLOCK_RECORD
  5
221
100
AcDbSymbolTableRecord
100
AcDbBlockTableRecord
  2
*Model_Space
  0
BLOCK_RECORD
  5
222
100
AcDbSymbolTableRecord
100
AcDbBlockTableRecord
  2
*Paper_Space
  0
BLOCK_RECORD
  5
223
100
AcDbSymbolTableRecord
100
AcDbBlockTableRecord
  2
_CLOSED
  0
ENDTAB
  0
TABLE
  2
DIMSTYLE
  5
A
100
AcDbSymbolTable
 70
1
100
AcDbDimStyleTable
 71
0
  0
DIMSTYLE
105
224
100
AcDbSymbolTableRecord
100
AcDbDimStyleTableRecord
  2
STANDARD
 70
0
  3

  4

 40
1.0
 41
0.1875
 42
0.0625
 43
0.38
 44
0.125
 45
0.0
 46
0.0
 47
0.0001
 48
0.0001
140
0.15625
141
0.09
142
0.0
143
25.4
144
1.0
145
0.0
146
1.0
147
0.09
 71
0.0
 72
0.0
 73
1
 74
1
 75
0
 76
0
 77
0
 78
4
 79
1
170
0
171
3
172
0
173
0
174
0
175
0
176
0
177
0
178
0
270
2
179
4
271
4
272
4
273
2
274
2
275
0
280
0
281
0
282
0
283
1
284
4
285
0
286
0
287
3
288
0
340
11
278
46
341
223
342
223
343
223
344
223
  0
ENDTAB
  0
ENDSEC
  0
SECTION
  2
BLOCKS
  0
BLOCK
  5
20
100
AcDbEntity
  8
0
100
AcDbBlockBegin
  2
*Model_Space
 70
0
 10
0.0
 20
0.0
 30
0.0
  3
*Model_Space
  1

  0
ENDBLK
  5
21
100
AcDbEntity
  8
0
100
AcDbBlockEnd
  0
BLOCK
  5
1C
100
AcDbEntity
  8
0
100
AcDbBlockBegin
  2
*Paper_Space
 70
0
 10
0.0
 20
0.0
 30
0.0
  3
*Paper_Space
  1

  0
ENDBLK
  5
1D
100
AcDbEntity
  8
0
100
AcDbBlockEnd
  0
BLOCK
  5
225
100
AcDbEntity
  8
0
100
AcDbBlockBegin
  2
_CLOSED
 70
64
 10
0.0
 20
0.0
  3
_CLOSED
  1

  0
LINE
  5
226
100
AcDbEntity
  8
0
  6
BYBLOCK
 62
0
100
AcDbLine
 10
0.0
 20
0.0
 11
-1.0
 21
0.1666666667
  0
LINE
  5
227
100
AcDbEntity
  8
0
  6
BYBLOCK
 62
0
100
AcDbLine
 10
-1.0
 20
0.1666666667
 11
-1.0
 21
-0.1666666667
  0
LINE
  5
228
100
AcDbEntity
  8
0
  6
BYBLOCK
 62
0
100
AcDbLine
 10
-1.0
 20
-0.1666666667
 11
0.0
 21
0.0
  0
LINE
  5
229
100
AcDbEntity
  8
0
  6
BYBLOCK
 62
0
100
AcDbLine
 10
-1.0
 20
0.0
 11
0.0
 21
0.0
  0
ENDBLK
  5
22A
100
AcDbEntity
  8
0
  6
BYBLOCK
 62
0
100
AcDbBlockEnd
  0
ENDSEC
  0
SECTION
  2
ENTITIES
  0
MTEXT
  5
22B
100
AcDbEntity
  8
0
100
AcDbMText
 62
7
  6
CONTINUOUS
  7
STANDARD
 71
1
 72
1
 10
15.9560215477
 20
0.9479130325
 30
0.0
 11
1.0
 21
0.0
 31
0.0
 44
0.9
  1
SCALE: 1:1.000
 40
0.3
 41
3.36
  0
LEADER
  5
22C
100
AcDbEntity
  8
0
100
AcDbLeader
 62
2
  6
CONTINUOUS
  3
STANDARD
 71
1
 72
0
 73
0
 75
0
 40
0.15625
 41
1.0
 76
3
 10
15.1810347061
 20
6.0476247044
 30
0.0
 10
15.1634108875
 20
6.0705562644
 30
0.0
 10
14.9134108875
 20
6.0705562644
 30
0.0
340
22D
1001
ACAD
1000
DSTYLE
1002
{
1070
77
1070
0
1002
}
  0
MTEXT
  5
22D
102
{ACAD_REACTORS
330
22C
102
}
100
AcDbEntity
  8
0
100
AcDbMText
 62
2
  6
CONTINUOUS
  7
STANDARD
 71
3
 72
1
 10
14.9134108875
 20
6.1486812644
 30
0.0
 11
1.0
 21
0.0
 31
0.0
 44
0.9
  1
1/4"- 28 
 40
0.15625
 41
1.125
  0
LINE
  5
22E
100
AcDbEntity
  8
0
100
AcDbLine
 62
7
  6
CONTINUOUS
 10
0.0
 20
0.0
 11
0.0
 21
17.0
  0
LINE
  5
22F
100
AcDbEntity
  8
0
100
AcDbLine
 62
7
  6
CONTINUOUS
 10
0.0
 20
0.0
 11
22.0
 21
0.0
  0
LINE
  5
230
100
AcDbEntity
  8
0
100
AcDbLine
 62
7
  6
CONTINUOUS
 10
0.0
 20
17.0
 11
22.0
 21
17.0
  0
LINE
  5
231
100
AcDbEntity
  8
0
100
AcDbLine
 62
7
  6
CONTINUOUS
 10
22.0
 20
0.0
 11
22.0
 21
17.0
  0
LINE
  5
232
100
AcDbEntity
  8
0
100
AcDbLine
 62
7
  6
CONTINUOUS
 10
5.5433672762
 20
5.6216198968
 11
5.5433672762
 21
5.4186198968
  0
LINE
  5
233
100
AcDbEntity
  8
0
100
AcDbLine
 62
7
  6
CONTINUOUS
 10
6.0238672762
 20
6.0872060895
 11
6.0238672762
 21
6.1021198968
  0
LINE
  5
234
100
AcDbEntity
  8
0
100
AcDbLine
 62
7
  6
CONTINUOUS
 10
5.5632810834
 20
5.4136198968
 11
5.5483672762
 21
5.4136198968
  0
LINE
  5
235
100
AcDbEntity
  8
0
100
AcDbLine
 62
7
  6
CONTINUOUS
 10
6.1303672762
 20
6.4453198968
 11
6.1303672762
 21
6.5513698968
  0
LINE
  5
236
100
AcDbEntity
  8
0
100
AcDbLine
 62
7
  6
CONTINUOUS
 10
5.9697079822
 20
6.4312640298
 11
5.9512925929
 21
6.535702892
  0
LINE
  5
237
100
AcDbEntity
  8
0
100
AcDbLine
 62
7
  6
CONTINUOUS
 10
6.2368672762
 20
6.0872060895
 11
6.2368672762
 21
6.1021198968
  0
LINE
  5
238
100
AcDbEntity
  8
0
100
AcDbLine
 62
7
  6
CONTINUOUS
 10
5.5632810834
 20
5.6266198968
 11
5.5483672762
 21
5.6266198968
  0
LINE
  5
239
100
AcDbEntity
  8
0
100
AcDbLine
 62
7
  6
CONTINUOUS
 10
6.2318672762
 20
6.1071198968
 11
6.0288672762
 21
6.1071198968
  0
LINE
  5
23A
100
AcDbEntity
  8
0
100
AcDbLine
 62
7
  6
CONTINUOUS
 10
5.0396220839
 20
12.6330477814
 11
5.0396220839
 21
12.5861727814
  0
LINE
  5
23B
100
AcDbEntity
  8
0
100
AcDbLine
 62
7
  6
CONTINUOUS
 10
5.1456720839
 20
12.5124227814
 11
5.1456720839
 21
12.5861727814
  0
LINE
  5
23C
100
AcDbEntity
  8
0
100
AcDbLine
 62
7
  6
CONTINUOUS
 10
5.1456720839
 20
12.6330477814
 11
5.1456720839
 21
12.8995477814
  0
LINE
  5
23D
100
AcDbEntity
  8
0
100
AcDbLine
 62
7
  6
CONTINUOUS
 10
5.1456720839
 20
12.9932977814
 11
5.1456720839
 21
13.0964227814
  0
LINE
  5
23E
100
AcDbEntity
  8
0
100
AcDbLine
 62
7
  6
CONTINUOUS
 10
5.4838720839
 20
12.1235477814
 11
5.4838720839
 21
12.3265477814
  0
LINE
  5
23F
100
AcDbEntity
  8
0
100
AcDbLine
 62
7
  6
CONTINUOUS
 10
5.4938720839
 20
12.0106727814
 11
5.4938720839
 21
12.1185477814
  0
LINE
  5
240
100
AcDbEntity
  8
0
100
AcDbLine
 62
7
  6
CONTINUOUS
 10
5.4938720839
 20
12.3315477814
 11
5.4938720839
 21
12.4924227814
  0
LINE
  5
241
100
AcDbEntity
  8
0
100
AcDbLine
 62
7
  6
CONTINUOUS
 10
5.4938720839
 20
13.1164227814
 11
5.4938720839
 21
13.1894227814
  0
LINE
  5
242
100
AcDbEntity
  8
0
100
AcDbLine
 62
7
  6
CONTINUOUS
 10
6.6278720839
 20
11.9906727814
 11
5.5138720839
 21
11.9906727814
  0
LINE
  5
243
100
AcDbEntity
  8
0
100
AcDbLine
 62
7
  6
CONTINUOUS
 10
5.4888720839
 20
12.1185477814
 11
5.4938720839
 21
12.1185477814
  0
LINE
  5
244
100
AcDbEntity
  8
0
100
AcDbLine
 62
7
  6
CONTINUOUS
 10
6.0708720839
 20
12.1635599777
 11
6.0176220839
 21
12.1943038795
  0
LINE
  5
245
100
AcDbEntity
  8
0
100
AcDbLine
 62
7
  6
CONTINUOUS
 10
5.4888720839
 20
12.3315477814
 11
5.4938720839
 21
12.3315477814
  0
LINE
  5
246
100
AcDbEntity
  8
0
100
AcDbLine
 62
7
  6
CONTINUOUS
 10
6.0708720839
 20
12.286535585
 11
6.1241220839
 21
12.2557916832
  0
LINE
  5
247
100
AcDbEntity
  8
0
100
AcDbLine
 62
7
  6
CONTINUOUS
 10
5.8917974006
 20
12.5861727814
 11
5.8917974006
 21
12.6330477814
  0
LINE
  5
248
100
AcDbEntity
  8
0
100
AcDbLine
 62
7
  6
CONTINUOUS
 10
5.9183525482
 20
12.6330477814
 11
5.9183525482
 21
12.5861727814
  0
LINE
  5
249
100
AcDbEntity
  8
0
100
AcDbLine
 62
7
  6
CONTINUOUS
 10
6.9760720839
 20
12.4924227814
 11
5.1656720839
 21
12.4924227814
  0
LINE
  5
24A
100
AcDbEntity
  8
0
100
AcDbLine
 62
7
  6
CONTINUOUS
 10
6.0176220839
 20
12.1943038795
 11
6.0176220839
 21
12.2557916832
  0
LINE
  5
24B
100
AcDbEntity
  8
0
100
AcDbLine
 62
7
  6
CONTINUOUS
 10
6.0708720839
 20
12.6330477814
 11
6.0708720839
 21
12.5861727814
  0
LINE
  5
24C
100
AcDbEntity
  8
0
100
AcDbLine
 62
7
  6
CONTINUOUS
 10
5.0396224887
 20
12.5861727814
 11
7.1021154163
 21
12.5861727814
  0
LINE
  5
24D
100
AcDbEntity
  8
0
100
AcDbLine
 62
7
  6
CONTINUOUS
 10
6.1241220839
 20
12.2557916832
 11
6.1241220839
 21
12.1943038795
  0
LINE
  5
24E
100
AcDbEntity
  8
0
100
AcDbLine
 62
7
  6
CONTINUOUS
 10
5.0396224887
 20
12.6330477814
 11
7.1021154163
 21
12.6330477814
  0
LINE
  5
24F
100
AcDbEntity
  8
03__ASM_ALL_CURVES
100
AcDbLine
 62
8
  6
PHANTOM
 10
7.1021220839
 20
12.8044227814
 11
5.0396220839
 21
12.8044227814
  0
LINE
  5
250
100
AcDbEntity
  8
0
100
AcDbLine
 62
7
  6
CONTINUOUS
 10
6.0176220839
 20
12.2557916832
 11
6.0708720839
 21
12.286535585
  0
LINE
  5
251
100
AcDbEntity
  8
0
100
AcDbLine
 62
7
  6
CONTINUOUS
 10
5.1456720839
 20
12.8995477814
 11
6.9960720839
 21
12.8995477814
  0
LINE
  5
252
100
AcDbEntity
  8
0
100
AcDbLine
 62
7
  6
CONTINUOUS
 10
6.1241220839
 20
12.1943038795
 11
6.0708720839
 21
12.1635599777
  0
LINE
  5
253
100
AcDbEntity
  8
0
100
AcDbLine
 62
7
  6
CONTINUOUS
 10
6.9960720839
 20
12.9932977814
 11
5.1456720839
 21
12.9932977814
  0
LINE
  5
254
100
AcDbEntity
  8
0
100
AcDbLine
 62
7
  6
CONTINUOUS
 10
5.1656720839
 20
13.1164227814
 11
6.9760720839
 21
13.1164227814
  0
LINE
  5
255
100
AcDbEntity
  8
0
100
AcDbLine
 62
7
  6
CONTINUOUS
 10
6.6478720839
 20
12.0106727814
 11
6.6478720839
 21
12.4924227814
  0
LINE
  5
256
100
AcDbEntity
  8
0
100
AcDbLine
 62
7
  6
CONTINUOUS
 10
6.6478720839
 20
13.1164227814
 11
6.6478720839
 21
13.1894227814
  0
LINE
  5
257
100
AcDbEntity
  8
0
100
AcDbLine
 62
7
  6
CONTINUOUS
 10
5.5138720839
 20
13.2094227814
 11
6.6278720839
 21
13.2094227814
  0
LINE
  5
258
100
AcDbEntity
  8
0
100
AcDbLine
 62
7
  6
CONTINUOUS
 10
6.9960720839
 20
12.5124227814
 11
6.9960720839
 21
12.5861727814
  0
LINE
  5
259
100
AcDbEntity
  8
0
100
AcDbLine
 62
7
  6
CONTINUOUS
 10
6.9960720839
 20
12.6330477814
 11
6.9960720839
 21
12.8995477814
  0
LINE
  5
25A
100
AcDbEntity
  8
0
100
AcDbLine
 62
7
  6
CONTINUOUS
 10
6.9960720839
 20
12.9932977814
 11
6.9960720839
 21
13.0964227814
  0
LINE
  5
25B
100
AcDbEntity
  8
0
100
AcDbLine
 62
7
  6
CONTINUOUS
 10
7.1021220839
 20
12.6330477814
 11
7.1021220839
 21
12.5861727814
  0
LINE
  5
25C
100
AcDbEntity
  8
0
100
AcDbLine
 62
7
  6
CONTINUOUS
 10
15.5933552569
 20
4.4293747044
 11
15.5464802569
 21
4.4293747044
  0
LINE
  5
25D
100
AcDbEntity
  8
0
100
AcDbLine
 62
7
  6
CONTINUOUS
 10
16.0567302569
 20
4.5354247044
 11
15.9536052569
 21
4.5354247044
  0
LINE
  5
25E
100
AcDbEntity
  8
0
100
AcDbLine
 62
7
  6
CONTINUOUS
 10
15.8598552569
 20
4.5354247044
 11
15.5933552569
 21
4.5354247044
  0
LINE
  5
25F
100
AcDbEntity
  8
0
100
AcDbLine
 62
7
  6
CONTINUOUS
 10
15.5464802569
 20
4.5354247044
 11
15.4727302569
 21
4.5354247044
  0
LINE
  5
260
100
AcDbEntity
  8
0
100
AcDbLine
 62
7
  6
CONTINUOUS
 10
14.9509802569
 20
6.0176247044
 11
14.9509802569
 21
4.9036247044
  0
LINE
  5
261
100
AcDbEntity
  8
0
100
AcDbLine
 62
7
  6
CONTINUOUS
 10
16.1497302569
 20
4.8836247044
 11
16.0767302569
 21
4.8836247044
  0
LINE
  5
262
100
AcDbEntity
  8
0
100
AcDbLine
 62
7
  6
CONTINUOUS
 10
15.4527302569
 20
4.8836247044
 11
14.9709802569
 21
4.8836247044
  0
LINE
  5
263
100
AcDbEntity
  8
0
100
AcDbLine
 62
7
  6
CONTINUOUS
 10
15.0788552569
 20
6.0426247044
 11
15.0788552569
 21
6.0376247044
  0
LINE
  5
264
100
AcDbEntity
  8
0
100
AcDbLine
 62
7
  6
CONTINUOUS
 10
15.2918552569
 20
6.0426247044
 11
15.2918552569
 21
6.0376247044
  0
LINE
  5
265
100
AcDbEntity
  8
0
100
AcDbLine
 62
7
  6
CONTINUOUS
 10
15.4527302569
 20
6.3658247044
 11
15.4527302569
 21
4.5554252045
  0
LINE
  5
266
100
AcDbEntity
  8
0
100
AcDbLine
 62
7
  6
CONTINUOUS
 10
15.5464802569
 20
4.4293825238
 11
15.5464802569
 21
6.4918747044
  0
LINE
  5
267
100
AcDbEntity
  8
0
100
AcDbLine
 62
7
  6
CONTINUOUS
 10
15.5933552569
 20
6.4918747044
 11
15.5933552569
 21
4.4293825239
  0
LINE
  5
268
100
AcDbEntity
  8
03__ASM_ALL_CURVES
100
AcDbLine
 62
8
  6
PHANTOM
 10
15.7647302569
 20
4.430776323
 11
15.7647302569
 21
6.4906435336
  0
LINE
  5
269
100
AcDbEntity
  8
0
100
AcDbLine
 62
7
  6
CONTINUOUS
 10
15.8598552569
 20
6.3858247044
 11
15.8598552569
 21
4.5354247044
  0
LINE
  5
26A
100
AcDbEntity
  8
0
100
AcDbLine
 62
7
  6
CONTINUOUS
 10
15.9536052569
 20
4.5354247044
 11
15.9536052569
 21
6.3858247044
  0
LINE
  5
26B
100
AcDbEntity
  8
0
100
AcDbLine
 62
7
  6
CONTINUOUS
 10
16.0767302569
 20
6.3658242044
 11
16.0767302569
 21
4.5554252045
  0
LINE
  5
26C
100
AcDbEntity
  8
0
100
AcDbLine
 62
7
  6
CONTINUOUS
 10
16.1697302569
 20
6.017624122
 11
16.1697302569
 21
4.9036252869
  0
LINE
  5
26D
100
AcDbEntity
  8
0
100
AcDbLine
 62
7
  6
CONTINUOUS
 10
16.1497302569
 20
6.0376247044
 11
16.0767302569
 21
6.0376247044
  0
LINE
  5
26E
100
AcDbEntity
  8
0
100
AcDbLine
 62
7
  6
CONTINUOUS
 10
15.4527302569
 20
6.0376247044
 11
15.2918552569
 21
6.0376247044
  0
LINE
  5
26F
100
AcDbEntity
  8
0
100
AcDbLine
 62
7
  6
CONTINUOUS
 10
15.0788552569
 20
6.0376247044
 11
14.9709802569
 21
6.0376247044
  0
LINE
  5
270
100
AcDbEntity
  8
0
100
AcDbLine
 62
7
  6
CONTINUOUS
 10
15.0838552569
 20
6.0476247044
 11
15.2868552569
 21
6.0476247044
  0
LINE
  5
271
100
AcDbEntity
  8
0
100
AcDbLine
 62
7
  6
CONTINUOUS
 10
16.0567302569
 20
6.3858247044
 11
15.9536052569
 21
6.3858247044
  0
LINE
  5
272
100
AcDbEntity
  8
0
100
AcDbLine
 62
7
  6
CONTINUOUS
 10
15.8598552569
 20
6.3858247044
 11
15.5933552569
 21
6.3858247044
  0
LINE
  5
273
100
AcDbEntity
  8
0
100
AcDbLine
 62
7
  6
CONTINUOUS
 10
15.5464802569
 20
6.3858247044
 11
15.4727302569
 21
6.3858247044
  0
LINE
  5
274
100
AcDbEntity
  8
0
100
AcDbLine
 62
7
  6
CONTINUOUS
 10
15.5933552569
 20
6.4918747044
 11
15.5464802569
 21
6.4918747044
  0
LINE
  5
275
100
AcDbEntity
  8
0
100
AcDbLine
 62
7
  6
CONTINUOUS
 10
14.4704730175
 20
12.7693310386
 11
14.4591261586
 21
12.7326125897
  0
LINE
  5
276
100
AcDbEntity
  8
0
100
AcDbLine
 62
7
  6
CONTINUOUS
 10
14.6839628806
 20
13.1009941616
 11
14.658999791
 21
13.020213574
  0
LINE
  5
277
100
AcDbEntity
  8
0
100
AcDbLine
 62
7
  6
CONTINUOUS
 10
14.5604485391
 20
12.7013016059
 11
14.5425961478
 21
12.6435312464
  0
LINE
  5
278
100
AcDbEntity
  8
0
100
AcDbLine
 62
7
  6
CONTINUOUS
 10
14.9696698659
 20
13.0594352513
 11
14.9810167248
 21
13.0961537002
  0
LINE
  5
279
100
AcDbEntity
  8
0
100
AcDbLine
 62
7
  6
CONTINUOUS
 10
14.77396697
 20
12.3753357168
 11
14.7833535135
 21
12.3547018401
  0
LINE
  5
27A
100
AcDbEntity
  8
0
100
AcDbLine
 62
7
  6
CONTINUOUS
 10
14.7739603751
 20
12.3753359265
 11
14.742415327
 21
12.4505006015
  0
LINE
  5
27B
100
AcDbEntity
  8
0
100
AcDbLine
 62
7
  6
CONTINUOUS
 10
14.8704323593
 20
12.5250595734
 11
14.753816908
 21
12.1476918347
  0
LINE
  5
27C
100
AcDbEntity
  8
0
100
AcDbLine
 62
7
  6
CONTINUOUS
 10
15.0514154669
 20
13.0025381663
 11
15.0498361794
 21
12.9974275902
  0
LINE
  5
27D
100
AcDbEntity
  8
0
100
AcDbLine
 62
7
  6
CONTINUOUS
 10
15.0115898304
 20
12.1452598076
 11
15.0033149712
 21
12.166302604
  0
LINE
  5
27E
100
AcDbEntity
  8
0
100
AcDbLine
 62
7
  6
CONTINUOUS
 10
15.1411763382
 20
13.1058924665
 11
15.1298294792
 21
13.0691740176
  0
LINE
  5
27F
100
AcDbEntity
  8
0
100
AcDbLine
 62
7
  6
CONTINUOUS
 10
15.0874320557
 20
12.4528091879
 11
15.0838449157
 21
12.4601190107
  0
LINE
  5
280
100
AcDbEntity
  8
0
100
AcDbLine
 62
7
  6
CONTINUOUS
 10
15.1214395662
 20
12.4860623334
 11
15.1363236928
 21
12.5342273846
  0
LINE
  5
281
100
AcDbEntity
  8
0
100
AcDbLine
 62
7
  6
CONTINUOUS
 10
15.129873593
 20
12.4811803378
 11
15.1424245301
 21
12.5217951852
  0
LINE
  5
282
100
AcDbEntity
  8
0
100
AcDbLine
 62
7
  6
CONTINUOUS
 10
15.0115898304
 20
12.1452598076
 11
14.9825356157
 21
12.0713755383
  0
LINE
  5
283
100
AcDbEntity
  8
0
100
AcDbLine
 62
7
  6
CONTINUOUS
 10
15.1363236928
 20
12.5342273846
 11
15.1424245301
 21
12.5217951852
  0
LINE
  5
284
100
AcDbEntity
  8
0
100
AcDbLine
 62
7
  6
CONTINUOUS
 10
15.2344166887
 20
12.5342273846
 11
15.2195325621
 21
12.4860623334
  0
LINE
  5
285
100
AcDbEntity
  8
0
100
AcDbLine
 62
7
  6
CONTINUOUS
 10
15.1630440009
 20
12.4619798078
 11
15.1214395662
 21
12.4860623334
  0
LINE
  5
286
100
AcDbEntity
  8
0
100
AcDbLine
 62
7
  6
CONTINUOUS
 10
15.192812254
 20
12.5583099102
 11
15.1989130914
 21
12.5458777109
  0
LINE
  5
287
100
AcDbEntity
  8
0
100
AcDbLine
 62
7
  6
CONTINUOUS
 10
15.1363236928
 20
12.5342273846
 11
15.192812254
 21
12.5583099102
  0
LINE
  5
288
100
AcDbEntity
  8
0
100
AcDbLine
 62
7
  6
CONTINUOUS
 10
15.1989130914
 20
12.5458777109
 11
15.1424245301
 21
12.5217951852
  0
LINE
  5
289
100
AcDbEntity
  8
0
100
AcDbLine
 62
7
  6
CONTINUOUS
 10
15.2320834992
 20
12.5266771808
 11
15.1989130914
 21
12.5458777109
  0
LINE
  5
28A
100
AcDbEntity
  8
0
100
AcDbLine
 62
7
  6
CONTINUOUS
 10
15.192812254
 20
12.5583099102
 11
15.2344166887
 21
12.5342273846
  0
LINE
  5
28B
100
AcDbEntity
  8
0
100
AcDbLine
 62
7
  6
CONTINUOUS
 10
15.2786488979
 20
12.5466447849
 11
15.2750617579
 21
12.5539546077
  0
LINE
  5
28C
100
AcDbEntity
  8
0
100
AcDbLine
 62
7
  6
CONTINUOUS
 10
15.2195325621
 20
12.4860623334
 11
15.1630440009
 21
12.4619798078
  0
LINE
  5
28D
100
AcDbEntity
  8
0
100
AcDbLine
 62
7
  6
CONTINUOUS
 10
15.0184897881
 20
12.9945150135
 11
14.9696698659
 21
13.0594352513
  0
LINE
  5
28E
100
AcDbEntity
  8
0
100
AcDbLine
 62
7
  6
CONTINUOUS
 10
14.9810167248
 20
13.0961537002
 11
15.0514154669
 21
13.0025381663
  0
LINE
  5
28F
100
AcDbEntity
  8
0
100
AcDbLine
 62
7
  6
CONTINUOUS
 10
15.1621791692
 20
13.0032522805
 11
15.1298294792
 21
13.0691740176
  0
LINE
  5
290
100
AcDbEntity
  8
0
100
AcDbLine
 62
7
  6
CONTINUOUS
 10
15.9729880135
 20
12.1843441067
 11
15.8563725622
 21
11.806976368
  0
LINE
  5
291
100
AcDbEntity
  8
0
100
AcDbLine
 62
7
  6
CONTINUOUS
 10
15.9681711396
 20
12.0062968886
 11
16.0366222891
 21
12.0505604013
  0
LINE
  5
292
100
AcDbEntity
  8
0
100
AcDbLine
 62
7
  6
CONTINUOUS
 10
16.4518736108
 20
12.5546684254
 11
16.4269105212
 21
12.4738878378
  0
LINE
  5
293
100
AcDbEntity
  8
0
100
AcDbLine
 62
7
  6
CONTINUOUS
 10
16.3283592693
 20
12.1549758698
 11
16.310506878
 21
12.0972055102
  0
LINE
  5
294
100
AcDbEntity
  8
0
100
AcDbLine
 62
7
  6
CONTINUOUS
 10
16.4410285088
 20
12.1603833349
 11
16.4296816498
 21
12.123664886
  0
ARC
  5
295
100
AcDbEntity
  8
03__ASM_ALL_CURVES
100
AcDbCircle
 62
8
  6
PHANTOM
 10
6.1303672762
 20
5.5201198968
 40
1.03125
100
AcDbArc
 50
90.0
 51
100.0000259953
  0
ARC
  5
296
100
AcDbEntity
  8
0
100
AcDbCircle
 62
7
  6
CONTINUOUS
 10
6.1303672762
 20
5.5201198968
 40
1.03125
100
AcDbArc
 50
100.0
 51
90.0
  0
CIRCLE
  5
297
100
AcDbEntity
  8
0
100
AcDbCircle
 62
7
  6
CONTINUOUS
 10
6.1303672762
 20
5.5201198968
 40
0.9252
  0
CIRCLE
  5
298
100
AcDbEntity
  8
0
100
AcDbCircle
 62
7
  6
CONTINUOUS
 10
6.1303672762
 20
5.5201198968
 40
0.7511
  0
CIRCLE
  5
299
100
AcDbEntity
  8
0
100
AcDbCircle
 62
7
  6
CONTINUOUS
 10
6.1303672762
 20
5.5201198968
 40
0.6930666667
  0
CIRCLE
  5
29A
100
AcDbEntity
  8
0
100
AcDbCircle
 62
7
  6
CONTINUOUS
 10
6.1303672762
 20
5.5201198968
 40
0.577
  0
CIRCLE
  5
29B
100
AcDbEntity
  8
0
100
AcDbCircle
 62
7
  6
CONTINUOUS
 10
6.1303672762
 20
5.5201198968
 40
0.375
  0
ARC
  5
29C
100
AcDbEntity
  8
0
100
AcDbCircle
 62
7
  6
CONTINUOUS
 10
5.5483672762
 20
5.6216198968
 40
0.005
100
AcDbArc
 50
90.0
 51
180.0
  0
ARC
  5
29D
100
AcDbEntity
  8
0
100
AcDbCircle
 62
7
  6
CONTINUOUS
 10
5.5483672762
 20
5.4186198968
 40
0.005
100
AcDbArc
 50
180.0
 51
270.0
  0
ARC
  5
29E
100
AcDbEntity
  8
0
100
AcDbCircle
 62
7
  6
CONTINUOUS
 10
6.2318672762
 20
6.1021198968
 40
0.005
100
AcDbArc
 50
0.0
 51
90.0
  0
ARC
  5
29F
100
AcDbEntity
  8
0
100
AcDbCircle
 62
7
  6
CONTINUOUS
 10
6.0288672762
 20
6.1021198968
 40
0.005
100
AcDbArc
 50
90.0
 51
180.0
  0
ARC
  5
2A0
100
AcDbEntity
  8
0
100
AcDbCircle
 62
7
  6
CONTINUOUS
 10
6.0708720839
 20
12.2250477814
 40
0.1065
100
AcDbArc
 50
90.0
 51
89.6749729144
  0
ARC
  5
2A1
100
AcDbEntity
  8
0
100
AcDbCircle
 62
7
  6
CONTINUOUS
 10
6.9960720839
 20
12.9464227814
 40
0.046875
100
AcDbArc
 50
90.0
 51
270.0
  0
ARC
  5
2A2
100
AcDbEntity
  8
0
100
AcDbCircle
 62
7
  6
CONTINUOUS
 10
5.1456720839
 20
12.9464227814
 40
0.046875
100
AcDbArc
 50
270.0
 51
90.0
  0
CIRCLE
  5
2A3
100
AcDbEntity
  8
0
100
AcDbCircle
 62
7
  6
CONTINUOUS
 10
6.0708720839
 20
12.9464227814
 40
0.0234375
  0
ARC
  5
2A4
100
AcDbEntity
  8
0
100
AcDbCircle
 62
7
  6
CONTINUOUS
 10
6.9760720839
 20
12.5124227814
 40
0.02
100
AcDbArc
 50
270.0
 51
360.0
  0
ARC
  5
2A5
100
AcDbEntity
  8
0
100
AcDbCircle
 62
7
  6
CONTINUOUS
 10
5.1656720839
 20
12.5124227814
 40
0.02
100
AcDbArc
 50
180.0
 51
270.0
  0
ARC
  5
2A6
100
AcDbEntity
  8
0
100
AcDbCircle
 62
7
  6
CONTINUOUS
 10
5.1656720839
 20
13.0964227814
 40
0.02
100
AcDbArc
 50
90.0
 51
180.0
  0
ARC
  5
2A7
100
AcDbEntity
  8
0
100
AcDbCircle
 62
7
  6
CONTINUOUS
 10
6.9760720839
 20
13.0964227814
 40
0.02
100
AcDbArc
 50
0.0
 51
90.0
  0
ARC
  5
2A8
100
AcDbEntity
  8
0
100
AcDbCircle
 62
7
  6
CONTINUOUS
 10
5.5138720839
 20
12.0106727814
 40
0.02
100
AcDbArc
 50
180.0
 51
270.0
  0
ARC
  5
2A9
100
AcDbEntity
  8
0
100
AcDbCircle
 62
7
  6
CONTINUOUS
 10
6.6278720839
 20
12.0106727814
 40
0.02
100
AcDbArc
 50
270.0
 51
360.0
  0
ARC
  5
2AA
100
AcDbEntity
  8
0
100
AcDbCircle
 62
7
  6
CONTINUOUS
 10
5.5138720839
 20
13.1894227814
 40
0.02
100
AcDbArc
 50
90.0
 51
180.0
  0
ARC
  5
2AB
100
AcDbEntity
  8
0
100
AcDbCircle
 62
7
  6
CONTINUOUS
 10
6.6278720839
 20
13.1894227814
 40
0.02
100
AcDbArc
 50
0.0
 51
90.0
  0
ARC
  5
2AC
100
AcDbEntity
  8
0
100
AcDbCircle
 62
7
  6
CONTINUOUS
 10
5.4888720839
 20
12.3265477814
 40
0.005
100
AcDbArc
 50
90.0
 51
180.0
  0
ARC
  5
2AD
100
AcDbEntity
  8
0
100
AcDbCircle
 62
7
  6
CONTINUOUS
 10
5.4888720839
 20
12.1235477814
 40
0.005
100
AcDbArc
 50
180.0
 51
270.0
  0
ARC
  5
2AE
100
AcDbEntity
  8
0
100
AcDbCircle
 62
7
  6
CONTINUOUS
 10
15.9067302569
 20
6.3858247044
 40
0.046875
100
AcDbArc
 50
300.0
 51
360.0
  0
ARC
  5
2AF
100
AcDbEntity
  8
0
100
AcDbCircle
 62
7
  6
CONTINUOUS
 10
15.9067302569
 20
6.3858247044
 40
0.046875
100
AcDbArc
 50
180.0
 51
240.0
  0
ARC
  5
2B0
100
AcDbEntity
  8
0
100
AcDbCircle
 62
7
  6
CONTINUOUS
 10
15.9067302569
 20
4.5354247044
 40
0.046875
100
AcDbArc
 50
120.0
 51
180.0
  0
ARC
  5
2B1
100
AcDbEntity
  8
0
100
AcDbCircle
 62
7
  6
CONTINUOUS
 10
15.9067302569
 20
4.5354247044
 40
0.046875
100
AcDbArc
 50
0.0
 51
60.0
  0
ARC
  5
2B2
100
AcDbEntity
  8
0
100
AcDbCircle
 62
7
  6
CONTINUOUS
 10
14.9709802569
 20
6.0176247044
 40
0.02
100
AcDbArc
 50
90.0
 51
180.0
  0
ARC
  5
2B3
100
AcDbEntity
  8
0
100
AcDbCircle
 62
7
  6
CONTINUOUS
 10
14.9709802569
 20
4.9036247044
 40
0.02
100
AcDbArc
 50
180.0
 51
270.0
  0
ARC
  5
2B4
100
AcDbEntity
  8
0
100
AcDbCircle
 62
7
  6
CONTINUOUS
 10
16.1497302569
 20
4.9036247044
 40
0.02
100
AcDbArc
 50
270.0
 51
360.0
  0
ARC
  5
2B5
100
AcDbEntity
  8
0
100
AcDbCircle
 62
7
  6
CONTINUOUS
 10
16.1497302569
 20
6.0176247044
 40
0.02
100
AcDbArc
 50
0.0
 51
90.0
  0
ARC
  5
2B6
100
AcDbEntity
  8
0
100
AcDbCircle
 62
7
  6
CONTINUOUS
 10
16.0567302569
 20
6.3658247044
 40
0.02
100
AcDbArc
 50
0.0
 51
90.0
  0
ARC
  5
2B7
100
AcDbEntity
  8
0
100
AcDbCircle
 62
7
  6
CONTINUOUS
 10
16.0567302569
 20
4.5554247044
 40
0.02
100
AcDbArc
 50
270.0
 51
360.0
  0
ARC
  5
2B8
100
AcDbEntity
  8
0
100
AcDbCircle
 62
7
  6
CONTINUOUS
 10
15.4727302569
 20
6.3658247044
 40
0.02
100
AcDbArc
 50
90.0
 51
180.0
  0
ARC
  5
2B9
100
AcDbEntity
  8
0
100
AcDbCircle
 62
7
  6
CONTINUOUS
 10
15.4727302569
 20
4.5554247044
 40
0.02
100
AcDbArc
 50
180.0
 51
270.0
  0
ARC
  5
2BA
100
AcDbEntity
  8
0
100
AcDbCircle
 62
7
  6
CONTINUOUS
 10
15.0838552569
 20
6.0426247044
 40
0.005
100
AcDbArc
 50
90.0
 51
180.0
  0
ARC
  5
2BB
100
AcDbEntity
  8
0
100
AcDbCircle
 62
7
  6
CONTINUOUS
 10
15.2868552569
 20
6.0426247044
 40
0.005
100
AcDbArc
 50
0.0
 51
90.0
  0
ARC
  5
2BC
100
AcDbEntity
  8
0
100
AcDbCircle
 62
7
  6
CONTINUOUS
 10
15.1222220828
 20
11.4265963697
 40
1.6801946419
100
AcDbArc
 50
81.2600517863
 51
81.8235472148
  0
ARC
  5
2BD
100
AcDbEntity
  8
0
100
AcDbCircle
 62
7
  6
CONTINUOUS
 10
15.2379877623
 20
11.9728434517
 40
1.2758839882
100
AcDbArc
 50
89.1893977584
 51
89.8150693767
  0
ARC
  5
2BE
100
AcDbEntity
  8
0
100
AcDbCircle
 62
7
  6
CONTINUOUS
 10
15.1608543261
 20
11.8273528636
 40
1.1759001632
100
AcDbArc
 50
89.9354469568
 51
95.3359920933
  0
ARC
  5
2BF
100
AcDbEntity
  8
0
100
AcDbCircle
 62
7
  6
CONTINUOUS
 10
15.1506117946
 20
11.9484697445
 40
1.0543561682
100
AcDbArc
 50
95.3938797656
 51
97.1986930244
  0
ARC
  5
2C0
100
AcDbEntity
  8
0
100
AcDbCircle
 62
7
  6
CONTINUOUS
 10
15.4279529098
 20
12.8906050136
 40
1.0122846675
100
AcDbArc
 50
227.7323684463
 51
228.0367266165
  0
ARC
  5
2C1
100
AcDbEntity
  8
0
100
AcDbCircle
 62
7
  6
CONTINUOUS
 10
15.7190504664
 20
12.7997697356
 40
1.0113454251
100
AcDbArc
 50
277.6485143405
 51
277.9170971812
  0
ARC
  5
2C2
100
AcDbEntity
  8
0
100
AcDbCircle
 62
7
  6
CONTINUOUS
 10
15.0721313519
 20
12.6056439362
 40
0.5539534863
100
AcDbArc
 50
206.1438411234
 51
207.4028779058
  0
ARC
  5
2C3
100
AcDbEntity
  8
0
100
AcDbCircle
 62
7
  6
CONTINUOUS
 10
15.9375957747
 20
12.6000749842
 40
0.5369439119
100
AcDbArc
 50
25.2232420379
 51
26.1409425685
  0
ARC
  5
2C4
100
AcDbEntity
  8
0
100
AcDbCircle
 62
7
  6
CONTINUOUS
 10
15.7426336638
 20
12.1769272049
 40
0.4190582181
100
AcDbArc
 50
24.5544171163
 51
26.1411444854
  0
ARC
  5
2C5
100
AcDbEntity
  8
0
100
AcDbCircle
 62
7
  6
CONTINUOUS
 10
15.0903874406
 20
12.1238206915
 40
0.3523482183
100
AcDbArc
 50
206.1517379133
 51
208.1428439231
  0
ARC
  5
2C6
100
AcDbEntity
  8
0
100
AcDbCircle
 62
7
  6
CONTINUOUS
 10
14.7859306326
 20
12.6313119984
 40
0.3421564733
100
AcDbArc
 50
156.0120875051
 51
156.3505744282
  0
ARC
  5
2C7
100
AcDbEntity
  8
0
100
AcDbCircle
 62
7
  6
CONTINUOUS
 10
14.7836862607
 20
12.6322693469
 40
0.339716561
100
AcDbArc
 50
156.3466348474
 51
162.8201218199
  0
ARC
  5
2C8
100
AcDbEntity
  8
0
100
AcDbCircle
 62
7
  6
CONTINUOUS
 10
16.1056693916
 20
12.2237642603
 40
0.339121963
100
AcDbArc
 50
342.8321461724
 51
349.2777449252
  0
ARC
  5
2C9
100
AcDbEntity
  8
0
100
AcDbCircle
 62
7
  6
CONTINUOUS
 10
16.1356141381
 20
12.5639549085
 40
0.3049018759
100
AcDbArc
 50
336.2267452702
 51
342.8187091057
  0
ARC
  5
2CA
100
AcDbEntity
  8
0
100
AcDbCircle
 62
7
  6
CONTINUOUS
 10
14.9496202923
 20
12.9304117835
 40
0.3041777974
100
AcDbArc
 50
162.8288409683
 51
169.2876024182
  0
ARC
  5
2CB
100
AcDbEntity
  8
0
100
AcDbCircle
 62
7
  6
CONTINUOUS
 10
15.9183720366
 20
12.2828631751
 40
0.2554452994
100
AcDbArc
 50
329.4466569596
 51
335.0817702742
  0
ARC
  5
2CC
100
AcDbEntity
  8
0
100
AcDbCircle
 62
7
  6
CONTINUOUS
 10
15.2040264137
 20
12.4765982914
 40
0.1149461991
100
AcDbArc
 50
90.0016673804
 51
90.8271862834
  0
SPLINE
  5
2CD
100
AcDbEntity
  8
0
100
AcDbSpline
 62
7
  6
CONTINUOUS
 70
0
 71
3
 72
15
 73
11
 74
0
 42
0.0000001
 43
0.0000001
 44
0.0000000001
 40
0.0
 40
0.0
 40
0.0
 40
0.0
 40
0.0385515064
 40
0.147465147
 40
0.3093596374
 40
0.5000182782
 40
0.6906736919
 40
0.8525531512
 40
0.9614536907
 40
1.0
 40
1.0
 40
1.0
 40
1.0
 10
5.4938720839
 20
12.1185477814
 30
0.0
 10
5.4943717231
 20
12.1212544605
 30
0.0
 10
5.4962147519
 20
12.1316207149
 30
0.0
 10
5.4995255985
 20
12.1534637983
 30
0.0
 10
5.5028762422
 20
12.1862596708
 30
0.0
 10
5.5042772314
 20
12.2250514712
 30
0.0
 10
5.5028758985
 20
12.263842189
 30
0.0
 10
5.4995250471
 20
12.2966357867
 30
0.0
 10
5.4962144226
 20
12.3184764932
 30
0.0
 10
5.4943716434
 20
12.3288414648
 30
0.0
 10
5.4938720839
 20
12.3315477814
 30
0.0
  0
SPLINE
  5
2CE
100
AcDbEntity
  8
0
100
AcDbSpline
 62
7
  6
CONTINUOUS
 70
0
 71
3
 72
17
 73
13
 74
0
 42
0.0000001
 43
0.0000001
 44
0.0000000001
 40
0.0
 40
0.0
 40
0.0
 40
0.0
 40
0.1888750505
 40
0.3709352682
 40
0.5392556409
 40
0.6890301775
 40
0.8156301036
 40
0.9138756061
 40
0.9504099884
 40
0.9774484271
 40
0.9942324209
 40
1.0
 40
1.0
 40
1.0
 40
1.0
 10
15.9067302569
 20
6.338636942
 30
0.0
 10
15.9082813963
 20
6.338636942
 30
0.0
 10
15.9113295683
 20
6.3388230347
 30
0.0
 10
15.9157071541
 20
6.3395307898
 30
0.0
 10
15.9196933351
 20
6.3405424333
 30
0.0
 10
15.9231533093
 20
6.3417222161
 30
0.0
 10
15.9259882695
 20
6.3429236374
 30
0.0
 10
15.9279065504
 20
6.3438903455
 30
0.0
 10
15.9290644535
 20
6.3445428508
 30
0.0
 10
15.9296302463
 20
6.3448826618
 30
0.0
 10
15.9299744819
 20
6.3451003973
 30
0.0
 10
15.9301285468
 20
6.3452031861
 30
0.0
 10
15.9301677569
 20
6.3452297636
 30
0.0
  0
SPLINE
  5
2CF
100
AcDbEntity
  8
0
100
AcDbSpline
 62
7
  6
CONTINUOUS
 70
0
 71
3
 72
17
 73
13
 74
0
 42
0.0000001
 43
0.0000001
 44
0.0000000001
 40
0.0
 40
0.0
 40
0.0
 40
0.0
 40
0.022179303
 40
0.0489822648
 40
0.0854125041
 40
0.1837980752
 40
0.3107048302
 40
0.4606618889
 40
0.629000236
 40
0.7186418295
 40
0.811083513
 40
1.0
 40
1.0
 40
1.0
 40
1.0
 10
15.8832927569
 20
6.3452297636
 30
0.0
 10
15.8834476004
 20
6.3451337252
 30
0.0
 10
15.8837920455
 20
6.3449257264
 30
0.0
 10
15.8843998898
 20
6.3445752104
 30
0.0
 10
15.8855608406
 20
6.3439310705
 30
0.0
 10
15.8874786202
 20
6.3429571096
 30
0.0
 10
15.8903041662
 20
6.3417195586
 30
0.0
 10
15.893757509
 20
6.3405035472
 30
0.0
 10
15.8970091448
 20
6.3396722824
 30
0.0
 10
15.8998421252
 20
6.3391561038
 30
0.0
 10
15.9028650999
 20
6.3387629916
 30
0.0
 10
15.9051784032
 20
6.338636942
 30
0.0
 10
15.9067302569
 20
6.338636942
 30
0.0
  0
SPLINE
  5
2D0
100
AcDbEntity
  8
0
100
AcDbSpline
 62
7
  6
CONTINUOUS
 70
0
 71
3
 72
18
 73
14
 74
0
 42
0.0000001
 43
0.0000001
 44
0.0000000001
 40
0.0
 40
0.0
 40
0.0
 40
0.0
 40
0.1888743548
 40
0.2812899835
 40
0.3709075355
 40
0.5392217906
 40
0.6891126567
 40
0.8158343904
 40
0.9140430096
 40
0.9505185028
 40
0.9775019056
 40
0.9942470229
 40
1.0
 40
1.0
 40
1.0
 40
1.0
 10
15.9067302569
 20
4.5826124669
 30
0.0
 10
15.9051785627
 20
4.5826124669
 30
0.0
 10
15.9028654847
 20
4.582487735
 30
0.0
 10
15.8998428743
 20
4.5820945348
 30
0.0
 10
15.8970106035
 20
4.581575548
 30
0.0
 10
15.8937609976
 20
4.5807393622
 30
0.0
 10
15.8903068198
 20
4.579532506
 30
0.0
 10
15.8874776819
 20
4.5783114176
 30
0.0
 10
15.8855571147
 20
4.5773477693
 30
0.0
 10
15.884396782
 20
4.5767011406
 30
0.0
 10
15.8838304338
 20
4.5763642354
 30
0.0
 10
15.8834860309
 20
4.576148157
 30
0.0
 10
15.8833319594
 20
4.5760460507
 30
0.0
 10
15.8832927569
 20
4.5760196452
 30
0.0
  0
SPLINE
  5
2D1
100
AcDbEntity
  8
0
100
AcDbSpline
 62
7
  6
CONTINUOUS
 70
0
 71
3
 72
17
 73
13
 74
0
 42
0.0000001
 43
0.0000001
 44
0.0000000001
 40
0.0
 40
0.0
 40
0.0
 40
0.0
 40
0.0221853513
 40
0.0489901702
 40
0.0854180131
 40
0.1837960572
 40
0.3107041667
 40
0.4606611822
 40
0.62899697
 40
0.7186400307
 40
0.8110835704
 40
1.0
 40
1.0
 40
1.0
 40
1.0
 10
15.9301677569
 20
4.5760196452
 30
0.0
 10
15.9300129383
 20
4.5761158185
 30
0.0
 10
15.9296685345
 20
4.5763240106
 30
0.0
 10
15.929060675
 20
4.5766745919
 30
0.0
 10
15.9278996236
 20
4.577318413
 30
0.0
 10
15.9259816583
 20
4.5782918167
 30
0.0
 10
15.9231564898
 20
4.5795300324
 30
0.0
 10
15.9197032507
 20
4.580746418
 30
0.0
 10
15.9164513908
 20
4.5815767893
 30
0.0
 10
15.9136183653
 20
4.5820926626
 30
0.0
 10
15.9105954107
 20
4.5824860196
 30
0.0
 10
15.9082821073
 20
4.5826124669
 30
0.0
 10
15.9067302569
 20
4.5826124669
 30
0.0
  0
SPLINE
  5
2D2
100
AcDbEntity
  8
0
100
AcDbSpline
 62
7
  6
CONTINUOUS
 70
0
 71
3
 72
15
 73
11
 74
0
 42
0.0000001
 43
0.0000001
 44
0.0000000001
 40
0.0
 40
0.0
 40
0.0
 40
0.0
 40
0.0385499606
 40
0.1474589335
 40
0.3093471868
 40
0.500000017
 40
0.6906528848
 40
0.8525411489
 40
0.9614500657
 40
1.0
 40
1.0
 40
1.0
 40
1.0
 10
15.2918552569
 20
6.0376247044
 30
0.0
 10
15.2891486855
 20
6.0371250896
 30
0.0
 10
15.2787828666
 20
6.0352821462
 30
0.0
 10
15.2569406704
 20
6.0319713859
 30
0.0
 10
15.2241460027
 20
6.0286207119
 30
0.0
 10
15.1853552506
 20
6.0272195566
 30
0.0
 10
15.1465644978
 20
6.0286207128
 30
0.0
 10
15.1137698307
 20
6.0319713875
 30
0.0
 10
15.0919276397
 20
6.0352821477
 30
0.0
 10
15.0815618265
 20
6.03712509
 30
0.0
 10
15.0788552569
 20
6.0376247044
 30
0.0
  0
SPLINE
  5
2D3
100
AcDbEntity
  8
03__ASM_ALL_CURVES
100
AcDbSpline
 62
8
  6
PHANTOM
 70
0
 71
3
 72
113
 73
109
 74
0
 42
0.0000001
 43
0.0000001
 44
0.0000000001
 40
0.0
 40
0.0
 40
0.0
 40
0.0
 40
0.03125
 40
0.0625
 40
0.078125
 40
0.09375
 40
0.109375
 40
0.1171875
 40
0.125
 40
0.1328125
 40
0.13671875
 40
0.140625
 40
0.1416015625
 40
0.142578125
 40
0.14453125
 40
0.146484375
 40
0.1484375
 40
0.15625
 40
0.171875
 40
0.1875
 40
0.203125
 40
0.21875
 40
0.234375
 40
0.25
 40
0.2578125
 40
0.265625
 40
0.2734375
 40
0.27734375
 40
0.28125
 40
0.283203125
 40
0.28515625
 40
0.2890625
 40
0.29296875
 40
0.296875
 40
0.3046875
 40
0.3125
 40
0.328125
 40
0.34375
 40
0.375
 40
0.390625
 40
0.3984375
 40
0.40625
 40
0.4140625
 40
0.421875
 40
0.42578125
 40
0.427734375
 40
0.4287109375
 40
0.4296875
 40
0.431640625
 40
0.43359375
 40
0.4375
 40
0.4453125
 40
0.453125
 40
0.46875
 40
0.484375
 40
0.5
 40
0.515625
 40
0.53125
 40
0.546875
 40
0.5546875
 40
0.5625
 40
0.56640625
 40
0.568359375
 40
0.5703125
 40
0.5712890625
 40
0.572265625
 40
0.57421875
 40
0.578125
 40
0.5859375
 40
0.59375
 40
0.609375
 40
0.625
 40
0.65625
 40
0.671875
 40
0.6875
 40
0.6953125
 40
0.703125
 40
0.70703125
 40
0.7109375
 40
0.71484375
 40
0.716796875
 40
0.71875
 40
0.72265625
 40
0.7265625
 40
0.734375
 40
0.7421875
 40
0.75
 40
0.765625
 40
0.78125
 40
0.796875
 40
0.8125
 40
0.828125
 40
0.8359375
 40
0.84375
 40
0.8515625
 40
0.85546875
 40
0.857421875
 40
0.859375
 40
0.86328125
 40
0.8671875
 40
0.875
 40
0.8828125
 40
0.890625
 40
0.90625
 40
0.921875
 40
0.9375
 40
0.96875
 40
1.0
 40
1.0
 40
1.0
 40
1.0
 10
16.4470790294
 20
12.5990998359
 30
0.0
 10
16.4406675575
 20
12.6089776124
 30
0.0
 10
16.427844611
 20
12.6287331651
 30
0.0
 10
16.4118159418
 20
12.6534276082
 30
0.0
 10
16.3989929771
 20
12.673183158
 30
0.0
 10
16.3893758332
 20
12.6879998329
 30
0.0
 10
16.3813612935
 20
12.7003470222
 30
0.0
 10
16.3749502294
 20
12.7102248629
 30
0.0
 10
16.3701403802
 20
12.7176329996
 30
0.0
 10
16.3661371063
 20
12.7238072222
 30
0.0
 10
16.3629234218
 20
12.7287448613
 30
0.0
 10
16.3611384011
 20
12.7315258473
 30
0.0
 10
16.3599123216
 20
12.7333741696
 30
0.0
 10
16.3591810318
 20
12.7346199162
 30
0.0
 10
16.3576392282
 20
12.7360784456
 30
0.0
 10
16.3559354895
 20
12.7378516945
 30
0.0
 10
16.3524527697
 20
12.7413863665
 30
0.0
 10
16.3449508523
 20
12.7490517341
 30
0.0
 10
16.3333797252
 20
12.7608399371
 30
0.0
 10
16.3195071113
 20
12.7749877825
 30
0.0
 10
16.3056310879
 20
12.7891350929
 30
0.0
 10
16.2917559638
 20
12.8032825415
 30
0.0
 10
16.2778806521
 20
12.8174299723
 30
0.0
 10
16.2663177682
 20
12.8292194419
 30
0.0
 10
16.2570678529
 20
12.8386511612
 30
0.0
 10
16.2501293156
 20
12.8457245537
 30
0.0
 10
16.2443507073
 20
12.8516203106
 30
0.0
 10
16.2397199563
 20
12.8563340829
 30
0.0
 10
16.2368436448
 20
12.8592866422
 30
0.0
 10
16.2345015827
 20
12.8616339141
 30
0.0
 10
16.232309246
 20
12.8640351268
 30
0.0
 10
16.2284971506
 20
12.8666505562
 30
0.0
 10
16.2241731757
 20
12.869879332
 30
0.0
 10
16.2183203677
 20
12.8741528403
 30
0.0
 10
16.2110343203
 20
12.8795055203
 30
0.0
 10
16.1993598996
 20
12.8880637755
 30
0.0
 10
16.1847726098
 20
12.8987636615
 30
0.0
 10
16.1614297254
 20
12.9158823155
 30
0.0
 10
16.1380878099
 20
12.9330013366
 30
0.0
 10
16.1176632041
 20
12.9479802802
 30
0.0
 10
16.1059922529
 20
12.9565398356
 30
0.0
 10
16.0972384058
 20
12.962959082
 30
0.0
 10
16.0884869678
 20
12.9693799295
 30
0.0
 10
16.0811866005
 20
12.974725649
 30
0.0
 10
16.0760910442
 20
12.9784774244
 30
0.0
 10
16.0735231842
 20
12.9803399635
 30
0.0
 10
16.0720881616
 20
12.9814257588
 30
0.0
 10
16.0703285831
 20
12.9822958205
 30
0.0
 10
16.068240223
 20
12.9834572548
 30
0.0
 10
16.0648368354
 20
12.9852743305
 30
0.0
 10
16.0589097955
 20
12.9884734152
 30
0.0
 10
16.0504275229
 20
12.9930335173
 30
0.0
 10
16.0368643112
 20
13.0003352804
 30
0.0
 10
16.0199074047
 20
13.0094605615
 30
0.0
 10
15.9995603608
 20
13.0204117282
 30
0.0
 10
15.9792129686
 20
13.0313626542
 30
0.0
 10
15.9588657256
 20
13.0423137139
 30
0.0
 10
15.938518234
 20
13.0532644792
 30
0.0
 10
15.9215626952
 20
13.0623909869
 30
0.0
 10
15.9079966986
 20
13.0696902524
 30
0.0
 10
15.8995215125
 20
13.07425671
 30
0.0
 10
15.8935817449
 20
13.0774443798
 30
0.0
 10
15.8901987589
 20
13.0792797527
 30
0.0
 10
15.8880581748
 20
13.0803943499
 30
0.0
 10
15.8864058385
 20
13.0813605919
 30
0.0
 10
15.8845339526
 20
13.0820545856
 30
0.0
 10
15.8812964196
 20
13.0833165274
 30
0.0
 10
15.8747941885
 20
13.0858067254
 30
0.0
 10
15.8655194602
 20
13.0893817263
 30
0.0
 10
15.8506719746
 20
13.0950919069
 30
0.0
 10
15.8321153268
 20
13.102232989
 30
0.0
 10
15.8024231927
 20
13.1136568809
 30
0.0
 10
15.7727313748
 20
13.1250810696
 30
0.0
 10
15.7430397314
 20
13.1365057474
 30
0.0
 10
15.7244817546
 20
13.143644701
 30
0.0
 10
15.7096370088
 20
13.1493592696
 30
0.0
 10
15.7003553035
 20
13.1529230957
 30
0.0
 10
15.6929385043
 20
13.1557919755
 30
0.0
 10
15.6873524531
 20
13.1578948463
 30
0.0
 10
15.6827720144
 20
13.159802444
 30
0.0
 10
15.6788013123
 20
13.1606911922
 30
0.0
 10
15.6748841112
 20
13.1616912434
 30
0.0
 10
15.669969291
 20
13.1629031971
 30
0.0
 10
15.6621158171
 20
13.1648636229
 30
0.0
 10
15.652295462
 20
13.1673068473
 30
0.0
 10
15.6405125394
 20
13.1702418444
 30
0.0
 10
15.6248014506
 20
13.1741540821
 30
0.0
 10
15.6051627708
 20
13.179044748
 30
0.0
 10
15.5815962736
 20
13.1849134148
 30
0.0
 10
15.5580298123
 20
13.1907820208
 30
0.0
 10
15.5344632891
 20
13.1966510025
 30
0.0
 10
15.5148246959
 20
13.2015406185
 30
0.0
 10
15.4991134296
 20
13.2054550085
 30
0.0
 10
15.4873310494
 20
13.2083834308
 30
0.0
 10
15.4775089973
 20
13.2108472263
 30
0.0
 10
15.4706402369
 20
13.212525876
 30
0.0
 10
15.466704807
 20
13.2135569407
 30
0.0
 10
15.4628738242
 20
13.2138682163
 30
0.0
 10
15.458049333
 20
13.2145037676
 30
0.0
 10
15.4503501349
 20
13.2153829048
 30
0.0
 10
15.4407192794
 20
13.2165290859
 30
0.0
 10
15.4291651883
 20
13.2178842744
 30
0.0
 10
15.4137587081
 20
13.2196982586
 30
0.0
 10
15.3945009597
 20
13.2219633145
 30
0.0
 10
15.3713915109
 20
13.2246824193
 30
0.0
 10
15.3405789652
 20
13.2283075297
 30
0.0
 10
15.3020632649
 20
13.2328390431
 30
0.0
 10
15.2712507102
 20
13.2364642155
 30
0.0
 10
15.2558444322
 20
13.2382768066
 30
0.0
  0
SPLINE
  5
2D4
100
AcDbEntity
  8
03__ASM_ALL_CURVES
100
AcDbSpline
 62
8
  6
PHANTOM
 70
0
 71
3
 72
110
 73
106
 74
0
 42
0.0000001
 43
0.0000001
 44
0.0000000001
 40
0.0
 40
0.0
 40
0.0
 40
0.0
 40
0.0625
 40
0.09375
 40
0.109375
 40
0.125
 40
0.140625
 40
0.1484375
 40
0.15625
 40
0.16015625
 40
0.1640625
 40
0.166015625
 40
0.1669921875
 40
0.16796875
 40
0.169921875
 40
0.171875
 40
0.1796875
 40
0.1875
 40
0.1953125
 40
0.203125
 40
0.21875
 40
0.25
 40
0.28125
 40
0.296875
 40
0.3046875
 40
0.3125
 40
0.3203125
 40
0.328125
 40
0.330078125
 40
0.33203125
 40
0.3330078125
 40
0.333984375
 40
0.3359375
 40
0.33984375
 40
0.34375
 40
0.3515625
 40
0.359375
 40
0.375
 40
0.390625
 40
0.40625
 40
0.421875
 40
0.4375
 40
0.453125
 40
0.46875
 40
0.4765625
 40
0.484375
 40
0.48828125
 40
0.4921875
 40
0.49609375
 40
0.498046875
 40
0.4990234375
 40
0.5
 40
0.5009765625
 40
0.501953125
 40
0.50390625
 40
0.5078125
 40
0.51171875
 40
0.515625
 40
0.5234375
 40
0.53125
 40
0.546875
 40
0.5625
 40
0.578125
 40
0.59375
 40
0.609375
 40
0.625
 40
0.640625
 40
0.6484375
 40
0.65625
 40
0.66015625
 40
0.6640625
 40
0.666015625
 40
0.6669921875
 40
0.66796875
 40
0.669921875
 40
0.671875
 40
0.67578125
 40
0.6796875
 40
0.6875
 40
0.6953125
 40
0.703125
 40
0.71875
 40
0.75
 40
0.78125
 40
0.796875
 40
0.8046875
 40
0.8125
 40
0.8203125
 40
0.82421875
 40
0.828125
 40
0.830078125
 40
0.83203125
 40
0.8330078125
 40
0.833984375
 40
0.8359375
 40
0.83984375
 40
0.84375
 40
0.8515625
 40
0.859375
 40
0.875
 40
0.890625
 40
0.90625
 40
0.9375
 40
0.96875
 40
1.0
 40
1.0
 40
1.0
 40
1.0
 10
15.2558444291
 20
13.2382768067
 30
0.0
 10
15.2308756417
 20
13.2377608305
 30
0.0
 10
15.1934224717
 20
13.2369868501
 30
0.0
 10
15.1497270678
 20
13.236083929
 30
0.0
 10
15.1247583211
 20
13.2355678942
 30
0.0
 10
15.1060316058
 20
13.2351810916
 30
0.0
 10
15.0904265042
 20
13.2348580443
 30
0.0
 10
15.0779413137
 20
13.2346012031
 30
0.0
 10
15.0701405954
 20
13.2344370415
 30
0.0
 10
15.0638942363
 20
13.2343140392
 30
0.0
 10
15.06000346
 20
13.2342181633
 30
0.0
 10
15.0572534659
 20
13.2341891275
 30
0.0
 10
15.0557234253
 20
13.23411296
 30
0.0
 10
15.0543492594
 20
13.2338124014
 30
0.0
 10
15.0525782733
 20
13.2335134009
 30
0.0
 10
15.0483717575
 20
13.2327326739
 30
0.0
 10
15.042043566
 20
13.2315880971
 30
0.0
 10
15.0336165042
 20
13.2300468405
 30
0.0
 10
15.0251866264
 20
13.2285096377
 30
0.0
 10
15.0139477719
 20
13.2264586196
 30
0.0
 10
14.9942793149
 20
13.2228700007
 30
0.0
 10
14.9661817919
 20
13.2177430252
 30
0.0
 10
14.9380840576
 20
13.2126162957
 30
0.0
 10
14.9184158963
 20
13.2090273323
 30
0.0
 10
14.9071765772
 20
13.2069768555
 30
0.0
 10
14.8987481251
 20
13.2054379919
 30
0.0
 10
14.8903157091
 20
13.2039029726
 30
0.0
 10
14.8840025106
 20
13.2027409298
 30
0.0
 10
14.8797764279
 20
13.2019829971
 30
0.0
 10
14.8780412792
 20
13.2016422483
 30
0.0
 10
14.8765931628
 20
13.2014278373
 30
0.0
 10
14.875364461
 20
13.2010006291
 30
0.0
 10
14.8733161783
 20
13.2001541441
 30
0.0
 10
14.8703368702
 20
13.1989964655
 30
0.0
 10
14.8655997022
 20
13.1971153512
 30
0.0
 10
14.8596680643
 20
13.1947738293
 30
0.0
 10
14.8501831322
 20
13.1910218773
 30
0.0
 10
14.8383250151
 20
13.1863338305
 30
0.0
 10
14.8240961115
 20
13.1807073626
 30
0.0
 10
14.8098669831
 20
13.1750811126
 30
0.0
 10
14.7956379172
 20
13.1694548027
 30
0.0
 10
14.7814088261
 20
13.1638285147
 30
0.0
 10
14.7671797731
 20
13.1582021988
 30
0.0
 10
14.7553221228
 20
13.153513677
 30
0.0
 10
14.7458362383
 20
13.1497626941
 30
0.0
 10
14.7399070243
 20
13.147418706
 30
0.0
 10
14.7351648811
 20
13.1455426539
 30
0.0
 10
14.7316049113
 20
13.1441379741
 30
0.0
 10
14.7286489661
 20
13.1429599022
 30
0.0
 10
14.7265588133
 20
13.1421499811
 30
0.0
 10
14.7253972162
 20
13.1416641706
 30
0.0
 10
14.7244336881
 20
13.1413645997
 30
0.0
 10
14.7238230932
 20
13.14081738
 30
0.0
 10
14.7228858596
 20
13.1401741365
 30
0.0
 10
14.7213030587
 20
13.139008213
 30
0.0
 10
14.7190119272
 20
13.1373636498
 30
0.0
 10
14.7162754049
 20
13.1353811673
 30
0.0
 10
14.7126222254
 20
13.1327410033
 30
0.0
 10
14.708057286
 20
13.129439721
 30
0.0
 10
14.7007525251
 20
13.1241582715
 30
0.0
 10
14.6916218686
 20
13.1175562527
 30
0.0
 10
14.680664953
 20
13.1096339197
 30
0.0
 10
14.6697080773
 20
13.1017115598
 30
0.0
 10
14.6587511696
 20
13.0937892181
 30
0.0
 10
14.6477943503
 20
13.0858668304
 30
0.0
 10
14.6368372092
 20
13.0779446084
 30
0.0
 10
14.6277072574
 20
13.0713422427
 30
0.0
 10
14.6204010589
 20
13.0660615011
 30
0.0
 10
14.6158397779
 20
13.0627584172
 30
0.0
 10
14.6121790891
 20
13.0601219513
 30
0.0
 10
14.6099177719
 20
13.0584604672
 30
0.0
 10
14.6082815134
 20
13.0573248706
 30
0.0
 10
14.6074299585
 20
13.0566330223
 30
0.0
 10
14.6068927718
 20
13.0557794276
 30
0.0
 10
14.6061136494
 20
13.0547678158
 30
0.0
 10
14.6049272072
 20
13.0531182872
 30
0.0
 10
14.6034235578
 20
13.0510669737
 30
0.0
 10
14.6010292302
 20
13.0477789493
 30
0.0
 10
14.5980323711
 20
13.0436709508
 30
0.0
 10
14.5944378307
 20
13.0387404829
 30
0.0
 10
14.5896445203
 20
13.0321668291
 30
0.0
 10
14.5812565038
 20
13.020662793
 30
0.0
 10
14.5692734639
 20
13.0042285356
 30
0.0
 10
14.5572905337
 20
12.9877942288
 30
0.0
 10
14.5489023635
 20
12.9762902618
 30
0.0
 10
14.5441092946
 20
12.9697164994
 30
0.0
 10
14.5405140134
 20
12.9647863648
 30
0.0
 10
14.5375194727
 20
12.9606773231
 30
0.0
 10
14.5351204151
 20
12.9573914271
 30
0.0
 10
14.5336288033
 20
12.9553346968
 30
0.0
 10
14.5324176521
 20
12.9536962869
 30
0.0
 10
14.5317014372
 20
12.9526563677
 30
0.0
 10
14.5310351197
 20
12.9518608799
 30
0.0
 10
14.530709581
 20
12.950932332
 30
0.0
 10
14.5302981943
 20
12.9492455608
 30
0.0
 10
14.529627903
 20
12.9468681382
 30
0.0
 10
14.5286015954
 20
12.9430462391
 30
0.0
 10
14.5273029061
 20
12.9382750362
 30
0.0
 10
14.5252338366
 20
12.9306376625
 30
0.0
 10
14.522644469
 20
12.9210921288
 30
0.0
 10
14.5195385252
 20
12.9096369819
 30
0.0
 10
14.5153968136
 20
12.8943636296
 30
0.0
 10
14.5102198297
 20
12.8752718784
 30
0.0
 10
14.5040073819
 20
12.8523618032
 30
0.0
 10
14.4998657629
 20
12.8370884147
 30
0.0
 10
14.4977949518
 20
12.8294517211
 30
0.0
  0
SPLINE
  5
2D5
100
AcDbEntity
  8
03__ASM_ALL_CURVES
100
AcDbSpline
 62
8
  6
PHANTOM
 70
0
 71
3
 72
68
 73
64
 74
0
 42
0.0000001
 43
0.0000001
 44
0.0000000001
 40
0.0
 40
0.0
 40
0.0
 40
0.0
 40
0.0625
 40
0.09375
 40
0.125
 40
0.140625
 40
0.15625
 40
0.1640625
 40
0.16796875
 40
0.171875
 40
0.1796875
 40
0.1875
 40
0.203125
 40
0.21875
 40
0.25
 40
0.28125
 40
0.296875
 40
0.3125
 40
0.3203125
 40
0.328125
 40
0.33203125
 40
0.3359375
 40
0.34375
 40
0.359375
 40
0.375
 40
0.40625
 40
0.4375
 40
0.453125
 40
0.46875
 40
0.484375
 40
0.4921875
 40
0.49609375
 40
0.5
 40
0.50390625
 40
0.5078125
 40
0.515625
 40
0.53125
 40
0.546875
 40
0.5625
 40
0.59375
 40
0.625
 40
0.640625
 40
0.65625
 40
0.6640625
 40
0.66796875
 40
0.671875
 40
0.6796875
 40
0.6875
 40
0.71875
 40
0.75
 40
0.78125
 40
0.796875
 40
0.8125
 40
0.8203125
 40
0.828125
 40
0.83203125
 40
0.8359375
 40
0.84375
 40
0.859375
 40
0.875
 40
0.90625
 40
0.9375
 40
1.0
 40
1.0
 40
1.0
 40
1.0
 10
16.4548143715
 20
12.2297457662
 30
0.0
 10
16.4578671279
 20
12.2366004373
 30
0.0
 10
16.4624456476
 20
12.2468826407
 30
0.0
 10
16.4685527995
 20
12.2605914578
 30
0.0
 10
16.4723646469
 20
12.2691611091
 30
0.0
 10
16.4754258041
 20
12.2760130895
 30
0.0
 10
16.4773123904
 20
12.2803041086
 30
0.0
 10
16.4786863836
 20
12.2832907244
 30
0.0
 10
16.4793880003
 20
12.2850241127
 30
0.0
 10
16.479774976
 20
12.2868582745
 30
0.0
 10
16.4803664283
 20
12.2891164721
 30
0.0
 10
16.4812525447
 20
12.2927488714
 30
0.0
 10
16.4823808142
 20
12.2972827656
 30
0.0
 10
16.4841744662
 20
12.3045407014
 30
0.0
 10
16.4864208788
 20
12.313611753
 30
0.0
 10
16.4886643755
 20
12.3226836461
 30
0.0
 10
16.4904626928
 20
12.3299402355
 30
0.0
 10
16.4915792993
 20
12.3344774957
 30
0.0
 10
16.4924893249
 20
12.3381029946
 30
0.0
 10
16.4930199108
 20
12.3403787588
 30
0.0
 10
16.4935318266
 20
12.3421768618
 30
0.0
 10
16.493724498
 20
12.3440571363
 30
0.0
 10
16.4939133705
 20
12.3473857887
 30
0.0
 10
16.4942605626
 20
12.3521210914
 30
0.0
 10
16.4947728444
 20
12.359708698
 30
0.0
 10
16.495427891
 20
12.3691894488
 30
0.0
 10
16.4960781922
 20
12.3786713269
 30
0.0
 10
16.4965980667
 20
12.3862571297
 30
0.0
 10
16.4969919192
 20
12.3919449045
 30
0.0
 10
16.4973071267
 20
12.3966898493
 30
0.0
 10
16.4975533515
 20
12.4000012227
 30
0.0
 10
16.4976541016
 20
12.4019091899
 30
0.0
 10
16.4978422052
 20
12.403295786
 30
0.0
 10
16.4976001196
 20
12.4048520224
 30
0.0
 10
16.4974273935
 20
12.4068678319
 30
0.0
 10
16.4970552106
 20
12.410423068
 30
0.0
 10
16.4965600632
 20
12.4154875624
 30
0.0
 10
16.4959502823
 20
12.4215711285
 30
0.0
 10
16.4951425047
 20
12.4296803789
 30
0.0
 10
16.494132316
 20
12.4398177934
 30
0.0
 10
16.4931174148
 20
12.4499545155
 30
0.0
 10
16.4923171772
 20
12.4580648736
 30
0.0
 10
16.4917901766
 20
12.4631317428
 30
0.0
 10
16.4914751099
 20
12.4666827564
 30
0.0
 10
16.491210841
 20
12.4687053295
 30
0.0
 10
16.4906293171
 20
12.4707031292
 30
0.0
 10
16.4900108506
 20
12.4732088467
 30
0.0
 10
16.4884372875
 20
12.4792155975
 30
0.0
 10
16.4861143369
 20
12.4882286762
 30
0.0
 10
16.4829961211
 20
12.5002443097
 30
0.0
 10
16.4804009571
 20
12.5102581046
 30
0.0
 10
16.4783272621
 20
12.5182682023
 30
0.0
 10
16.4770234377
 20
12.5232764754
 30
0.0
 10
16.4759984052
 20
12.5272786195
 30
0.0
 10
16.4753165748
 20
12.5297901645
 30
0.0
 10
16.474865448
 20
12.5317760273
 30
0.0
 10
16.4740699192
 20
12.5338472186
 30
0.0
 10
16.4725177542
 20
12.5375114421
 30
0.0
 10
16.4703838503
 20
12.5427253656
 30
0.0
 10
16.4669229536
 20
12.5510792012
 30
0.0
 10
16.4626128127
 20
12.5615175366
 30
0.0
 10
16.4557076161
 20
12.5782210958
 30
0.0
 10
16.4505307372
 20
12.5907482651
 30
0.0
 10
16.447079036
 20
12.5990998224
 30
0.0
  0
SPLINE
  5
2D6
100
AcDbEntity
  8
0
100
AcDbSpline
 62
7
  6
CONTINUOUS
 70
0
 71
3
 72
22
 73
18
 74
0
 42
0.0000001
 43
0.0000001
 44
0.0000000001
 40
0.0
 40
0.0
 40
0.0
 40
0.0
 40
0.0420256872
 40
0.0852020749
 40
0.1301001777
 40
0.1772795588
 40
0.2272161714
 40
0.2803530829
 40
0.3370124681
 40
0.3972666804
 40
0.461135053
 40
0.5285726155
 40
0.6736388674
 40
0.7510319025
 40
0.8313942126
 40
0.9144811279
 40
1.0
 40
1.0
 40
1.0
 40
1.0
 10
14.951653245
 20
12.1037184039
 30
0.0
 10
14.9527750864
 20
12.1073486841
 30
0.0
 10
14.9554911405
 20
12.1145800723
 30
0.0
 10
14.9609105962
 20
12.1250488806
 30
0.0
 10
14.9677600638
 20
12.1352110397
 30
0.0
 10
14.9760760158
 20
12.145025873
 30
0.0
 10
14.9858976164
 20
12.1544439778
 30
0.0
 10
14.9972539708
 20
12.1633996035
 30
0.0
 10
15.0101411851
 20
12.1718182728
 30
0.0
 10
15.0245220724
 20
12.1796219917
 30
0.0
 10
15.0403438116
 20
12.1867064743
 30
0.0
 10
15.063823025
 20
12.1953041312
 30
0.0
 10
15.0892776763
 20
12.2018654488
 30
0.0
 10
15.1162660993
 20
12.2065170238
 30
0.0
 10
15.1379003133
 20
12.2090849057
 30
0.0
 10
15.1603649444
 20
12.2106315327
 30
0.0
 10
15.1756116738
 20
12.2109687764
 30
0.0
 10
15.1833436869
 20
12.2109687764
 30
0.0
  0
SPLINE
  5
2D7
100
AcDbEntity
  8
0
100
AcDbSpline
 62
7
  6
CONTINUOUS
 70
0
 71
3
 72
34
 73
30
 74
0
 42
0.0000001
 43
0.0000001
 44
0.0000000001
 40
0.0
 40
0.0
 40
0.0
 40
0.0
 40
0.0356151796
 40
0.0720261571
 40
0.1467076555
 40
0.2231279225
 40
0.2617155107
 40
0.3003914385
 40
0.3390361211
 40
0.3775313387
 40
0.4535909121
 40
0.5276595894
 40
0.563676362
 40
0.5988677966
 40
0.6331328005
 40
0.666375798
 40
0.6985064573
 40
0.7294429684
 40
0.7874205081
 40
0.8143785412
 40
0.8399245492
 40
0.8640495624
 40
0.8867656712
 40
0.9081086888
 40
0.9282150277
 40
0.947260815
 40
0.9654325672
 40
0.9829412268
 40
1.0
 40
1.0
 40
1.0
 40
1.0
 10
15.1833436869
 20
12.2109687764
 30
0.0
 10
15.1910247505
 20
12.2109687764
 30
0.0
 10
15.206560458
 20
12.2106274845
 30
0.0
 10
15.238144342
 20
12.2086251807
 30
0.0
 10
15.2783194865
 20
12.2036264603
 30
0.0
 10
15.3184575104
 20
12.1955142904
 30
0.0
 10
15.350541782
 20
12.1871730113
 30
0.0
 10
15.374495058
 20
12.1800026155
 30
0.0
 10
15.3981510336
 20
12.171966836
 30
0.0
 10
15.4290315234
 20
12.160199973
 30
0.0
 10
15.4662238671
 20
12.1436210216
 30
0.0
 10
15.5015756775
 20
12.1245019151
 30
0.0
 10
15.5281724956
 20
12.1079256995
 30
0.0
 10
15.5469572934
 20
12.0950843533
 30
0.0
 10
15.5646762712
 20
12.0817819903
 30
0.0
 10
15.5812517593
 20
12.0680939683
 30
0.0
 10
15.5966051105
 20
12.0540893294
 30
0.0
 10
15.6149552065
 20
12.0355115204
 30
0.0
 10
15.6310626378
 20
12.0163115904
 30
0.0
 10
15.6445266995
 20
11.9966344386
 30
0.0
 10
15.6528969829
 20
11.9823671839
 30
0.0
 10
15.659770084
 20
11.96833264
 30
0.0
 10
15.66516314
 20
11.9546336024
 30
0.0
 10
15.6690912291
 20
11.9413443321
 30
0.0
 10
15.6715932141
 20
11.9285183105
 30
0.0
 10
15.6727253707
 20
11.9161850221
 30
0.0
 10
15.6725432869
 20
11.90435977
 30
0.0
 10
15.6710961227
 20
11.8930545594
 30
0.0
 10
15.6693051038
 20
11.8857979028
 30
0.0
 10
15.6682188782
 20
11.8822828753
 30
0.0
  0
SPLINE
  5
2D8
100
AcDbEntity
  8
0
100
AcDbSpline
 62
7
  6
CONTINUOUS
 70
0
 71
3
 72
9
 73
5
 74
0
 42
0.0000001
 43
0.0000001
 44
0.0000000001
 40
0.0
 40
0.0
 40
0.0
 40
0.0
 40
0.2450935991
 40
1.0
 40
1.0
 40
1.0
 40
1.0
 10
14.7833535135
 20
12.3547018401
 30
0.0
 10
14.7849149755
 20
12.3515199151
 30
0.0
 10
14.791458092
 20
12.3386223633
 30
0.0
 10
14.7986701093
 20
12.3260665759
 30
0.0
 10
14.8044333677
 20
12.3167947685
 30
0.0
  0
SPLINE
  5
2D9
100
AcDbEntity
  8
0
100
AcDbSpline
 62
7
  6
CONTINUOUS
 70
0
 71
3
 72
9
 73
5
 74
0
 42
0.0000001
 43
0.0000001
 44
0.0000000001
 40
0.0
 40
0.0
 40
0.0
 40
0.0
 40
0.2577002349
 40
1.0
 40
1.0
 40
1.0
 40
1.0
 10
15.9093748925
 20
11.9748849749
 30
0.0
 10
15.9146209421
 20
11.977188563
 30
0.0
 10
15.9348116698
 20
11.9864980023
 30
0.0
 10
15.9543113871
 20
11.9973361536
 30
0.0
 10
15.9681703826
 20
12.0062973719
 30
0.0
  0
SPLINE
  5
2DA
100
AcDbEntity
  8
0
100
AcDbSpline
 62
7
  6
CONTINUOUS
 70
0
 71
3
 72
14
 73
10
 74
0
 42
0.0000001
 43
0.0000001
 44
0.0000000001
 40
0.0
 40
0.0
 40
0.0
 40
0.0
 40
0.1378307104
 40
0.2739057833
 40
0.4071487299
 40
0.5365604119
 40
0.6612491317
 40
0.7804646572
 40
1.0
 40
1.0
 40
1.0
 40
1.0
 10
14.978874826
 20
12.1460424842
 30
0.0
 10
14.978406869
 20
12.142521552
 30
0.0
 10
14.9775892612
 20
12.1355088951
 30
0.0
 10
14.9767560897
 20
12.1250472473
 30
0.0
 10
14.9763704435
 20
12.1147756835
 30
0.0
 10
14.9764734393
 20
12.1047903865
 30
0.0
 10
14.977111381
 20
12.0951838793
 30
0.0
 10
14.978662412
 20
12.0833400625
 30
0.0
 10
14.9807294972
 20
12.0748007257
 30
0.0
 10
14.9826190093
 20
12.0694681709
 30
0.0
  0
SPLINE
  5
2DB
100
AcDbEntity
  8
0
100
AcDbSpline
 62
7
  6
CONTINUOUS
 70
0
 71
3
 72
9
 73
5
 74
0
 42
0.0000001
 43
0.0000001
 44
0.0000000001
 40
0.0
 40
0.0
 40
0.0
 40
0.0
 40
0.2571763316
 40
1.0
 40
1.0
 40
1.0
 40
1.0
 10
14.9826190093
 20
12.0694681709
 30
0.0
 10
14.9828559419
 20
12.0687995032
 30
0.0
 10
14.9838113563
 20
12.066211809
 30
0.0
 10
14.9849070821
 20
12.0636749701
 30
0.0
 10
14.985809767
 20
12.0618354917
 30
0.0
  0
SPLINE
  5
2DC
100
AcDbEntity
  8
0
100
AcDbSpline
 62
7
  6
CONTINUOUS
 70
0
 71
3
 72
16
 73
12
 74
0
 42
0.0000001
 43
0.0000001
 44
0.0000000001
 40
0.0
 40
0.0
 40
0.0
 40
0.0
 40
0.1355892301
 40
0.2672410643
 40
0.3952752582
 40
0.4580939434
 40
0.5201947905
 40
0.642500693
 40
0.7627944249
 40
0.8817124922
 40
1.0
 40
1.0
 40
1.0
 40
1.0
 10
14.7741091284
 20
11.9685232472
 30
0.0
 10
14.770431403
 20
11.9760176635
 30
0.0
 10
14.7637194979
 20
11.9910613308
 30
0.0
 10
14.7555913045
 20
12.0140279113
 30
0.0
 10
14.7505796852
 20
12.0332710485
 30
0.0
 10
14.7476962977
 20
12.0485811559
 30
0.0
 10
14.7455814628
 20
12.0636598587
 30
0.0
 10
14.7443164447
 20
12.0824101481
 30
0.0
 10
14.7450632933
 20
12.1046953767
 30
0.0
 10
14.7481070672
 20
12.126534972
 30
0.0
 10
14.7516666478
 20
12.1407335903
 30
0.0
 10
14.753816908
 20
12.1476918347
 30
0.0
  0
SPLINE
  5
2DD
100
AcDbEntity
  8
0
100
AcDbSpline
 62
7
  6
CONTINUOUS
 70
0
 71
3
 72
42
 73
38
 74
0
 42
0.0000001
 43
0.0000001
 44
0.0000000001
 40
0.0
 40
0.0
 40
0.0
 40
0.0
 40
0.0113013375
 40
0.022623769
 40
0.0339990483
 40
0.0454576273
 40
0.0687245312
 40
0.0805942992
 40
0.0926458131
 40
0.1173672561
 40
0.1430464509
 40
0.1562838301
 40
0.1697976811
 40
0.1976769441
 40
0.2267248788
 40
0.2569420697
 40
0.2882975792
 40
0.3207341092
 40
0.3541699622
 40
0.388504319
 40
0.423618516
 40
0.4593811226
 40
0.4956487861
 40
0.5322707541
 40
0.6059266014
 40
0.6426608711
 40
0.6791138273
 40
0.7151316771
 40
0.7505670256
 40
0.785282639
 40
0.8191533126
 40
0.852070412
 40
0.8839418984
 40
0.9146960824
 40
0.9442928879
 40
0.9727277784
 40
1.0
 40
1.0
 40
1.0
 40
1.0
 10
15.8563725622
 20
11.806976368
 30
0.0
 10
15.8549634099
 20
11.8024163495
 30
0.0
 10
15.8518175953
 20
11.7933845889
 30
0.0
 10
15.8461477019
 20
11.7801809915
 30
0.0
 10
15.8395414631
 20
11.7673439801
 30
0.0
 10
15.8294592833
 20
11.7506744734
 30
0.0
 10
15.8175802147
 20
11.734902535
 30
0.0
 10
15.8041399031
 20
11.7201760612
 30
0.0
 10
15.7893825969
 20
11.7058681042
 30
0.0
 10
15.7688442614
 20
11.689224736
 30
0.0
 10
15.7462257372
 20
11.6746189123
 30
0.0
 10
15.7267936654
 20
11.6639895552
 30
0.0
 10
15.7060500923
 20
11.6538727785
 30
0.0
 10
15.6784544958
 20
11.6426549384
 30
0.0
 10
15.6433142863
 20
11.6315986833
 30
0.0
 10
15.6060229124
 20
11.6228506898
 30
0.0
 10
15.5668123742
 20
11.6164433908
 30
0.0
 10
15.5259243448
 20
11.6124043624
 30
0.0
 10
15.483614216
 20
11.610744919
 30
0.0
 10
15.440148698
 20
11.6114715376
 30
0.0
 10
15.3958039327
 20
11.6145697016
 30
0.0
 10
15.3508654145
 20
11.6200201342
 30
0.0
 10
15.3056207963
 20
11.6277800469
 30
0.0
 10
15.245178581
 20
11.6411659293
 30
0.0
 10
15.1855575028
 20
11.6588782099
 30
0.0
 10
15.1274852742
 20
11.6806862246
 30
0.0
 10
15.0851143306
 20
11.6989471535
 30
0.0
 10
15.0441728962
 20
11.7190011944
 30
0.0
 10
15.0049277199
 20
11.7407254473
 30
0.0
 10
14.9676317975
 20
11.76397873
 30
0.0
 10
14.9325275905
 20
11.7886199549
 30
0.0
 10
14.8998399048
 20
11.8144965408
 30
0.0
 10
14.8697809609
 20
11.8414549112
 30
0.0
 10
14.8425417662
 20
11.8693348129
 30
0.0
 10
14.81829853
 20
11.8979859792
 30
0.0
 10
14.7972208402
 20
11.9272478595
 30
0.0
 10
14.7851275571
 20
11.9474717726
 30
0.0
 10
14.7796957975
 20
11.9576281228
 30
0.0
  0
SPLINE
  5
2DE
100
AcDbEntity
  8
0
100
AcDbSpline
 62
7
  6
CONTINUOUS
 70
0
 71
3
 72
15
 73
11
 74
0
 42
0.0000001
 43
0.0000001
 44
0.0000000001
 40
0.0
 40
0.0
 40
0.0
 40
0.0
 40
0.136643707
 40
0.2693720112
 40
0.398364056
 40
0.5238888689
 40
0.6463379528
 40
0.7661639159
 40
0.8838700618
 40
1.0
 40
1.0
 40
1.0
 40
1.0
 10
16.37242707
 20
12.6736138082
 30
0.0
 10
16.3771947295
 20
12.6638983394
 30
0.0
 10
16.3860151737
 20
12.6444543183
 30
0.0
 10
16.3971593565
 20
12.6149131919
 30
0.0
 10
16.405984922
 20
12.5855131182
 30
0.0
 10
16.4124568518
 20
12.5563383583
 30
0.0
 10
16.4165617645
 20
12.527468677
 30
0.0
 10
16.4182841206
 20
12.4989771193
 30
0.0
 10
16.4176176976
 20
12.4709424924
 30
0.0
 10
16.4155718597
 20
12.452507519
 30
0.0
 10
16.4141506374
 20
12.4434204454
 30
0.0
  0
SPLINE
  5
2DF
100
AcDbEntity
  8
0
100
AcDbSpline
 62
7
  6
CONTINUOUS
 70
0
 71
3
 72
9
 73
5
 74
0
 42
0.0000001
 43
0.0000001
 44
0.0000000001
 40
0.0
 40
0.0
 40
0.0
 40
0.0
 40
0.4922835173
 40
1.0
 40
1.0
 40
1.0
 40
1.0
 10
15.2853651724
 20
13.2561134162
 30
0.0
 10
15.2859390985
 20
13.2579706418
 30
0.0
 10
15.2862710409
 20
13.2620325303
 30
0.0
 10
15.2850863852
 20
13.2658913673
 30
0.0
 10
15.2842036775
 20
13.2676914063
 30
0.0
  0
SPLINE
  5
2E0
100
AcDbEntity
  8
0
100
AcDbSpline
 62
7
  6
CONTINUOUS
 70
0
 71
3
 72
11
 73
7
 74
0
 42
0.0000001
 43
0.0000001
 44
0.0000000001
 40
0.0
 40
0.0
 40
0.0
 40
0.0
 40
0.2616380091
 40
0.5139861148
 40
0.7594068493
 40
1.0
 40
1.0
 40
1.0
 40
1.0
 10
15.2775142354
 20
13.2468349487
 30
0.0
 10
15.2784454747
 20
13.2473882178
 30
0.0
 10
15.2802054915
 20
13.2485999801
 30
0.0
 10
15.2824856577
 20
13.2507883048
 30
0.0
 10
15.2842606928
 20
13.2533004639
 30
0.0
 10
15.2850710857
 20
13.2551617511
 30
0.0
 10
15.2853651724
 20
13.2561134162
 30
0.0
  0
SPLINE
  5
2E1
100
AcDbEntity
  8
0
100
AcDbSpline
 62
7
  6
CONTINUOUS
 70
0
 71
3
 72
10
 73
6
 74
0
 42
0.0000001
 43
0.0000001
 44
0.0000000001
 40
0.0
 40
0.0
 40
0.0
 40
0.0
 40
0.2442854547
 40
0.4927808582
 40
1.0
 40
1.0
 40
1.0
 40
1.0
 10
15.1411763382
 20
13.1058924665
 30
0.0
 10
15.1591523933
 20
13.1058924665
 30
0.0
 10
15.1954183379
 20
13.1051961999
 30
0.0
 10
15.2689007107
 20
13.1010949342
 30
0.0
 10
15.3242380004
 20
13.0950196593
 30
0.0
 10
15.3611829721
 20
13.0897114372
 30
0.0
  0
SPLINE
  5
2E2
100
AcDbEntity
  8
0
100
AcDbSpline
 62
7
  6
CONTINUOUS
 70
0
 71
3
 72
20
 73
16
 74
0
 42
0.0000001
 43
0.0000001
 44
0.0000000001
 40
0.0
 40
0.0
 40
0.0
 40
0.0
 40
0.0644825863
 40
0.1294909182
 40
0.2603686806
 40
0.3912610846
 40
0.5207814526
 40
0.5846153671
 40
0.6476078842
 40
0.7096059372
 40
0.7704642505
 40
0.8300481315
 40
0.8882353932
 40
0.9449165183
 40
1.0
 40
1.0
 40
1.0
 40
1.0
 10
15.37752764
 20
13.0872808993
 30
0.0
 10
15.398569265
 20
13.0840462828
 30
0.0
 10
15.4407057617
 20
13.0767504654
 30
0.0
 10
15.5248214762
 20
13.0589670785
 30
0.0
 10
15.629097845
 20
13.0308941645
 30
0.0
 10
15.751209063
 20
12.9884148052
 30
0.0
 10
15.8495991567
 20
12.9459654398
 30
0.0
 10
15.925305507
 20
12.9080963061
 30
0.0
 10
15.9799592594
 20
12.8780746506
 30
0.0
 10
16.0325399147
 20
12.8464195672
 30
0.0
 10
16.0828408541
 20
12.8132553514
 30
0.0
 10
16.130661971
 20
12.7787114901
 30
0.0
 10
16.175817173
 20
12.7429266917
 30
0.0
 10
16.2181235307
 20
12.7060389009
 30
0.0
 10
16.2447157324
 20
12.6804304974
 30
0.0
 10
16.2574732837
 20
12.667470385
 30
0.0
  0
SPLINE
  5
2E3
100
AcDbEntity
  8
0
100
AcDbSpline
 62
7
  6
CONTINUOUS
 70
0
 71
3
 72
21
 73
17
 74
0
 42
0.0000001
 43
0.0000001
 44
0.0000000001
 40
0.0
 40
0.0
 40
0.0
 40
0.0
 40
0.0759676627
 40
0.1499614178
 40
0.2918571768
 40
0.4256794857
 40
0.4896746006
 40
0.5518030278
 40
0.6121670084
 40
0.6709009825
 40
0.7281665313
 40
0.784153011
 40
0.839079201
 40
0.8931857689
 40
0.9467341661
 40
1.0
 40
1.0
 40
1.0
 40
1.0
 10
16.2574732837
 20
12.667470385
 30
0.0
 10
16.2675276646
 20
12.6572563633
 30
0.0
 10
16.2869537494
 20
12.636671702
 30
0.0
 10
16.3229222222
 20
12.5949614303
 30
0.0
 10
16.3624817139
 20
12.5420183012
 30
0.0
 10
16.3952840161
 20
12.4867829396
 30
0.0
 10
16.4164040305
 20
12.4424902007
 30
0.0
 10
16.4295133079
 20
12.4098125166
 30
0.0
 10
16.4400848055
 20
12.377268297
 30
0.0
 10
16.4480929945
 20
12.3449423247
 30
0.0
 10
16.4535152872
 20
12.3129184113
 30
0.0
 10
16.4563295384
 20
12.2812796886
 30
0.0
 10
16.4565321487
 20
12.2501108892
 30
0.0
 10
16.4541165064
 20
12.2194940243
 30
0.0
 10
16.4490864271
 20
12.189515662
 30
0.0
 10
16.443995078
 20
12.1699848397
 30
0.0
 10
16.4410283362
 20
12.1603833881
 30
0.0
  0
SPLINE
  5
2E4
100
AcDbEntity
  8
0
100
AcDbSpline
 62
7
  6
CONTINUOUS
 70
0
 71
3
 72
16
 73
12
 74
0
 42
0.0000001
 43
0.0000001
 44
0.0000000001
 40
0.0
 40
0.0
 40
0.0
 40
0.0
 40
0.1390293098
 40
0.207015363
 40
0.2738607222
 40
0.4039341902
 40
0.5294852599
 40
0.6510442078
 40
0.7693286265
 40
0.8853006867
 40
1.0
 40
1.0
 40
1.0
 40
1.0
 10
15.2040230686
 20
12.5915444905
 30
0.0
 10
15.2079467445
 20
12.5915444905
 30
0.0
 10
15.2137962535
 20
12.5912429303
 30
0.0
 10
15.221457893
 20
12.5902013774
 30
0.0
 10
15.2287991498
 20
12.5887688775
 30
0.0
 10
15.2375637968
 20
12.5862262624
 30
0.0
 10
15.2473470325
 20
12.581950304
 30
0.0
 10
15.2561537576
 20
12.576515874
 30
0.0
 10
15.2638441569
 20
12.5699945024
 30
0.0
 10
15.2702646636
 20
12.5624718002
 30
0.0
 10
15.2736357051
 20
12.5568605976
 30
0.0
 10
15.2750617579
 20
12.5539546077
 30
0.0
  0
SPLINE
  5
2E5
100
AcDbEntity
  8
0
100
AcDbSpline
 62
7
  6
CONTINUOUS
 70
0
 71
3
 72
22
 73
18
 74
0
 42
0.0000001
 43
0.0000001
 44
0.0000000001
 40
0.0
 40
0.0
 40
0.0
 40
0.0
 40
0.0520131772
 40
0.1047093838
 40
0.1586621603
 40
0.2143753824
 40
0.2721953197
 40
0.332295253
 40
0.36322115
 40
0.3947026486
 40
0.4592054162
 40
0.5930978543
 40
0.7306829501
 40
0.7995731131
 40
0.8677514877
 40
0.9347445025
 40
1.0
 40
1.0
 40
1.0
 40
1.0
 10
15.0838449157
 20
12.4601190107
 30
0.0
 10
15.0822761809
 20
12.4633157561
 30
0.0
 10
15.079713668
 20
12.4700620483
 30
0.0
 10
15.0777487147
 20
12.4808012892
 30
0.0
 10
15.077681397
 20
12.4919705317
 30
0.0
 10
15.0794768118
 20
12.5033425597
 30
0.0
 10
15.0830744779
 20
12.5147144607
 30
0.0
 10
15.0874621777
 20
12.5239464979
 30
0.0
 10
15.0917563701
 20
12.5311556179
 30
0.0
 10
15.09664844
 20
12.5383421918
 30
0.0
 10
15.1066387889
 20
12.5505444265
 30
0.0
 10
15.1240558789
 20
12.5658371262
 30
0.0
 10
15.14437472
 20
12.5775574385
 30
0.0
 10
15.1618700903
 20
12.5845149495
 30
0.0
 10
15.1753205115
 20
12.5883816102
 30
0.0
 10
15.1888478202
 20
12.5908153451
 30
0.0
 10
15.1978999368
 20
12.5914680586
 30
0.0
 10
15.2023669788
 20
12.5915325116
 30
0.0
  0
SPLINE
  5
2E6
100
AcDbEntity
  8
0
100
AcDbSpline
 62
7
  6
CONTINUOUS
 70
0
 71
3
 72
22
 73
18
 74
0
 42
0.0000001
 43
0.0000001
 44
0.0000000001
 40
0.0
 40
0.0
 40
0.0
 40
0.0
 40
0.0509515992
 40
0.1022897989
 40
0.1543865642
 40
0.2075874295
 40
0.2622009823
 40
0.3184917997
 40
0.3766794403
 40
0.4369331241
 40
0.4993797031
 40
0.5640981596
 40
0.6311310368
 40
0.7004810448
 40
0.7721192183
 40
0.8459868265
 40
1.0
 40
1.0
 40
1.0
 40
1.0
 10
14.4591271211
 20
12.7326122923
 30
0.0
 10
14.4555745788
 20
12.721116201
 30
0.0
 10
14.4496719691
 20
12.697636239
 30
0.0
 10
14.4445787869
 20
12.6614699317
 30
0.0
 10
14.4432373396
 20
12.6244387764
 30
0.0
 10
14.445654639
 20
12.5866921565
 30
0.0
 10
14.4518123601
 20
12.5483739041
 30
0.0
 10
14.461679601
 20
12.5096279376
 30
0.0
 10
14.4752178698
 20
12.4705996875
 30
0.0
 10
14.4923653688
 20
12.4314298246
 30
0.0
 10
14.513062325
 20
12.3922654186
 30
0.0
 10
14.5372218411
 20
12.3532452476
 30
0.0
 10
14.5647588995
 20
12.3145158584
 30
0.0
 10
14.5955655262
 20
12.2762163494
 30
0.0
 10
14.6295304927
 20
12.2384873063
 30
0.0
 10
14.6795474492
 20
12.1884402744
 30
0.0
 10
14.7203976521
 20
12.1532466498
 30
0.0
 10
14.7489458885
 20
12.1307111564
 30
0.0
  0
SPLINE
  5
2E7
100
AcDbEntity
  8
0
100
AcDbSpline
 62
7
  6
CONTINUOUS
 70
0
 71
3
 72
24
 73
20
 74
0
 42
0.0000001
 43
0.0000001
 44
0.0000000001
 40
0.0
 40
0.0
 40
0.0
 40
0.0
 40
0.0780591813
 40
0.1540862126
 40
0.2279686581
 40
0.2996218302
 40
0.3689840396
 40
0.4360261395
 40
0.5007511246
 40
0.5322600131
 40
0.5632083649
 40
0.6234602308
 40
0.6816392623
 40
0.7379182958
 40
0.7925141968
 40
0.8456939276
 40
0.8977659093
 40
0.949076858
 40
1.0
 40
1.0
 40
1.0
 40
1.0
 10
15.8490832325
 20
11.790089346
 30
0.0
 10
15.8675213845
 20
11.7913346982
 30
0.0
 10
15.9038698414
 20
11.7945895872
 30
0.0
 10
15.9573631825
 20
11.8018976999
 30
0.0
 10
16.0089443894
 20
11.8115502353
 30
0.0
 10
16.058420878
 20
11.8235057889
 30
0.0
 10
16.1056089297
 20
11.8377256594
 30
0.0
 10
16.1503317974
 20
11.8541557654
 30
0.0
 10
16.1857228706
 20
11.8697782902
 30
0.0
 10
16.2126068062
 20
11.8833501829
 30
0.0
 10
16.2380645766
 20
11.8973552564
 30
0.0
 10
16.2681053121
 20
11.9160856333
 30
0.0
 10
16.3014030059
 20
11.940698695
 30
0.0
 10
16.3315048443
 20
11.9671522853
 30
0.0
 10
16.3582870347
 20
11.9953576851
 30
0.0
 10
16.3816478017
 20
12.0252064373
 30
0.0
 10
16.4014891924
 20
12.0565917675
 30
0.0
 10
16.4177273793
 20
12.0893873657
 30
0.0
 10
16.4261223893
 20
12.1121464402
 30
0.0
 10
16.4296814773
 20
12.1236649392
 30
0.0
  0
SPLINE
  5
2E8
100
AcDbEntity
  8
0
100
AcDbSpline
 62
7
  6
CONTINUOUS
 70
0
 71
3
 72
22
 73
18
 74
0
 42
0.0000001
 43
0.0000001
 44
0.0000000001
 40
0.0
 40
0.0
 40
0.0
 40
0.0
 40
0.0520196653
 40
0.1043753849
 40
0.1573924963
 40
0.2113760798
 40
0.2666043016
 40
0.3233195348
 40
0.3817305421
 40
0.4420057585
 40
0.5685722899
 40
0.6350847387
 40
0.7037757894
 40
0.7746524749
 40
0.8477005066
 40
0.9228553861
 40
1.0
 40
1.0
 40
1.0
 40
1.0
 10
14.47047398
 20
12.7693307412
 30
0.0
 10
14.4737495915
 20
12.7799306797
 30
0.0
 10
14.4813755401
 20
12.8008896492
 30
0.0
 10
14.4959110069
 20
12.8312031863
 30
0.0
 10
14.5135037594
 20
12.8603425122
 30
0.0
 10
14.5340929516
 20
12.8882088178
 30
0.0
 10
14.557610761
 20
12.9147120154
 30
0.0
 10
14.583972401
 20
12.9397737811
 30
0.0
 10
14.6130978204
 20
12.9633122461
 30
0.0
 10
14.6561747077
 20
12.9930529751
 30
0.0
 10
14.703853723
 20
13.0188807898
 30
0.0
 10
14.7551801554
 20
13.0408961267
 30
0.0
 10
14.796536117
 20
13.0558543986
 30
0.0
 10
14.8399741948
 20
13.06893878
 30
0.0
 10
14.8853644499
 20
13.0801070872
 30
0.0
 10
14.9325506657
 20
13.0893238624
 30
0.0
 10
14.9646935132
 20
13.0940907627
 30
0.0
 10
14.9810167248
 20
13.0961537002
 30
0.0
  0
SPLINE
  5
2E9
100
AcDbEntity
  8
0
100
AcDbSpline
 62
7
  6
CONTINUOUS
 70
0
 71
3
 72
15
 73
11
 74
0
 42
0.0000001
 43
0.0000001
 44
0.0000000001
 40
0.0
 40
0.0
 40
0.0
 40
0.0
 40
0.1393496447
 40
0.273515607
 40
0.4028519334
 40
0.5278866195
 40
0.6492805327
 40
0.7678676683
 40
0.8845106694
 40
1.0
 40
1.0
 40
1.0
 40
1.0
 10
16.1237951911
 20
12.3510699059
 30
0.0
 10
16.1278102365
 20
12.342278581
 30
0.0
 10
16.1350842076
 20
12.3247362173
 30
0.0
 10
16.1437719796
 20
12.298150804
 30
0.0
 10
16.1500058477
 20
12.2719004764
 30
0.0
 10
16.153788437
 20
12.2460790466
 30
0.0
 10
16.1551227268
 20
12.220759977
 30
0.0
 10
16.1540175329
 20
12.1960094401
 30
0.0
 10
16.1504909143
 20
12.1719014975
 30
0.0
 10
16.1465330158
 20
12.1562609189
 30
0.0
 10
16.144168109
 20
12.1486080776
 30
0.0
  0
SPLINE
  5
2EA
100
AcDbEntity
  8
0
100
AcDbSpline
 62
7
  6
CONTINUOUS
 70
0
 71
3
 72
23
 73
19
 74
0
 42
0.0000001
 43
0.0000001
 44
0.0000000001
 40
0.0
 40
0.0
 40
0.0
 40
0.0
 40
0.0493446715
 40
0.0995716272
 40
0.1510095103
 40
0.2039446797
 40
0.258619369
 40
0.3152274538
 40
0.3739144588
 40
0.4347829385
 40
0.4978893013
 40
0.563255676
 40
0.6308645186
 40
0.7006704134
 40
0.7725976575
 40
0.8465459989
 40
0.9223944379
 40
1.0
 40
1.0
 40
1.0
 40
1.0
 10
14.6528814374
 20
12.9889782513
 30
0.0
 10
14.6577060725
 20
12.999010383
 30
0.0
 10
14.6685436556
 20
13.0187427917
 30
0.0
 10
14.6879918266
 20
13.0467816116
 30
0.0
 10
14.7106690884
 20
13.0733536212
 30
0.0
 10
14.7364722595
 20
13.09835793
 30
0.0
 10
14.7653005395
 20
13.1216990431
 30
0.0
 10
14.7970372248
 20
13.1432915748
 30
0.0
 10
14.8315571688
 20
13.1630582893
 30
0.0
 10
14.8687282486
 20
13.1809221348
 30
0.0
 10
14.9084044852
 20
13.1968239908
 30
0.0
 10
14.9504359377
 20
13.210697542
 30
0.0
 10
14.9946591712
 20
13.2224984455
 30
0.0
 10
15.0409059461
 20
13.232176951
 30
0.0
 10
15.0889979079
 20
13.2397000859
 30
0.0
 10
15.1387509929
 20
13.245038972
 30
0.0
 10
15.1899727234
 20
13.2481712894
 30
0.0
 10
15.2245984304
 20
13.2487771675
 30
0.0
 10
15.2421058599
 20
13.248720794
 30
0.0
  0
SPLINE
  5
2EB
100
AcDbEntity
  8
0
100
AcDbSpline
 62
7
  6
CONTINUOUS
 70
0
 71
3
 72
29
 73
25
 74
0
 42
0.0000001
 43
0.0000001
 44
0.0000000001
 40
0.0
 40
0.0
 40
0.0
 40
0.0
 40
0.0643679702
 40
0.130333587
 40
0.1975131194
 40
0.2314350493
 40
0.2655061512
 40
0.3338761525
 40
0.40219978
 40
0.4362131966
 40
0.4700547085
 40
0.5370068432
 40
0.6026602302
 40
0.6348845864
 40
0.6666456043
 40
0.7286039567
 40
0.7882475429
 40
0.8171284942
 40
0.8453449606
 40
0.872876569
 40
0.8997118708
 40
0.9512589683
 40
0.9759818677
 40
1.0
 40
1.0
 40
1.0
 40
1.0
 10
15.256037956
 20
13.2485997536
 30
0.0
 10
15.2841332923
 20
13.2482028818
 30
0.0
 10
15.3410093161
 20
13.2455434353
 30
0.0
 10
15.4267764333
 20
13.2362805738
 30
0.0
 10
15.4987480992
 20
13.2242345004
 30
0.0
 10
15.5564861589
 20
13.2120367067
 30
0.0
 10
15.6143655769
 20
13.1981045696
 30
0.0
 10
15.6860847501
 20
13.1776340481
 30
0.0
 10
15.7565398628
 20
13.1532408521
 30
0.0
 10
15.8118551643
 20
13.1314517387
 30
0.0
 10
15.8659848768
 20
13.1083503662
 30
0.0
 10
15.9315750915
 20
13.0769929499
 30
0.0
 10
15.9945976457
 20
13.0421794563
 30
0.0
 10
16.0428151329
 20
13.0125399725
 30
0.0
 10
16.0887235747
 20
12.9822779086
 30
0.0
 10
16.142807452
 20
12.9427330243
 30
0.0
 10
16.1930487772
 20
12.9003155699
 30
0.0
 10
16.2300394619
 20
12.865247131
 30
0.0
 10
16.2558257985
 20
12.8387788919
 30
0.0
 10
16.2798899539
 20
12.8119205669
 30
0.0
 10
16.3092090722
 20
12.7761595092
 30
0.0
 10
16.3353516253
 20
12.7394158416
 30
0.0
 10
16.3578713775
 20
12.7018554015
 30
0.0
 10
16.3678082079
 20
12.6830260595
 30
0.0
 10
16.37242707
 20
12.6736138082
 30
0.0
  0
SPLINE
  5
2EC
100
AcDbEntity
  8
0
100
AcDbSpline
 62
7
  6
CONTINUOUS
 70
0
 71
3
 72
15
 73
11
 74
0
 42
0.0000001
 43
0.0000001
 44
0.0000000001
 40
0.0
 40
0.0
 40
0.0
 40
0.0
 40
0.1470263024
 40
0.2858665833
 40
0.4170062488
 40
0.5413313747
 40
0.6601848947
 40
0.7751253341
 40
0.8878420169
 40
1.0
 40
1.0
 40
1.0
 40
1.0
 10
14.985809767
 20
12.0618354917
 30
0.0
 10
14.9866937909
 20
12.0600340404
 30
0.0
 10
14.9885810683
 20
12.0566101036
 30
0.0
 10
14.9918555723
 20
12.0519405992
 30
0.0
 10
14.9954616092
 20
12.0479259933
 30
0.0
 10
14.9993671632
 20
12.044606759
 30
0.0
 10
15.0035245759
 20
12.0420020881
 30
0.0
 10
15.007890032
 20
12.0401312281
 30
0.0
 10
15.0124102314
 20
12.0390088455
 30
0.0
 10
15.01548525
 20
12.0387606982
 30
0.0
 10
15.0170160243
 20
12.0387603517
 30
0.0
  0
SPLINE
  5
2ED
100
AcDbEntity
  8
0
100
AcDbSpline
 62
7
  6
CONTINUOUS
 70
0
 71
3
 72
42
 73
38
 74
0
 42
0.0000001
 43
0.0000001
 44
0.0000000001
 40
0.0
 40
0.0
 40
0.0
 40
0.0
 40
0.0267641595
 40
0.0547536495
 40
0.0839706759
 40
0.1144120003
 40
0.1460381904
 40
0.1787786058
 40
0.2125404833
 40
0.247213079
 40
0.2826678505
 40
0.3187635531
 40
0.355348604
 40
0.3922635034
 40
0.4293440822
 40
0.4664232993
 40
0.5033345145
 40
0.5399131898
 40
0.576000386
 40
0.6114442299
 40
0.6461038337
 40
0.6798513513
 40
0.7125749732
 40
0.7441834674
 40
0.7746076381
 40
0.8038066679
 40
0.8317698376
 40
0.8452979573
 40
0.8585295535
 40
0.8841342933
 40
0.9086960509
 40
0.9323607729
 40
0.9553130665
 40
0.9665944075
 40
0.9777813781
 40
0.9889056475
 40
1.0
 40
1.0
 40
1.0
 40
1.0
 10
16.4196172906
 20
12.8366421477
 30
0.0
 10
16.4115639492
 20
12.8530531319
 30
0.0
 10
16.3933890024
 20
12.8858127353
 30
0.0
 10
16.3611719615
 20
12.9333408911
 30
0.0
 10
16.3236265266
 20
12.9800482789
 30
0.0
 10
16.281026225
 20
13.0256461329
 30
0.0
 10
16.2336568542
 20
13.0698674516
 30
0.0
 10
16.1818297818
 20
13.1124323157
 30
0.0
 10
16.1258937614
 20
13.1530754962
 30
0.0
 10
16.0662190525
 20
13.1915336303
 30
0.0
 10
16.0032044404
 20
13.2275584549
 30
0.0
 10
15.9372717696
 20
13.2609140558
 30
0.0
 10
15.8688619981
 20
13.2913771475
 30
0.0
 10
15.7984364465
 20
13.3187490183
 30
0.0
 10
15.726467395
 20
13.3428425404
 30
0.0
 10
15.6534401449
 20
13.3634986224
 30
0.0
 10
15.5798458749
 20
13.3805775231
 30
0.0
 10
15.5061785788
 20
13.3939614
 30
0.0
 10
15.4329329261
 20
13.4035625934
 30
0.0
 10
15.360597616
 20
13.4093096401
 30
0.0
 10
15.2896543497
 20
13.4111639406
 30
0.0
 10
15.2205724018
 20
13.4091059954
 30
0.0
 10
15.1538059446
 20
13.4031402729
 30
0.0
 10
15.0897909538
 20
13.3932980192
 30
0.0
 10
15.0289421868
 20
13.3796224501
 30
0.0
 10
14.9716554617
 20
13.362186388
 30
0.0
 10
14.9267008842
 20
13.3443929467
 30
0.0
 10
14.8929483573
 20
13.3283078779
 30
0.0
 10
14.8614110548
 20
13.3114148717
 30
0.0
 10
14.8247641786
 20
13.2881940569
 30
0.0
 10
14.7852544167
 20
13.2566845919
 30
0.0
 10
14.7510108097
 20
13.2220051835
 30
0.0
 10
14.7269815588
 20
13.1904364648
 30
0.0
 10
14.7108134568
 20
13.1639347629
 30
0.0
 10
14.7002494557
 20
13.1435445109
 30
0.0
 10
14.6912048093
 20
13.1225772683
 30
0.0
 10
14.6862001716
 20
13.108234038
 30
0.0
 10
14.6839628806
 20
13.1009941616
 30
0.0
  0
SPLINE
  5
2EE
100
AcDbEntity
  8
0
100
AcDbSpline
 62
7
  6
CONTINUOUS
 70
0
 71
3
 72
15
 73
11
 74
0
 42
0.0000001
 43
0.0000001
 44
0.0000000001
 40
0.0
 40
0.0
 40
0.0
 40
0.0
 40
0.1179565103
 40
0.236619306
 40
0.356720117
 40
0.4789276702
 40
0.6038406419
 40
0.7320291323
 40
0.8639741971
 40
1.0
 40
1.0
 40
1.0
 40
1.0
 10
16.4518736108
 20
12.5546684254
 30
0.0
 10
16.4551487538
 20
12.5652667918
 30
0.0
 10
16.4606013031
 20
12.5868904143
 30
0.0
 10
16.4653772588
 20
12.6201530717
 30
0.0
 10
16.4667435368
 20
12.6541302214
 30
0.0
 10
16.4647248069
 20
12.6886589795
 30
0.0
 10
16.4593456988
 20
12.7235916928
 30
0.0
 10
16.4506579412
 20
12.7587915924
 30
0.0
 10
16.4387177959
 20
12.7941234648
 30
0.0
 10
16.428795536
 20
12.8173190935
 30
0.0
 10
16.4233443724
 20
12.8288916454
 30
0.0
  0
SPLINE
  5
2EF
100
AcDbEntity
  8
0
100
AcDbSpline
 62
7
  6
CONTINUOUS
 70
0
 71
3
 72
22
 73
18
 74
0
 42
0.0000001
 43
0.0000001
 44
0.0000000001
 40
0.0
 40
0.0
 40
0.0
 40
0.0
 40
0.0533718972
 40
0.1070097851
 40
0.1611931062
 40
0.2161862603
 40
0.2722273587
 40
0.3295296438
 40
0.3882889196
 40
0.448669228
 40
0.5108046113
 40
0.5747993211
 40
0.6407278954
 40
0.7086341971
 40
0.7785377115
 40
0.8504307414
 40
1.0
 40
1.0
 40
1.0
 40
1.0
 10
16.310506878
 20
12.0972055102
 30
0.0
 10
16.3075031757
 20
12.087485526
 30
0.0
 10
16.3005330274
 20
12.0682759868
 30
0.0
 10
16.28731947
 20
12.0404876504
 30
0.0
 10
16.2713902829
 20
12.0137996459
 30
0.0
 10
16.252821948
 20
11.9883109097
 30
0.0
 10
16.2317020449
 20
11.9641014504
 30
0.0
 10
16.2081132612
 20
11.9412506721
 30
0.0
 10
16.182153588
 20
11.9198151813
 30
0.0
 10
16.1539141969
 20
11.8998502397
 30
0.0
 10
16.1234917679
 20
11.8814015855
 30
0.0
 10
16.0909849353
 20
11.8645087124
 30
0.0
 10
16.0564926417
 20
11.8492122759
 30
0.0
 10
16.0201209768
 20
11.8355420411
 30
0.0
 10
15.9819750483
 20
11.8235309203
 30
0.0
 10
15.928198494
 20
11.8095816631
 30
0.0
 10
15.886591761
 20
11.8019910897
 30
0.0
 10
15.8583532965
 20
11.7980640451
 30
0.0
  0
SPLINE
  5
2F0
100
AcDbEntity
  8
0
100
AcDbSpline
 62
7
  6
CONTINUOUS
 70
0
 71
3
 72
11
 73
7
 74
0
 42
0.0000001
 43
0.0000001
 44
0.0000000001
 40
0.0
 40
0.0
 40
0.0
 40
0.0
 40
0.2675745724
 40
0.5235418797
 40
0.76767713
 40
1.0
 40
1.0
 40
1.0
 40
1.0
 10
14.7470957472
 20
12.1415030363
 30
0.0
 10
14.7293527844
 20
12.1576297639
 30
0.0
 10
14.6957431356
 20
12.1904346696
 30
0.0
 10
14.650429152
 20
12.2422945057
 30
0.0
 10
14.6116773455
 20
12.2953712021
 30
0.0
 10
14.5899164912
 20
12.3322076789
 30
0.0
 10
14.5803357296
 20
12.3506899584
 30
0.0
  0
SPLINE
  5
2F1
100
AcDbEntity
  8
0
100
AcDbSpline
 62
7
  6
CONTINUOUS
 70
0
 71
3
 72
17
 73
13
 74
0
 42
0.0000001
 43
0.0000001
 44
0.0000000001
 40
0.0
 40
0.0
 40
0.0
 40
0.0
 40
0.1364889488
 40
0.2687495367
 40
0.397095897
 40
0.4599640265
 40
0.5220461984
 40
0.6441247557
 40
0.7639926098
 40
0.8233330176
 40
0.8823894196
 40
1.0
 40
1.0
 40
1.0
 40
1.0
 10
14.574852468
 20
12.3615575241
 30
0.0
 10
14.5690251278
 20
12.3734323949
 30
0.0
 10
14.5583984289
 20
12.3972444753
 30
0.0
 10
14.5455374536
 20
12.4335586621
 30
0.0
 10
14.5376165413
 20
12.4639371955
 30
0.0
 10
14.5330649056
 20
12.4880674274
 30
0.0
 10
14.5297315124
 20
12.5117823099
 30
0.0
 10
14.5277335165
 20
12.5412293226
 30
0.0
 10
14.52870625
 20
12.5704672954
 30
0.0
 10
14.5312945237
 20
12.5934230205
 30
0.0
 10
14.5350586766
 20
12.6159911021
 30
0.0
 10
14.539230898
 20
12.6326412943
 30
0.0
 10
14.5425961478
 20
12.6435312464
 30
0.0
  0
SPLINE
  5
2F2
100
AcDbEntity
  8
0
100
AcDbSpline
 62
7
  6
CONTINUOUS
 70
0
 71
3
 72
47
 73
43
 74
0
 42
0.0000001
 43
0.0000001
 44
0.0000000001
 40
0.0
 40
0.0
 40
0.0
 40
0.0
 40
0.0102075882
 40
0.0204765377
 40
0.0308413103
 40
0.0413357055
 40
0.0519944841
 40
0.0628538925
 40
0.0739484568
 40
0.0853100573
 40
0.096962817
 40
0.1089251865
 40
0.1338323735
 40
0.1468076625
 40
0.1601369823
 40
0.1878647504
 40
0.2170192649
 40
0.2475625644
 40
0.2794257932
 40
0.3125168974
 40
0.3467221091
 40
0.3819112511
 40
0.4179399054
 40
0.4546522256
 40
0.491883917
 40
0.5294637158
 40
0.5672165636
 40
0.6049649421
 40
0.6425317353
 40
0.6797416084
 40
0.7164241202
 40
0.7524147753
 40
0.7875587285
 40
0.8217117056
 40
0.8547447756
 40
0.8708073524
 40
0.8865494383
 40
0.9170243341
 40
0.9317459747
 40
0.9461149346
 40
0.9737756565
 40
1.0
 40
1.0
 40
1.0
 40
1.0
 10
14.7089349167
 20
12.592128679
 30
0.0
 10
14.7105997616
 20
12.5975161188
 30
0.0
 10
14.7143358224
 20
12.6082053516
 30
0.0
 10
14.7211131775
 20
12.6238517927
 30
0.0
 10
14.7290670679
 20
12.6391138502
 30
0.0
 10
14.7381896198
 20
12.6539601286
 30
0.0
 10
14.7484731758
 20
12.6683636935
 30
0.0
 10
14.7599071418
 20
12.6823028239
 30
0.0
 10
14.7724824451
 20
12.6957573405
 30
0.0
 10
14.7861875347
 20
12.7087047229
 30
0.0
 10
14.8010052684
 20
12.7211223258
 30
0.0
 10
14.8225026653
 20
12.7371521282
 30
0.0
 10
14.8459091485
 20
12.7517662984
 30
0.0
 10
14.8709394141
 20
12.7649655266
 30
0.0
 10
14.8979736015
 20
12.777641545
 30
0.0
 10
14.9341750516
 20
12.7917058335
 30
0.0
 10
14.9805019759
 20
12.8055154638
 30
0.0
 10
15.0299517681
 20
12.8163480885
 30
0.0
 10
15.0821682466
 20
12.824119158
 30
0.0
 10
15.1367826996
 20
12.828756188
 30
0.0
 10
15.1934088202
 20
12.8302211973
 30
0.0
 10
15.2516488017
 20
12.8284965456
 30
0.0
 10
15.3110950199
 20
12.8235874977
 30
0.0
 10
15.3713338766
 20
12.8155285821
 30
0.0
 10
15.4319463171
 20
12.804367811
 30
0.0
 10
15.4925137882
 20
12.7901863822
 30
0.0
 10
15.552616459
 20
12.7730762274
 30
0.0
 10
15.6118404675
 20
12.7531588301
 30
0.0
 10
15.669776584
 20
12.7305702073
 30
0.0
 10
15.7260248009
 20
12.7054670241
 30
0.0
 10
15.780197715
 20
12.6780269566
 30
0.0
 10
15.8319185176
 20
12.648438641
 30
0.0
 10
15.8808321733
 20
12.6169163717
 30
0.0
 10
15.9265946207
 20
12.5836801039
 30
0.0
 10
15.9621707512
 20
12.5544893108
 30
0.0
 10
15.9887432247
 20
12.5304641918
 30
0.0
 10
16.0134949152
 20
12.5065623398
 30
0.0
 10
16.0365177307
 20
12.4819560434
 30
0.0
 10
16.0576129486
 20
12.4566939009
 30
0.0
 10
16.0767607519
 20
12.4318617685
 30
0.0
 10
16.0979648728
 20
12.4006296744
 30
0.0
 10
16.1124450061
 20
12.3745626852
 30
0.0
 10
16.1188270123
 20
12.3615575241
 30
0.0
  0
SPLINE
  5
2F3
100
AcDbEntity
  8
0
100
AcDbSpline
 62
7
  6
CONTINUOUS
 70
0
 71
3
 72
48
 73
44
 74
0
 42
0.0000001
 43
0.0000001
 44
0.0000000001
 40
0.0
 40
0.0
 40
0.0
 40
0.0
 40
0.0265246107
 40
0.0543675206
 40
0.0687850152
 40
0.0835296988
 40
0.1139833168
 40
0.145683873
 40
0.1785510174
 40
0.212483072
 40
0.2473614189
 40
0.2830504812
 40
0.3194031123
 40
0.3562619726
 40
0.3934627674
 40
0.4308364076
 40
0.468211395
 40
0.5054162949
 40
0.5422818776
 40
0.5786438526
 40
0.6143446099
 40
0.6492369723
 40
0.6831851929
 40
0.7160699014
 40
0.7320827909
 40
0.7477937206
 40
0.7782688777
 40
0.7930247824
 40
0.8074523042
 40
0.8353097371
 40
0.8487496016
 40
0.861867463
 40
0.8746710923
 40
0.8871716768
 40
0.8993829081
 40
0.9113212283
 40
0.9344515723
 40
0.9457035798
 40
0.9567805607
 40
0.9677141946
 40
0.9785381135
 40
0.9892877433
 40
1.0
 40
1.0
 40
1.0
 40
1.0
 10
16.3951207878
 20
12.7470507059
 30
0.0
 10
16.387152725
 20
12.7632879106
 30
0.0
 10
16.369128305
 20
12.7957577496
 30
0.0
 10
16.342766264
 20
12.8346207687
 30
0.0
 10
16.3190370818
 20
12.8654196195
 30
0.0
 10
16.2929872057
 20
12.8966396729
 30
0.0
 10
16.2571425565
 20
12.9349792845
 30
0.0
 10
16.2097338041
 20
12.9792119956
 30
0.0
 10
16.1577880185
 20
13.021857277
 30
0.0
 10
16.1016638839
 20
13.0626300143
 30
0.0
 10
16.0417383917
 20
13.1012505858
 30
0.0
 10
15.9784208973
 20
13.1374614388
 30
0.0
 10
15.9121402039
 20
13.1710142154
 30
0.0
 10
15.8433470736
 20
13.2016809678
 30
0.0
 10
15.7725104261
 20
13.2292555888
 30
0.0
 10
15.7001106247
 20
13.2535460249
 30
0.0
 10
15.6266421411
 20
13.2743922152
 30
0.0
 10
15.5526035848
 20
13.2916474991
 30
0.0
 10
15.4784995585
 20
13.3051976264
 30
0.0
 10
15.4048339072
 20
13.3149497387
 30
0.0
 10
15.3321072839
 20
13.3208353594
 30
0.0
 10
15.2608136093
 20
13.3228188136
 30
0.0
 10
15.1914382687
 20
13.3208800811
 30
0.0
 10
15.1351213614
 20
13.3159693393
 30
0.0
 10
15.0914584987
 20
13.3100420029
 30
0.0
 10
15.0496356452
 20
13.3029584356
 30
0.0
 10
15.0090269616
 20
13.293941442
 30
0.0
 10
14.9698639342
 20
13.2829001686
 30
0.0
 10
14.9328588599
 20
13.27089837
 30
0.0
 10
14.8974348794
 20
13.256997967
 30
0.0
 10
14.863880712
 20
13.2411323902
 30
0.0
 10
14.8401718745
 20
13.2285282044
 30
0.0
 10
14.8176634654
 20
13.2150976518
 30
0.0
 10
14.7963923787
 20
13.2008657482
 30
0.0
 10
14.7763935987
 20
13.185854832
 30
0.0
 10
14.7517413928
 20
13.165059527
 30
0.0
 10
14.7294181084
 20
13.1425773267
 30
0.0
 10
14.7098082578
 20
13.1185465553
 30
0.0
 10
14.6966588143
 20
13.100043507
 30
0.0
 10
14.6849581887
 20
13.0809338316
 30
0.0
 10
14.674726292
 20
13.061249007
 30
0.0
 10
14.6659854297
 20
13.0410235383
 30
0.0
 10
14.6611573085
 20
13.0271922817
 30
0.0
 10
14.659000584
 20
13.020213329
 30
0.0
  0
SPLINE
  5
2F4
100
AcDbEntity
  8
0
100
AcDbSpline
 62
7
  6
CONTINUOUS
 70
0
 71
3
 72
11
 73
7
 74
0
 42
0.0000001
 43
0.0000001
 44
0.0000000001
 40
0.0
 40
0.0
 40
0.0
 40
0.0
 40
0.2869951975
 40
0.5491838467
 40
0.7858869767
 40
1.0
 40
1.0
 40
1.0
 40
1.0
 10
15.2421904383
 20
13.2561134162
 30
0.0
 10
15.2419694398
 20
13.2553982647
 30
0.0
 10
15.2416078711
 20
13.2540094331
 30
0.0
 10
15.2413106535
 20
13.2519764284
 30
0.0
 10
15.2412903742
 20
13.2501104413
 30
0.0
 10
15.2414759079
 20
13.2489413974
 30
0.0
 10
15.2416193867
 20
13.2484017102
 30
0.0
  0
SPLINE
  5
2F5
100
AcDbEntity
  8
0
100
AcDbSpline
 62
7
  6
CONTINUOUS
 70
0
 71
3
 72
15
 73
11
 74
0
 42
0.0000001
 43
0.0000001
 44
0.0000000001
 40
0.0
 40
0.0
 40
0.0
 40
0.0
 40
0.1211583294
 40
0.2452208501
 40
0.3722980041
 40
0.5019981971
 40
0.6328258773
 40
0.7621559076
 40
0.8861809466
 40
1.0
 40
1.0
 40
1.0
 40
1.0
 10
15.2674401482
 20
13.2785708043
 30
0.0
 10
15.265994821
 20
13.2785708043
 30
0.0
 10
15.2630604031
 20
13.2781739151
 30
0.0
 10
15.2588793417
 20
13.276588696
 30
0.0
 10
15.2549987002
 20
13.2741813745
 30
0.0
 10
15.2514863673
 20
13.2711504885
 30
0.0
 10
15.2483870847
 20
13.2676676204
 30
0.0
 10
15.2457483525
 20
13.2639083099
 30
0.0
 10
15.2436468134
 20
13.2600556014
 30
0.0
 10
15.2425913179
 20
13.2574106629
 30
0.0
 10
15.2421904383
 20
13.2561134162
 30
0.0
  0
SPLINE
  5
2F6
100
AcDbEntity
  8
0
100
AcDbSpline
 62
7
  6
CONTINUOUS
 70
0
 71
3
 72
22
 73
18
 74
0
 42
0.0000001
 43
0.0000001
 44
0.0000000001
 40
0.0
 40
0.0
 40
0.0
 40
0.0
 40
0.0771441619
 40
0.1522990969
 40
0.2253475864
 40
0.2962244645
 40
0.3649154769
 40
0.4314277747
 40
0.557994409
 40
0.6182696065
 40
0.6766806749
 40
0.7333958725
 40
0.7886240828
 40
0.8426077672
 40
0.8956248826
 40
0.9479805612
 40
1.0
 40
1.0
 40
1.0
 40
1.0
 10
15.0184897881
 20
12.9945150135
 30
0.0
 10
15.003845282
 20
12.9926642318
 30
0.0
 10
14.9750079652
 20
12.9883875353
 30
0.0
 10
14.9326742036
 20
12.980118554
 30
0.0
 10
14.8919515629
 20
12.9700988121
 30
0.0
 10
14.8529804039
 20
12.9583598923
 30
0.0
 10
14.8158773159
 20
12.9449399326
 30
0.0
 10
14.7698291715
 20
12.9251884741
 30
0.0
 10
14.7270532126
 20
12.9020168557
 30
0.0
 10
14.6884063041
 20
12.8753343508
 30
0.0
 10
14.6622759462
 20
12.8542166146
 30
0.0
 10
14.6386252499
 20
12.8317320801
 30
0.0
 10
14.6175260745
 20
12.8079542473
 30
0.0
 10
14.5990539426
 20
12.7829537669
 30
0.0
 10
14.5832707425
 20
12.7568107814
 30
0.0
 10
14.5702297434
 20
12.7296148016
 30
0.0
 10
14.5633879746
 20
12.7108112313
 30
0.0
 10
14.560449273
 20
12.7013013794
 30
0.0
  0
SPLINE
  5
2F7
100
AcDbEntity
  8
0
100
AcDbSpline
 62
7
  6
CONTINUOUS
 70
0
 71
3
 72
52
 73
48
 74
0
 42
0.0000001
 43
0.0000001
 44
0.0000000001
 40
0.0
 40
0.0
 40
0.0
 40
0.0
 40
0.0277230708
 40
0.0570522086
 40
0.0723196336
 40
0.0879820939
 40
0.1040335061
 40
0.1204628082
 40
0.1543907908
 40
0.1718608512
 40
0.1896399692
 40
0.2260328932
 40
0.2633805135
 40
0.3014693483
 40
0.3400708507
 40
0.378946931
 40
0.4178544385
 40
0.4565493812
 40
0.494792154
 40
0.5323512107
 40
0.5690087423
 40
0.6045656059
 40
0.6388458923
 40
0.6717048005
 40
0.687569125
 40
0.7030412759
 40
0.7181142967
 40
0.7327855124
 40
0.7609189385
 40
0.7744041579
 40
0.7875150743
 40
0.8126767827
 40
0.8247934518
 40
0.83663877
 40
0.8482513203
 40
0.8596743394
 40
0.8709546252
 40
0.8821424684
 40
0.8932903404
 40
0.9044515346
 40
0.9156790814
 40
0.9270239233
 40
0.9385344207
 40
0.9502560904
 40
0.9622307859
 40
0.9744961208
 40
1.0
 40
1.0
 40
1.0
 40
1.0
 10
16.0600668593
 20
12.3547018401
 30
0.0
 10
16.0530617796
 20
12.3689766917
 30
0.0
 10
16.0368934231
 20
12.3975145876
 30
0.0
 10
16.0128189576
 20
12.4313730583
 30
0.0
 10
15.9909099804
 20
12.4581163931
 30
0.0
 10
15.9729315221
 20
12.4782005822
 30
0.0
 10
15.9536668694
 20
12.4979945079
 30
0.0
 10
15.9260326849
 20
12.5242201305
 30
0.0
 10
15.8962918992
 20
12.5493633741
 30
0.0
 10
15.8646985744
 20
12.5733760208
 30
0.0
 10
15.8311590588
 20
12.5971289174
 30
0.0
 10
15.7868463353
 20
12.6253403502
 30
0.0
 10
15.7306963137
 20
12.6564223803
 30
0.0
 10
15.671677454
 20
12.6847033923
 30
0.0
 10
15.6103391801
 20
12.7099209127
 30
0.0
 10
15.5472508332
 20
12.7318433063
 30
0.0
 10
15.4829970325
 20
12.7502642481
 30
0.0
 10
15.4181744667
 20
12.7650140648
 30
0.0
 10
15.3533848499
 20
12.775957364
 30
0.0
 10
15.2892283219
 20
12.782989443
 30
0.0
 10
15.2262997865
 20
12.7860472374
 30
0.0
 10
15.1651802669
 20
12.7851025423
 30
0.0
 10
15.1064371869
 20
12.7801596835
 30
0.0
 10
15.0593694577
 20
12.7726622227
 30
0.0
 10
15.0234239543
 20
12.7646404149
 30
0.0
 10
14.9977065891
 20
12.7577386059
 30
0.0
 10
14.9729762846
 20
12.7498935671
 30
0.0
 10
14.9418366944
 20
12.738365915
 30
0.0
 10
14.9124029061
 20
12.7249238351
 30
0.0
 10
14.8850474178
 20
12.7094931649
 30
0.0
 10
14.8600883733
 20
12.6933978194
 30
0.0
 10
14.8372779941
 20
12.6754853095
 30
0.0
 10
14.8170656062
 20
12.6558266554
 30
0.0
 10
14.8035049212
 20
12.6405539786
 30
0.0
 10
14.7913909762
 20
12.624606768
 30
0.0
 10
14.7807498626
 20
12.608023583
 30
0.0
 10
14.7716106943
 20
12.5908420595
 30
0.0
 10
14.7639973437
 20
12.573103177
 30
0.0
 10
14.7579253369
 20
12.5548511183
 30
0.0
 10
14.7534120458
 20
12.536129074
 30
0.0
 10
14.7504698055
 20
12.5169829615
 30
0.0
 10
14.7491005423
 20
12.4974605013
 30
0.0
 10
14.7493081567
 20
12.4776085053
 30
0.0
 10
14.7510933904
 20
12.4574746295
 30
0.0
 10
14.7544483119
 20
12.437103205
 30
0.0
 10
14.7610883076
 20
12.409336869
 30
0.0
 10
14.768301792
 20
12.3888247013
 30
0.0
 10
14.7739617494
 20
12.3753358832
 30
0.0
  0
SPLINE
  5
2F8
100
AcDbEntity
  8
0
100
AcDbSpline
 62
7
  6
CONTINUOUS
 70
0
 71
3
 72
30
 73
26
 74
0
 42
0.0000001
 43
0.0000001
 44
0.0000000001
 40
0.0
 40
0.0
 40
0.0
 40
0.0
 40
0.0240189147
 40
0.048752109
 40
0.1003476861
 40
0.1272213192
 40
0.1548000465
 40
0.1830714195
 40
0.2120139518
 40
0.2717962702
 40
0.3339055497
 40
0.3657430243
 40
0.3980422732
 40
0.4638343866
 40
0.5308993501
 40
0.5647834618
 40
0.5988278975
 40
0.6671724033
 40
0.7354995207
 40
0.7695217024
 40
0.8033733958
 40
0.8703448098
 40
0.9360254232
 40
0.9682562795
 40
1.0
 40
1.0
 40
1.0
 40
1.0
 10
16.2965695359
 20
12.4281387379
 30
0.0
 10
16.2918870153
 20
12.4376807114
 30
0.0
 10
16.2818033849
 20
12.456769534
 30
0.0
 10
16.2589183823
 20
12.4948442604
 30
0.0
 10
16.2323136344
 20
12.5320752088
 30
0.0
 10
16.2024536393
 20
12.568291653
 30
0.0
 10
16.1779296452
 20
12.5954872138
 30
0.0
 10
16.1516415127
 20
12.6222769366
 30
0.0
 10
16.1139193957
 20
12.6577564067
 30
0.0
 10
16.0626752846
 20
12.700629383
 30
0.0
 10
16.0075140848
 20
12.7405362958
 30
0.0
 10
15.9606957456
 20
12.7710334773
 30
0.0
 10
15.9115345922
 20
12.8008674643
 30
0.0
 10
15.8473030717
 20
12.8358375658
 30
0.0
 10
15.7804820413
 20
12.8672381033
 30
0.0
 10
15.7253668219
 20
12.8902985591
 30
0.0
 10
15.6690895951
 20
12.9119860196
 30
0.0
 10
15.5974678713
 20
12.9361511171
 30
0.0
 10
15.5246147857
 20
12.9562650161
 30
0.0
 10
15.4658804214
 20
12.9698261104
 30
0.0
 10
15.4073719734
 20
12.9815905685
 30
0.0
 10
15.3345334483
 20
12.9929965034
 30
0.0
 10
15.2618544012
 20
12.9999814
 30
0.0
 10
15.2045391608
 20
13.0027786116
 30
0.0
 10
15.1762265747
 20
13.0032522805
 30
0.0
 10
15.1621791692
 20
13.0032522805
 30
0.0
  0
SPLINE
  5
2F9
100
AcDbEntity
  8
0
100
AcDbSpline
 62
7
  6
CONTINUOUS
 70
0
 71
3
 72
15
 73
11
 74
0
 42
0.0000001
 43
0.0000001
 44
0.0000000001
 40
0.0
 40
0.0
 40
0.0
 40
0.0
 40
0.1164344503
 40
0.233774773
 40
0.3528842141
 40
0.4745721574
 40
0.5995740841
 40
0.7285310562
 40
0.8619094481
 40
1.0
 40
1.0
 40
1.0
 40
1.0
 10
15.9729878754
 20
12.1843441497
 30
0.0
 10
15.9750012499
 20
12.190858472
 30
0.0
 10
15.9783355242
 20
12.2041685518
 30
0.0
 10
15.9811811597
 20
12.2246738448
 30
0.0
 10
15.9818744449
 20
12.2456726503
 30
0.0
 10
15.9804087108
 20
12.2670784143
 30
0.0
 10
15.976798698
 20
12.288810479
 30
0.0
 10
15.9710558659
 20
12.3107843789
 30
0.0
 10
15.9632122601
 20
12.3329092159
 30
0.0
 10
15.9567248448
 20
12.3474422999
 30
0.0
 10
15.9531623799
 20
12.3547018401
 30
0.0
  0
SPLINE
  5
2FA
100
AcDbEntity
  8
0
100
AcDbSpline
 62
7
  6
CONTINUOUS
 70
0
 71
3
 72
44
 73
40
 74
0
 42
0.0000001
 43
0.0000001
 44
0.0000000001
 40
0.0
 40
0.0
 40
0.0
 40
0.0
 40
0.0265230445
 40
0.0543684211
 40
0.0835275754
 40
0.1139809513
 40
0.145682247
 40
0.1785502884
 40
0.2124837053
 40
0.2473626407
 40
0.2830528551
 40
0.3194064054
 40
0.3562663468
 40
0.3934681198
 40
0.4308428352
 40
0.4682187958
 40
0.505424801
 40
0.5422913209
 40
0.5786543793
 40
0.6143560535
 40
0.6492494452
 40
0.6831985185
 40
0.7160842797
 40
0.7478044778
 40
0.7782807522
 40
0.8074591376
 40
0.8353176628
 40
0.848757593
 40
0.8618758362
 40
0.8746801663
 40
0.8871809392
 40
0.899392246
 40
0.9113311015
 40
0.9344620085
 40
0.9567794063
 40
0.9677133078
 40
0.9785373786
 40
0.9892873574
 40
1.0
 40
1.0
 40
1.0
 40
1.0
 10
15.9531623799
 20
12.3547018401
 30
0.0
 10
15.9481935382
 20
12.364827275
 30
0.0
 10
15.9369517355
 20
12.3850769186
 30
0.0
 10
15.916990307
 20
12.4145057923
 30
0.0
 10
15.8936536431
 20
12.4435135675
 30
0.0
 10
15.8671133694
 20
12.4719036466
 30
0.0
 10
15.8375449324
 20
12.4994880053
 30
0.0
 10
15.8051506643
 20
12.5260853553
 30
0.0
 10
15.7701477702
 20
12.5515118817
 30
0.0
 10
15.7327759499
 20
12.575598605
 30
0.0
 10
15.6932877963
 20
12.5981808051
 30
0.0
 10
15.6519519186
 20
12.6191059992
 30
0.0
 10
15.6090494495
 20
12.6382319125
 30
0.0
 10
15.5648717857
 20
12.6554275734
 30
0.0
 10
15.519720286
 20
12.6705778508
 30
0.0
 10
15.4739012512
 20
12.6835768563
 30
0.0
 10
15.4277276168
 20
12.6943397476
 30
0.0
 10
15.3815124294
 20
12.7027888651
 30
0.0
 10
15.3355711415
 20
12.7088718717
 30
0.0
 10
15.290215107
 20
12.7125415871
 30
0.0
 10
15.2457531618
 20
12.7137792229
 30
0.0
 10
15.2024865396
 20
12.7125695167
 30
0.0
 10
15.1607084843
 20
12.7089269156
 30
0.0
 10
15.1207020637
 20
12.702868549
 30
0.0
 10
15.0827361385
 20
12.6944401153
 30
0.0
 10
15.0470700741
 20
12.6836908065
 30
0.0
 10
15.0191322128
 20
12.6727310257
 30
0.0
 10
14.9982064741
 20
12.6628348516
 30
0.0
 10
14.9834206734
 20
12.6549740975
 30
0.0
 10
14.9693824251
 20
12.6465994934
 30
0.0
 10
14.956116946
 20
12.6377233168
 30
0.0
 10
14.943645869
 20
12.6283609227
 30
0.0
 10
14.9282698796
 20
12.6153919831
 30
0.0
 10
14.9110281374
 20
12.5980298384
 30
0.0
 10
14.896415109
 20
12.5789240142
 30
0.0
 10
14.8866207272
 20
12.5629283931
 30
0.0
 10
14.8802410079
 20
12.5506509203
 30
0.0
 10
14.8747895249
 20
12.5380376081
 30
0.0
 10
14.8717776912
 20
12.5294119376
 30
0.0
 10
14.8704324974
 20
12.5250595304
 30
0.0
  0
SPLINE
  5
2FB
100
AcDbEntity
  8
0
100
AcDbSpline
 62
7
  6
CONTINUOUS
 70
0
 71
3
 72
14
 73
10
 74
0
 42
0.0000001
 43
0.0000001
 44
0.0000000001
 40
0.0
 40
0.0
 40
0.0
 40
0.0
 40
0.138201882
 40
0.2728522495
 40
0.4037424395
 40
0.530756626
 40
0.6538688866
 40
0.7730911189
 40
1.0
 40
1.0
 40
1.0
 40
1.0
 10
14.9696698659
 20
13.0594352513
 30
0.0
 10
14.9534014175
 20
13.0573792348
 30
0.0
 10
14.9213646186
 20
13.0526304188
 30
0.0
 10
14.8743300051
 20
13.0434547097
 30
0.0
 10
14.8290781096
 20
13.0323405211
 30
0.0
 10
14.7857639938
 20
13.0193229056
 30
0.0
 10
14.7445155109
 20
13.0044432253
 30
0.0
 10
14.6933077059
 20
12.9825466608
 30
0.0
 10
14.6570292938
 20
12.9629661522
 30
0.0
 10
14.634326734
 20
12.9484939241
 30
0.0
  0
SPLINE
  5
2FC
100
AcDbEntity
  8
0
100
AcDbSpline
 62
7
  6
CONTINUOUS
 70
0
 71
3
 72
15
 73
11
 74
0
 42
0.0000001
 43
0.0000001
 44
0.0000000001
 40
0.0
 40
0.0
 40
0.0
 40
0.0
 40
0.1353498232
 40
0.2670962321
 40
0.3954957277
 40
0.5208633882
 40
0.6435633336
 40
0.7640063249
 40
0.8826532553
 40
1.0
 40
1.0
 40
1.0
 40
1.0
 10
14.634326734
 20
12.9484939241
 30
0.0
 10
14.6250627889
 20
12.9425884258
 30
0.0
 10
14.6071219944
 20
12.9303881662
 30
0.0
 10
14.5817592761
 20
12.9106735329
 30
0.0
 10
14.5583793826
 20
12.8898382828
 30
0.0
 10
14.537037005
 20
12.8679323748
 30
0.0
 10
14.5177812179
 20
12.8450063347
 30
0.0
 10
14.5006626885
 20
12.8211084826
 30
0.0
 10
14.4857209959
 20
12.7962992966
 30
0.0
 10
14.4771980608
 20
12.7791158485
 30
0.0
 10
14.4733257879
 20
12.7704136276
 30
0.0
  0
SPLINE
  5
2FD
100
AcDbEntity
  8
0
100
AcDbSpline
 62
7
  6
CONTINUOUS
 70
0
 71
3
 72
25
 73
21
 74
0
 42
0.0000001
 43
0.0000001
 44
0.0000000001
 40
0.0
 40
0.0
 40
0.0
 40
0.0
 40
0.0270216375
 40
0.0539994923
 40
0.1080095481
 40
0.1625729315
 40
0.1902436082
 40
0.2182355232
 40
0.2753573819
 40
0.3343520724
 40
0.3954483815
 40
0.4587110665
 40
0.5240362643
 40
0.5911524576
 40
0.6596364175
 40
0.7289355545
 40
0.7983752084
 40
0.867210408
 40
0.93470024
 40
1.0
 40
1.0
 40
1.0
 40
1.0
 10
15.2786485064
 20
12.5466446432
 30
0.0
 10
15.2794738604
 20
12.5449630293
 30
0.0
 10
15.2809790919
 20
12.5415291525
 30
0.0
 10
15.2833772518
 20
12.534428047
 30
0.0
 10
15.2852030847
 20
12.5251572509
 30
0.0
 10
15.2853795338
 20
12.5156638464
 30
0.0
 10
15.2845484761
 20
12.5080600737
 30
0.0
 10
15.2830464741
 20
12.5003787294
 30
0.0
 10
15.2799177932
 20
12.4908419219
 30
0.0
 10
15.2743106163
 20
12.479861415
 30
0.0
 10
15.2669551175
 20
12.4694461105
 30
0.0
 10
15.2580086243
 20
12.4597625248
 30
0.0
 10
15.2476617929
 20
12.4509423043
 30
0.0
 10
15.2361252176
 20
12.4430924157
 30
0.0
 10
15.2236238865
 20
12.4363022794
 30
0.0
 10
15.2103987342
 20
12.4306428638
 30
0.0
 10
15.1967021734
 20
12.4261710267
 30
0.0
 10
15.1827913213
 20
12.4229330821
 30
0.0
 10
15.1689355215
 20
12.4209665706
 30
0.0
 10
15.1597253082
 20
12.4205044434
 30
0.0
 10
15.1551984827
 20
12.4205044434
 30
0.0
  0
SPLINE
  5
2FE
100
AcDbEntity
  8
0
100
AcDbSpline
 62
7
  6
CONTINUOUS
 70
0
 71
3
 72
15
 73
11
 74
0
 42
0.0000001
 43
0.0000001
 44
0.0000000001
 40
0.0
 40
0.0
 40
0.0
 40
0.0
 40
0.1481396002
 40
0.2894982787
 40
0.4232657323
 40
0.5494817369
 40
0.6687506612
 40
0.7822703221
 40
0.8919067222
 40
1.0
 40
1.0
 40
1.0
 40
1.0
 10
15.1551984827
 20
12.4205044434
 30
0.0
 10
15.151296058
 20
12.4205044434
 30
0.0
 10
15.1436644513
 20
12.4208351948
 30
0.0
 10
15.1326042706
 20
12.4223866366
 30
0.0
 10
15.1223307222
 20
12.4249799747
 30
0.0
 10
15.1129876206
 20
12.428596532
 30
0.0
 10
15.1046945004
 20
12.433213094
 30
0.0
 10
15.0975639063
 20
12.4388057307
 30
0.0
 10
15.091697141
 20
12.445325517
 30
0.0
 10
15.0886870451
 20
12.450253232
 30
0.0
 10
15.0874324052
 20
12.4528094151
 30
0.0
  0
SPLINE
  5
2FF
100
AcDbEntity
  8
0
100
AcDbSpline
 62
7
  6
CONTINUOUS
 70
0
 71
3
 72
15
 73
11
 74
0
 42
0.0000001
 43
0.0000001
 44
0.0000000001
 40
0.0
 40
0.0
 40
0.0
 40
0.0
 40
0.117351822
 40
0.2359814122
 40
0.3563964634
 40
0.4790654195
 40
0.6044152127
 40
0.7328165162
 40
0.8645883603
 40
1.0
 40
1.0
 40
1.0
 40
1.0
 10
16.4388704903
 20
12.160671205
 30
0.0
 10
16.4406599548
 20
12.1701104012
 30
0.0
 10
16.4434602896
 20
12.189252419
 30
0.0
 10
16.4452861746
 20
12.2184034236
 30
0.0
 10
16.4447568263
 20
12.2480426421
 30
0.0
 10
16.4418760971
 20
12.278096869
 30
0.0
 10
16.4366477622
 20
12.3084945269
 30
0.0
 10
16.4290908799
 20
12.3391647405
 30
0.0
 10
16.4192251773
 20
12.3700347698
 30
0.0
 10
16.4112341648
 20
12.3904145342
 30
0.0
 10
16.4068802924
 20
12.400609609
 30
0.0
  0
SPLINE
  5
300
100
AcDbEntity
  8
0
100
AcDbSpline
 62
7
  6
CONTINUOUS
 70
0
 71
3
 72
30
 73
26
 74
0
 42
0.0000001
 43
0.0000001
 44
0.0000000001
 40
0.0
 40
0.0
 40
0.0
 40
0.0
 40
0.047883772
 40
0.0729185631
 40
0.0986919321
 40
0.1252074346
 40
0.1524606375
 40
0.2091145319
 40
0.238487679
 40
0.2685174454
 40
0.2991715071
 40
0.3304120278
 40
0.3944770403
 40
0.4603566361
 40
0.4938550967
 40
0.5276516532
 40
0.5959090103
 40
0.6646779906
 40
0.7334912528
 40
0.7677714348
 40
0.801886495
 40
0.8693839781
 40
0.9355665319
 40
0.9680338979
 40
1.0
 40
1.0
 40
1.0
 40
1.0
 10
16.4068802924
 20
12.400609609
 30
0.0
 10
16.397414539
 20
12.4227747191
 30
0.0
 10
16.3807889344
 20
12.4556240976
 30
0.0
 10
16.3547485937
 20
12.4979422235
 30
0.0
 10
16.3326158207
 20
12.5299800092
 30
0.0
 10
16.3082292374
 20
12.5617523386
 30
0.0
 10
16.2723292064
 20
12.6042040636
 30
0.0
 10
16.2325815561
 20
12.6452002674
 30
0.0
 10
16.1894688484
 20
12.6846315707
 30
0.0
 10
16.1548513616
 20
12.7139136692
 30
0.0
 10
16.1184305247
 20
12.7424669406
 30
0.0
 10
16.0671632544
 20
12.7797858778
 30
0.0
 10
15.9991215144
 20
12.8240924265
 30
0.0
 10
15.927383003
 20
12.8644751665
 30
0.0
 10
15.8675146822
 20
12.8946452167
 30
0.0
 10
15.8056785178
 20
12.9235010602
 30
0.0
 10
15.7261652094
 20
12.9563615485
 30
0.0
 10
15.6282276011
 20
12.990330846
 30
0.0
 10
15.5449527667
 20
13.0139427845
 30
0.0
 10
15.4777441634
 20
13.0298726267
 30
0.0
 10
15.4107474927
 20
13.0436987493
 30
0.0
 10
15.3273076173
 20
13.0571085521
 30
0.0
 10
15.2440246009
 20
13.0653256557
 30
0.0
 10
15.1783536863
 20
13.0686165469
 30
0.0
 10
15.1459192275
 20
13.0691740176
 30
0.0
 10
15.1298294792
 20
13.0691740176
 30
0.0
  0
SPLINE
  5
301
100
AcDbEntity
  8
0
100
AcDbSpline
 62
7
  6
CONTINUOUS
 70
0
 71
3
 72
24
 73
20
 74
0
 42
0.0000001
 43
0.0000001
 44
0.0000000001
 40
0.0
 40
0.0
 40
0.0
 40
0.0
 40
0.0198867083
 40
0.0400665113
 40
0.0817946971
 40
0.1262231604
 40
0.1740786136
 40
0.2258629582
 40
0.2818584804
 40
0.3421414208
 40
0.4065731277
 40
0.4748102434
 40
0.546326324
 40
0.6204421015
 40
0.6963820003
 40
0.7732727067
 40
0.8501854571
 40
0.9261195631
 40
1.0
 40
1.0
 40
1.0
 40
1.0
 10
15.0170160243
 20
12.0387603517
 30
0.0
 10
15.018170304
 20
12.0387600905
 30
0.0
 10
15.0204983967
 20
12.038900663
 30
0.0
 10
15.0251792903
 20
12.0397452605
 30
0.0
 10
15.0310254179
 20
12.0418902261
 30
0.0
 10
15.037650239
 20
12.0460594076
 30
0.0
 10
15.0438103324
 20
12.0517791827
 30
0.0
 10
15.0493354411
 20
12.0589727393
 30
0.0
 10
15.0540939752
 20
12.0675242798
 30
0.0
 10
15.0579547886
 20
12.0773052682
 30
0.0
 10
15.0608562035
 20
12.0881447155
 30
0.0
 10
15.0627468426
 20
12.0998622351
 30
0.0
 10
15.0636484507
 20
12.112256892
 30
0.0
 10
15.0635893533
 20
12.1251284157
 30
0.0
 10
15.0626566641
 20
12.1382763613
 30
0.0
 10
15.0609386314
 20
12.1515068406
 30
0.0
 10
15.0585461692
 20
12.1646304062
 30
0.0
 10
15.055590914
 20
12.1774583135
 30
0.0
 10
15.0532860392
 20
12.1858458068
 30
0.0
 10
15.0520670999
 20
12.1899571404
 30
0.0
  0
SPLINE
  5
302
100
AcDbEntity
  8
0
100
AcDbSpline
 62
7
  6
CONTINUOUS
 70
0
 71
3
 72
13
 73
9
 74
0
 42
0.0000001
 43
0.0000001
 44
0.0000000001
 40
0.0
 40
0.0
 40
0.0
 40
0.0
 40
0.243620679
 40
0.3677129902
 40
0.492885921
 40
0.6188875032
 40
0.745753553
 40
1.0
 40
1.0
 40
1.0
 40
1.0
 10
15.2842036775
 20
13.2676914063
 30
0.0
 10
15.283453657
 20
13.2692208663
 30
0.0
 10
15.2819982081
 20
13.2713869651
 30
0.0
 10
15.2795651152
 20
13.2738362127
 30
0.0
 10
15.2774868021
 20
13.2754508626
 30
0.0
 10
15.2751941034
 20
13.2767847982
 30
0.0
 10
15.2719023472
 20
13.2781221256
 30
0.0
 10
15.2692179072
 20
13.2785708043
 30
0.0
 10
15.2674401482
 20
13.2785708043
 30
0.0
  0
SPLINE
  5
303
100
AcDbEntity
  8
0
100
AcDbSpline
 62
7
  6
CONTINUOUS
 70
0
 71
3
 72
15
 73
11
 74
0
 42
0.0000001
 43
0.0000001
 44
0.0000000001
 40
0.0
 40
0.0
 40
0.0
 40
0.0
 40
0.1164327268
 40
0.2337732846
 40
0.3528877383
 40
0.4745781895
 40
0.5995746789
 40
0.7285164188
 40
0.8618929278
 40
1.0
 40
1.0
 40
1.0
 40
1.0
 10
16.4269097283
 20
12.4738880829
 30
0.0
 10
16.4301377155
 20
12.4843335386
 30
0.0
 10
16.4354871964
 20
12.5056748592
 30
0.0
 10
16.4400486195
 20
12.5385552021
 30
0.0
 10
16.4411583124
 20
12.5722267488
 30
0.0
 10
16.438809888
 20
12.6065505406
 30
0.0
 10
16.4330200315
 20
12.6413952447
 30
0.0
 10
16.4238147202
 20
12.6766282473
 30
0.0
 10
16.4112371756
 20
12.712104546
 30
0.0
 10
16.4008337676
 20
12.7354088771
 30
0.0
 10
16.3951207878
 20
12.7470507059
 30
0.0
  0
SPLINE
  5
304
100
AcDbEntity
  8
0
100
AcDbSpline
 62
7
  6
CONTINUOUS
 70
0
 71
3
 72
9
 73
5
 74
0
 42
0.0000001
 43
0.0000001
 44
0.0000000001
 40
0.0
 40
0.0
 40
0.0
 40
0.0
 40
0.4930712432
 40
1.0
 40
1.0
 40
1.0
 40
1.0
 10
15.0514154669
 20
13.0025381663
 30
0.0
 10
15.0689478147
 20
13.0047539153
 30
0.0
 10
15.1046319817
 20
13.0082865332
 30
0.0
 10
15.1404460874
 20
13.0100210328
 30
0.0
 10
15.1586089498
 20
13.0104721625
 30
0.0
  0
SPLINE
  5
305
100
AcDbEntity
  8
0
100
AcDbSpline
 62
7
  6
CONTINUOUS
 70
0
 71
3
 72
15
 73
11
 74
0
 42
0.0000001
 43
0.0000001
 44
0.0000000001
 40
0.0
 40
0.0
 40
0.0
 40
0.0
 40
0.1164327268
 40
0.2337732846
 40
0.3528877383
 40
0.4745781895
 40
0.5995746789
 40
0.7285164188
 40
0.8618929278
 40
1.0
 40
1.0
 40
1.0
 40
1.0
 10
16.3283584764
 20
12.154976115
 30
0.0
 10
16.3315864636
 20
12.1654215707
 30
0.0
 10
16.3369359445
 20
12.1867628913
 30
0.0
 10
16.3414973676
 20
12.2196432341
 30
0.0
 10
16.3426070605
 20
12.2533147808
 30
0.0
 10
16.340258636
 20
12.2876385726
 30
0.0
 10
16.3344687796
 20
12.3224832767
 30
0.0
 10
16.3252634683
 20
12.3577162793
 30
0.0
 10
16.3126859237
 20
12.3931925779
 30
0.0
 10
16.3022825157
 20
12.416496909
 30
0.0
 10
16.2965695359
 20
12.4281387379
 30
0.0
  0
SPLINE
  5
306
100
AcDbEntity
  8
0
100
AcDbSpline
 62
7
  6
CONTINUOUS
 70
0
 71
3
 72
9
 73
5
 74
0
 42
0.0000001
 43
0.0000001
 44
0.0000000001
 40
0.0
 40
0.0
 40
0.0
 40
0.0
 40
0.5070090076
 40
1.0
 40
1.0
 40
1.0
 40
1.0
 10
15.1443015807
 20
13.0396284126
 30
0.0
 10
15.1249037789
 20
13.0391713262
 30
0.0
 10
15.086659577
 20
13.0373573016
 30
0.0
 10
15.0485544764
 20
13.0335990332
 30
0.0
 10
15.029836647
 20
13.0312334624
 30
0.0
  0
SPLINE
  5
307
100
AcDbEntity
  8
0
100
AcDbSpline
 62
7
  6
CONTINUOUS
 70
0
 71
3
 72
11
 73
7
 74
0
 42
0.0000001
 43
0.0000001
 44
0.0000000001
 40
0.0
 40
0.0
 40
0.0
 40
0.0
 40
0.2647182062
 40
0.518458342
 40
0.762860758
 40
1.0
 40
1.0
 40
1.0
 40
1.0
 10
16.0366217445
 20
12.0505607485
 30
0.0
 10
16.0474106996
 20
12.0575368983
 30
0.0
 10
16.0679020664
 20
12.0722297017
 30
0.0
 10
16.0955596075
 20
12.0969586781
 30
0.0
 10
16.1192710114
 20
12.1237393798
 30
0.0
 10
16.1325014092
 20
12.1430976466
 30
0.0
 10
16.138350356
 20
12.1530100274
 30
0.0
  0
SPLINE
  5
308
100
AcDbEntity
  8
0
100
AcDbSpline
 62
7
  6
CONTINUOUS
 70
0
 71
3
 72
24
 73
20
 74
0
 42
0.0000001
 43
0.0000001
 44
0.0000000001
 40
0.0
 40
0.0
 40
0.0
 40
0.0
 40
0.067630667
 40
0.1330878667
 40
0.1965880316
 40
0.2583917367
 40
0.3188096893
 40
0.3781920347
 40
0.4369223172
 40
0.4954075872
 40
0.5540627028
 40
0.6132952853
 40
0.6734904553
 40
0.7350071595
 40
0.7981705886
 40
0.8632641572
 40
0.8966092424
 40
0.9305061565
 40
1.0
 40
1.0
 40
1.0
 40
1.0
 10
15.9681703826
 20
12.0062973719
 30
0.0
 10
15.9757311054
 20
12.0111861309
 30
0.0
 10
15.9902653121
 20
12.0213549482
 30
0.0
 10
16.0104706491
 20
12.0380332926
 30
0.0
 10
16.0286437962
 20
12.0558190727
 30
0.0
 10
16.0447129246
 20
12.0746561777
 30
0.0
 10
16.058621032
 20
12.0944776397
 30
0.0
 10
16.0703165954
 20
12.1152140062
 30
0.0
 10
16.07974997
 20
12.1367934164
 30
0.0
 10
16.0868915983
 20
12.1591346275
 30
0.0
 10
16.0917088443
 20
12.1821576025
 30
0.0
 10
16.0941882438
 20
12.2057755624
 30
0.0
 10
16.094326107
 20
12.2299020201
 30
0.0
 10
16.0921189606
 20
12.2544508773
 30
0.0
 10
16.0875832389
 20
12.2793374522
 30
0.0
 10
16.0819191274
 20
12.3001198639
 30
0.0
 10
16.076276786
 20
12.3168135739
 30
0.0
 10
16.0697816552
 20
12.3338226025
 30
0.0
 10
16.064142595
 20
12.3463963639
 30
0.0
 10
16.0600668593
 20
12.3547018401
 30
0.0
  0
SPLINE
  5
309
100
AcDbEntity
  8
0
100
AcDbSpline
 62
7
  6
CONTINUOUS
 70
0
 71
3
 72
14
 73
10
 74
0
 42
0.0000001
 43
0.0000001
 44
0.0000000001
 40
0.0
 40
0.0
 40
0.0
 40
0.0
 40
0.1175134811
 40
0.2363500497
 40
0.356962632
 40
0.4797771169
 40
0.6051840171
 40
0.7335351357
 40
1.0
 40
1.0
 40
1.0
 40
1.0
 10
14.7191056636
 20
12.6173857892
 30
0.0
 10
14.718009369
 20
12.610789387
 30
0.0
 10
14.7163350905
 20
12.5974282411
 30
0.0
 10
14.7153913163
 20
12.5771187086
 30
0.0
 10
14.7160071519
 20
12.5564942271
 30
0.0
 10
14.7181812931
 20
12.5356012551
 30
0.0
 10
14.7219060504
 20
12.5144808564
 30
0.0
 10
14.7290171352
 20
12.4857282899
 30
0.0
 10
14.7365500241
 20
12.4644822446
 30
0.0
 10
14.7424168048
 20
12.4505005544
 30
0.0
  0
ENDSEC
  0
SECTION
  2
OBJECTS
  0
DICTIONARY
  5
C
100
AcDbDictionary
280
0
281
1
  3
ACAD_GROUP
350
D
  3
ACAD_MLINESTYLE
350
17
  3
ACAD_LAYOUT
350
1A
  3
ACAD_PLOTSETTINGS
350
19
  3
ACAD_PLOTSTYLENAME
350
E
  0
DICTIONARY
  5
D
102
{ACAD_REACTORS
330
C
102
}
100
AcDbDictionary
280
0
281
1
  0
ACDBDICTIONARYWDFLT
  5
E
102
{ACAD_REACTORS
330
C
102
}
100
AcDbDictionary
281
1
  3
Normal
350
F
100
AcDbDictionaryWithDefault
340
F
  0
DICTIONARY
  5
17
102
{ACAD_REACTORS
330
C
102
}
100
AcDbDictionary
280
0
281
1
  3
Standard
350
18
  0
DICTIONARY
  5
19
102
{ACAD_REACTORS
330
C
102
}
100
AcDbDictionary
281
1
  0
DICTIONARY
  5
1A
102
{ACAD_REACTORS
330
C
102
}
100
AcDbDictionary
281
1
  3
Model
350
30A
  3
Layout1
350
30B
  0
ACDBPLACEHOLDER
  5
F
102
{ACAD_REACTORS
330
E
102
}
  0
MLINESTYLE
  5
18
102
{ACAD_REACTORS
330
17
102
}
100
AcDbMlineStyle
  2
STANDARD
 70
0
  3

 62
256
 51
90.0
 52
90.0
 71
2
 49
0.5
 62
256
  6
BYLAYER
 49
-0.5
 62
256
  6
BYLAYER
  0
LAYOUT
  5
30A
102
{ACAD_REACTORS
330
1A
102
}
100
AcDbPlotSettings
  1

  2
none_device
  4
ANSI_C_(22.00_x_17.00_Inches)
  6

 40
0.0
 41
0.0
 42
0.0
 43
0.0
 44
558.8
 45
431.8
 46
0.0
 47
0.0
 48
0.0
 49
0.0
140
0.0
141
0.0
142
1.0
143
1.0
 70
1024
 72
0
 73
0
 74
0
  7

 75
0
147
1.0
148
0.0
149
0.0
100
AcDbLayout
  1
Model
 70
0
 71
0
 10
0.0
 20
0.0
 11
22.0
 21
17.0
 12
0.0
 22
0.0
 32
0.0
 14
0.0
 24
0.0
 34
0.0
 15
0.0
 25
0.0
 35
0.0
146
0.0
 13
0.0
 23
0.0
 33
0.0
 16
1.0
 26
0.0
 36
0.0
 17
0.0
 27
1.0
 37
0.0
 76
0
330
221
345
0
346
0
  0
LAYOUT
  5
30B
102
{ACAD_REACTORS
330
1A
102
}
100
AcDbPlotSettings
  1

  2
none_device
  4
ANSI_C_(22.00_x_17.00_Inches)
  6

 40
0.0
 41
0.0
 42
0.0
 43
0.0
 44
558.8
 45
431.8
 46
0.0
 47
0.0
 48
0.0
 49
0.0
140
0.0
141
0.0
142
1.0
143
1.0
 70
0
 72
0
 73
0
 74
0
  7

 75
0
147
1.0
148
0.0
149
0.0
100
AcDbLayout
  1
Layout1
 70
0
 71
1
 10
0.0
 20
0.0
 11
22.0
 21
17.0
 12
0.0
 22
0.0
 32
0.0
 14
0.0
 24
0.0
 34
0.0
 15
0.0
 25
0.0
 35
0.0
146
0.0
 13
0.0
 23
0.0
 33
0.0
 16
1.0
 26
0.0
 36
0.0
 17
0.0
 27
1.0
 37
0.0
 76
0
330
222
345
0
346
0
  0
ENDSEC
  0
EOF