999
DXF file: _cgs_temp_output.dxf
999
Pro/ENGINEER 2016360 by Parametric Technology Corporation
  0
SECTION
  2
HEADER
  9
$ACADVER
  1
AC1021
  9
$DWGCODEPAGE
  3
ANSI_1252
  9
$EXTMAX
 10
22.0
 20
17.0
 30
0.0
  9
$EXTMIN
 10
0.0
 20
0.0
 30
0.0
  9
$LIMMIN
 10
0.0
 20
0.0
  9
$LIMMAX
 10
22.0
 20
17.0
  9
$VIEWCTR
 10
11.0
 20
8.5
  9
$VIEWSIZE
 40
17.0
  9
$CLAYER
  8
0
  9
$LTSCALE
 40
1.21
  9
$CELTYPE
  6
BYLAYER
  9
$DIMSCALE
 40
1.0
  9
$DIMASZ
 40
0.1875
  9
$DIMEXO
 40
0.0625
  9
$DIMDLI
 40
0.836
  9
$DIMEXE
 40
0.125
  9
$DIMCEN
 40
0.198
  9
$DIMLFAC
 40
1.0
  9
$DIMBLK
  1
_CLOSED
  9
$DIMALT
 70
0
  9
$DIMALTF
 40
25.4
  9
$DIMTXT
 40
0.15625
  9
$DIMTOL
 70
0
  9
$DIMLIM
 70
0
  9
$DIMTFAC
 40
1.0
  9
$DIMGAP
 40
0.09
  9
$DIMDSEP
 70
46
  9
$AUNITS
 70
0
  9
$PDMODE
 70
3
  9
$PDSIZE
 40
0.3125
  9
$HANDSEED
  5
306
  9
$TILEMODE
 70
1
  9
$MEASUREMENT
 70
0
  9
$INSUNITS
 70
1
  0
ENDSEC
  0
SECTION
  2
CLASSES
  0
CLASS
  1
ACDBDICTIONARYWDFLT
  2
AcDbDictionaryWithDefault
  3
AutoCAD 2000
 90
0
 91
1
280
0
281
0
  0
CLASS
  1
ACDBPLACEHOLDER
  2
AcDbPlaceHolder
  3
AutoCAD 2000
 90
0
 91
1
280
0
281
0
  0
CLASS
  1
LAYOUT
  2
AcDbLayout
  3
AutoCAD 2000
 90
0
 91
0
280
0
281
0
  0
ENDSEC
  0
SECTION
  2
TABLES
  0
TABLE
  2
VPORT
  5
8
100
AcDbSymbolTable
 70
2
  0
VPORT
  5
1F4
100
AcDbSymbolTableRecord
100
AcDbViewportTableRecord
  2
*ACTIVE
 70
0
 10
0.0
 20
0.0
 11
1.0
 21
1.0
 12
11.0
 22
8.5
 13
0.0
 23
0.0
 14
1.0
 24
1.0
 15
0.0
 25
0.0
 16
0.0
 26
0.0
 36
1.0
 17
0.0
 27
0.0
 37
0.0
 40
17.0
 41
1.2941176471
 42
50.0
 43
0.0
 44
0.0
 50
0.0
 51
0.0
 71
0
 72
100
 73
1
 74
1
 75
0
 76
0
 77
0
 78
0
  0
ENDTAB
  0
TABLE
  2
LTYPE
  5
5
100
AcDbSymbolTable
 70
6
  0
LTYPE
  5
14
100
AcDbSymbolTableRecord
100
AcDbLinetypeTableRecord
  2
BYBLOCK
 70
0
  3

 72
65
 73
0
 40
0.0
  0
LTYPE
  5
15
100
AcDbSymbolTableRecord
100
AcDbLinetypeTableRecord
  2
BYLAYER
 70
0
  3

 72
65
 73
0
 40
0.0
  0
LTYPE
  5
16
100
AcDbSymbolTableRecord
100
AcDbLinetypeTableRecord
  2
CONTINUOUS
 70
64
  3
Solid line
 72
65
 73
0
 40
0.0
  0
LTYPE
  5
1F5
100
AcDbSymbolTableRecord
100
AcDbLinetypeTableRecord
  2
CENTER
 70
64
  3
____ _ ____ _ ____ _ ____ _ ____ _ ____ _ ____
 72
65
 73
4
 40
0.6
 49
0.375
 74
0
 49
-0.075
 74
0
 49
0.075
 74
0
 49
-0.075
 74
0
  0
LTYPE
  5
1F6
100
AcDbSymbolTableRecord
100
AcDbLinetypeTableRecord
  2
HIDDEN
 70
64
  3
- - - - - - - - - - - - - - - - - - - -
 72
65
 73
2
 40
0.2
 49
0.1
 74
0
 49
-0.1
 74
0
  0
LTYPE
  5
1F7
100
AcDbSymbolTableRecord
100
AcDbLinetypeTableRecord
  2
PHANTOM
 70
64
  3
_____ _ _ _____ _ _ _____ _ _ _____
 72
65
 73
6
 40
0.8
 49
0.45
 74
0
 49
-0.05
 74
0
 49
0.1
 74
0
 49
-0.05
 74
0
 49
0.1
 74
0
 49
-0.05
 74
0
  0
LTYPE
  5
1F8
100
AcDbSymbolTableRecord
100
AcDbLinetypeTableRecord
  2
DOT
 70
64
  3
. . . . . . . . . . . . . . . . . . . .
 72
65
 73
2
 40
0.2
 49
0.1
 74
0
 49
-0.1
 74
0
  0
LTYPE
  5
1F9
100
AcDbSymbolTableRecord
100
AcDbLinetypeTableRecord
  2
DASHED
 70
64
  3
- - - - - - - - - - - - - - - - - - - -
 72
65
 73
2
 40
0.2
 49
0.1
 74
0
 49
-0.1
 74
0
  0
ENDTAB
  0
TABLE
  2
LAYER
  5
2
100
AcDbSymbolTable
 70
36
  0
LAYER
  5
10
100
AcDbSymbolTableRecord
100
AcDbLayerTableRecord
  2
0
 70
0
 62
7
  6
CONTINUOUS
370
-3
390
F
  0
LAYER
  5
1FA
100
AcDbSymbolTableRecord
100
AcDbLayerTableRecord
  2
DEFAULT_1
 70
0
 62
7
  6
CENTER
370
-3
390
F
  0
LAYER
  5
1FB
100
AcDbSymbolTableRecord
100
AcDbLayerTableRecord
  2
DEFAULT_2
 70
0
 62
8
  6
HIDDEN
370
-3
390
F
  0
LAYER
  5
1FC
100
AcDbSymbolTableRecord
100
AcDbLayerTableRecord
  2
DEFAULT_3
 70
0
 62
7
  6
PHANTOM
370
-3
390
F
  0
LAYER
  5
1FD
100
AcDbSymbolTableRecord
100
AcDbLayerTableRecord
  2
01_ALL_DTM_PLN
 70
0
 62
7
  6
CONTINUOUS
370
-3
390
F
  0
LAYER
  5
1FE
100
AcDbSymbolTableRecord
100
AcDbLayerTableRecord
  2
01__ASM_ALL_DTM_PLN
 70
0
 62
7
  6
CONTINUOUS
370
-3
390
F
  0
LAYER
  5
1FF
100
AcDbSymbolTableRecord
100
AcDbLayerTableRecord
  2
01__ASM_DEF_DTM_PLN
 70
0
 62
7
  6
CONTINUOUS
370
-3
390
F
  0
LAYER
  5
200
100
AcDbSymbolTableRecord
100
AcDbLayerTableRecord
  2
01___PRT_ALL_DTM_PLN
 70
0
 62
7
  6
CONTINUOUS
370
-3
390
F
  0
LAYER
  5
201
100
AcDbSymbolTableRecord
100
AcDbLayerTableRecord
  2
01___PRT_DEF_DTM_PLN
 70
0
 62
7
  6
CONTINUOUS
370
-3
390
F
  0
LAYER
  5
202
100
AcDbSymbolTableRecord
100
AcDbLayerTableRecord
  2
02_ALL_AXES
 70
0
 62
7
  6
CONTINUOUS
370
-3
390
F
  0
LAYER
  5
203
100
AcDbSymbolTableRecord
100
AcDbLayerTableRecord
  2
02__ASM_ALL_AXES
 70
0
 62
7
  6
CONTINUOUS
370
-3
390
F
  0
LAYER
  5
204
100
AcDbSymbolTableRecord
100
AcDbLayerTableRecord
  2
02___PRT_ALL_AXES
 70
0
 62
7
  6
CONTINUOUS
370
-3
390
F
  0
LAYER
  5
205
100
AcDbSymbolTableRecord
100
AcDbLayerTableRecord
  2
03_ALL_CURVES
 70
0
 62
7
  6
CONTINUOUS
370
-3
390
F
  0
LAYER
  5
206
100
AcDbSymbolTableRecord
100
AcDbLayerTableRecord
  2
03__ASM_ALL_CURVES
 70
0
 62
7
  6
CONTINUOUS
370
-3
390
F
  0
LAYER
  5
207
100
AcDbSymbolTableRecord
100
AcDbLayerTableRecord
  2
03___PRT_ALL_CURVES
 70
0
 62
7
  6
CONTINUOUS
370
-3
390
F
  0
LAYER
  5
208
100
AcDbSymbolTableRecord
100
AcDbLayerTableRecord
  2
04_ALL_DTM_PNT
 70
0
 62
7
  6
CONTINUOUS
370
-3
390
F
  0
LAYER
  5
209
100
AcDbSymbolTableRecord
100
AcDbLayerTableRecord
  2
04__ASM_ALL_DTM_PNT
 70
0
 62
7
  6
CONTINUOUS
370
-3
390
F
  0
LAYER
  5
20A
100
AcDbSymbolTableRecord
100
AcDbLayerTableRecord
  2
04___PRT_ALL_DTM_PNT
 70
0
 62
7
  6
CONTINUOUS
370
-3
390
F
  0
LAYER
  5
20B
100
AcDbSymbolTableRecord
100
AcDbLayerTableRecord
  2
05_ALL_DTM_CSYS
 70
0
 62
7
  6
CONTINUOUS
370
-3
390
F
  0
LAYER
  5
20C
100
AcDbSymbolTableRecord
100
AcDbLayerTableRecord
  2
05__ASM_ALL_DTM_CSYS
 70
0
 62
7
  6
CONTINUOUS
370
-3
390
F
  0
LAYER
  5
20D
100
AcDbSymbolTableRecord
100
AcDbLayerTableRecord
  2
05__ASM_DEF_DTM_CSYS
 70
0
 62
7
  6
CONTINUOUS
370
-3
390
F
  0
LAYER
  5
20E
100
AcDbSymbolTableRecord
100
AcDbLayerTableRecord
  2
05___PRT_ALL_DTM_CSYS
 70
0
 62
7
  6
CONTINUOUS
370
-3
390
F
  0
LAYER
  5
20F
100
AcDbSymbolTableRecord
100
AcDbLayerTableRecord
  2
05___PRT_DEF_DTM_CSYS
 70
0
 62
7
  6
CONTINUOUS
370
-3
390
F
  0
LAYER
  5
210
100
AcDbSymbolTableRecord
100
AcDbLayerTableRecord
  2
06_ALL_SURFS
 70
0
 62
7
  6
CONTINUOUS
370
-3
390
F
  0
LAYER
  5
211
100
AcDbSymbolTableRecord
100
AcDbLayerTableRecord
  2
06__ASM_ALL_SURFS
 70
0
 62
7
  6
CONTINUOUS
370
-3
390
F
  0
LAYER
  5
212
100
AcDbSymbolTableRecord
100
AcDbLayerTableRecord
  2
06___PRT_ALL_SURFS
 70
0
 62
7
  6
CONTINUOUS
370
-3
390
F
  0
LAYER
  5
213
100
AcDbSymbolTableRecord
100
AcDbLayerTableRecord
  2
07__ASM_ALL_SKELETONS
 70
0
 62
7
  6
CONTINUOUS
370
-3
390
F
  0
LAYER
  5
214
100
AcDbSymbolTableRecord
100
AcDbLayerTableRecord
  2
NONE
 70
0
 62
7
  6
CONTINUOUS
370
-3
390
F
  0
LAYER
  5
215
100
AcDbSymbolTableRecord
100
AcDbLayerTableRecord
  2
SHELL
 70
0
 62
7
  6
CONTINUOUS
370
-3
390
F
  0
LAYER
  5
216
100
AcDbSymbolTableRecord
100
AcDbLayerTableRecord
  2
_9766
 70
0
 62
7
  6
CONTINUOUS
370
-3
390
F
  0
ENDTAB
  0
TABLE
  2
STYLE
  5
3
100
AcDbSymbolTable
 70
1
  0
STYLE
  5
11
100
AcDbSymbolTableRecord
100
AcDbTextStyleTableRecord
  2
STANDARD
 70
0
 40
0.0
 41
0.8
 50
0.0
 71
0
 42
0.2
  3
txt
  4

  0
STYLE
  5
217
100
AcDbSymbolTableRecord
100
AcDbTextStyleTableRecord
  2
TEXTSTYLE_1
 70
0
 40
0.0
 41
0.8
 50
0.0
 71
0
 42
0.2
  3
gdt
  4

  0
ENDTAB
  0
TABLE
  2
VIEW
  5
6
100
AcDbSymbolTable
 70
0
  0
ENDTAB
  0
TABLE
  2
UCS
  5
7
100
AcDbSymbolTable
 70
0
  0
ENDTAB
  0
TABLE
  2
APPID
  5
9
100
AcDbSymbolTable
 70
1
  0
APPID
  5
218
100
AcDbSymbolTableRecord
100
AcDbRegAppTableRecord
  2
ACAD
 70
0
  0
ENDTAB
  0
TABLE
  2
BLOCK_RECORD
  5
1
100
AcDbSymbolTable
 70
0
  0
BLOCK_RECORD
  5
219
100
AcDbSymbolTableRecord
100
AcDbBlockTableRecord
  2
*Model_Space
  0
BLOCK_RECORD
  5
21A
100
AcDbSymbolTableRecord
100
AcDbBlockTableRecord
  2
*Paper_Space
  0
BLOCK_RECORD
  5
21B
100
AcDbSymbolTableRecord
100
AcDbBlockTableRecord
  2
_NONE
  0
ENDTAB
  0
TABLE
  2
DIMSTYLE
  5
A
100
AcDbSymbolTable
 70
1
100
AcDbDimStyleTable
 71
0
  0
DIMSTYLE
105
21C
100
AcDbSymbolTableRecord
100
AcDbDimStyleTableRecord
  2
STANDARD
 70
0
  3

  4

 40
1.0
 41
0.1875
 42
0.0625
 43
0.38
 44
0.125
 45
0.0
 46
0.0
 47
0.0001
 48
0.0001
140
0.15625
141
0.09
142
0.0
143
25.4
144
1.0
145
0.0
146
1.0
147
0.09
 71
0.0
 72
0.0
 73
1
 74
1
 75
0
 76
0
 77
0
 78
4
 79
1
170
0
171
3
172
0
173
0
174
0
175
0
176
0
177
0
178
0
270
2
179
4
271
4
272
4
273
2
274
2
275
0
280
0
281
0
282
0
283
1
284
4
285
0
286
0
287
3
288
0
340
11
278
46
  0
ENDTAB
  0
ENDSEC
  0
SECTION
  2
BLOCKS
  0
BLOCK
  5
20
100
AcDbEntity
  8
0
100
AcDbBlockBegin
  2
*Model_Space
 70
0
 10
0.0
 20
0.0
 30
0.0
  3
*Model_Space
  1

  0
ENDBLK
  5
21
100
AcDbEntity
  8
0
100
AcDbBlockEnd
  0
BLOCK
  5
1C
100
AcDbEntity
  8
0
100
AcDbBlockBegin
  2
*Paper_Space
 70
0
 10
0.0
 20
0.0
 30
0.0
  3
*Paper_Space
  1

  0
ENDBLK
  5
1D
100
AcDbEntity
  8
0
100
AcDbBlockEnd
  0
BLOCK
  5
21D
100
AcDbEntity
  8
0
100
AcDbBlockBegin
  2
_NONE
 70
64
 10
0.0
 20
0.0
  3
_NONE
  1

  0
ENDBLK
  5
21E
100
AcDbEntity
  8
0
  6
BYBLOCK
 62
0
100
AcDbBlockEnd
  0
ENDSEC
  0
SECTION
  2
ENTITIES
  0
MTEXT
  5
21F
100
AcDbEntity
  8
0
100
AcDbMText
 62
7
  6
CONTINUOUS
  7
STANDARD
 71
1
 72
1
 10
15.9560215477
 20
0.9479130325
 30
0.0
 11
1.0
 21
0.0
 31
0.0
 44
0.9
  1
SCALE: 1:0.500
 40
0.3
 41
3.36
  0
LEADER
  5
220
100
AcDbEntity
  8
0
100
AcDbLeader
 62
2
  6
CONTINUOUS
  3
STANDARD
 71
1
 72
0
 73
0
 75
0
 40
0.15625
 41
1.5
 76
3
 10
4.8750209156
 20
4.9888698968
 30
0.0
 10
8.8115500555
 20
3.7669064446
 30
0.0
 10
9.0615500555
 20
3.7669064446
 30
0.0
340
221
1001
ACAD
1000
DSTYLE
1002
{
1070
77
1070
0
1070
341
1005
21B
1002
}
  0
MTEXT
  5
221
102
{ACAD_REACTORS
330
220
102
}
100
AcDbEntity
  8
0
100
AcDbMText
 62
2
  6
CONTINUOUS
  7
STANDARD
 71
1
 72
1
 10
9.0615500555
 20
3.8450314446
 30
0.0
 11
1.0
 21
0.0
 31
0.0
 44
0.9
  1
 0.375 BOLTS
 40
0.15625
 41
1.5
  0
LEADER
  5
222
100
AcDbEntity
  8
0
100
AcDbLeader
 62
2
  6
CONTINUOUS
  3
STANDARD
 71
1
 72
0
 73
0
 75
0
 40
0.15625
 41
1.5
 76
3
 10
4.8750209156
 20
4.9888698968
 30
0.0
 10
8.8115500555
 20
3.7669064446
 30
0.0
 10
9.0615500555
 20
3.7669064446
 30
0.0
340
223
1001
ACAD
1000
DSTYLE
1002
{
1070
77
1070
0
1070
341
1005
21B
1002
}
  0
MTEXT
  5
223
102
{ACAD_REACTORS
330
222
102
}
100
AcDbEntity
  8
0
100
AcDbMText
 62
2
  6
CONTINUOUS
  7
STANDARD
 71
1
 72
1
 10
9.0615500555
 20
3.8450314446
 30
0.0
 11
1.0
 21
0.0
 31
0.0
 44
0.9
  1
 0.375 BOLTS
 40
0.15625
 41
1.5
  0
LINE
  5
224
100
AcDbEntity
  8
0
100
AcDbLine
 62
7
  6
CONTINUOUS
 10
0.0
 20
0.0
 11
0.0
 21
17.0
  0
LINE
  5
225
100
AcDbEntity
  8
0
100
AcDbLine
 62
7
  6
CONTINUOUS
 10
0.0
 20
0.0
 11
22.0
 21
0.0
  0
LINE
  5
226
100
AcDbEntity
  8
0
100
AcDbLine
 62
7
  6
CONTINUOUS
 10
0.0
 20
17.0
 11
22.0
 21
17.0
  0
LINE
  5
227
100
AcDbEntity
  8
0
100
AcDbLine
 62
7
  6
CONTINUOUS
 10
22.0
 20
0.0
 11
22.0
 21
17.0
  0
LINE
  5
228
100
AcDbEntity
  8
0
100
AcDbLine
 62
7
  6
CONTINUOUS
 10
4.6562709156
 20
4.9013698968
 11
4.6562709156
 21
4.4263698968
  0
LINE
  5
229
100
AcDbEntity
  8
0
100
AcDbLine
 62
7
  6
CONTINUOUS
 10
4.7162669635
 20
4.9888698968
 11
4.7162669635
 21
4.9263698968
  0
LINE
  5
22A
100
AcDbEntity
  8
0
100
AcDbLine
 62
7
  6
CONTINUOUS
 10
4.9312709156
 20
4.9263698968
 11
4.9312709156
 21
4.9888698968
  0
LINE
  5
22B
100
AcDbEntity
  8
0
100
AcDbLine
 62
7
  6
CONTINUOUS
 10
4.6562709156
 20
4.4263698968
 11
8.3437709156
 21
4.4263698968
  0
LINE
  5
22C
100
AcDbEntity
  8
0
100
AcDbLine
 62
7
  6
CONTINUOUS
 10
5.3475169635
 20
4.9888698968
 11
5.3475169635
 21
4.9353384961
  0
LINE
  5
22D
100
AcDbEntity
  8
0
100
AcDbLine
 62
7
  6
CONTINUOUS
 10
5.5340950893
 20
5.6226889419
 11
5.3524819344
 21
4.9448994206
  0
LINE
  5
22E
100
AcDbEntity
  8
0
100
AcDbLine
 62
7
  6
CONTINUOUS
 10
8.3187709156
 20
4.9263698968
 11
7.6717080424
 21
4.9263698968
  0
LINE
  5
22F
100
AcDbEntity
  8
0
100
AcDbLine
 62
7
  6
CONTINUOUS
 10
5.3283337888
 20
4.9263698968
 11
4.6812709156
 21
4.9263698968
  0
LINE
  5
230
100
AcDbEntity
  8
0
100
AcDbLine
 62
7
  6
CONTINUOUS
 10
4.7162670072
 20
4.9888698968
 11
5.364263788
 21
4.9888698968
  0
LINE
  5
231
100
AcDbEntity
  8
0
100
AcDbLine
 62
7
  6
CONTINUOUS
 10
7.6357780431
 20
4.9888698968
 11
8.2837748239
 21
4.9888698968
  0
LINE
  5
232
100
AcDbEntity
  8
03__ASM_ALL_CURVES
100
AcDbLine
 62
4
  6
CONTINUOUS
 10
3.9169636368
 20
5.1763698968
 11
4.1669636368
 21
5.1763698968
  0
LINE
  5
233
100
AcDbEntity
  8
0
100
AcDbLine
 62
7
  6
CONTINUOUS
 10
7.1522385329
 20
6.1707671224
 11
7.1301414459
 21
6.1486700355
  0
LINE
  5
234
100
AcDbEntity
  8
0
100
AcDbLine
 62
7
  6
CONTINUOUS
 10
7.1328726014
 20
6.1381429388
 11
7.136770572
 21
6.1420409094
  0
LINE
  5
235
100
AcDbEntity
  8
0
100
AcDbLine
 62
7
  6
CONTINUOUS
 10
7.2074812501
 20
6.0713302313
 11
7.2295783371
 21
6.0934273182
  0
LINE
  5
236
100
AcDbEntity
  8
0
100
AcDbLine
 62
7
  6
CONTINUOUS
 10
7.2781919283
 20
6.0006195532
 11
7.2742939577
 21
5.9967215826
  0
LINE
  5
237
100
AcDbEntity
  8
0
100
AcDbLine
 62
7
  6
CONTINUOUS
 10
7.2848210543
 20
5.9939904271
 11
7.3069181412
 21
6.016087514
  0
LINE
  5
238
100
AcDbEntity
  8
0
100
AcDbLine
 62
7
  6
CONTINUOUS
 10
7.1301414459
 20
6.1486700355
 11
7.2848210543
 21
5.9939904271
  0
LINE
  5
239
100
AcDbEntity
  8
0
100
AcDbLine
 62
7
  6
CONTINUOUS
 10
7.1522385329
 20
6.1707671224
 11
7.3069181412
 21
6.016087514
  0
LINE
  5
23A
100
AcDbEntity
  8
0
100
AcDbLine
 62
7
  6
CONTINUOUS
 10
7.2452187725
 20
6.1785495991
 11
7.3147006179
 21
6.1090677537
  0
LINE
  5
23B
100
AcDbEntity
  8
0
100
AcDbLine
 62
7
  6
CONTINUOUS
 10
7.3209597048
 20
6.220164025
 11
7.3563150438
 21
6.184808686
  0
LINE
  5
23C
100
AcDbEntity
  8
0
100
AcDbLine
 62
7
  6
CONTINUOUS
 10
7.6475598967
 20
4.9448994206
 11
7.4659467419
 21
5.6226889419
  0
LINE
  5
23D
100
AcDbEntity
  8
0
100
AcDbLine
 62
7
  6
CONTINUOUS
 10
7.6525248677
 20
4.9353384961
 11
7.6525248677
 21
4.9888698968
  0
LINE
  5
23E
100
AcDbEntity
  8
0
100
AcDbLine
 62
7
  6
CONTINUOUS
 10
8.0687709156
 20
4.9888698968
 11
8.0687709156
 21
4.9263698968
  0
LINE
  5
23F
100
AcDbEntity
  8
0
100
AcDbLine
 62
7
  6
CONTINUOUS
 10
8.2837748677
 20
4.9888698968
 11
8.2837748677
 21
4.9263698968
  0
LINE
  5
240
100
AcDbEntity
  8
0
100
AcDbLine
 62
7
  6
CONTINUOUS
 10
8.3437709156
 20
4.9013698968
 11
8.3437709156
 21
4.4263698968
  0
LINE
  5
241
100
AcDbEntity
  8
0
100
AcDbLine
 62
7
  6
CONTINUOUS
 10
4.5967757233
 20
13.2681918548
 11
4.5967757233
 21
12.1431918548
  0
LINE
  5
242
100
AcDbEntity
  8
0
100
AcDbLine
 62
7
  6
CONTINUOUS
 10
7.1686507233
 20
11.6275668548
 11
5.7124007233
 21
11.6275668548
  0
LINE
  5
243
100
AcDbEntity
  8
0
100
AcDbLine
 62
7
  6
CONTINUOUS
 10
4.5967757233
 20
12.1431918548
 11
4.6217757233
 21
12.1681918548
  0
LINE
  5
244
100
AcDbEntity
  8
0
100
AcDbLine
 62
7
  6
CONTINUOUS
 10
4.5967757233
 20
13.2681918548
 11
4.6217757233
 21
13.2431918548
  0
LINE
  5
245
100
AcDbEntity
  8
0
100
AcDbLine
 62
7
  6
CONTINUOUS
 10
5.6624007233
 20
11.6775668548
 11
5.6624007233
 21
12.1431918548
  0
LINE
  5
246
100
AcDbEntity
  8
0
100
AcDbLine
 62
7
  6
CONTINUOUS
 10
4.5967757233
 20
12.1431918548
 11
8.2842757233
 21
12.1431918548
  0
LINE
  5
247
100
AcDbEntity
  8
0
100
AcDbLine
 62
7
  6
CONTINUOUS
 10
4.8717757233
 20
12.4581534201
 11
5.2880217712
 21
12.4581534201
  0
LINE
  5
248
100
AcDbEntity
  8
0
100
AcDbLine
 62
7
  6
CONTINUOUS
 10
7.5930296754
 20
12.4581534201
 11
8.0092757233
 21
12.4581534201
  0
LINE
  5
249
100
AcDbEntity
  8
0
100
AcDbLine
 62
7
  6
CONTINUOUS
 10
4.9405257233
 20
12.5806918548
 11
5.2530257233
 21
12.5806918548
  0
LINE
  5
24A
100
AcDbEntity
  8
0
100
AcDbLine
 62
7
  6
CONTINUOUS
 10
7.6280257233
 20
12.5806918548
 11
7.9405257233
 21
12.5806918548
  0
LINE
  5
24B
100
AcDbEntity
  8
0
100
AcDbLine
 62
7
  6
CONTINUOUS
 10
7.1479860578
 20
12.5950214834
 11
7.1700831447
 21
12.5950214834
  0
LINE
  5
24C
100
AcDbEntity
  8
0
100
AcDbLine
 62
7
  6
CONTINUOUS
 10
7.0927433406
 20
12.6581691691
 11
7.0706462536
 21
12.6581691691
  0
LINE
  5
24D
100
AcDbEntity
  8
03__ASM_ALL_CURVES
100
AcDbLine
 62
4
  6
CONTINUOUS
 10
3.8574684445
 20
12.7056918548
 11
4.1074684445
 21
12.7056918548
  0
LINE
  5
24E
100
AcDbEntity
  8
0
100
AcDbLine
 62
7
  6
CONTINUOUS
 10
7.0706462536
 20
12.7844645405
 11
7.0927433406
 21
12.7844645405
  0
LINE
  5
24F
100
AcDbEntity
  8
0
100
AcDbLine
 62
7
  6
CONTINUOUS
 10
7.9405257233
 20
12.8306918548
 11
7.6280257233
 21
12.8306918548
  0
LINE
  5
250
100
AcDbEntity
  8
0
100
AcDbLine
 62
7
  6
CONTINUOUS
 10
5.2530257233
 20
12.8306918548
 11
4.9405257233
 21
12.8306918548
  0
LINE
  5
251
100
AcDbEntity
  8
0
100
AcDbLine
 62
7
  6
CONTINUOUS
 10
7.1700831447
 20
12.8476122262
 11
7.1479860578
 21
12.8476122262
  0
LINE
  5
252
100
AcDbEntity
  8
03__ASM_ALL_CURVES
100
AcDbLine
 62
4
  6
CONTINUOUS
 10
6.4405257233
 20
11.8201392605
 11
6.4405257233
 21
13.572528708
  0
LINE
  5
253
100
AcDbEntity
  8
0
100
AcDbLine
 62
7
  6
CONTINUOUS
 10
7.1479860578
 20
12.8476122262
 11
7.0706462536
 21
12.7844645405
  0
LINE
  5
254
100
AcDbEntity
  8
0
100
AcDbLine
 62
7
  6
CONTINUOUS
 10
7.1700831447
 20
12.8476122262
 11
7.0927433406
 21
12.7844645405
  0
LINE
  5
255
100
AcDbEntity
  8
0
100
AcDbLine
 62
7
  6
CONTINUOUS
 10
8.0092757233
 20
12.9532302894
 11
7.5930296754
 21
12.9532302894
  0
LINE
  5
256
100
AcDbEntity
  8
0
100
AcDbLine
 62
7
  6
CONTINUOUS
 10
5.2880217712
 20
12.9532302894
 11
4.8717757233
 21
12.9532302894
  0
LINE
  5
257
100
AcDbEntity
  8
0
100
AcDbLine
 62
7
  6
CONTINUOUS
 10
7.239806859
 20
12.6519506577
 11
7.1700831447
 21
12.5950214834
  0
LINE
  5
258
100
AcDbEntity
  8
0
100
AcDbLine
 62
7
  6
CONTINUOUS
 10
4.5967757233
 20
13.2681918548
 11
8.2842757233
 21
13.2681918548
  0
LINE
  5
259
100
AcDbEntity
  8
0
100
AcDbLine
 62
7
  6
CONTINUOUS
 10
7.0706462536
 20
12.6581691691
 11
7.1479860578
 21
12.5950214834
  0
LINE
  5
25A
100
AcDbEntity
  8
0
100
AcDbLine
 62
7
  6
CONTINUOUS
 10
7.1700831447
 20
12.5950214834
 11
7.0927433406
 21
12.6581691691
  0
LINE
  5
25B
100
AcDbEntity
  8
0
100
AcDbLine
 62
7
  6
CONTINUOUS
 10
7.2397295421
 20
12.7907461809
 11
7.1700831447
 21
12.8476122262
  0
LINE
  5
25C
100
AcDbEntity
  8
0
100
AcDbLine
 62
7
  6
CONTINUOUS
 10
7.0706462536
 20
12.7844645405
 11
7.0706462536
 21
12.6581691691
  0
LINE
  5
25D
100
AcDbEntity
  8
0
100
AcDbLine
 62
7
  6
CONTINUOUS
 10
7.0927433406
 20
12.7844645405
 11
7.0927433406
 21
12.6581691691
  0
LINE
  5
25E
100
AcDbEntity
  8
0
100
AcDbLine
 62
7
  6
CONTINUOUS
 10
7.2186507233
 20
11.6775668548
 11
7.2186507233
 21
12.1431918548
  0
LINE
  5
25F
100
AcDbEntity
  8
0
100
AcDbLine
 62
7
  6
CONTINUOUS
 10
8.2592757233
 20
13.2431918548
 11
8.2842757233
 21
13.2681918548
  0
LINE
  5
260
100
AcDbEntity
  8
0
100
AcDbLine
 62
7
  6
CONTINUOUS
 10
8.2842757233
 20
12.1431918548
 11
8.2592757233
 21
12.1681918548
  0
LINE
  5
261
100
AcDbEntity
  8
0
100
AcDbLine
 62
7
  6
CONTINUOUS
 10
8.2842757233
 20
12.1431918548
 11
8.2842757233
 21
13.2681918548
  0
LINE
  5
262
100
AcDbEntity
  8
0
100
AcDbLine
 62
7
  6
CONTINUOUS
 10
15.1034993303
 20
4.3668747044
 11
16.2284993303
 21
4.3668747044
  0
LINE
  5
263
100
AcDbEntity
  8
0
100
AcDbLine
 62
7
  6
CONTINUOUS
 10
14.5878743303
 20
6.0324997044
 11
14.5878743303
 21
4.5762497044
  0
LINE
  5
264
100
AcDbEntity
  8
0
100
AcDbLine
 62
7
  6
CONTINUOUS
 10
15.1034993303
 20
4.5262497044
 11
14.6378743303
 21
4.5262497044
  0
LINE
  5
265
100
AcDbEntity
  8
0
100
AcDbLine
 62
7
  6
CONTINUOUS
 10
16.2034993303
 20
4.8668747044
 11
15.1284993303
 21
4.8668747044
  0
LINE
  5
266
100
AcDbEntity
  8
0
100
AcDbLine
 62
7
  6
CONTINUOUS
 10
15.4184608957
 20
4.9293747044
 11
15.913537765
 21
4.9293747044
  0
LINE
  5
267
100
AcDbEntity
  8
0
100
AcDbLine
 62
7
  6
CONTINUOUS
 10
15.1034993303
 20
4.3668747044
 11
15.1034993303
 21
6.279374657
  0
LINE
  5
268
100
AcDbEntity
  8
0
100
AcDbLine
 62
7
  6
CONTINUOUS
 10
15.555328959
 20
6.0339321259
 11
15.6121950042
 21
6.1035785233
  0
LINE
  5
269
100
AcDbEntity
  8
0
100
AcDbLine
 62
7
  6
CONTINUOUS
 10
15.4184608957
 20
4.9293747044
 11
15.4184608957
 21
4.8668747044
  0
LINE
  5
26A
100
AcDbEntity
  8
0
100
AcDbLine
 62
7
  6
CONTINUOUS
 10
15.744772016
 20
5.9565923217
 11
15.8079197017
 21
6.0339321259
  0
LINE
  5
26B
100
AcDbEntity
  8
0
100
AcDbLine
 62
7
  6
CONTINUOUS
 10
15.744772016
 20
5.9344952348
 11
15.8079197017
 21
6.011835039
  0
LINE
  5
26C
100
AcDbEntity
  8
0
100
AcDbLine
 62
7
  6
CONTINUOUS
 10
15.555328959
 20
6.011835039
 11
15.555328959
 21
6.0339321259
  0
LINE
  5
26D
100
AcDbEntity
  8
0
100
AcDbLine
 62
7
  6
CONTINUOUS
 10
15.6184766446
 20
5.9344952348
 11
15.6184766446
 21
5.9565923217
  0
LINE
  5
26E
100
AcDbEntity
  8
0
100
AcDbLine
 62
7
  6
CONTINUOUS
 10
15.744772016
 20
5.9565923217
 11
15.744772016
 21
5.9344952348
  0
LINE
  5
26F
100
AcDbEntity
  8
0
100
AcDbLine
 62
7
  6
CONTINUOUS
 10
15.8079197017
 20
6.0339321259
 11
15.8079197017
 21
6.011835039
  0
LINE
  5
270
100
AcDbEntity
  8
0
100
AcDbLine
 62
7
  6
CONTINUOUS
 10
15.913537765
 20
4.8668747044
 11
15.913537765
 21
4.9293747044
  0
LINE
  5
271
100
AcDbEntity
  8
0
100
AcDbLine
 62
7
  6
CONTINUOUS
 10
15.555328959
 20
6.011835039
 11
15.6184766446
 21
5.9344952348
  0
LINE
  5
272
100
AcDbEntity
  8
0
100
AcDbLine
 62
7
  6
CONTINUOUS
 10
15.6184766446
 20
5.9565923217
 11
15.555328959
 21
6.0339321259
  0
LINE
  5
273
100
AcDbEntity
  8
0
100
AcDbLine
 62
7
  6
CONTINUOUS
 10
15.744772016
 20
5.9344952348
 11
15.6184766446
 21
5.9344952348
  0
LINE
  5
274
100
AcDbEntity
  8
0
100
AcDbLine
 62
7
  6
CONTINUOUS
 10
15.6184766446
 20
5.9565923217
 11
15.744772016
 21
5.9565923217
  0
LINE
  5
275
100
AcDbEntity
  8
0
100
AcDbLine
 62
7
  6
CONTINUOUS
 10
15.8079197017
 20
6.0339321259
 11
15.7509905274
 21
6.1036558402
  0
LINE
  5
276
100
AcDbEntity
  8
0
100
AcDbLine
 62
7
  6
CONTINUOUS
 10
16.2284993303
 20
4.3668747044
 11
16.2284993303
 21
6.279374657
  0
LINE
  5
277
100
AcDbEntity
  8
0
100
AcDbLine
 62
7
  6
CONTINUOUS
 10
15.1034993303
 20
6.0824997044
 11
14.6378743303
 21
6.0824997044
  0
LINE
  5
278
100
AcDbEntity
  8
0
100
AcDbLine
 62
7
  6
CONTINUOUS
 10
15.1284993303
 20
6.3043747044
 11
16.2034993303
 21
6.3043747044
  0
LINE
  5
279
100
AcDbEntity
  8
03__ASM_ALL_CURVES
100
AcDbLine
 62
4
  6
CONTINUOUS
 10
14.780446736
 20
6.5543747044
 11
16.5328361835
 21
6.5543747044
  0
LINE
  5
27A
100
AcDbEntity
  8
0
100
AcDbLine
 62
7
  6
CONTINUOUS
 10
13.8786321623
 20
11.7086583176
 11
14.0235270489
 21
11.4133935827
  0
LINE
  5
27B
100
AcDbEntity
  8
0
100
AcDbLine
 62
7
  6
CONTINUOUS
 10
14.0491956605
 20
12.0935348993
 11
14.0682607772
 21
12.0546842763
  0
LINE
  5
27C
100
AcDbEntity
  8
0
100
AcDbLine
 62
7
  6
CONTINUOUS
 10
14.2005394771
 20
11.9709164365
 11
14.1814743604
 21
12.0097670595
  0
LINE
  5
27D
100
AcDbEntity
  8
0
100
AcDbLine
 62
7
  6
CONTINUOUS
 10
13.8784993597
 20
11.7183894656
 11
14.1493715862
 21
12.5949323116
  0
LINE
  5
27E
100
AcDbEntity
  8
0
100
AcDbLine
 62
7
  6
CONTINUOUS
 10
14.5119830141
 20
11.7489455012
 11
14.4725056263
 21
12.1702662239
  0
LINE
  5
27F
100
AcDbEntity
  8
0
100
AcDbLine
 62
7
  6
CONTINUOUS
 10
14.0235270489
 20
11.4133935827
 11
14.7641034213
 21
11.4133935827
  0
LINE
  5
280
100
AcDbEntity
  8
0
100
AcDbLine
 62
7
  6
CONTINUOUS
 10
16.070101925
 20
11.4133935827
 11
17.4199394643
 21
11.4133935827
  0
LINE
  5
281
100
AcDbEntity
  8
0
100
AcDbLine
 62
7
  6
CONTINUOUS
 10
14.336614204
 20
12.1057547128
 11
14.3632657902
 21
12.1919992772
  0
LINE
  5
282
100
AcDbEntity
  8
0
100
AcDbLine
 62
7
  6
CONTINUOUS
 10
14.4863873205
 20
12.3109834722
 11
14.7466086181
 21
13.1530599
  0
LINE
  5
283
100
AcDbEntity
  8
0
100
AcDbLine
 62
7
  6
CONTINUOUS
 10
14.6923196622
 20
12.2258922889
 11
14.5796075304
 21
11.8611556966
  0
LINE
  5
284
100
AcDbEntity
  8
0
100
AcDbLine
 62
7
  6
CONTINUOUS
 10
14.4911845292
 20
11.9709164365
 11
14.2005394771
 21
11.9709164365
  0
LINE
  5
285
100
AcDbEntity
  8
0
100
AcDbLine
 62
7
  6
CONTINUOUS
 10
16.7246492211
 20
11.9709164365
 11
17.0903683458
 21
11.9709164365
  0
LINE
  5
286
100
AcDbEntity
  8
0
100
AcDbLine
 62
7
  6
CONTINUOUS
 10
14.1814743604
 20
12.0097670595
 11
14.4875442594
 21
12.0097670595
  0
LINE
  5
287
100
AcDbEntity
  8
0
100
AcDbLine
 62
7
  6
CONTINUOUS
 10
16.6879152305
 20
12.0097670595
 11
17.0713032291
 21
12.0097670595
  0
LINE
  5
288
100
AcDbEntity
  8
03__ASM_ALL_CURVES
100
AcDbLine
 62
4
  6
CONTINUOUS
 10
14.9762540196
 20
12.5201095979
 11
15.4004484903
 21
13.8928034083
  0
LINE
  5
289
100
AcDbEntity
  8
0
100
AcDbLine
 62
7
  6
CONTINUOUS
 10
14.2744597321
 20
12.1057547128
 11
14.4785502992
 21
12.1057547128
  0
LINE
  5
28A
100
AcDbEntity
  8
0
100
AcDbLine
 62
7
  6
CONTINUOUS
 10
16.7498111535
 20
12.1057547128
 11
17.0376427141
 21
12.1057547128
  0
LINE
  5
28B
100
AcDbEntity
  8
0
100
AcDbLine
 62
7
  6
CONTINUOUS
 10
14.4713375257
 20
12.1953049874
 11
14.3953454617
 21
12.1953049874
  0
LINE
  5
28C
100
AcDbEntity
  8
0
100
AcDbLine
 62
7
  6
CONTINUOUS
 10
16.870696883
 20
12.1953049874
 11
17.1585284437
 21
12.1953049874
  0
LINE
  5
28D
100
AcDbEntity
  8
0
100
AcDbLine
 62
7
  6
CONTINUOUS
 10
17.098159295
 20
12.3015864402
 11
16.8103277344
 21
12.3015864402
  0
LINE
  5
28E
100
AcDbEntity
  8
0
100
AcDbLine
 62
7
  6
CONTINUOUS
 10
14.4839964289
 20
12.3015864402
 11
14.334976313
 21
12.3015864402
  0
LINE
  5
28F
100
AcDbEntity
  8
03__ASM_ALL_CURVES
100
AcDbLine
 62
4
  6
CONTINUOUS
 10
13.2499608588
 20
12.3202224456
 11
13.4802261073
 21
12.3202224456
  0
LINE
  5
290
100
AcDbEntity
  8
0
100
AcDbLine
 62
7
  6
CONTINUOUS
 10
15.9319695708
 20
12.9863186684
 11
15.945581799
 21
13.0000544379
  0
LINE
  5
291
100
AcDbEntity
  8
0
100
AcDbLine
 62
7
  6
CONTINUOUS
 10
17.1911446667
 20
12.3975740935
 11
16.8077566681
 21
12.3975740935
  0
LINE
  5
292
100
AcDbEntity
  8
0
100
AcDbLine
 62
7
  6
CONTINUOUS
 10
14.5131458463
 20
12.3975740935
 11
14.301315798
 21
12.3975740935
  0
LINE
  5
293
100
AcDbEntity
  8
0
100
AcDbLine
 62
7
  6
CONTINUOUS
 10
15.9150099428
 20
12.9011238749
 11
15.9013977146
 21
12.8873881055
  0
LINE
  5
294
100
AcDbEntity
  8
0
100
AcDbLine
 62
7
  6
CONTINUOUS
 10
15.9809383416
 20
12.7898476307
 11
15.9945505698
 21
12.8035834002
  0
LINE
  5
295
100
AcDbEntity
  8
0
100
AcDbLine
 62
7
  6
CONTINUOUS
 10
17.5363283051
 20
12.5953179182
 11
16.9223066354
 21
12.5953179182
  0
LINE
  5
296
100
AcDbEntity
  8
0
100
AcDbLine
 62
7
  6
CONTINUOUS
 10
14.5742533099
 20
12.5953179182
 11
14.1498943463
 21
12.5953179182
  0
LINE
  5
297
100
AcDbEntity
  8
0
100
AcDbLine
 62
7
  6
CONTINUOUS
 10
15.9319695708
 20
12.9863186684
 11
15.9013977146
 21
12.8873881055
  0
LINE
  5
298
100
AcDbEntity
  8
0
100
AcDbLine
 62
7
  6
CONTINUOUS
 10
15.945581799
 20
13.0000544379
 11
15.9150099428
 21
12.9011238749
  0
LINE
  5
299
100
AcDbEntity
  8
0
100
AcDbLine
 62
7
  6
CONTINUOUS
 10
16.0910508249
 20
12.791237719
 11
16.1046630531
 21
12.8049734885
  0
LINE
  5
29A
100
AcDbEntity
  8
0
100
AcDbLine
 62
7
  6
CONTINUOUS
 10
15.9809383416
 20
12.7898476307
 11
16.0910508249
 21
12.791237719
  0
LINE
  5
29B
100
AcDbEntity
  8
0
100
AcDbLine
 62
7
  6
CONTINUOUS
 10
16.1046630531
 20
12.8049734885
 11
15.9945505698
 21
12.8035834002
  0
LINE
  5
29C
100
AcDbEntity
  8
0
100
AcDbLine
 62
7
  6
CONTINUOUS
 10
16.1046630531
 20
12.8049734885
 11
16.1352349093
 21
12.9039040515
  0
LINE
  5
29D
100
AcDbEntity
  8
0
100
AcDbLine
 62
7
  6
CONTINUOUS
 10
16.0244807757
 20
13.0010504788
 11
15.945581799
 21
13.0000544379
  0
LINE
  5
29E
100
AcDbEntity
  8
0
100
AcDbLine
 62
7
  6
CONTINUOUS
 10
15.9013977146
 20
12.8873881055
 11
15.9809383416
 21
12.7898476307
  0
LINE
  5
29F
100
AcDbEntity
  8
0
100
AcDbLine
 62
7
  6
CONTINUOUS
 10
15.9945505698
 20
12.8035834002
 11
15.9150099428
 21
12.9011238749
  0
LINE
  5
2A0
100
AcDbEntity
  8
0
100
AcDbLine
 62
7
  6
CONTINUOUS
 10
16.1352349093
 20
12.9039040515
 11
16.1298303664
 21
12.9105316291
  0
LINE
  5
2A1
100
AcDbEntity
  8
0
100
AcDbLine
 62
7
  6
CONTINUOUS
 10
16.7042445489
 20
11.9764914072
 11
16.6879152305
 21
12.0097670595
  0
LINE
  5
2A2
100
AcDbEntity
  8
0
100
AcDbLine
 62
7
  6
CONTINUOUS
 10
16.1791933511
 20
11.766413567
 11
16.0664812193
 21
11.4016769747
  0
LINE
  5
2A3
100
AcDbEntity
  8
0
100
AcDbLine
 62
7
  6
CONTINUOUS
 10
16.885213969
 20
12.6099514768
 11
16.5111829954
 21
13.0312721996
  0
LINE
  5
2A4
100
AcDbEntity
  8
0
100
AcDbLine
 62
7
  6
CONTINUOUS
 10
17.0713032291
 20
12.0097670595
 11
17.0903683458
 21
11.9709164365
  0
LINE
  5
2A5
100
AcDbEntity
  8
0
100
AcDbLine
 62
7
  6
CONTINUOUS
 10
17.2750445777
 20
11.7086583176
 11
17.4199394643
 21
11.4133935827
  0
LINE
  5
2A6
100
AcDbEntity
  8
0
100
AcDbLine
 62
7
  6
CONTINUOUS
 10
17.3234233666
 20
12.3138062537
 11
17.3424884833
 21
12.2749556307
  0
LINE
  5
2A7
100
AcDbEntity
  8
0
100
AcDbLine
 62
7
  6
CONTINUOUS
 10
17.6922640782
 20
12.294636356
 11
17.5473691915
 21
12.589901091
  0
LINE
  5
2A8
100
AcDbEntity
  8
0
100
AcDbLine
 62
7
  6
CONTINUOUS
 10
17.4199394643
 20
11.4133935827
 11
17.6922640782
 21
12.294636356
  0
ARC
  5
2A9
100
AcDbEntity
  8
0
100
AcDbCircle
 62
7
  6
CONTINUOUS
 10
6.5000209156
 20
5.3638698968
 40
1.0
100
AcDbArc
 50
15.0
 51
165.0
  0
CIRCLE
  5
2AA
100
AcDbEntity
  8
0
100
AcDbCircle
 62
7
  6
CONTINUOUS
 10
6.5000209156
 20
5.3638698968
 40
0.778125
  0
ARC
  5
2AB
100
AcDbEntity
  8
0
100
AcDbCircle
 62
7
  6
CONTINUOUS
 10
7.1952596371
 20
6.2161040234
 40
0.0625
100
AcDbArc
 50
226.5013354903
 51
323.0677111769
  0
ARC
  5
2AC
100
AcDbEntity
  8
0
100
AcDbCircle
 62
7
  6
CONTINUOUS
 10
7.3522550422
 20
6.0591086183
 40
0.0625
100
AcDbArc
 50
126.9322888231
 51
223.4986645096
  0
ARC
  5
2AD
100
AcDbEntity
  8
0
100
AcDbCircle
 62
7
  6
CONTINUOUS
 10
7.3244952387
 20
6.1529888808
 40
0.045
100
AcDbArc
 50
257.4284727137
 51
45.0000000001
  0
ARC
  5
2AE
100
AcDbEntity
  8
0
100
AcDbCircle
 62
7
  6
CONTINUOUS
 10
7.2891398996
 20
6.1883442199
 40
0.045
100
AcDbArc
 50
44.9999999999
 51
192.5715272863
  0
ARC
  5
2AF
100
AcDbEntity
  8
0
100
AcDbCircle
 62
7
  6
CONTINUOUS
 10
7.6717080424
 20
4.9513698968
 40
0.025
100
AcDbArc
 50
195.0
 51
270.0
  0
ARC
  5
2B0
100
AcDbEntity
  8
0
100
AcDbCircle
 62
7
  6
CONTINUOUS
 10
8.3187709156
 20
4.9013698968
 40
0.025
100
AcDbArc
 50
0.0
 51
90.0
  0
ARC
  5
2B1
100
AcDbEntity
  8
0
100
AcDbCircle
 62
7
  6
CONTINUOUS
 10
4.6812709156
 20
4.9013698968
 40
0.025
100
AcDbArc
 50
90.0
 51
180.0
  0
ARC
  5
2B2
100
AcDbEntity
  8
0
100
AcDbCircle
 62
7
  6
CONTINUOUS
 10
5.3283337888
 20
4.9513698968
 40
0.025
100
AcDbArc
 50
270.0
 51
345.0
  0
ARC
  5
2B3
100
AcDbEntity
  8
0
100
AcDbCircle
 62
7
  6
CONTINUOUS
 10
7.9742796754
 20
12.7056918548
 40
0.25
100
AcDbArc
 50
278.046931485
 51
81.953068515
  0
ARC
  5
2B4
100
AcDbEntity
  8
0
100
AcDbCircle
 62
7
  6
CONTINUOUS
 10
7.6280257233
 20
12.7056918548
 40
0.25
100
AcDbArc
 50
98.046931485
 51
261.953068515
  0
ARC
  5
2B5
100
AcDbEntity
  8
0
100
AcDbCircle
 62
7
  6
CONTINUOUS
 10
4.9067717712
 20
12.7056918548
 40
0.25
100
AcDbArc
 50
98.0469314849
 51
261.953068515
  0
ARC
  5
2B6
100
AcDbEntity
  8
0
100
AcDbCircle
 62
7
  6
CONTINUOUS
 10
5.2530257233
 20
12.7056918548
 40
0.25
100
AcDbArc
 50
278.0469314849
 51
81.9530685151
  0
ARC
  5
2B7
100
AcDbEntity
  8
0
100
AcDbCircle
 62
7
  6
CONTINUOUS
 10
7.9405257233
 20
12.7056918548
 40
0.125
100
AcDbArc
 50
270.0
 51
90.0
  0
ARC
  5
2B8
100
AcDbEntity
  8
0
100
AcDbCircle
 62
7
  6
CONTINUOUS
 10
7.6280257233
 20
12.7056918548
 40
0.125
100
AcDbArc
 50
90.0
 51
270.0
  0
ARC
  5
2B9
100
AcDbEntity
  8
0
100
AcDbCircle
 62
7
  6
CONTINUOUS
 10
4.9405257233
 20
12.7056918548
 40
0.125
100
AcDbArc
 50
90.0
 51
270.0
  0
ARC
  5
2BA
100
AcDbEntity
  8
0
100
AcDbCircle
 62
7
  6
CONTINUOUS
 10
5.2530257233
 20
12.7056918548
 40
0.125
100
AcDbArc
 50
270.0
 51
90.0
  0
ARC
  5
2BB
100
AcDbEntity
  8
0
100
AcDbCircle
 62
7
  6
CONTINUOUS
 10
5.7124007233
 20
11.6775668548
 40
0.05
100
AcDbArc
 50
180.0
 51
270.0
  0
ARC
  5
2BC
100
AcDbEntity
  8
0
100
AcDbCircle
 62
7
  6
CONTINUOUS
 10
7.1686507233
 20
11.6775668548
 40
0.05
100
AcDbArc
 50
270.0
 51
360.0
  0
ARC
  5
2BD
100
AcDbEntity
  8
0
100
AcDbCircle
 62
7
  6
CONTINUOUS
 10
14.6378743303
 20
4.5762497044
 40
0.05
100
AcDbArc
 50
180.0
 51
270.0
  0
ARC
  5
2BE
100
AcDbEntity
  8
0
100
AcDbCircle
 62
7
  6
CONTINUOUS
 10
14.6378743303
 20
6.0324997044
 40
0.05
100
AcDbArc
 50
90.0
 51
180.0
  0
ARC
  5
2BF
100
AcDbEntity
  8
0
100
AcDbCircle
 62
7
  6
CONTINUOUS
 10
15.1284993303
 20
6.2793747044
 40
0.025
100
AcDbArc
 50
90.0
 51
179.9999999994
  0
ARC
  5
2C0
100
AcDbEntity
  8
0
100
AcDbCircle
 62
7
  6
CONTINUOUS
 10
16.2034993303
 20
6.2793747044
 40
0.025
100
AcDbArc
 50
0.0000000006
 51
90.0
  0
ARC
  5
2C1
100
AcDbEntity
  8
0
100
AcDbCircle
 62
7
  6
CONTINUOUS
 10
15.1284993303
 20
4.8418747044
 40
0.025
100
AcDbArc
 50
90.0
 51
180.0
  0
ARC
  5
2C2
100
AcDbEntity
  8
0
100
AcDbCircle
 62
7
  6
CONTINUOUS
 10
16.2034993303
 20
4.8418747044
 40
0.025
100
AcDbArc
 50
0.0
 51
90.0
  0
ARC
  5
2C3
100
AcDbEntity
  8
0
100
AcDbCircle
 62
7
  6
CONTINUOUS
 10
16.8428318591
 20
12.0952552555
 40
0.3043467576
100
AcDbArc
 50
96.617898416
 51
99.6876521455
  0
ARC
  5
2C4
100
AcDbEntity
  8
0
100
AcDbCircle
 62
7
  6
CONTINUOUS
 10
16.7164750802
 20
12.2394224651
 40
0.2314244377
100
AcDbArc
 50
259.2237979318
 51
262.911115365
  0
SPLINE
  5
2C5
100
AcDbEntity
  8
0
100
AcDbSpline
 62
7
  6
CONTINUOUS
 70
0
 71
3
 72
34
 73
30
 74
0
 42
0.0000001
 43
0.0000001
 44
0.0000000001
 40
0.0
 40
0.0
 40
0.0
 40
0.0
 40
0.0634303366
 40
0.1265599292
 40
0.1892506148
 40
0.220473799
 40
0.2516157796
 40
0.282700044
 40
0.3137503372
 40
0.344781116
 40
0.3758037221
 40
0.4068268368
 40
0.4378554835
 40
0.4688902578
 40
0.4999292219
 40
0.530968963
 40
0.5620063987
 40
0.5930393376
 40
0.6240668048
 40
0.6550962921
 40
0.6861365143
 40
0.7171937441
 40
0.7482860587
 40
0.7794345236
 40
0.8106643833
 40
0.8419939356
 40
0.8734305337
 40
0.9365675283
 40
1.0
 40
1.0
 40
1.0
 40
1.0
 10
7.1846447073
 20
12.7213168548
 30
0.0
 10
7.1846447073
 20
12.7257307384
 30
0.0
 10
7.1853715913
 20
12.7345555841
 30
0.0
 10
7.1886352056
 20
12.7473747017
 30
0.0
 10
7.1931554528
 20
12.757395974
 30
0.0
 10
7.1978050888
 20
12.7647647127
 30
0.0
 10
7.2017905765
 20
12.7699164622
 30
0.0
 10
7.2062563754
 20
12.774641591
 30
0.0
 10
7.2111736184
 20
12.7788842273
 30
0.0
 10
7.2165032229
 20
12.7825890835
 30
0.0
 10
7.2221965729
 20
12.7857033891
 30
0.0
 10
7.2281952097
 20
12.7881799299
 30
0.0
 10
7.2344317606
 20
12.7899792845
 30
0.0
 10
7.240831431
 20
12.7910718739
 30
0.0
 10
7.2473142252
 20
12.7914389024
 30
0.0
 10
7.2537973014
 20
12.7910736277
 30
0.0
 10
7.2601978139
 20
12.7899827782
 30
0.0
 10
7.2664356227
 20
12.7881849128
 30
0.0
 10
7.2724358281
 20
12.7857092898
 30
0.0
 10
7.2781310199
 20
12.7825953856
 30
0.0
 10
7.2834629586
 20
12.7788909977
 30
0.0
 10
7.2883817851
 20
12.7746476054
 30
0.0
 10
7.2928494614
 20
12.7699220851
 30
0.0
 10
7.2968362867
 20
12.7647699271
 30
0.0
 10
7.3003210404
 20
12.7592470814
 30
0.0
 10
7.3032890426
 20
12.7534078983
 30
0.0
 10
7.3065456681
 20
12.7452637536
 30
0.0
 10
7.309273965
 20
12.7345546942
 30
0.0
 10
7.3100000464
 20
12.725730887
 30
0.0
 10
7.3100000464
 20
12.7213168548
 30
0.0
  0
SPLINE
  5
2C6
100
AcDbEntity
  8
0
100
AcDbSpline
 62
7
  6
CONTINUOUS
 70
0
 71
3
 72
34
 73
30
 74
0
 42
0.0000001
 43
0.0000001
 44
0.0000000001
 40
0.0
 40
0.0
 40
0.0
 40
0.0
 40
0.0634303366
 40
0.1265599292
 40
0.1892506148
 40
0.220473799
 40
0.2516157796
 40
0.282700044
 40
0.3137503372
 40
0.344781116
 40
0.3758037221
 40
0.4068268368
 40
0.4378554835
 40
0.4688902578
 40
0.4999292219
 40
0.530968963
 40
0.5620063987
 40
0.5930393376
 40
0.6240668048
 40
0.6550962921
 40
0.6861365143
 40
0.7171937441
 40
0.7482860587
 40
0.7794345236
 40
0.8106643833
 40
0.8419939356
 40
0.8734305337
 40
0.9365675283
 40
1.0
 40
1.0
 40
1.0
 40
1.0
 10
7.3100000464
 20
12.7213168548
 30
0.0
 10
7.3100000464
 20
12.7169029711
 30
0.0
 10
7.3092731624
 20
12.7080781255
 30
0.0
 10
7.306009548
 20
12.6952590078
 30
0.0
 10
7.3014893009
 20
12.6852377355
 30
0.0
 10
7.2968396648
 20
12.6778689968
 30
0.0
 10
7.2928541772
 20
12.6727172473
 30
0.0
 10
7.2883883782
 20
12.6679921185
 30
0.0
 10
7.2834711352
 20
12.6637494822
 30
0.0
 10
7.2781415308
 20
12.660044626
 30
0.0
 10
7.2724481808
 20
12.6569303204
 30
0.0
 10
7.2664495439
 20
12.6544537796
 30
0.0
 10
7.260212993
 20
12.6526544251
 30
0.0
 10
7.2538133226
 20
12.6515618357
 30
0.0
 10
7.2473305285
 20
12.6511948072
 30
0.0
 10
7.2408474523
 20
12.6515600818
 30
0.0
 10
7.2344469398
 20
12.6526509314
 30
0.0
 10
7.2282091309
 20
12.6544487967
 30
0.0
 10
7.2222089256
 20
12.6569244198
 30
0.0
 10
7.2165137338
 20
12.660038324
 30
0.0
 10
7.2111817951
 20
12.6637427119
 30
0.0
 10
7.2062629686
 20
12.6679861041
 30
0.0
 10
7.2017952923
 20
12.6727116245
 30
0.0
 10
7.197808467
 20
12.6778637824
 30
0.0
 10
7.1943237132
 20
12.6833866282
 30
0.0
 10
7.1913557111
 20
12.6892258112
 30
0.0
 10
7.1880990856
 20
12.6973699559
 30
0.0
 10
7.1853707887
 20
12.7080790154
 30
0.0
 10
7.1846447073
 20
12.7169028226
 30
0.0
 10
7.1846447073
 20
12.7213168548
 30
0.0
  0
SPLINE
  5
2C7
100
AcDbEntity
  8
0
100
AcDbSpline
 62
7
  6
CONTINUOUS
 70
0
 71
3
 72
15
 73
11
 74
0
 42
0.0000001
 43
0.0000001
 44
0.0000000001
 40
0.0
 40
0.0
 40
0.0
 40
0.0
 40
0.1312712794
 40
0.2573740503
 40
0.3796904152
 40
0.5
 40
0.6203095848
 40
0.7426259497
 40
0.8687287206
 40
1.0
 40
1.0
 40
1.0
 40
1.0
 10
7.1314132426
 20
12.8160383833
 30
0.0
 10
7.1342694008
 20
12.8183704267
 30
0.0
 10
7.1402125682
 20
12.8225456944
 30
0.0
 10
7.1498567458
 20
12.827211694
 30
0.0
 10
7.1598746208
 20
12.8300537645
 30
0.0
 10
7.1700831447
 20
12.8310082059
 30
0.0
 10
7.1802916687
 20
12.8300537645
 30
0.0
 10
7.1903095437
 20
12.827211694
 30
0.0
 10
7.1999537212
 20
12.8225456944
 30
0.0
 10
7.2058968886
 20
12.8183704267
 30
0.0
 10
7.2087530468
 20
12.8160383833
 30
0.0
  0
SPLINE
  5
2C8
100
AcDbEntity
  8
0
100
AcDbSpline
 62
7
  6
CONTINUOUS
 70
0
 71
3
 72
10
 73
6
 74
0
 42
0.0000001
 43
0.0000001
 44
0.0000000001
 40
0.0
 40
0.0
 40
0.0
 40
0.0
 40
0.2623823574
 40
0.5166773732
 40
1.0
 40
1.0
 40
1.0
 40
1.0
 10
7.2309396927
 20
12.6538198778
 30
0.0
 10
7.2294425388
 20
12.6511202462
 30
0.0
 10
7.2262732548
 20
12.6459210555
 30
0.0
 10
7.2192833036
 20
12.6364481487
 30
0.0
 10
7.2131577103
 20
12.6301917189
 30
0.0
 10
7.2087530468
 20
12.6265953262
 30
0.0
  0
SPLINE
  5
2C9
100
AcDbEntity
  8
0
100
AcDbSpline
 62
7
  6
CONTINUOUS
 70
0
 71
3
 72
10
 73
6
 74
0
 42
0.0000001
 43
0.0000001
 44
0.0000000001
 40
0.0
 40
0.0
 40
0.0
 40
0.0
 40
0.4833655867
 40
0.7376482643
 40
1.0
 40
1.0
 40
1.0
 40
1.0
 10
7.2087530468
 20
12.8160383833
 30
0.0
 10
7.2131450773
 20
12.8124523054
 30
0.0
 10
7.2192545055
 20
12.8062163334
 30
0.0
 10
7.2262298638
 20
12.7967759525
 30
0.0
 10
7.2293938467
 20
12.7915952627
 30
0.0
 10
7.2308889018
 20
12.7889053164
 30
0.0
  0
SPLINE
  5
2CA
100
AcDbEntity
  8
0
100
AcDbSpline
 62
7
  6
CONTINUOUS
 70
0
 71
3
 72
15
 73
11
 74
0
 42
0.0000001
 43
0.0000001
 44
0.0000000001
 40
0.0
 40
0.0
 40
0.0
 40
0.0
 40
0.1312712794
 40
0.2573740503
 40
0.3796904152
 40
0.5
 40
0.6203095848
 40
0.7426259497
 40
0.8687287206
 40
1.0
 40
1.0
 40
1.0
 40
1.0
 10
7.2087530468
 20
12.6265953262
 30
0.0
 10
7.2058968886
 20
12.6242632828
 30
0.0
 10
7.1999537212
 20
12.6200880152
 30
0.0
 10
7.1903095437
 20
12.6154220156
 30
0.0
 10
7.1802916687
 20
12.612579945
 30
0.0
 10
7.1700831447
 20
12.6116255037
 30
0.0
 10
7.1598746208
 20
12.612579945
 30
0.0
 10
7.1498567458
 20
12.6154220156
 30
0.0
 10
7.1402125682
 20
12.6200880152
 30
0.0
 10
7.1342694008
 20
12.6242632828
 30
0.0
 10
7.1314132426
 20
12.6265953262
 30
0.0
  0
SPLINE
  5
2CB
100
AcDbEntity
  8
0
100
AcDbSpline
 62
7
  6
CONTINUOUS
 70
0
 71
3
 72
15
 73
11
 74
0
 42
0.0000001
 43
0.0000001
 44
0.0000000001
 40
0.0
 40
0.0
 40
0.0
 40
0.0
 40
0.1097092204
 40
0.2245817563
 40
0.3445658644
 40
0.4692886109
 40
0.5981117891
 40
0.7301885905
 40
0.8645185024
 40
1.0
 40
1.0
 40
1.0
 40
1.0
 10
7.1314132426
 20
12.6265953262
 30
0.0
 10
7.1284251155
 20
12.6290351218
 30
0.0
 10
7.1226801399
 20
12.6344990263
 30
0.0
 10
7.1150838221
 20
12.6439777942
 30
0.0
 10
7.1084309982
 20
12.6547648039
 30
0.0
 10
7.1028324652
 20
12.6666747182
 30
0.0
 10
7.0983789454
 20
12.6795069487
 30
0.0
 10
7.0951440489
 20
12.6930452897
 30
0.0
 10
7.0931813167
 20
12.7070597854
 30
0.0
 10
7.0927433406
 20
12.7165529803
 30
0.0
 10
7.0927433406
 20
12.7213168548
 30
0.0
  0
SPLINE
  5
2CC
100
AcDbEntity
  8
0
100
AcDbSpline
 62
7
  6
CONTINUOUS
 70
0
 71
3
 72
15
 73
11
 74
0
 42
0.0000001
 43
0.0000001
 44
0.0000000001
 40
0.0
 40
0.0
 40
0.0
 40
0.0
 40
0.1354814976
 40
0.2698114095
 40
0.4018882109
 40
0.5307113891
 40
0.6554341356
 40
0.7754182437
 40
0.8902907796
 40
1.0
 40
1.0
 40
1.0
 40
1.0
 10
7.0927433406
 20
12.7213168548
 30
0.0
 10
7.0927433406
 20
12.7260807292
 30
0.0
 10
7.0931813167
 20
12.7355739242
 30
0.0
 10
7.0951440489
 20
12.7495884198
 30
0.0
 10
7.0983789454
 20
12.7631267608
 30
0.0
 10
7.1028324652
 20
12.7759589913
 30
0.0
 10
7.1084309982
 20
12.7878689057
 30
0.0
 10
7.1150838221
 20
12.7986559154
 30
0.0
 10
7.1226801399
 20
12.8081346833
 30
0.0
 10
7.1284251155
 20
12.8135985877
 30
0.0
 10
7.1314132426
 20
12.8160383833
 30
0.0
  0
SPLINE
  5
2CD
100
AcDbEntity
  8
0
100
AcDbSpline
 62
7
  6
CONTINUOUS
 70
0
 71
3
 72
34
 73
30
 74
0
 42
0.0000001
 43
0.0000001
 44
0.0000000001
 40
0.0
 40
0.0
 40
0.0
 40
0.0
 40
0.0634303366
 40
0.1265599292
 40
0.1892506148
 40
0.220473799
 40
0.2516157796
 40
0.282700044
 40
0.3137503372
 40
0.344781116
 40
0.3758037221
 40
0.4068268368
 40
0.4378554835
 40
0.4688902578
 40
0.4999292219
 40
0.530968963
 40
0.5620063987
 40
0.5930393376
 40
0.6240668048
 40
0.6550962921
 40
0.6861365143
 40
0.7171937441
 40
0.7482860587
 40
0.7794345236
 40
0.8106643833
 40
0.8419939356
 40
0.8734305337
 40
0.9365675283
 40
1.0
 40
1.0
 40
1.0
 40
1.0
 10
15.6816243303
 20
6.1738490276
 30
0.0
 10
15.686038214
 20
6.1738490276
 30
0.0
 10
15.6948630597
 20
6.1731221436
 30
0.0
 10
15.7076821773
 20
6.1698585292
 30
0.0
 10
15.7177034496
 20
6.1653382821
 30
0.0
 10
15.7250721883
 20
6.160688646
 30
0.0
 10
15.7302239378
 20
6.1567031583
 30
0.0
 10
15.7349490666
 20
6.1522373594
 30
0.0
 10
15.7391917029
 20
6.1473201164
 30
0.0
 10
15.7428965591
 20
6.141990512
 30
0.0
 10
15.7460108647
 20
6.136297162
 30
0.0
 10
15.7484874055
 20
6.1302985251
 30
0.0
 10
15.75028676
 20
6.1240619742
 30
0.0
 10
15.7513793495
 20
6.1176623038
 30
0.0
 10
15.7517463779
 20
6.1111795096
 30
0.0
 10
15.7513811033
 20
6.1046964335
 30
0.0
 10
15.7502902537
 20
6.098295921
 30
0.0
 10
15.7484923884
 20
6.0920581121
 30
0.0
 10
15.7460167654
 20
6.0860579068
 30
0.0
 10
15.7429028611
 20
6.080362715
 30
0.0
 10
15.7391984732
 20
6.0750307763
 30
0.0
 10
15.734955081
 20
6.0701119498
 30
0.0
 10
15.7302295607
 20
6.0656442735
 30
0.0
 10
15.7250774027
 20
6.0616574482
 30
0.0
 10
15.7195545569
 20
6.0581726944
 30
0.0
 10
15.7137153739
 20
6.0552046923
 30
0.0
 10
15.7055712292
 20
6.0519480668
 30
0.0
 10
15.6948621697
 20
6.0492197699
 30
0.0
 10
15.6860383625
 20
6.0484936885
 30
0.0
 10
15.6816243303
 20
6.0484936885
 30
0.0
  0
SPLINE
  5
2CE
100
AcDbEntity
  8
0
100
AcDbSpline
 62
7
  6
CONTINUOUS
 70
0
 71
3
 72
34
 73
30
 74
0
 42
0.0000001
 43
0.0000001
 44
0.0000000001
 40
0.0
 40
0.0
 40
0.0
 40
0.0
 40
0.0634303366
 40
0.1265599292
 40
0.1892506148
 40
0.220473799
 40
0.2516157796
 40
0.282700044
 40
0.3137503372
 40
0.344781116
 40
0.3758037221
 40
0.4068268368
 40
0.4378554835
 40
0.4688902578
 40
0.4999292219
 40
0.530968963
 40
0.5620063987
 40
0.5930393376
 40
0.6240668048
 40
0.6550962921
 40
0.6861365143
 40
0.7171937441
 40
0.7482860587
 40
0.7794345236
 40
0.8106643833
 40
0.8419939356
 40
0.8734305337
 40
0.9365675283
 40
1.0
 40
1.0
 40
1.0
 40
1.0
 10
15.6816243303
 20
6.0484936885
 30
0.0
 10
15.6772104467
 20
6.0484936885
 30
0.0
 10
15.668385601
 20
6.0492205725
 30
0.0
 10
15.6555664834
 20
6.0524841868
 30
0.0
 10
15.6455452111
 20
6.057004434
 30
0.0
 10
15.6381764724
 20
6.06165407
 30
0.0
 10
15.6330247229
 20
6.0656395577
 30
0.0
 10
15.6282995941
 20
6.0701053566
 30
0.0
 10
15.6240569578
 20
6.0750225996
 30
0.0
 10
15.6203521016
 20
6.0803522041
 30
0.0
 10
15.617237796
 20
6.0860455541
 30
0.0
 10
15.6147612552
 20
6.0920441909
 30
0.0
 10
15.6129619007
 20
6.0982807418
 30
0.0
 10
15.6118693112
 20
6.1046804122
 30
0.0
 10
15.6115022828
 20
6.1111632064
 30
0.0
 10
15.6118675574
 20
6.1176462826
 30
0.0
 10
15.6129584069
 20
6.1240467951
 30
0.0
 10
15.6147562723
 20
6.1302846039
 30
0.0
 10
15.6172318953
 20
6.1362848093
 30
0.0
 10
15.6203457995
 20
6.141980001
 30
0.0
 10
15.6240501874
 20
6.1473119397
 30
0.0
 10
15.6282935797
 20
6.1522307663
 30
0.0
 10
15.6330191
 20
6.1566984426
 30
0.0
 10
15.638171258
 20
6.1606852679
 30
0.0
 10
15.6436941038
 20
6.1641700216
 30
0.0
 10
15.6495332868
 20
6.1671380238
 30
0.0
 10
15.6576774315
 20
6.1703946493
 30
0.0
 10
15.6683864909
 20
6.1731229461
 30
0.0
 10
15.6772102981
 20
6.1738490276
 30
0.0
 10
15.6816243303
 20
6.1738490276
 30
0.0
  0
SPLINE
  5
2CF
100
AcDbEntity
  8
0
100
AcDbSpline
 62
7
  6
CONTINUOUS
 70
0
 71
3
 72
10
 73
6
 74
0
 42
0.0000001
 43
0.0000001
 44
0.0000000001
 40
0.0
 40
0.0
 40
0.0
 40
0.0
 40
0.2623823574
 40
0.5166773732
 40
1.0
 40
1.0
 40
1.0
 40
1.0
 10
15.7491213074
 20
6.0947886739
 30
0.0
 10
15.7518209389
 20
6.09329152
 30
0.0
 10
15.7570201297
 20
6.090122236
 30
0.0
 10
15.7664930364
 20
6.0831322848
 30
0.0
 10
15.7727494663
 20
6.0770066914
 30
0.0
 10
15.7763458589
 20
6.072602028
 30
0.0
  0
SPLINE
  5
2D0
100
AcDbEntity
  8
0
100
AcDbSpline
 62
7
  6
CONTINUOUS
 70
0
 71
3
 72
15
 73
11
 74
0
 42
0.0000001
 43
0.0000001
 44
0.0000000001
 40
0.0
 40
0.0
 40
0.0
 40
0.0
 40
0.1312712794
 40
0.2573740503
 40
0.3796904152
 40
0.5
 40
0.6203095848
 40
0.7426259497
 40
0.8687287206
 40
1.0
 40
1.0
 40
1.0
 40
1.0
 10
15.7763458589
 20
6.072602028
 30
0.0
 10
15.7786779023
 20
6.0697458698
 30
0.0
 10
15.7828531699
 20
6.0638027024
 30
0.0
 10
15.7875191696
 20
6.0541585249
 30
0.0
 10
15.7903612401
 20
6.0441406499
 30
0.0
 10
15.7913156814
 20
6.0339321259
 30
0.0
 10
15.7903612401
 20
6.023723602
 30
0.0
 10
15.7875191696
 20
6.013705727
 30
0.0
 10
15.7828531699
 20
6.0040615494
 30
0.0
 10
15.7786779023
 20
5.998118382
 30
0.0
 10
15.7763458589
 20
5.9952622238
 30
0.0
  0
SPLINE
  5
2D1
100
AcDbEntity
  8
0
100
AcDbSpline
 62
7
  6
CONTINUOUS
 70
0
 71
3
 72
29
 73
25
 74
0
 42
0.0000001
 43
0.0000001
 44
0.0000000001
 40
0.0
 40
0.0
 40
0.0
 40
0.0
 40
0.0619268952
 40
0.1238052229
 40
0.1857133813
 40
0.247780896
 40
0.3101488257
 40
0.3415136838
 40
0.3730015143
 40
0.4046134996
 40
0.4363363809
 40
0.4681446743
 40
0.4999999892
 40
0.5318553045
 40
0.5636635986
 40
0.5953864789
 40
0.6269984648
 40
0.6584862972
 40
0.6898511521
 40
0.7522190883
 40
0.814286596
 40
0.8761947631
 40
0.938073073
 40
1.0
 40
1.0
 40
1.0
 40
1.0
 10
15.7817787998
 20
5.5631937495
 30
0.0
 10
15.7788825162
 20
5.5688418323
 30
0.0
 10
15.772710807
 20
5.5799444361
 30
0.0
 10
15.7621724793
 20
5.5958228882
 30
0.0
 10
15.7501920253
 20
5.6106760184
 30
0.0
 10
15.7366060054
 20
5.6241629327
 30
0.0
 10
15.7238413799
 20
5.6338616693
 30
0.0
 10
15.7127718835
 20
5.6403829044
 30
0.0
 10
15.7040314395
 20
5.6445785187
 30
0.0
 10
15.6949090387
 20
5.6479729551
 30
0.0
 10
15.6854673271
 20
5.6504769885
 30
0.0
 10
15.6757943383
 20
5.6520142852
 30
0.0
 10
15.665999334
 20
5.6525329506
 30
0.0
 10
15.65620433
 20
5.6520142801
 30
0.0
 10
15.6465313415
 20
5.650476982
 30
0.0
 10
15.6370896305
 20
5.6479729462
 30
0.0
 10
15.6279672308
 20
5.6445785071
 30
0.0
 10
15.6192267835
 20
5.6403828991
 30
0.0
 10
15.608157293
 20
5.6338616544
 30
0.0
 10
15.595392639
 20
5.6241629534
 30
0.0
 10
15.5818066671
 20
5.6106759876
 30
0.0
 10
15.5698261739
 20
5.595822899
 30
0.0
 10
15.5592877634
 20
5.5799444923
 30
0.0
 10
15.553116146
 20
5.5688418352
 30
0.0
 10
15.5502198609
 20
5.5631937495
 30
0.0
  0
SPLINE
  5
2D2
100
AcDbEntity
  8
0
100
AcDbSpline
 62
7
  6
CONTINUOUS
 70
0
 71
3
 72
15
 73
11
 74
0
 42
0.0000001
 43
0.0000001
 44
0.0000000001
 40
0.0
 40
0.0
 40
0.0
 40
0.0
 40
0.1354814976
 40
0.2698114095
 40
0.4018882109
 40
0.5307113891
 40
0.6554341356
 40
0.7754182437
 40
0.8902907796
 40
1.0
 40
1.0
 40
1.0
 40
1.0
 10
15.6816243303
 20
5.9565923217
 30
0.0
 10
15.6768604559
 20
5.9565923217
 30
0.0
 10
15.6673672609
 20
5.9570302979
 30
0.0
 10
15.6533527653
 20
5.9589930301
 30
0.0
 10
15.6398144243
 20
5.9622279266
 30
0.0
 10
15.6269821938
 20
5.9666814464
 30
0.0
 10
15.6150722794
 20
5.9722799794
 30
0.0
 10
15.6042852697
 20
5.9789328033
 30
0.0
 10
15.5948065018
 20
5.9865291211
 30
0.0
 10
15.5893425974
 20
5.9922740967
 30
0.0
 10
15.5869028018
 20
5.9952622238
 30
0.0
  0
SPLINE
  5
2D3
100
AcDbEntity
  8
0
100
AcDbSpline
 62
7
  6
CONTINUOUS
 70
0
 71
3
 72
15
 73
11
 74
0
 42
0.0000001
 43
0.0000001
 44
0.0000000001
 40
0.0
 40
0.0
 40
0.0
 40
0.0
 40
0.1097092204
 40
0.2245817563
 40
0.3445658644
 40
0.4692886109
 40
0.5981117891
 40
0.7301885905
 40
0.8645185024
 40
1.0
 40
1.0
 40
1.0
 40
1.0
 10
15.7763458589
 20
5.9952622238
 30
0.0
 10
15.7739060633
 20
5.9922740967
 30
0.0
 10
15.7684421588
 20
5.9865291211
 30
0.0
 10
15.758963391
 20
5.9789328033
 30
0.0
 10
15.7481763812
 20
5.9722799794
 30
0.0
 10
15.7362664669
 20
5.9666814464
 30
0.0
 10
15.7234342364
 20
5.9622279266
 30
0.0
 10
15.7098958954
 20
5.9589930301
 30
0.0
 10
15.6958813998
 20
5.9570302979
 30
0.0
 10
15.6863882048
 20
5.9565923217
 30
0.0
 10
15.6816243303
 20
5.9565923217
 30
0.0
  0
SPLINE
  5
2D4
100
AcDbEntity
  8
0
100
AcDbSpline
 62
7
  6
CONTINUOUS
 70
0
 71
3
 72
15
 73
11
 74
0
 42
0.0000001
 43
0.0000001
 44
0.0000000001
 40
0.0
 40
0.0
 40
0.0
 40
0.0
 40
0.1312712794
 40
0.2573740503
 40
0.3796904152
 40
0.5
 40
0.6203095848
 40
0.7426259497
 40
0.8687287206
 40
1.0
 40
1.0
 40
1.0
 40
1.0
 10
15.5869028018
 20
5.9952622238
 30
0.0
 10
15.5845707584
 20
5.998118382
 30
0.0
 10
15.5803954907
 20
6.0040615494
 30
0.0
 10
15.5757294911
 20
6.013705727
 30
0.0
 10
15.5728874206
 20
6.023723602
 30
0.0
 10
15.5719329793
 20
6.0339321259
 30
0.0
 10
15.5728874206
 20
6.0441406499
 30
0.0
 10
15.5757294911
 20
6.0541585249
 30
0.0
 10
15.5803954907
 20
6.0638027024
 30
0.0
 10
15.5845707584
 20
6.0697458698
 30
0.0
 10
15.5869028018
 20
6.072602028
 30
0.0
  0
SPLINE
  5
2D5
100
AcDbEntity
  8
0
100
AcDbSpline
 62
7
  6
CONTINUOUS
 70
0
 71
3
 72
10
 73
6
 74
0
 42
0.0000001
 43
0.0000001
 44
0.0000000001
 40
0.0
 40
0.0
 40
0.0
 40
0.0
 40
0.4833655867
 40
0.7376482643
 40
1.0
 40
1.0
 40
1.0
 40
1.0
 10
15.5869028018
 20
6.072602028
 30
0.0
 10
15.5904888797
 20
6.0769940585
 30
0.0
 10
15.5967248517
 20
6.0831034867
 30
0.0
 10
15.6061652326
 20
6.090078845
 30
0.0
 10
15.6113459224
 20
6.0932428279
 30
0.0
 10
15.6140358687
 20
6.0947378829
 30
0.0
  0
SPLINE
  5
2D6
100
AcDbEntity
  8
0
100
AcDbSpline
 62
7
  6
CONTINUOUS
 70
0
 71
3
 72
45
 73
41
 74
0
 42
0.0000001
 43
0.0000001
 44
0.0000000001
 40
0.0
 40
0.0
 40
0.0
 40
0.0
 40
0.0107123596
 40
0.021462188
 40
0.0322862836
 40
0.0432200376
 40
0.0542972562
 40
0.0655494974
 40
0.088680052
 40
0.1006187455
 40
0.1128300382
 40
0.1253306616
 40
0.1381347042
 40
0.1512527497
 40
0.1646925609
 40
0.1925507275
 40
0.2217288017
 40
0.2522047222
 40
0.2839247891
 40
0.3168099303
 40
0.3507589476
 40
0.3856515991
 40
0.4213530863
 40
0.4577154945
 40
0.4945816491
 40
0.5317870594
 40
0.569162483
 40
0.6065365642
 40
0.6437377618
 40
0.6805971702
 40
0.7169501604
 40
0.7526398551
 40
0.7875186319
 40
0.8214512477
 40
0.8543187292
 40
0.8860198521
 40
0.9164745657
 40
0.9456313497
 40
0.9734740631
 40
1.0
 40
1.0
 40
1.0
 40
1.0
 10
14.6923202475
 20
12.225892108
 30
0.0
 10
14.6941339655
 20
12.2317616592
 30
0.0
 10
14.6981943067
 20
12.2433943294
 30
0.0
 10
14.7055468947
 20
12.260404101
 30
0.0
 10
14.7141517312
 20
12.2769599361
 30
0.0
 10
14.7239915728
 20
12.2930323693
 30
0.0
 10
14.7350516214
 20
12.308593504
 30
0.0
 10
14.7515444487
 20
12.328803888
 30
0.0
 10
14.77031798
 20
12.3477134894
 30
0.0
 10
14.7910526361
 20
12.3652014463
 30
0.0
 10
14.8078715694
 20
12.3778269488
 30
0.0
 10
14.8257608491
 20
12.3897971187
 30
0.0
 10
14.8446920583
 20
12.4010913401
 30
0.0
 10
14.8646317251
 20
12.4116920319
 30
0.0
 10
14.8928517513
 20
12.4250372838
 30
0.0
 10
14.9305277779
 20
12.4398178184
 30
0.0
 10
14.9786261859
 20
12.4543133767
 30
0.0
 10
15.0298258676
 20
12.4656808966
 30
0.0
 10
15.0837776513
 20
12.4738490235
 30
0.0
 10
15.1401183063
 20
12.4787641162
 30
0.0
 10
15.1984663904
 20
12.4803922392
 30
0.0
 10
15.2584266919
 20
12.47872639
 30
0.0
 10
15.3195921601
 20
12.4737747797
 30
0.0
 10
15.3815475158
 20
12.4655733545
 30
0.0
 10
15.4438716273
 20
12.4541779974
 30
0.0
 10
15.5061400821
 20
12.4396641328
 30
0.0
 10
15.5679299359
 20
12.4221336707
 30
0.0
 10
15.6288199192
 20
12.4017031276
 30
0.0
 10
15.6883960759
 20
12.3785128116
 30
0.0
 10
15.7462533799
 20
12.3527212989
 30
0.0
 10
15.8019972095
 20
12.3245015036
 30
0.0
 10
15.8552499986
 20
12.2940482067
 30
0.0
 10
15.9056486675
 20
12.2615658881
 30
0.0
 10
15.9528515055
 20
12.2272753959
 30
0.0
 10
15.9965393296
 20
12.1914094906
 30
0.0
 10
16.036413003
 20
12.1542069962
 30
0.0
 10
16.0722056882
 20
12.1159222384
 30
0.0
 10
16.1036749034
 20
12.0768036443
 30
0.0
 10
16.1305962688
 20
12.0371188208
 30
0.0
 10
16.1457554466
 20
12.0098094466
 30
0.0
 10
16.1524570926
 20
11.9961529279
 30
0.0
  0
SPLINE
  5
2D7
100
AcDbEntity
  8
0
100
AcDbSpline
 62
7
  6
CONTINUOUS
 70
0
 71
3
 72
15
 73
11
 74
0
 42
0.0000001
 43
0.0000001
 44
0.0000000001
 40
0.0
 40
0.0
 40
0.0
 40
0.0
 40
0.1381135504
 40
0.2714885586
 40
0.4004246558
 40
0.5254201101
 40
0.6471125163
 40
0.7662285381
 40
0.8835680925
 40
1.0
 40
1.0
 40
1.0
 40
1.0
 10
16.1524570926
 20
11.9961529279
 30
0.0
 10
16.1572621309
 20
11.9863612895
 30
0.0
 10
16.166012106
 20
11.9667612772
 30
0.0
 10
16.1765902845
 20
11.936924521
 30
0.0
 10
16.184331396
 20
11.9072928198
 30
0.0
 10
16.1892013359
 20
11.8779876588
 30
0.0
 10
16.1911756164
 20
11.8491199479
 30
0.0
 10
16.1902437526
 20
11.8208007532
 30
0.0
 10
16.1864060329
 20
11.7931474296
 30
0.0
 10
16.1819073696
 20
11.7751987439
 30
0.0
 10
16.1791927658
 20
11.7664137479
 30
0.0
  0
SPLINE
  5
2D8
100
AcDbEntity
  8
0
100
AcDbSpline
 62
7
  6
CONTINUOUS
 70
0
 71
3
 72
14
 73
10
 74
0
 42
0.0000001
 43
0.0000001
 44
0.0000000001
 40
0.0
 40
0.0
 40
0.0
 40
0.0
 40
0.26397147
 40
0.3913875636
 40
0.5162352102
 40
0.6390305802
 40
0.7602202498
 40
0.8803111637
 40
1.0
 40
1.0
 40
1.0
 40
1.0
 10
14.6075102559
 20
11.6093892002
 30
0.0
 10
14.5974542507
 20
11.6298811843
 30
0.0
 10
14.5847098133
 20
11.6614431074
 30
0.0
 10
14.5734800943
 20
11.7046947476
 30
0.0
 10
14.5682075873
 20
11.736746617
 30
0.0
 10
14.5660868749
 20
11.7686211429
 30
0.0
 10
14.5671641869
 20
11.800141866
 30
0.0
 10
14.5714943145
 20
11.8311103452
 30
0.0
 10
14.5765517639
 20
11.8512672326
 30
0.0
 10
14.5796075304
 20
11.8611556966
 30
0.0
  0
SPLINE
  5
2D9
100
AcDbEntity
  8
0
100
AcDbSpline
 62
7
  6
CONTINUOUS
 70
0
 71
3
 72
42
 73
38
 74
0
 42
0.0000001
 43
0.0000001
 44
0.0000000001
 40
0.0
 40
0.0
 40
0.0
 40
0.0
 40
0.0118057171
 40
0.0236190156
 40
0.0354722332
 40
0.0473956188
 40
0.0715317222
 40
0.0961969128
 40
0.1215542846
 40
0.1477457346
 40
0.1611954889
 40
0.1748933981
 40
0.2030616874
 40
0.2323053279
 40
0.2626359476
 40
0.2940349152
 40
0.3264534861
 40
0.359818703
 40
0.3940351511
 40
0.4289891121
 40
0.4645525298
 40
0.5005845648
 40
0.5369364391
 40
0.5734529486
 40
0.6099763739
 40
0.6463484564
 40
0.6824140816
 40
0.7180233519
 40
0.7530350894
 40
0.7873197401
 40
0.8207617586
 40
0.8532655556
 40
0.8847548586
 40
0.9151768177
 40
0.9445127963
 40
0.972782891
 40
1.0
 40
1.0
 40
1.0
 40
1.0
 10
16.0664812193
 20
11.4016769747
 30
0.0
 10
16.0644722184
 20
11.3951758456
 30
0.0
 10
16.0599905858
 20
11.3823071402
 30
0.0
 10
16.0519175672
 20
11.3635062155
 30
0.0
 10
16.0425219433
 20
11.3452520325
 30
0.0
 10
16.0282146432
 20
11.3216106856
 30
0.0
 10
16.0070979957
 20
11.293560581
 30
0.0
 10
15.9771893371
 20
11.2628788037
 30
0.0
 10
15.9429674385
 20
11.2351903035
 30
0.0
 10
15.9114093694
 20
11.2148701388
 30
0.0
 10
15.8844035064
 20
11.2001598516
 30
0.0
 10
15.8557085111
 20
11.1862398865
 30
0.0
 10
15.8176512253
 20
11.1708769421
 30
0.0
 10
15.7693170702
 20
11.1558306989
 30
0.0
 10
15.7181820676
 20
11.1440262261
 30
0.0
 10
15.664553222
 20
11.1354903148
 30
0.0
 10
15.6087510045
 20
11.1302372873
 30
0.0
 10
15.5511149185
 20
11.128274355
 30
0.0
 10
15.4920014933
 20
11.1295957991
 30
0.0
 10
15.4317823627
 20
11.1341774101
 30
0.0
 10
15.3708421884
 20
11.1419835153
 30
0.0
 10
15.3095737753
 20
11.1529532838
 30
0.0
 10
15.248376782
 20
11.167013307
 30
0.0
 10
15.187652006
 20
11.1840678093
 30
0.0
 10
15.1277986357
 20
11.2040027219
 30
0.0
 10
15.0692117288
 20
11.2266901131
 30
0.0
 10
15.0122755948
 20
11.2519799476
 30
0.0
 10
14.9573650207
 20
11.2797140639
 30
0.0
 10
14.9048377685
 20
11.3097169598
 30
0.0
 10
14.8550349692
 20
11.3418049557
 30
0.0
 10
14.8082780244
 20
11.375788052
 30
0.0
 10
14.7648656919
 20
11.4114691442
 30
0.0
 10
14.7250794478
 20
11.4486535355
 30
0.0
 10
14.6891727377
 20
11.4871411577
 30
0.0
 10
14.6573832338
 20
11.5267510604
 30
0.0
 10
14.6299503468
 20
11.5672849362
 30
0.0
 10
14.6144211099
 20
11.5953063604
 30
0.0
 10
14.6075102559
 20
11.6093892002
 30
0.0
  0
SPLINE
  5
2DA
100
AcDbEntity
  8
0
100
AcDbSpline
 62
7
  6
CONTINUOUS
 70
0
 71
3
 72
16
 73
12
 74
0
 42
0.0000001
 43
0.0000001
 44
0.0000000001
 40
0.0
 40
0.0
 40
0.0
 40
0.0
 40
0.1219376627
 40
0.2480199477
 40
0.3767366791
 40
0.5063617366
 40
0.6351036006
 40
0.6986303658
 40
0.7613034914
 40
0.8833065692
 40
1.0
 40
1.0
 40
1.0
 40
1.0
 10
16.870696883
 20
12.1953049874
 30
0.0
 10
16.8633302436
 20
12.1953049874
 30
0.0
 10
16.8483298549
 20
12.1941994094
 30
0.0
 10
16.8259966936
 20
12.1895152797
 30
0.0
 10
16.8039884514
 20
12.1819099003
 30
0.0
 10
16.7829354964
 20
12.1716010632
 30
0.0
 10
16.7666010445
 20
12.1609478026
 30
0.0
 10
16.7545504622
 20
12.1513411373
 30
0.0
 10
16.7434485449
 20
12.1412483342
 30
0.0
 10
16.7312138219
 20
12.127686942
 30
0.0
 10
16.7231539981
 20
12.1156509599
 30
0.0
 10
16.719720686
 20
12.1094936623
 30
0.0
  0
SPLINE
  5
2DB
100
AcDbEntity
  8
0
100
AcDbSpline
 62
7
  6
CONTINUOUS
 70
0
 71
3
 72
18
 73
14
 74
0
 42
0.0000001
 43
0.0000001
 44
0.0000000001
 40
0.0
 40
0.0
 40
0.0
 40
0.0
 40
0.1421338277
 40
0.2787674246
 40
0.4096944328
 40
0.5350954598
 40
0.6555776093
 40
0.7143342477
 40
0.7722841414
 40
0.829615148
 40
0.8865327725
 40
0.9432535339
 40
1.0
 40
1.0
 40
1.0
 40
1.0
 10
16.7498111535
 20
12.1057547128
 30
0.0
 10
16.7448837577
 20
12.1057547128
 30
0.0
 10
16.7352089838
 20
12.1062820631
 30
0.0
 10
16.7211856788
 20
12.1087458822
 30
0.0
 10
16.7081458135
 20
12.1128331758
 30
0.0
 10
16.6963159399
 20
12.1184813513
 30
0.0
 10
16.6875583368
 20
12.1244734914
 30
0.0
 10
16.6814027457
 20
12.1299380018
 30
0.0
 10
16.6772443387
 20
12.1343202956
 30
0.0
 10
16.6735269978
 20
12.1390011995
 30
0.0
 10
16.6702658227
 20
12.1439601515
 30
0.0
 10
16.6674764501
 20
12.149175586
 30
0.0
 10
16.665940692
 20
12.1528039057
 30
0.0
 10
16.6652563611
 20
12.1546482892
 30
0.0
  0
SPLINE
  5
2DC
100
AcDbEntity
  8
0
100
AcDbSpline
 62
7
  6
CONTINUOUS
 70
0
 71
3
 72
19
 73
15
 74
0
 42
0.0000001
 43
0.0000001
 44
0.0000000001
 40
0.0
 40
0.0
 40
0.0
 40
0.0
 40
0.0575599239
 40
0.1152629994
 40
0.1732497372
 40
0.2316555912
 40
0.2906086185
 40
0.3502275901
 40
0.4718179673
 40
0.5972053746
 40
0.7268794534
 40
0.7934388923
 40
0.8611595208
 40
1.0
 40
1.0
 40
1.0
 40
1.0
 10
17.3234232781
 20
12.3138062103
 30
0.0
 10
17.3220438845
 20
12.3166170769
 30
0.0
 10
17.3190773723
 20
12.3221481714
 30
0.0
 10
17.3140320407
 20
12.330117277
 30
0.0
 10
17.3084029115
 20
12.3377430696
 30
0.0
 10
17.3022053599
 20
12.3450036654
 30
0.0
 10
17.2954564583
 20
12.3518800266
 30
0.0
 10
17.2856865571
 20
12.3605656374
 30
0.0
 10
17.2721330776
 20
12.3703726465
 30
0.0
 10
17.2541180024
 20
12.3802324945
 30
0.0
 10
17.2378545814
 20
12.3867903894
 30
0.0
 10
17.2241394966
 20
12.391059008
 30
0.0
 10
17.2097347036
 20
12.3947181561
 30
0.0
 10
17.1986389628
 20
12.3966382448
 30
0.0
 10
17.1911446667
 20
12.3975740935
 30
0.0
  0
SPLINE
  5
2DD
100
AcDbEntity
  8
0
100
AcDbSpline
 62
7
  6
CONTINUOUS
 70
0
 71
3
 72
11
 73
7
 74
0
 42
0.0000001
 43
0.0000001
 44
0.0000000001
 40
0.0
 40
0.0
 40
0.0
 40
0.0
 40
0.2700087737
 40
0.5071173095
 40
0.7413383335
 40
1.0
 40
1.0
 40
1.0
 40
1.0
 10
14.1493715682
 20
12.5949323275
 30
0.0
 10
14.1493902126
 20
12.5949926272
 30
0.0
 10
14.1494382032
 20
12.5951031727
 30
0.0
 10
14.1495592167
 20
12.5952327137
 30
0.0
 10
14.149717603
 20
12.5953056991
 30
0.0
 10
14.1498338581
 20
12.5953179721
 30
0.0
 10
14.1498943219
 20
12.5953179684
 30
0.0
  0
SPLINE
  5
2DE
100
AcDbEntity
  8
0
100
AcDbSpline
 62
7
  6
CONTINUOUS
 70
0
 71
3
 72
11
 73
7
 74
0
 42
0.0000001
 43
0.0000001
 44
0.0000000001
 40
0.0
 40
0.0
 40
0.0
 40
0.0
 40
0.246586996
 40
0.4945584307
 40
0.7452664103
 40
1.0
 40
1.0
 40
1.0
 40
1.0
 10
14.4863873205
 20
12.3109834722
 30
0.0
 10
14.4829348088
 20
12.2998111403
 30
0.0
 10
14.4771496377
 20
12.2770337119
 30
0.0
 10
14.4719511144
 20
12.2420183989
 30
0.0
 10
14.4702284705
 20
12.2062762845
 30
0.0
 10
14.4713786816
 20
12.1822934931
 30
0.0
 10
14.4725056263
 20
12.1702662239
 30
0.0
  0
SPLINE
  5
2DF
100
AcDbEntity
  8
0
100
AcDbSpline
 62
7
  6
CONTINUOUS
 70
0
 71
3
 72
14
 73
10
 74
0
 42
0.0000001
 43
0.0000001
 44
0.0000000001
 40
0.0
 40
0.0
 40
0.0
 40
0.0
 40
0.2719458096
 40
0.4011906259
 40
0.5260109928
 40
0.646934171
 40
0.7650908281
 40
0.882149411
 40
1.0
 40
1.0
 40
1.0
 40
1.0
 10
17.536328319
 20
12.5953179683
 30
0.0
 10
17.5375041003
 20
12.5953179819
 30
0.0
 10
17.5392469357
 20
12.5951871323
 30
0.0
 10
17.5414628652
 20
12.59465694
 30
0.0
 10
17.5429857805
 20
12.5940866737
 30
0.0
 10
17.544371231
 20
12.593328425
 30
0.0
 10
17.5455908866
 20
12.592376084
 30
0.0
 10
17.5466140657
 20
12.5912323489
 30
0.0
 10
17.5471447186
 20
12.5903585187
 30
0.0
 10
17.5473691915
 20
12.589901091
 30
0.0
  0
SPLINE
  5
2E0
100
AcDbEntity
  8
0
100
AcDbSpline
 62
7
  6
CONTINUOUS
 70
0
 71
3
 72
16
 73
12
 74
0
 42
0.0000001
 43
0.0000001
 44
0.0000000001
 40
0.0
 40
0.0
 40
0.0
 40
0.0
 40
0.0401321007
 40
0.0868838924
 40
0.1966736105
 40
0.3225299999
 40
0.4584767893
 40
0.5992116522
 40
0.7397615882
 40
0.8751362634
 40
1.0
 40
1.0
 40
1.0
 40
1.0
 10
16.885213969
 20
12.6099514768
 30
0.0
 10
16.8855766287
 20
12.6095429651
 30
0.0
 10
16.8863973334
 20
12.6086898061
 30
0.0
 10
16.888379543
 20
12.6068881352
 30
0.0
 10
16.8914688162
 20
12.6045841526
 30
0.0
 10
16.8958306527
 20
12.6020070263
 30
0.0
 10
16.9008068082
 20
12.5996932869
 30
0.0
 10
16.906164511
 20
12.5977857273
 30
0.0
 10
16.9116670277
 20
12.5963782359
 30
0.0
 10
16.9170629923
 20
12.5955241363
 30
0.0
 10
16.9206070357
 20
12.5953179182
 30
0.0
 10
16.9223066354
 20
12.5953179182
 30
0.0
  0
SPLINE
  5
2E1
100
AcDbEntity
  8
0
100
AcDbSpline
 62
7
  6
CONTINUOUS
 70
0
 71
3
 72
43
 73
39
 74
0
 42
0.0000001
 43
0.0000001
 44
0.0000000001
 40
0.0
 40
0.0
 40
0.0
 40
0.0
 40
0.0302517034
 40
0.0615460882
 40
0.0938280719
 40
0.1270264493
 40
0.1610548619
 40
0.1958147488
 40
0.2311971044
 40
0.2670844969
 40
0.3033528882
 40
0.3398733909
 40
0.3765139624
 40
0.4131410767
 40
0.4496213756
 40
0.4858233214
 40
0.5216188555
 40
0.5568851258
 40
0.5915062585
 40
0.6253751819
 40
0.6583956116
 40
0.6904841309
 40
0.7215723833
 40
0.7516094892
 40
0.7805645428
 40
0.8084291587
 40
0.8352200476
 40
0.8609812186
 40
0.8857855596
 40
0.9097354436
 40
0.9214344203
 40
0.9329710538
 40
0.9443657524
 40
0.9556400927
 40
0.9668169424
 40
0.9779193446
 40
0.9889715592
 40
1.0
 40
1.0
 40
1.0
 40
1.0
 10
16.5111829954
 20
13.0312721996
 30
0.0
 10
16.4976736349
 20
13.0464895851
 30
0.0
 10
16.4691414063
 20
13.0765319918
 30
0.0
 10
16.4229306601
 20
13.1195693558
 30
0.0
 10
16.3728070134
 20
13.1611560999
 30
0.0
 10
16.3190434842
 20
13.2010781049
 30
0.0
 10
16.26192906
 20
13.2391300682
 30
0.0
 10
16.2017726903
 20
13.2751127873
 30
0.0
 10
16.1389001909
 20
13.3088360869
 30
0.0
 10
16.0736531061
 20
13.3401201322
 30
0.0
 10
16.0063866068
 20
13.3687969206
 30
0.0
 10
15.937467464
 20
13.3947115746
 30
0.0
 10
15.8672718224
 20
13.4177234647
 30
0.0
 10
15.7961828982
 20
13.4377071858
 30
0.0
 10
15.7245885929
 20
13.454553366
 30
0.0
 10
15.6528790717
 20
13.4681693034
 30
0.0
 10
15.5814443034
 20
13.4784794349
 30
0.0
 10
15.5106715922
 20
13.4854256032
 30
0.0
 10
15.4409431423
 20
13.4889671313
 30
0.0
 10
15.3726336698
 20
13.4890806599
 30
0.0
 10
15.3061081263
 20
13.4857597346
 30
0.0
 10
15.2417196085
 20
13.4790141318
 30
0.0
 10
15.1798075573
 20
13.4688688846
 30
0.0
 10
15.1206964041
 20
13.4553630419
 30
0.0
 10
15.064694924
 20
13.4385482939
 30
0.0
 10
15.012096375
 20
13.4184874331
 30
0.0
 10
14.9631803775
 20
13.3952538703
 30
0.0
 10
14.918214299
 20
13.3689301774
 30
0.0
 10
14.8774621923
 20
13.339616143
 30
0.0
 10
14.8469826578
 20
13.3125709958
 30
0.0
 10
14.8250680983
 20
13.2895917619
 30
0.0
 10
14.8099695381
 20
13.2718358521
 30
0.0
 10
14.7961137127
 20
13.2534503989
 30
0.0
 10
14.783527132
 20
13.2344626228
 30
0.0
 10
14.7722381361
 20
13.2149021125
 30
0.0
 10
14.7622693488
 20
13.1948028389
 30
0.0
 10
14.7536443371
 20
13.1742002465
 30
0.0
 10
14.7487988398
 20
13.1601474599
 30
0.0
 10
14.7466086181
 20
13.1530599
 30
0.0
  0
SPLINE
  5
2E2
100
AcDbEntity
  8
0
100
AcDbSpline
 62
7
  6
CONTINUOUS
 70
0
 71
3
 72
9
 73
5
 74
0
 42
0.0000001
 43
0.0000001
 44
0.0000000001
 40
0.0
 40
0.0
 40
0.0
 40
0.0
 40
0.2455247657
 40
1.0
 40
1.0
 40
1.0
 40
1.0
 10
17.1792398169
 20
12.1937952125
 30
0.0
 10
17.1775582499
 20
12.1940478902
 30
0.0
 10
17.1706895029
 20
12.1949419399
 30
0.0
 10
17.1637537566
 20
12.1953049874
 30
0.0
 10
17.1585284437
 20
12.1953049874
 30
0.0
  0
SPLINE
  5
2E3
100
AcDbEntity
  8
0
100
AcDbSpline
 62
7
  6
CONTINUOUS
 70
0
 71
3
 72
25
 73
21
 74
0
 42
0.0000001
 43
0.0000001
 44
0.0000000001
 40
0.0
 40
0.0
 40
0.0
 40
0.0
 40
0.0253628532
 40
0.0507210108
 40
0.0761883124
 40
0.1018748869
 40
0.1278840841
 40
0.1543088817
 40
0.2086676698
 40
0.2654827848
 40
0.3249942674
 40
0.3872149461
 40
0.4519577368
 40
0.518870162
 40
0.5874713782
 40
0.6571876191
 40
0.7273866885
 40
0.797411316
 40
0.8666146284
 40
1.0
 40
1.0
 40
1.0
 40
1.0
 10
17.1769242685
 20
12.2644912125
 30
0.0
 10
17.1780379712
 20
12.2627034851
 30
0.0
 10
17.1800936504
 20
12.2590181132
 30
0.0
 10
17.1826289263
 20
12.2532108847
 30
0.0
 10
17.1845988408
 20
12.2471595511
 30
0.0
 10
17.1859944415
 20
12.2408956806
 30
0.0
 10
17.1868080793
 20
12.2344498144
 30
0.0
 10
17.187117028
 20
12.2255763002
 30
0.0
 10
17.1859904474
 20
12.2141446147
 30
0.0
 10
17.1823334111
 20
12.2003938221
 30
0.0
 10
17.176445276
 20
12.1867321223
 30
0.0
 10
17.1684487507
 20
12.1734213399
 30
0.0
 10
17.1585034084
 20
12.16071203
 30
0.0
 10
17.1468035627
 20
12.1488455345
 30
0.0
 10
17.1335761795
 20
12.1380480212
 30
0.0
 10
17.1190765534
 20
12.1285261719
 30
0.0
 10
17.1035863863
 20
12.1204633706
 30
0.0
 10
17.087398464
 20
12.1140138785
 30
0.0
 10
17.0656019488
 20
12.1078148828
 30
0.0
 10
17.0487196769
 20
12.1057547128
 30
0.0
 10
17.0376427141
 20
12.1057547128
 30
0.0
  0
SPLINE
  5
2E4
100
AcDbEntity
  8
0
100
AcDbSpline
 62
7
  6
CONTINUOUS
 70
0
 71
3
 72
35
 73
31
 74
0
 42
0.0000001
 43
0.0000001
 44
0.0000000001
 40
0.0
 40
0.0
 40
0.0
 40
0.0
 40
0.0310450129
 40
0.0620800036
 40
0.0931070282
 40
0.12413124
 40
0.1551543281
 40
0.1861786215
 40
0.2172064587
 40
0.2482403186
 40
0.2792876712
 40
0.3103568628
 40
0.3414537534
 40
0.3725886829
 40
0.4037729559
 40
0.4350213022
 40
0.4663426278
 40
0.4977385379
 40
0.5606906933
 40
0.6238622646
 40
0.655507562
 40
0.6871393366
 40
0.7187338415
 40
0.7502711036
 40
0.8130595313
 40
0.8755422018
 40
0.9067188492
 40
0.9378454561
 40
0.9689386723
 40
1.0
 40
1.0
 40
1.0
 40
1.0
 10
16.0080346912
 20
12.9748013871
 30
0.0
 10
16.008681202
 20
12.9768934968
 30
0.0
 10
16.01019538
 20
12.981012402
 30
0.0
 10
16.0131092265
 20
12.9869111382
 30
0.0
 10
16.0166391799
 20
12.9924625654
 30
0.0
 10
16.0207483046
 20
12.9975989233
 30
0.0
 10
16.0253901839
 20
13.0022592294
 30
0.0
 10
16.0305101337
 20
13.0063889219
 30
0.0
 10
16.0360471233
 20
13.0099411585
 30
0.0
 10
16.0419346819
 20
13.0128791355
 30
0.0
 10
16.0481035642
 20
13.0151757963
 30
0.0
 10
16.0544833117
 20
13.0168136833
 30
0.0
 10
16.0610037737
 20
13.0177849876
 30
0.0
 10
16.0675967556
 20
13.0180912515
 30
0.0
 10
16.0741978194
 20
13.0177406002
 30
0.0
 10
16.0807460252
 20
13.0167484566
 30
0.0
 10
16.0871848738
 20
13.015135023
 30
0.0
 10
16.0955555053
 20
13.0121867674
 30
0.0
 10
16.1054900858
 20
13.0070707209
 30
0.0
 10
16.1143801686
 20
13.0002775019
 30
0.0
 10
16.1207085675
 20
12.9939793696
 30
0.0
 10
16.1250284635
 20
12.9888574137
 30
0.0
 10
16.1288789895
 20
12.9833829426
 30
0.0
 10
16.1333315129
 20
12.975686847
 30
0.0
 10
16.1375635485
 20
12.965397975
 30
0.0
 10
16.1398086025
 20
12.9545202445
 30
0.0
 10
16.1403142871
 20
12.9457209991
 30
0.0
 10
16.1400369092
 20
12.9391275402
 30
0.0
 10
16.1390932843
 20
12.9326051141
 30
0.0
 10
16.1380187001
 20
12.9283451016
 30
0.0
 10
16.1373718496
 20
12.9262518925
 30
0.0
  0
SPLINE
  5
2E5
100
AcDbEntity
  8
0
100
AcDbSpline
 62
7
  6
CONTINUOUS
 70
0
 71
3
 72
35
 73
31
 74
0
 42
0.0000001
 43
0.0000001
 44
0.0000000001
 40
0.0
 40
0.0
 40
0.0
 40
0.0
 40
0.0310450129
 40
0.0620800036
 40
0.0931070282
 40
0.12413124
 40
0.1551543281
 40
0.1861786215
 40
0.2172064587
 40
0.2482403186
 40
0.2792876712
 40
0.3103568628
 40
0.3414537534
 40
0.3725886829
 40
0.4037729559
 40
0.4350213022
 40
0.4663426278
 40
0.4977385379
 40
0.5606906933
 40
0.6238622646
 40
0.655507562
 40
0.6871393366
 40
0.7187338415
 40
0.7502711036
 40
0.8130595313
 40
0.8755422018
 40
0.9067188492
 40
0.9378454561
 40
0.9689386723
 40
1.0
 40
1.0
 40
1.0
 40
1.0
 10
16.1373718496
 20
12.9262518925
 30
0.0
 10
16.1367253388
 20
12.9241597828
 30
0.0
 10
16.1352111607
 20
12.9200408777
 30
0.0
 10
16.1322973143
 20
12.9141421414
 30
0.0
 10
16.1287673609
 20
12.9085907142
 30
0.0
 10
16.1246582362
 20
12.9034543563
 30
0.0
 10
16.1200163569
 20
12.8987940502
 30
0.0
 10
16.1148964071
 20
12.8946643577
 30
0.0
 10
16.1093594175
 20
12.8911121211
 30
0.0
 10
16.1034718589
 20
12.8881741442
 30
0.0
 10
16.0973029766
 20
12.8858774833
 30
0.0
 10
16.090923229
 20
12.8842395963
 30
0.0
 10
16.084402767
 20
12.883268292
 30
0.0
 10
16.0778097852
 20
12.8829620281
 30
0.0
 10
16.0712087213
 20
12.8833126795
 30
0.0
 10
16.0646605156
 20
12.884304823
 30
0.0
 10
16.058221667
 20
12.8859182566
 30
0.0
 10
16.0498510355
 20
12.8888665123
 30
0.0
 10
16.039916455
 20
12.8939825587
 30
0.0
 10
16.0310263722
 20
12.9007757777
 30
0.0
 10
16.0246979732
 20
12.90707391
 30
0.0
 10
16.0203780773
 20
12.9121958659
 30
0.0
 10
16.0165275512
 20
12.917670337
 30
0.0
 10
16.0120750279
 20
12.9253664327
 30
0.0
 10
16.0078429923
 20
12.9356553046
 30
0.0
 10
16.0055979383
 20
12.9465330351
 30
0.0
 10
16.0050922537
 20
12.9553322805
 30
0.0
 10
16.0053696316
 20
12.9619257394
 30
0.0
 10
16.0063132565
 20
12.9684481655
 30
0.0
 10
16.0073878407
 20
12.972708178
 30
0.0
 10
16.0080346912
 20
12.9748013871
 30
0.0
  0
SPLINE
  5
2E6
100
AcDbEntity
  8
0
100
AcDbSpline
 62
7
  6
CONTINUOUS
 70
0
 71
3
 72
16
 73
12
 74
0
 42
0.0000001
 43
0.0000001
 44
0.0000000001
 40
0.0
 40
0.0
 40
0.0
 40
0.0
 40
0.1219376627
 40
0.2480199477
 40
0.3767366791
 40
0.5063617366
 40
0.6351036006
 40
0.6986303658
 40
0.7613034914
 40
0.8833065692
 40
1.0
 40
1.0
 40
1.0
 40
1.0
 10
14.3953454617
 20
12.1953049874
 30
0.0
 10
14.3879788222
 20
12.1953049874
 30
0.0
 10
14.3729784335
 20
12.1941994094
 30
0.0
 10
14.3506452723
 20
12.1895152797
 30
0.0
 10
14.32863703
 20
12.1819099003
 30
0.0
 10
14.307584075
 20
12.1716010632
 30
0.0
 10
14.2912496231
 20
12.1609478026
 30
0.0
 10
14.2791990409
 20
12.1513411373
 30
0.0
 10
14.2680971236
 20
12.1412483342
 30
0.0
 10
14.2558624005
 20
12.127686942
 30
0.0
 10
14.2478025768
 20
12.1156509599
 30
0.0
 10
14.2443692647
 20
12.1094936623
 30
0.0
  0
SPLINE
  5
2E7
100
AcDbEntity
  8
0
100
AcDbSpline
 62
7
  6
CONTINUOUS
 70
0
 71
3
 72
18
 73
14
 74
0
 42
0.0000001
 43
0.0000001
 44
0.0000000001
 40
0.0
 40
0.0
 40
0.0
 40
0.0
 40
0.1421338277
 40
0.2787674246
 40
0.4096944328
 40
0.5350954598
 40
0.6555776093
 40
0.7143342477
 40
0.7722841414
 40
0.829615148
 40
0.8865327725
 40
0.9432535339
 40
1.0
 40
1.0
 40
1.0
 40
1.0
 10
14.2744597321
 20
12.1057547128
 30
0.0
 10
14.2695323363
 20
12.1057547128
 30
0.0
 10
14.2598575624
 20
12.1062820631
 30
0.0
 10
14.2458342574
 20
12.1087458822
 30
0.0
 10
14.2327943922
 20
12.1128331758
 30
0.0
 10
14.2209645185
 20
12.1184813513
 30
0.0
 10
14.2122069154
 20
12.1244734914
 30
0.0
 10
14.2060513243
 20
12.1299380018
 30
0.0
 10
14.2018929173
 20
12.1343202956
 30
0.0
 10
14.1981755765
 20
12.1390011995
 30
0.0
 10
14.1949144013
 20
12.1439601515
 30
0.0
 10
14.1921250287
 20
12.149175586
 30
0.0
 10
14.1905892706
 20
12.1528039057
 30
0.0
 10
14.1899049397
 20
12.1546482892
 30
0.0
  0
SPLINE
  5
2E8
100
AcDbEntity
  8
0
100
AcDbSpline
 62
7
  6
CONTINUOUS
 70
0
 71
3
 72
27
 73
23
 74
0
 42
0.0000001
 43
0.0000001
 44
0.0000000001
 40
0.0
 40
0.0
 40
0.0
 40
0.0
 40
0.0674739883
 40
0.1362815147
 40
0.2059386275
 40
0.2759197865
 40
0.345688831
 40
0.4147173924
 40
0.4825085045
 40
0.5486192189
 40
0.612683806
 40
0.6744381016
 40
0.7337438513
 40
0.7906116595
 40
0.8181987183
 40
0.845257979
 40
0.8718390605
 40
0.8980025037
 40
0.9238183798
 40
0.9493654047
 40
0.9747291679
 40
1.0
 40
1.0
 40
1.0
 40
1.0
 10
14.301315798
 20
12.3975740935
 30
0.0
 10
14.2912085002
 20
12.3964023779
 30
0.0
 10
14.2709021673
 20
12.3929936119
 30
0.0
 10
14.2408673025
 20
12.384929066
 30
0.0
 10
14.211354322
 20
12.3739802648
 30
0.0
 10
14.1828345407
 20
12.3603212131
 30
0.0
 10
14.1557588112
 20
12.3441686208
 30
0.0
 10
14.1305566576
 20
12.3257777668
 30
0.0
 10
14.1076277688
 20
12.3054387705
 30
0.0
 10
14.0873362813
 20
12.2834713657
 30
0.0
 10
14.0700054004
 20
12.2602201726
 30
0.0
 10
14.0559130081
 20
12.2360469941
 30
0.0
 10
14.0452896171
 20
12.2113326176
 30
0.0
 10
14.039416848
 20
12.190384413
 30
0.0
 10
14.0366687589
 20
12.1737808502
 30
0.0
 10
14.0355792253
 20
12.1615680347
 30
0.0
 10
14.035447231
 20
12.1495219196
 30
0.0
 10
14.0362729541
 20
12.1376906061
 30
0.0
 10
14.0380544901
 20
12.1261223563
 30
0.0
 10
14.0407848413
 20
12.1148639857
 30
0.0
 10
14.0444529057
 20
12.1039626023
 30
0.0
 10
14.0475169051
 20
12.0969560158
 30
0.0
 10
14.049195749
 20
12.0935349427
 30
0.0
  0
SPLINE
  5
2E9
100
AcDbEntity
  8
0
100
AcDbSpline
 62
7
  6
CONTINUOUS
 70
0
 71
3
 72
11
 73
7
 74
0
 42
0.0000001
 43
0.0000001
 44
0.0000000001
 40
0.0
 40
0.0
 40
0.0
 40
0.0
 40
0.2278656169
 40
0.4694381588
 40
0.7269955125
 40
1.0
 40
1.0
 40
1.0
 40
1.0
 10
13.8786321623
 20
11.7086583176
 30
0.0
 10
13.8782991968
 20
11.70933683
 30
0.0
 10
13.8777983184
 20
11.7108309914
 30
0.0
 10
13.8775713382
 20
11.7132480538
 30
0.0
 10
13.8778096777
 20
11.7158098165
 30
0.0
 10
13.8782319646
 20
11.7175243074
 30
0.0
 10
13.8784993431
 20
11.7183894612
 30
0.0
  0
SPLINE
  5
2EA
100
AcDbEntity
  8
0
100
AcDbSpline
 62
7
  6
CONTINUOUS
 70
0
 71
3
 72
27
 73
23
 74
0
 42
0.0000001
 43
0.0000001
 44
0.0000000001
 40
0.0
 40
0.0
 40
0.0
 40
0.0
 40
0.0252708639
 40
0.0506346612
 40
0.0761817213
 40
0.1019976333
 40
0.1281611105
 40
0.1547422227
 40
0.1818015091
 40
0.2093885856
 40
0.2662564077
 40
0.3255621366
 40
0.3873163744
 40
0.4513808762
 40
0.5174914952
 40
0.5852825153
 40
0.65431099
 40
0.7240799705
 40
0.7940611258
 40
0.8637183022
 40
0.9325259257
 40
1.0
 40
1.0
 40
1.0
 40
1.0
 10
17.3424883942
 20
12.274955587
 30
0.0
 10
17.3441672407
 20
12.2715345098
 30
0.0
 10
17.3472312435
 20
12.2645279139
 30
0.0
 10
17.3508993106
 20
12.2536265153
 30
0.0
 10
17.3536296632
 20
12.2423681286
 30
0.0
 10
17.3554111956
 20
12.2307998622
 30
0.0
 10
17.3562369144
 20
12.2189685332
 30
0.0
 10
17.3561049142
 20
12.2069224044
 30
0.0
 10
17.3550153697
 20
12.1947095787
 30
0.0
 10
17.3522672735
 20
12.1781060083
 30
0.0
 10
17.3463944893
 20
12.157157806
 30
0.0
 10
17.3357710897
 20
12.1324434442
 30
0.0
 10
17.3216786997
 20
12.1082702931
 30
0.0
 10
17.3043478347
 20
12.0850191334
 30
0.0
 10
17.284056374
 20
12.0630517602
 30
0.0
 10
17.2611275175
 20
12.0427127899
 30
0.0
 10
17.2359253969
 20
12.0243219529
 30
0.0
 10
17.2088496919
 20
12.0081693653
 30
0.0
 10
17.1803299156
 20
11.9945103049
 30
0.0
 10
17.1508169159
 20
11.9835614869
 30
0.0
 10
17.1207820165
 20
11.9754969258
 30
0.0
 10
17.1004756564
 20
11.9720881536
 30
0.0
 10
17.0903683458
 20
11.9709164365
 30
0.0
  0
SPLINE
  5
2EB
100
AcDbEntity
  8
0
100
AcDbSpline
 62
7
  6
CONTINUOUS
 70
0
 71
3
 72
19
 73
15
 74
0
 42
0.0000001
 43
0.0000001
 44
0.0000000001
 40
0.0
 40
0.0
 40
0.0
 40
0.0
 40
0.0575599239
 40
0.1152629994
 40
0.1732497372
 40
0.2316555912
 40
0.2906086185
 40
0.3502275901
 40
0.4718179673
 40
0.5972053746
 40
0.7268794534
 40
0.7934388923
 40
0.8611595208
 40
1.0
 40
1.0
 40
1.0
 40
1.0
 10
14.049195749
 20
12.0935349427
 30
0.0
 10
14.0505751426
 20
12.0907240761
 30
0.0
 10
14.0535416548
 20
12.0851929817
 30
0.0
 10
14.0585869865
 20
12.077223876
 30
0.0
 10
14.0642161156
 20
12.0695980834
 30
0.0
 10
14.0704136672
 20
12.0623374877
 30
0.0
 10
14.0771625688
 20
12.0554611265
 30
0.0
 10
14.0869324701
 20
12.0467755156
 30
0.0
 10
14.1004859496
 20
12.0369685065
 30
0.0
 10
14.1185010247
 20
12.0271086586
 30
0.0
 10
14.1347644457
 20
12.0205507636
 30
0.0
 10
14.1484795305
 20
12.016282145
 30
0.0
 10
14.1628843235
 20
12.0126229969
 30
0.0
 10
14.1739800643
 20
12.0107029083
 30
0.0
 10
14.1814743604
 20
12.0097670595
 30
0.0
  0
SPLINE
  5
2EC
100
AcDbEntity
  8
0
100
AcDbSpline
 62
7
  6
CONTINUOUS
 70
0
 71
3
 72
9
 73
5
 74
0
 42
0.0000001
 43
0.0000001
 44
0.0000000001
 40
0.0
 40
0.0
 40
0.0
 40
0.0
 40
0.4934822769
 40
1.0
 40
1.0
 40
1.0
 40
1.0
 10
16.0006380406
 20
13.000749482
 30
0.0
 10
16.0041446421
 20
13.0007937503
 30
0.0
 10
16.0112602971
 20
13.0004780473
 30
0.0
 10
16.0182998066
 20
12.9994067362
 30
0.0
 10
16.0218268047
 20
12.9986878483
 30
0.0
  0
SPLINE
  5
2ED
100
AcDbEntity
  8
0
100
AcDbSpline
 62
7
  6
CONTINUOUS
 70
0
 71
3
 72
15
 73
11
 74
0
 42
0.0000001
 43
0.0000001
 44
0.0000000001
 40
0.0
 40
0.0
 40
0.0
 40
0.0
 40
0.1250886006
 40
0.2478001143
 40
0.3692806726
 40
0.4907955671
 40
0.6136067084
 40
0.7388507269
 40
0.8674400284
 40
1.0
 40
1.0
 40
1.0
 40
1.0
 10
16.1199489812
 20
12.85443877
 30
0.0
 10
16.1188087258
 20
12.8507489021
 30
0.0
 10
16.115990825
 20
12.8435963274
 30
0.0
 10
16.1101429743
 20
12.8337521875
 30
0.0
 10
16.1028207766
 20
12.8250877456
 30
0.0
 10
16.0941553442
 20
12.8177629983
 30
0.0
 10
16.084303433
 20
12.8119070245
 30
0.0
 10
16.0734422464
 20
12.8076196613
 30
0.0
 10
16.0617674529
 20
12.8049695338
 30
0.0
 10
16.0536991935
 20
12.8043301076
 30
0.0
 10
16.0496068114
 20
12.8042784444
 30
0.0
  0
SPLINE
  5
2EE
100
AcDbEntity
  8
0
100
AcDbSpline
 62
7
  6
CONTINUOUS
 70
0
 71
3
 72
14
 73
10
 74
0
 42
0.0000001
 43
0.0000001
 44
0.0000000001
 40
0.0
 40
0.0
 40
0.0
 40
0.0
 40
0.1151560352
 40
0.2356843947
 40
0.3599167035
 40
0.4865517215
 40
0.6145984635
 40
0.7432792819
 40
1.0
 40
1.0
 40
1.0
 40
1.0
 10
13.8784993431
 20
11.7183894612
 30
0.0
 10
13.8788833299
 20
11.7196319236
 30
0.0
 10
13.8798814498
 20
11.7221110549
 30
0.0
 10
13.8818547221
 20
11.7256724739
 30
0.0
 10
13.8842423665
 20
11.7291278228
 30
0.0
 10
13.8869605153
 20
11.7324379265
 30
0.0
 10
13.8899456936
 20
11.7355784831
 30
0.0
 10
13.8942105381
 20
11.7395107749
 30
0.0
 10
13.8976796565
 20
11.7421622945
 30
0.0
 10
13.9000842986
 20
11.7437817396
 30
0.0
  0
SPLINE
  5
2EF
100
AcDbEntity
  8
0
100
AcDbSpline
 62
7
  6
CONTINUOUS
 70
0
 71
3
 72
24
 73
20
 74
0
 42
0.0000001
 43
0.0000001
 44
0.0000000001
 40
0.0
 40
0.0
 40
0.0
 40
0.0
 40
0.0251438444
 40
0.0504917823
 40
0.076133139
 40
0.1021488867
 40
0.1555368778
 40
0.2111391125
 40
0.2692007871
 40
0.3297802214
 40
0.3927672886
 40
0.4579083034
 40
0.5248335883
 40
0.5930852264
 40
0.6621428546
 40
0.7314497737
 40
0.8004380748
 40
0.86855458
 40
1.0
 40
1.0
 40
1.0
 40
1.0
 10
14.1899049397
 20
12.1546482892
 30
0.0
 10
14.1892168736
 20
12.1565027396
 30
0.0
 10
14.1880035141
 20
12.1602915631
 30
0.0
 10
14.1866908336
 20
12.1661426327
 30
0.0
 10
14.1858862337
 20
12.1721546667
 30
0.0
 10
14.1854901497
 20
12.1804171294
 30
0.0
 10
14.186313045
 20
12.191055682
 30
0.0
 10
14.189325347
 20
12.2038940193
 30
0.0
 10
14.1943076501
 20
12.2167083079
 30
0.0
 10
14.2011683497
 20
12.2292826052
 30
0.0
 10
14.2097868703
 20
12.2414091036
 30
0.0
 10
14.2200152019
 20
12.2528859656
 30
0.0
 10
14.2316793648
 20
12.2635216996
 30
0.0
 10
14.2445816055
 20
12.2731380544
 30
0.0
 10
14.2585039676
 20
12.2815734058
 30
0.0
 10
14.2732096171
 20
12.2886852733
 30
0.0
 10
14.2884550706
 20
12.2943542753
 30
0.0
 10
14.3088881899
 20
12.2997913272
 30
0.0
 10
14.3246359315
 20
12.3015864402
 30
0.0
 10
14.334976313
 20
12.3015864402
 30
0.0
  0
SPLINE
  5
2F0
100
AcDbEntity
  8
0
100
AcDbSpline
 62
7
  6
CONTINUOUS
 70
0
 71
3
 72
15
 73
11
 74
0
 42
0.0000001
 43
0.0000001
 44
0.0000000001
 40
0.0
 40
0.0
 40
0.0
 40
0.0
 40
0.1404265678
 40
0.2762464244
 40
0.4072283866
 40
0.5334187755
 40
0.6550988411
 40
0.7728326141
 40
0.8874465627
 40
1.0
 40
1.0
 40
1.0
 40
1.0
 10
17.098159295
 20
12.3015864402
 30
0.0
 10
17.1024114705
 20
12.3015864402
 30
0.0
 10
17.1107829474
 20
12.3011923591
 30
0.0
 10
17.1229994161
 20
12.2993612687
 30
0.0
 10
17.1345304164
 20
12.2963187864
 30
0.0
 10
17.1452291259
 20
12.2921004102
 30
0.0
 10
17.154959636
 20
12.2867542384
 30
0.0
 10
17.1635958543
 20
12.2803427493
 30
0.0
 10
17.1710209
 20
12.2729464418
 30
0.0
 10
17.1751221665
 20
12.2673839655
 30
0.0
 10
17.1769242685
 20
12.2644912125
 30
0.0
  0
SPLINE
  5
2F1
100
AcDbEntity
  8
0
100
AcDbSpline
 62
7
  6
CONTINUOUS
 70
0
 71
3
 72
27
 73
23
 74
0
 42
0.0000001
 43
0.0000001
 44
0.0000000001
 40
0.0
 40
0.0
 40
0.0
 40
0.0
 40
0.0674739883
 40
0.1362815147
 40
0.2059386275
 40
0.2759197865
 40
0.345688831
 40
0.4147173924
 40
0.4825085045
 40
0.5486192189
 40
0.612683806
 40
0.6744381016
 40
0.7337438513
 40
0.7906116595
 40
0.8181987183
 40
0.845257979
 40
0.8718390605
 40
0.8980025037
 40
0.9238183798
 40
0.9493654047
 40
0.9747291679
 40
1.0
 40
1.0
 40
1.0
 40
1.0
 10
17.0713032291
 20
12.0097670595
 30
0.0
 10
17.0814105269
 20
12.0109387751
 30
0.0
 10
17.1017168598
 20
12.0143475411
 30
0.0
 10
17.1317517246
 20
12.022412087
 30
0.0
 10
17.1612647051
 20
12.0333608882
 30
0.0
 10
17.1897844864
 20
12.0470199399
 30
0.0
 10
17.2168602159
 20
12.0631725322
 30
0.0
 10
17.2420623695
 20
12.0815633862
 30
0.0
 10
17.2649912584
 20
12.1019023826
 30
0.0
 10
17.2852827458
 20
12.1238697874
 30
0.0
 10
17.3026136268
 20
12.1471209804
 30
0.0
 10
17.316706019
 20
12.1712941589
 30
0.0
 10
17.32732941
 20
12.1960085355
 30
0.0
 10
17.3332021791
 20
12.21695674
 30
0.0
 10
17.3359502682
 20
12.2335603028
 30
0.0
 10
17.3370398018
 20
12.2457731184
 30
0.0
 10
17.3371717962
 20
12.2578192334
 30
0.0
 10
17.336346073
 20
12.269650547
 30
0.0
 10
17.3345645371
 20
12.2812187967
 30
0.0
 10
17.3318341858
 20
12.2924771673
 30
0.0
 10
17.3281661214
 20
12.3033785507
 30
0.0
 10
17.325102122
 20
12.3103851372
 30
0.0
 10
17.3234232781
 20
12.3138062103
 30
0.0
  0
SPLINE
  5
2F2
100
AcDbEntity
  8
0
100
AcDbSpline
 62
7
  6
CONTINUOUS
 70
0
 71
3
 72
20
 73
16
 74
0
 42
0.0000001
 43
0.0000001
 44
0.0000000001
 40
0.0
 40
0.0
 40
0.0
 40
0.0
 40
0.1303412389
 40
0.196559087
 40
0.2631076802
 40
0.3960396804
 40
0.4619616849
 40
0.5271526421
 40
0.5913739904
 40
0.6544099034
 40
0.7761169165
 40
0.834622783
 40
0.8914333792
 40
0.9465416008
 40
1.0
 40
1.0
 40
1.0
 40
1.0
 10
16.7916173162
 20
12.3952619545
 30
0.0
 10
16.7768195164
 20
12.3927398062
 30
0.0
 10
16.7547430975
 20
12.3873178302
 30
0.0
 10
16.7261777645
 20
12.377161435
 30
0.0
 10
16.698075886
 20
12.3650041108
 30
0.0
 10
16.671269072
 20
12.3500951693
 30
0.0
 10
16.6463006938
 20
12.3327048527
 30
0.0
 10
16.6287484744
 20
12.3186038036
 30
0.0
 10
16.6124720484
 20
12.3035296364
 30
0.0
 10
16.5928929615
 20
12.2825594312
 30
0.0
 10
16.576096028
 20
12.2599616106
 30
0.0
 10
16.5626982241
 20
12.2361459812
 30
0.0
 10
16.5546139008
 20
12.2182290917
 30
0.0
 10
16.5484369572
 20
12.2001828601
 30
0.0
 10
16.5455842694
 20
12.1879819488
 30
0.0
 10
16.5445075926
 20
12.181920102
 30
0.0
  0
LINE
  5
2F3
100
AcDbEntity
  8
0
100
AcDbLine
 62
7
  6
CONTINUOUS
 10
14.1498943219
 20
12.5953179684
 11
14.1504169481
 21
12.5952025275
  0
SPLINE
  5
2F4
100
AcDbEntity
  8
0
100
AcDbSpline
 62
7
  6
CONTINUOUS
 70
0
 71
3
 72
16
 73
12
 74
0
 42
0.0000001
 43
0.0000001
 44
0.0000000001
 40
0.0
 40
0.0
 40
0.0
 40
0.0
 40
0.0298909636
 40
0.0649854853
 40
0.1051635575
 40
0.150209918
 40
0.2540565841
 40
0.3748648556
 40
0.5110721533
 40
0.6614367659
 40
1.0
 40
1.0
 40
1.0
 40
1.0
 10
14.1504169481
 20
12.5952025275
 30
0.0
 10
14.1505442471
 20
12.5951539684
 30
0.0
 10
14.1508132128
 20
12.5950280193
 30
0.0
 10
14.1512275344
 20
12.594786279
 30
0.0
 10
14.1516826805
 20
12.5944797592
 30
0.0
 10
14.1523736067
 20
12.593964266
 30
0.0
 10
14.1533156275
 20
12.5931730346
 30
0.0
 10
14.1545235964
 20
12.5920561418
 30
0.0
 10
14.1558422367
 20
12.5907483189
 30
0.0
 10
14.1578102758
 20
12.5886874036
 30
0.0
 10
14.1592948085
 20
12.5870242697
 30
0.0
 10
14.1603055962
 20
12.5858581674
 30
0.0
  0
SPLINE
  5
2F5
100
AcDbEntity
  8
0
100
AcDbSpline
 62
7
  6
CONTINUOUS
 70
0
 71
3
 72
24
 73
20
 74
0
 42
0.0000001
 43
0.0000001
 44
0.0000000001
 40
0.0
 40
0.0
 40
0.0
 40
0.0
 40
0.0251438444
 40
0.0504917823
 40
0.076133139
 40
0.1021488867
 40
0.1555368778
 40
0.2111391125
 40
0.2692007871
 40
0.3297802214
 40
0.3927672886
 40
0.4579083034
 40
0.5248335883
 40
0.5930852264
 40
0.6621428546
 40
0.7314497737
 40
0.8004380748
 40
0.86855458
 40
1.0
 40
1.0
 40
1.0
 40
1.0
 10
16.6652563611
 20
12.1546482892
 30
0.0
 10
16.664568295
 20
12.1565027396
 30
0.0
 10
16.6633549355
 20
12.1602915631
 30
0.0
 10
16.662042255
 20
12.1661426327
 30
0.0
 10
16.6612376551
 20
12.1721546667
 30
0.0
 10
16.6608415711
 20
12.1804171294
 30
0.0
 10
16.6616644664
 20
12.191055682
 30
0.0
 10
16.6646767683
 20
12.2038940193
 30
0.0
 10
16.6696590715
 20
12.2167083079
 30
0.0
 10
16.6765197711
 20
12.2292826052
 30
0.0
 10
16.6851382917
 20
12.2414091036
 30
0.0
 10
16.6953666233
 20
12.2528859656
 30
0.0
 10
16.7070307862
 20
12.2635216996
 30
0.0
 10
16.7199330268
 20
12.2731380544
 30
0.0
 10
16.733855389
 20
12.2815734058
 30
0.0
 10
16.7485610385
 20
12.2886852733
 30
0.0
 10
16.7638064919
 20
12.2943542753
 30
0.0
 10
16.7842396113
 20
12.2997913272
 30
0.0
 10
16.7999873529
 20
12.3015864402
 30
0.0
 10
16.8103277344
 20
12.3015864402
 30
0.0
  0
SPLINE
  5
2F6
100
AcDbEntity
  8
0
100
AcDbSpline
 62
7
  6
CONTINUOUS
 70
0
 71
3
 72
9
 73
5
 74
0
 42
0.0000001
 43
0.0000001
 44
0.0000000001
 40
0.0
 40
0.0
 40
0.0
 40
0.0
 40
0.5205961982
 40
1.0
 40
1.0
 40
1.0
 40
1.0
 10
16.7042445489
 20
11.9764914072
 30
0.0
 10
16.7028363412
 20
11.9774527041
 30
0.0
 10
16.7002403369
 20
11.9794653293
 30
0.0
 10
16.6979369836
 20
11.9818135883
 30
0.0
 10
16.696937269
 20
11.9830243133
 30
0.0
  0
SPLINE
  5
2F7
100
AcDbEntity
  8
0
100
AcDbSpline
 62
7
  6
CONTINUOUS
 70
0
 71
3
 72
13
 73
9
 74
0
 42
0.0000001
 43
0.0000001
 44
0.0000000001
 40
0.0
 40
0.0
 40
0.0
 40
0.0
 40
0.2649170217
 40
0.5227094444
 40
0.6478007459
 40
0.7695223143
 40
0.8871764435
 40
1.0
 40
1.0
 40
1.0
 40
1.0
 10
17.5106649619
 20
12.5858581674
 30
0.0
 10
17.5126940858
 20
12.5872247137
 30
0.0
 10
17.5168378494
 20
12.5897194484
 30
0.0
 10
17.522284118
 20
12.5922312771
 30
0.0
 10
17.5266906571
 20
12.5937570658
 30
0.0
 10
17.5299480809
 20
12.5946187458
 30
0.0
 10
17.533156899
 20
12.5951753152
 30
0.0
 10
17.5352864467
 20
12.5953179562
 30
0.0
 10
17.536328319
 20
12.5953179683
 30
0.0
  0
SPLINE
  5
2F8
100
AcDbEntity
  8
0
100
AcDbSpline
 62
7
  6
CONTINUOUS
 70
0
 71
3
 72
17
 73
13
 74
0
 42
0.0000001
 43
0.0000001
 44
0.0000000001
 40
0.0
 40
0.0
 40
0.0
 40
0.0
 40
0.0520344194
 40
0.110837521
 40
0.1745945482
 40
0.2415983587
 40
0.3797856677
 40
0.517424033
 40
0.6502263403
 40
0.7758585012
 40
0.8928671311
 40
1.0
 40
1.0
 40
1.0
 40
1.0
 10
17.2750445777
 20
11.7086583176
 30
0.0
 10
17.2747162822
 20
11.7093273134
 30
0.0
 10
17.2739829873
 20
11.7107356788
 30
0.0
 10
17.27275705
 20
11.7129152814
 30
0.0
 10
17.2713669823
 20
11.7152475188
 30
0.0
 10
17.2693278228
 20
11.7185154088
 30
0.0
 10
17.2666220165
 20
11.7226133364
 30
0.0
 10
17.263271041
 20
11.7274117149
 30
0.0
 10
17.2599180852
 20
11.7319875414
 30
0.0
 10
17.2566477772
 20
11.7362560774
 30
0.0
 10
17.2535151586
 20
11.7401654505
 30
0.0
 10
17.251448615
 20
11.7426223711
 30
0.0
 10
17.2504436642
 20
11.7437817396
 30
0.0
  0
SPLINE
  5
2F9
100
AcDbEntity
  8
0
100
AcDbSpline
 62
7
  6
CONTINUOUS
 70
0
 71
3
 72
11
 73
7
 74
0
 42
0.0000001
 43
0.0000001
 44
0.0000000001
 40
0.0
 40
0.0
 40
0.0
 40
0.0
 40
0.2610216407
 40
0.514535098
 40
0.7606717987
 40
1.0
 40
1.0
 40
1.0
 40
1.0
 10
16.1213011835
 20
12.900185223
 30
0.0
 10
16.1221437888
 20
12.8962516716
 30
0.0
 10
16.1233725428
 20
12.8883963269
 30
0.0
 10
16.123784785
 20
12.8766511301
 30
0.0
 10
16.1227323523
 20
12.865279623
 30
0.0
 10
16.1210379875
 20
12.8579627955
 30
0.0
 10
16.1199489812
 20
12.85443877
 30
0.0
  0
SPLINE
  5
2FA
100
AcDbEntity
  8
0
100
AcDbSpline
 62
7
  6
CONTINUOUS
 70
0
 71
3
 72
15
 73
11
 74
0
 42
0.0000001
 43
0.0000001
 44
0.0000000001
 40
0.0
 40
0.0
 40
0.0
 40
0.0
 40
0.115453949
 40
0.2345273807
 40
0.3569891499
 40
0.482404664
 40
0.6101743297
 40
0.7395743925
 40
0.8697985958
 40
1.0
 40
1.0
 40
1.0
 40
1.0
 10
16.0496068114
 20
12.8042784444
 30
0.0
 10
16.0453821808
 20
12.8042251115
 30
0.0
 10
16.0367840111
 20
12.804706921
 30
0.0
 10
16.0239074385
 20
12.8070875114
 30
0.0
 10
16.011058098
 20
12.8110926861
 30
0.0
 10
15.9984553192
 20
12.8166522663
 30
0.0
 10
15.986310305
 20
12.823670518
 30
0.0
 10
15.9748275061
 20
12.8320282819
 30
0.0
 10
15.9642017812
 20
12.8415822366
 30
0.0
 10
15.9577913891
 20
12.8486610928
 30
0.0
 10
15.9547802563
 20
12.8523536376
 30
0.0
  0
SPLINE
  5
2FB
100
AcDbEntity
  8
0
100
AcDbSpline
 62
7
  6
CONTINUOUS
 70
0
 71
3
 72
15
 73
11
 74
0
 42
0.0000001
 43
0.0000001
 44
0.0000000001
 40
0.0
 40
0.0
 40
0.0
 40
0.0
 40
0.1349081318
 40
0.2680726626
 40
0.3987444655
 40
0.5263062402
 40
0.6503150357
 40
0.7705421366
 40
0.8870070281
 40
1.0
 40
1.0
 40
1.0
 40
1.0
 10
15.9547802563
 20
12.8523536376
 30
0.0
 10
15.9517892121
 20
12.8560215477
 30
0.0
 10
15.9462164739
 20
12.8636221264
 30
0.0
 10
15.939164366
 20
12.8757327033
 30
0.0
 10
15.9335716733
 20
12.8883043998
 30
0.0
 10
15.9295358458
 20
12.9011243147
 30
0.0
 10
15.9271273277
 20
12.9139769525
 30
0.0
 10
15.9263911831
 20
12.926646691
 30
0.0
 10
15.9273439585
 20
12.9389152564
 30
0.0
 10
15.9291255027
 20
12.9468018438
 30
0.0
 10
15.9302958709
 20
12.9505891564
 30
0.0
  0
SPLINE
  5
2FC
100
AcDbEntity
  8
0
100
AcDbSpline
 62
7
  6
CONTINUOUS
 70
0
 71
3
 72
19
 73
15
 74
0
 42
0.0000001
 43
0.0000001
 44
0.0000000001
 40
0.0
 40
0.0
 40
0.0
 40
0.0
 40
0.1388403506
 40
0.2065608455
 40
0.2731201997
 40
0.4027941839
 40
0.5281815348
 40
0.6497719695
 40
0.7093909955
 40
0.7683440946
 40
0.8267500234
 40
0.8847368401
 40
0.9424399945
 40
1.0
 40
1.0
 40
1.0
 40
1.0
 10
14.2005394771
 20
11.9709164365
 30
0.0
 10
14.1930451879
 20
11.9718522844
 30
0.0
 10
14.1819494608
 20
11.9737723685
 30
0.0
 10
14.1675446859
 20
11.9774315113
 30
0.0
 10
14.1538296163
 20
11.9817001211
 30
0.0
 10
14.1375662038
 20
11.9882580032
 30
0.0
 10
14.1195511301
 20
11.9981178428
 30
0.0
 10
14.1059976414
 20
12.0079248448
 30
0.0
 10
14.0962277329
 20
12.0166104626
 30
0.0
 10
14.0894788176
 20
12.0234868257
 30
0.0
 10
14.0832812584
 20
12.0307474312
 30
0.0
 10
14.0776521177
 20
12.038373231
 30
0.0
 10
14.0726067788
 20
12.0463423476
 30
0.0
 10
14.0696402621
 20
12.0518734495
 30
0.0
 10
14.0682608662
 20
12.05468432
 30
0.0
  0
SPLINE
  5
2FD
100
AcDbEntity
  8
0
100
AcDbSpline
 62
7
  6
CONTINUOUS
 70
0
 71
3
 72
34
 73
30
 74
0
 42
0.0000001
 43
0.0000001
 44
0.0000000001
 40
0.0
 40
0.0
 40
0.0
 40
0.0
 40
0.0475723081
 40
0.0944852546
 40
0.1177562445
 40
0.1409560894
 40
0.1641484959
 40
0.1874351225
 40
0.2109460106
 40
0.2348591308
 40
0.2593867014
 40
0.2847782924
 40
0.3112964538
 40
0.3391844694
 40
0.368632442
 40
0.3997414372
 40
0.4159256986
 40
0.4325127389
 40
0.4668124081
 40
0.5024561114
 40
0.5392050931
 40
0.5768073908
 40
0.61502683
 40
0.6536582223
 40
0.692523025
 40
0.7704195447
 40
0.8479206524
 40
0.9245480022
 40
1.0
 40
1.0
 40
1.0
 40
1.0
 10
16.4106710811
 20
12.688351987
 30
0.0
 10
16.4068792046
 20
12.689585679
 30
0.0
 10
16.3992125652
 20
12.6916452578
 30
0.0
 10
16.389402249
 20
12.6930056728
 30
0.0
 10
16.3815698237
 20
12.6932002814
 30
0.0
 10
16.3757329098
 20
12.6928635648
 30
0.0
 10
16.3699481603
 20
12.6919970326
 30
0.0
 10
16.3642512838
 20
12.6905524353
 30
0.0
 10
16.3586864065
 20
12.6884761759
 30
0.0
 10
16.3533077929
 20
12.6857155868
 30
0.0
 10
16.3481808967
 20
12.6822198755
 30
0.0
 10
16.3433811605
 20
12.6779485856
 30
0.0
 10
16.3389923669
 20
12.6728763346
 30
0.0
 10
16.3350985626
 20
12.667002584
 30
0.0
 10
16.3317774076
 20
12.6603556678
 30
0.0
 10
16.3295673187
 20
12.6543004366
 30
0.0
 10
16.3281207076
 20
12.6491433137
 30
0.0
 10
16.3268673956
 20
12.6436608113
 30
0.0
 10
16.3257478199
 20
12.6364845029
 30
0.0
 10
16.3250890327
 20
12.6275575901
 30
0.0
 10
16.3250642045
 20
12.6183309828
 30
0.0
 10
16.3256223066
 20
12.6089066095
 30
0.0
 10
16.3267030543
 20
12.5993701765
 30
0.0
 10
16.3282449512
 20
12.5897910562
 30
0.0
 10
16.330837198
 20
12.5770236249
 30
0.0
 10
16.3349235231
 20
12.5612492087
 30
0.0
 10
16.3408165253
 20
12.5427080421
 30
0.0
 10
16.3474158171
 20
12.5246267786
 30
0.0
 10
16.3521794972
 20
12.5128008363
 30
0.0
 10
16.3546184601
 20
12.506965639
 30
0.0
  0
SPLINE
  5
2FE
100
AcDbEntity
  8
0
100
AcDbSpline
 62
7
  6
CONTINUOUS
 70
0
 71
3
 72
11
 73
7
 74
0
 42
0.0000001
 43
0.0000001
 44
0.0000000001
 40
0.0
 40
0.0
 40
0.0
 40
0.0
 40
0.2491244382
 40
0.5041972391
 40
0.7571200352
 40
1.0
 40
1.0
 40
1.0
 40
1.0
 10
16.7042445489
 20
11.9764914072
 30
0.0
 10
16.7057806429
 20
11.9756029862
 30
0.0
 10
16.709018321
 20
11.9740207501
 30
0.0
 10
16.7141348573
 20
11.972275051
 30
0.0
 10
16.7193842343
 20
11.9711827161
 30
0.0
 10
16.7229191929
 20
11.9709164365
 30
0.0
 10
16.7246492211
 20
11.9709164365
 30
0.0
  0
SPLINE
  5
2FF
100
AcDbEntity
  8
0
100
AcDbSpline
 62
7
  6
CONTINUOUS
 70
0
 71
3
 72
15
 73
11
 74
0
 42
0.0000001
 43
0.0000001
 44
0.0000000001
 40
0.0
 40
0.0
 40
0.0
 40
0.0
 40
0.1250886006
 40
0.2478001143
 40
0.3692806726
 40
0.4907955671
 40
0.6136067084
 40
0.7388507269
 40
0.8674400284
 40
1.0
 40
1.0
 40
1.0
 40
1.0
 10
15.9302958709
 20
12.9505891564
 30
0.0
 10
15.9314361263
 20
12.9542790243
 30
0.0
 10
15.9342540271
 20
12.961431599
 30
0.0
 10
15.9401018778
 20
12.9712757389
 30
0.0
 10
15.9474240754
 20
12.9799401808
 30
0.0
 10
15.9560895079
 20
12.9872649281
 30
0.0
 10
15.965941419
 20
12.9931209019
 30
0.0
 10
15.9768026056
 20
12.9974082651
 30
0.0
 10
15.9884773991
 20
13.0000583926
 30
0.0
 10
15.9965456586
 20
13.0006978188
 30
0.0
 10
16.0006380406
 20
13.000749482
 30
0.0
  0
ELLIPSE
  5
300
100
AcDbEntity
  8
0
100
AcDbEllipse
 62
7
  6
CONTINUOUS
 10
15.6659993303
 20
4.7362676756
 30
0.0
 11
-0.0
 21
0.9330127019
 31
0.0
 40
0.2679491924
 41
-1.3623179243
 42
-0.4815098498
  0
ELLIPSE
  5
301
100
AcDbEntity
  8
0
100
AcDbEllipse
 62
7
  6
CONTINUOUS
 10
15.6659993303
 20
4.7362676756
 30
0.0
 11
0.0
 21
0.9330127019
 31
0.0
 40
0.2679491924
 41
0.4815098498
 42
1.3623179243
  0
ELLIPSE
  5
302
100
AcDbEntity
  8
0
100
AcDbEllipse
 62
7
  6
CONTINUOUS
 10
16.8389751725
 20
12.0836333224
 30
0.0
 11
-0.5009578576
 21
0.6019884147
 31
0.0
 40
0.2216133796
 41
0.6247765595
 42
1.5535303411
  0
ELLIPSE
  5
303
100
AcDbEntity
  8
0
100
AcDbEllipse
 62
7
  6
CONTINUOUS
 10
16.8389751725
 20
12.0836333224
 30
0.0
 11
-0.5009578576
 21
0.6019884147
 31
0.0
 40
0.2216133796
 41
-1.2190512146
 42
-0.3382431401
  0
ENDSEC
  0
SECTION
  2
OBJECTS
  0
DICTIONARY
  5
C
100
AcDbDictionary
280
0
281
1
  3
ACAD_GROUP
350
D
  3
ACAD_MLINESTYLE
350
17
  3
ACAD_LAYOUT
350
1A
  3
ACAD_PLOTSETTINGS
350
19
  3
ACAD_PLOTSTYLENAME
350
E
  0
DICTIONARY
  5
D
102
{ACAD_REACTORS
330
C
102
}
100
AcDbDictionary
280
0
281
1
  0
ACDBDICTIONARYWDFLT
  5
E
102
{ACAD_REACTORS
330
C
102
}
100
AcDbDictionary
281
1
  3
Normal
350
F
100
AcDbDictionaryWithDefault
340
F
  0
DICTIONARY
  5
17
102
{ACAD_REACTORS
330
C
102
}
100
AcDbDictionary
280
0
281
1
  3
Standard
350
18
  0
DICTIONARY
  5
19
102
{ACAD_REACTORS
330
C
102
}
100
AcDbDictionary
281
1
  0
DICTIONARY
  5
1A
102
{ACAD_REACTORS
330
C
102
}
100
AcDbDictionary
281
1
  3
Model
350
304
  3
Layout1
350
305
  0
ACDBPLACEHOLDER
  5
F
102
{ACAD_REACTORS
330
E
102
}
  0
MLINESTYLE
  5
18
102
{ACAD_REACTORS
330
17
102
}
100
AcDbMlineStyle
  2
STANDARD
 70
0
  3

 62
256
 51
90.0
 52
90.0
 71
2
 49
0.5
 62
256
  6
BYLAYER
 49
-0.5
 62
256
  6
BYLAYER
  0
LAYOUT
  5
304
102
{ACAD_REACTORS
330
1A
102
}
100
AcDbPlotSettings
  1

  2
none_device
  4
ANSI_C_(22.00_x_17.00_Inches)
  6

 40
0.0
 41
0.0
 42
0.0
 43
0.0
 44
558.8
 45
431.8
 46
0.0
 47
0.0
 48
0.0
 49
0.0
140
0.0
141
0.0
142
1.0
143
1.0
 70
1024
 72
0
 73
0
 74
0
  7

 75
0
147
1.0
148
0.0
149
0.0
100
AcDbLayout
  1
Model
 70
0
 71
0
 10
0.0
 20
0.0
 11
22.0
 21
17.0
 12
0.0
 22
0.0
 32
0.0
 14
0.0
 24
0.0
 34
0.0
 15
0.0
 25
0.0
 35
0.0
146
0.0
 13
0.0
 23
0.0
 33
0.0
 16
1.0
 26
0.0
 36
0.0
 17
0.0
 27
1.0
 37
0.0
 76
0
330
219
345
0
346
0
  0
LAYOUT
  5
305
102
{ACAD_REACTORS
330
1A
102
}
100
AcDbPlotSettings
  1

  2
none_device
  4
ANSI_C_(22.00_x_17.00_Inches)
  6

 40
0.0
 41
0.0
 42
0.0
 43
0.0
 44
558.8
 45
431.8
 46
0.0
 47
0.0
 48
0.0
 49
0.0
140
0.0
141
0.0
142
1.0
143
1.0
 70
0
 72
0
 73
0
 74
0
  7

 75
0
147
1.0
148
0.0
149
0.0
100
AcDbLayout
  1
Layout1
 70
0
 71
1
 10
0.0
 20
0.0
 11
22.0
 21
17.0
 12
0.0
 22
0.0
 32
0.0
 14
0.0
 24
0.0
 34
0.0
 15
0.0
 25
0.0
 35
0.0
146
0.0
 13
0.0
 23
0.0
 33
0.0
 16
1.0
 26
0.0
 36
0.0
 17
0.0
 27
1.0
 37
0.0
 76
0
330
21A
345
0
346
0
  0
ENDSEC
  0
EOF